  0
SECTION
  2
HEADER
  9
$ACADVER
  1
AC1009
  9
$DWGCODEPAGE
  3
ansi_1250
  9
$INSBASE
 10
0.0
 20
0.0
 30
0.0
  9
$EXTMIN
 10
-1.51063
 20
-4.5549
 30
0.0
  9
$EXTMAX
 10
4.027559
 20
5.148425
 30
0.0
  9
$LIMMIN
 10
0.0
 20
0.0
  9
$LIMMAX
 10
0.0
 20
0.0
  9
$ORTHOMODE
 70
     0
  9
$REGENMODE
 70
     1
  9
$FILLMODE
 70
     1
  9
$QTEXTMODE
 70
     0
  9
$MIRRTEXT
 70
     1
  9
$DRAGMODE
 70
     2
  9
$LTSCALE
 40
1.0
  9
$OSMODE
 70
     0
  9
$ATTMODE
 70
     1
  9
$TEXTSIZE
 40
0.2
  9
$TRACEWID
 40
0.05
  9
$TEXTSTYLE
  7
STANDARD
  9
$CLAYER
  8
0
  9
$CELTYPE
  6
CONTINUOUS
  9
$CECOLOR
 62
   256
  9
$DIMSCALE
 40
1.0
  9
$DIMASZ
 40
0.18
  9
$DIMEXO
 40
0.0625
  9
$DIMDLI
 40
0.38
  9
$DIMRND
 40
0.0
  9
$DIMDLE
 40
0.0
  9
$DIMEXE
 40
0.18
  9
$DIMTP
 40
0.0
  9
$DIMTM
 40
0.0
  9
$DIMTXT
 40
0.18
  9
$DIMCEN
 40
0.09
  9
$DIMTSZ
 40
0.0
  9
$DIMTOL
 70
     0
  9
$DIMLIM
 70
     0
  9
$DIMTIH
 70
     1
  9
$DIMTOH
 70
     1
  9
$DIMSE1
 70
     0
  9
$DIMSE2
 70
     0
  9
$DIMTAD
 70
     0
  9
$DIMZIN
 70
     0
  9
$DIMBLK
  1

  9
$DIMASO
 70
     1
  9
$DIMSHO
 70
     1
  9
$DIMPOST
  1

  9
$DIMAPOST
  1

  9
$DIMALT
 70
     0
  9
$DIMALTD
 70
     2
  9
$DIMALTF
 40
25.4
  9
$DIMLFAC
 40
1.0
  9
$DIMTOFL
 70
     0
  9
$DIMTVP
 40
0.0
  9
$DIMTIX
 70
     0
  9
$DIMSOXD
 70
     0
  9
$DIMSAH
 70
     0
  9
$DIMBLK1
  1

  9
$DIMBLK2
  1

  9
$DIMSTYLE
  2
STANDARD
  9
$DIMCLRD
 70
     0
  9
$DIMCLRE
 70
     0
  9
$DIMCLRT
 70
     0
  9
$DIMTFAC
 40
1.0
  9
$DIMGAP
 40
0.09
  9
$LUNITS
 70
     2
  9
$LUPREC
 70
     4
  9
$AXISMODE
 70
     0
  9
$AXISUNIT
 10
0.0
 20
0.0
  9
$SKETCHINC
 40
0.1
  9
$FILLETRAD
 40
0.0
  9
$AUNITS
 70
     0
  9
$AUPREC
 70
     0
  9
$MENU
  1
acad
  9
$ELEVATION
 40
0.0
  9
$PELEVATION
 40
0.0
  9
$THICKNESS
 40
0.0
  9
$LIMCHECK
 70
     0
  9
$BLIPMODE
 70
     1
  9
$CHAMFERA
 40
0.0
  9
$CHAMFERB
 40
0.0
  9
$SKPOLY
 70
     0
  9
$TDCREATE
 40
0.000000000
  9
$TDUPDATE
 40
0.000000000
  9
$TDINDWG
 40
0.0000000000
  9
$TDUSRTIMER
 40
0.0000000000
  9
$USRTIMER
 70
     1
  9
$ANGBASE
 50
0.0
  9
$ANGDIR
 70
     0
  9
$PDMODE
 70
     0
  9
$PDSIZE
 40
0.0
  9
$PLINEWID
 40
0.0
  9
$COORDS
 70
     0
  9
$SPLFRAME
 70
     0
  9
$SPLINETYPE
 70
     6
  9
$SPLINESEGS
 70
     8
  9
$ATTDIA
 70
     0
  9
$ATTREQ
 70
     1
  9
$HANDLING
 70
     1
  9
$HANDSEED
  5
410
  9
$SURFTAB1
 70
     6
  9
$SURFTAB2
 70
     6
  9
$SURFTYPE
 70
     6
  9
$SURFU
 70
     6
  9
$SURFV
 70
     6
  9
$UCSNAME
  2

  9
$UCSORG
 10
0.0
 20
0.0
 30
0.0
  9
$UCSXDIR
 10
1.0
 20
0.0
 30
0.0
  9
$UCSYDIR
 10
0.0
 20
1.0
 30
0.0
  9
$PUCSNAME
  2

  9
$PUCSORG
 10
0.0
 20
0.0
 30
0.0
  9
$PUCSXDIR
 10
1.0
 20
0.0
 30
0.0
  9
$PUCSYDIR
 10
0.0
 20
1.0
 30
0.0
  9
$USERI1
 70
     0
  9
$USERI2
 70
     0
  9
$USERI3
 70
     0
  9
$USERI4
 70
     0
  9
$USERI5
 70
     0
  9
$USERR1
 40
0.0
  9
$USERR2
 40
0.0
  9
$USERR3
 40
0.0
  9
$USERR4
 40
0.0
  9
$USERR5
 40
0.0
  9
$WORLDVIEW
 70
     1
  9
$SHADEDGE
 70
     3
  9
$SHADEDIF
 70
    70
  9
$TILEMODE
 70
     1
  9
$MAXACTVP
 70
    16
  9
$PINSBASE
 10
0.0
 20
0.0
 30
0.0
  9
$PLIMCHECK
 70
     0
  9
$PEXTMIN
 10
1.000000E+20
 20
1.000000E+20
 30
1.000000E+20
  9
$PEXTMAX
 10
-1.000000E+20
 20
-1.000000E+20
 30
-1.000000E+20
  9
$PLIMMIN
 10
0.0
 20
0.0
  9
$PLIMMAX
 10
12.0
 20
9.0
  9
$UNITMODE
 70
     0
  9
$VISRETAIN
 70
     0
  9
$PLINEGEN
 70
     1
  9
$PSLTSCALE
 70
     0
  9
$TREEDEPTH
 70
  3020
  0
ENDSEC
  0
SECTION
  2
TABLES
  0
TABLE
  2
VPORT
 70
     1
  0
VPORT
  2
*ACTIVE
 70
     0
 10
0.0
 20
0.0
 11
1.0
 21
1.0
 12
6.591288
 22
4.579184
 13
0.0
 23
0.0
 14
1.0
 24
1.0
 15
0.0
 25
0.0
 16
0.0
 26
0.0
 36
1.0
 17
0.0
 27
0.0
 37
0.0
 40
9.158369
 41
0.688564
 42
50.0
 43
0.0
 44
0.0
 50
0.0
 51
0.0
 71
     0
 72
   100
 73
     1
 74
     1
 75
     0
 76
     0
 77
     0
 78
     0
  0
ENDTAB
  0
TABLE
  2
LTYPE
 70
     5
  0
LTYPE
  2
CONTINUOUS
 70
    64
  3
Solid line
 72
    65
 73
     0
 40
0.0
  0
LTYPE
  2
CENTER
 70
    64
  3
Center ____ _ ____ _ ____ _ ____ _ ____ _ ____
 72
    65
 73
     4
 40
50.8
 49
31.75
 49
-6.35
 49
6.35
 49
-6.35
  0
LTYPE
  2
HIDDEN
 70
    64
  3
Hidden __ __ __ __ __ __ __ __ __ __ __ __ __ __
 72
    65
 73
     2
 40
9.525
 49
6.35
 49
-3.175
  0
LTYPE
  2
CENTER2
 70
    64
  3
Center (.5x) ___ _ ___ _ ___ _ ___ _ ___ _ ___
 72
    65
 73
     4
 40
28.575
 49
19.05
 49
-3.175
 49
3.175
 49
-3.175
  0
LTYPE
  2
HIDDEN2
 70
    64
  3
Hidden (.5x) _ _ _ _ _ _ _ _ _ _ _ _ _ _ _ _ _
 72
    65
 73
     2
 40
4.7625
 49
3.175
 49
-1.5875
  0
ENDTAB
  0
TABLE
  2
LAYER
 70
     1
  0
LAYER
  2
0
 70
     0
 62
     7
  6
CONTINUOUS
  0
ENDTAB
  0
TABLE
  2
STYLE
 70
     1
  0
STYLE
  2
STANDARD
 70
     0
 40
0.0
 41
1.0
 50
0.0
 71
     0
 42
0.0
  3
txt
  4

  0
ENDTAB
  0
TABLE
  2
VIEW
 70
     0
  0
ENDTAB
  0
TABLE
  2
UCS
 70
     0
  0
ENDTAB
  0
TABLE
  2
APPID
 70
     1
  0
APPID
  2
ACAD
 70
     0
  0
ENDTAB
  0
TABLE
  2
DIMSTYLE
 70
     1
  0
DIMSTYLE
  2
STANDARD
 70
     0
  3

  4

  5

  6

  7

 40
1.0
 41
0.18
 42
0.0625
 43
0.38
 44
0.18
 45
0.0
 46
0.0
 47
0.0
 48
0.0
 71
     0
 72
     0
 73
     1
 74
     1
 75
     0
 76
     0
 77
     0
 78
     0
140
0.18
141
0.09
142
0.0
143
25.4
144
1.0
145
0.0
146
1.0
147
0.09
170
     0
171
     2
172
     0
173
     0
174
     0
175
     0
176
     0
177
     0
178
     0
  0
ENDTAB
  0
ENDSEC
  0
SECTION
  2
BLOCKS
  0
ENDSEC
  0
SECTION
  2
ENTITIES
  0
LINE
  8
0
  6
CONTINUOUS
 62
     7
  5
23C
 10
2.767717
 20
-1.086614
 30
0.0
 11
2.767717
 21
-2.094488
 31
0.0
  0
LINE
  8
0
  6
CONTINUOUS
 62
     7
  5
23D
 10
0.0
 20
-2.61811
 30
0.0
 11
0.0
 21
-0.759843
 31
0.0
  0
LINE
  8
0
  6
CONTINUOUS
 62
     7
  5
23E
 10
1.234646
 20
-2.688976
 30
0.0
 11
1.234646
 21
-2.944882
 31
0.0
  0
LINE
  8
0
  6
CONTINUOUS
 62
     7
  5
23F
 10
1.234646
 20
-2.944882
 30
0.0
 11
1.36063
 21
-2.944882
 31
0.0
  0
LINE
  8
0
  6
CONTINUOUS
 62
     7
  5
240
 10
1.36063
 20
-2.944882
 30
0.0
 11
1.955118
 21
-2.944882
 31
0.0
  0
LINE
  8
0
  6
CONTINUOUS
 62
     7
  5
241
 10
1.955118
 20
-2.944882
 30
0.0
 11
2.081102
 21
-2.944882
 31
0.0
  0
LINE
  8
0
  6
CONTINUOUS
 62
     7
  5
242
 10
2.081102
 20
-2.688976
 30
0.0
 11
2.081102
 21
-2.944882
 31
0.0
  0
LINE
  8
0
  6
CONTINUOUS
 62
     7
  5
243
 10
0.401575
 20
-2.61811
 30
0.0
 11
0.401575
 21
-2.688976
 31
0.0
  0
LINE
  8
0
  6
CONTINUOUS
 62
     7
  5
244
 10
0.401575
 20
-2.688976
 30
0.0
 11
0.519685
 21
-2.688976
 31
0.0
  0
LINE
  8
0
  6
CONTINUOUS
 62
     7
  5
245
 10
0.519685
 20
-2.688976
 30
0.0
 11
2.299213
 21
-2.688976
 31
0.0
  0
LINE
  8
0
  6
CONTINUOUS
 62
     7
  5
246
 10
2.299213
 20
-2.688976
 30
0.0
 11
2.311024
 21
-2.688976
 31
0.0
  0
LINE
  8
0
  6
CONTINUOUS
 62
     7
  5
247
 10
2.311024
 20
-2.61811
 30
0.0
 11
2.311024
 21
-2.688976
 31
0.0
  0
LINE
  8
0
  6
CONTINUOUS
 62
     7
  5
248
 10
2.767717
 20
-2.61811
 30
0.0
 11
2.372835
 21
-2.61811
 31
0.0
  0
LINE
  8
0
  6
CONTINUOUS
 62
     7
  5
249
 10
2.372835
 20
-2.61811
 30
0.0
 11
0.496063
 21
-2.61811
 31
0.0
  0
LINE
  8
0
  6
CONTINUOUS
 62
     7
  5
24A
 10
0.496063
 20
-2.61811
 30
0.0
 11
0.0
 21
-2.61811
 31
0.0
  0
LINE
  8
0
  6
CONTINUOUS
 62
     7
  5
24B
 10
1.955118
 20
-2.944882
 30
0.0
 11
2.081102
 21
-2.944882
 31
0.0
  0
LINE
  8
0
  6
CONTINUOUS
 62
     7
  5
24C
 10
2.299213
 20
-2.688976
 30
0.0
 11
2.311024
 21
-2.688976
 31
0.0
  0
LINE
  8
0
  6
CONTINUOUS
 62
     7
  5
24D
 10
1.692913
 20
-1.086614
 30
0.0
 11
1.692913
 21
-0.759843
 31
0.0
  0
LINE
  8
0
  6
CONTINUOUS
 62
     7
  5
24E
 10
0.275591
 20
-0.759843
 30
0.0
 11
0.275591
 21
-0.740158
 31
0.0
  0
LINE
  8
0
  6
CONTINUOUS
 62
     7
  5
24F
 10
2.767717
 20
-1.086614
 30
0.0
 11
1.692913
 21
-1.086614
 31
0.0
  0
LINE
  8
0
  6
CONTINUOUS
 62
     7
  5
250
 10
0.496063
 20
-2.61811
 30
0.0
 11
0.496063
 21
-2.275591
 31
0.0
  0
LINE
  8
0
  6
CONTINUOUS
 62
     7
  5
251
 10
0.496063
 20
-2.275591
 30
0.0
 11
2.372835
 21
-2.275591
 31
0.0
  0
LINE
  8
0
  6
CONTINUOUS
 62
     7
  5
252
 10
2.372835
 20
-2.275591
 30
0.0
 11
2.372835
 21
-2.61811
 31
0.0
  0
LINE
  8
0
  6
CONTINUOUS
 62
     7
  5
253
 10
2.372835
 20
-2.275591
 30
0.0
 11
2.372835
 21
-2.094488
 31
0.0
  0
LINE
  8
0
  6
CONTINUOUS
 62
     7
  5
254
 10
2.372835
 20
-2.094488
 30
0.0
 11
2.767717
 21
-2.094488
 31
0.0
  0
LINE
  8
0
  6
CONTINUOUS
 62
     7
  5
255
 10
1.692913
 20
-0.759843
 30
0.0
 11
0.0
 21
-0.759843
 31
0.0
  0
LINE
  8
0
  6
CONTINUOUS
 62
     7
  5
256
 10
0.0
 20
-3.566142
 30
0.0
 11
0.0
 21
-2.61811
 31
0.0
  0
LINE
  8
0
  6
CONTINUOUS
 62
     7
  5
257
 10
0.0
 20
-3.566142
 30
0.0
 11
0.0
 21
-3.686143
 31
0.0
  0
LINE
  8
0
  6
CONTINUOUS
 62
     7
  5
258
 10
0.0
 20
-3.686143
 30
0.0
 11
0.0
 21
-4.202362
 31
0.0
  0
LINE
  8
0
  6
CONTINUOUS
 62
     7
  5
259
 10
-0.837205
 20
-4.337627
 30
0.0
 11
-0.837205
 21
-4.491745
 31
0.0
  0
LINE
  8
0
  6
CONTINUOUS
 62
     7
  5
25A
 10
-0.837205
 20
-4.337627
 30
0.0
 11
-0.837205
 21
-3.797116
 31
0.0
  0
LINE
  8
0
  6
CONTINUOUS
 62
     7
  5
25B
 10
-0.837205
 20
-3.791551
 30
0.0
 11
-0.837205
 21
-3.797116
 31
0.0
  0
LINE
  8
0
  6
CONTINUOUS
 62
     7
  5
25C
 10
-0.837205
 20
-3.77816
 30
0.0
 11
-0.837205
 21
-3.791551
 31
0.0
  0
LINE
  8
0
  6
CONTINUOUS
 62
     7
  5
25D
 10
-0.837205
 20
-3.771376
 30
0.0
 11
-0.837205
 21
-3.77816
 31
0.0
  0
LINE
  8
0
  6
CONTINUOUS
 62
     7
  5
25E
 10
-0.837205
 20
-3.737563
 30
0.0
 11
-0.837205
 21
-3.771376
 31
0.0
  0
LINE
  8
0
  6
CONTINUOUS
 62
     7
  5
25F
 10
-0.837205
 20
-3.630611
 30
0.0
 11
-0.837205
 21
-3.737563
 31
0.0
  0
LINE
  8
0
  6
CONTINUOUS
 62
     7
  5
260
 10
-0.837205
 20
-3.585729
 30
0.0
 11
-0.837205
 21
-3.630611
 31
0.0
  0
LINE
  8
0
  6
CONTINUOUS
 62
     7
  5
261
 10
-0.837205
 20
-4.491745
 30
0.0
 11
-0.837205
 21
-4.5549
 31
0.0
  0
LINE
  8
0
  6
CONTINUOUS
 62
     7
  5
262
 10
-0.759252
 20
-4.491745
 30
0.0
 11
-0.759252
 21
-4.337627
 31
0.0
  0
LINE
  8
0
  6
CONTINUOUS
 62
     7
  5
263
 10
-0.759252
 20
-4.5549
 30
0.0
 11
-0.759252
 21
-4.491745
 31
0.0
  0
LINE
  8
0
  6
CONTINUOUS
 62
     7
  5
264
 10
-0.759252
 20
-3.630611
 30
0.0
 11
-0.759252
 21
-3.585729
 31
0.0
  0
LINE
  8
0
  6
CONTINUOUS
 62
     7
  5
265
 10
-0.759252
 20
-3.719411
 30
0.0
 11
-0.759252
 21
-3.630611
 31
0.0
  0
LINE
  8
0
  6
CONTINUOUS
 62
     7
  5
266
 10
-0.837205
 20
-3.791551
 30
0.0
 11
-0.836911
 21
-3.791551
 31
0.0
  0
LINE
  8
0
  6
CONTINUOUS
 62
     7
  5
267
 10
-0.837205
 20
-3.585729
 30
0.0
 11
-0.759252
 21
-3.585729
 31
0.0
  0
LINE
  8
0
  6
CONTINUOUS
 62
     7
  5
268
 10
-0.680315
 20
-3.707127
 30
0.0
 11
-0.687354
 21
-3.707218
 31
0.0
  0
LINE
  8
0
  6
CONTINUOUS
 62
     7
  5
269
 10
-0.687354
 20
-3.707218
 30
0.0
 11
-0.694378
 21
-3.70749
 31
0.0
  0
LINE
  8
0
  6
CONTINUOUS
 62
     7
  5
26A
 10
-0.694378
 20
-3.70749
 30
0.0
 11
-0.701375
 21
-3.707942
 31
0.0
  0
LINE
  8
0
  6
CONTINUOUS
 62
     7
  5
26B
 10
-0.701375
 20
-3.707942
 30
0.0
 11
-0.708329
 21
-3.708573
 31
0.0
  0
LINE
  8
0
  6
CONTINUOUS
 62
     7
  5
26C
 10
-0.708329
 20
-3.708573
 30
0.0
 11
-0.715226
 21
-3.709383
 31
0.0
  0
LINE
  8
0
  6
CONTINUOUS
 62
     7
  5
26D
 10
-0.715226
 20
-3.709383
 30
0.0
 11
-0.722053
 21
-3.71037
 31
0.0
  0
LINE
  8
0
  6
CONTINUOUS
 62
     7
  5
26E
 10
-0.722053
 20
-3.71037
 30
0.0
 11
-0.728797
 21
-3.711532
 31
0.0
  0
LINE
  8
0
  6
CONTINUOUS
 62
     7
  5
26F
 10
-0.728797
 20
-3.711532
 30
0.0
 11
-0.735442
 21
-3.712865
 31
0.0
  0
LINE
  8
0
  6
CONTINUOUS
 62
     7
  5
270
 10
-0.735442
 20
-3.712865
 30
0.0
 11
-0.741977
 21
-3.714369
 31
0.0
  0
LINE
  8
0
  6
CONTINUOUS
 62
     7
  5
271
 10
-0.741977
 20
-3.714369
 30
0.0
 11
-0.748387
 21
-3.716039
 31
0.0
  0
LINE
  8
0
  6
CONTINUOUS
 62
     7
  5
272
 10
-0.748387
 20
-3.716039
 30
0.0
 11
-0.75466
 21
-3.717872
 31
0.0
  0
LINE
  8
0
  6
CONTINUOUS
 62
     7
  5
273
 10
-0.75466
 20
-3.717872
 30
0.0
 11
-0.760784
 21
-3.719865
 31
0.0
  0
LINE
  8
0
  6
CONTINUOUS
 62
     7
  5
274
 10
-0.760784
 20
-3.719865
 30
0.0
 11
-0.766745
 21
-3.722014
 31
0.0
  0
LINE
  8
0
  6
CONTINUOUS
 62
     7
  5
275
 10
-0.766745
 20
-3.722014
 30
0.0
 11
-0.772532
 21
-3.724313
 31
0.0
  0
LINE
  8
0
  6
CONTINUOUS
 62
     7
  5
276
 10
-0.772532
 20
-3.724313
 30
0.0
 11
-0.778134
 21
-3.72676
 31
0.0
  0
LINE
  8
0
  6
CONTINUOUS
 62
     7
  5
277
 10
-0.778134
 20
-3.72676
 30
0.0
 11
-0.783539
 21
-3.729348
 31
0.0
  0
LINE
  8
0
  6
CONTINUOUS
 62
     7
  5
278
 10
-0.783539
 20
-3.729348
 30
0.0
 11
-0.788736
 21
-3.732072
 31
0.0
  0
LINE
  8
0
  6
CONTINUOUS
 62
     7
  5
279
 10
-0.788736
 20
-3.732072
 30
0.0
 11
-0.793714
 21
-3.734928
 31
0.0
  0
LINE
  8
0
  6
CONTINUOUS
 62
     7
  5
27A
 10
-0.793714
 20
-3.734928
 30
0.0
 11
-0.798464
 21
-3.737909
 31
0.0
  0
LINE
  8
0
  6
CONTINUOUS
 62
     7
  5
27B
 10
-0.798464
 20
-3.737909
 30
0.0
 11
-0.802976
 21
-3.741009
 31
0.0
  0
LINE
  8
0
  6
CONTINUOUS
 62
     7
  5
27C
 10
-0.802976
 20
-3.741009
 30
0.0
 11
-0.807241
 21
-3.744222
 31
0.0
  0
LINE
  8
0
  6
CONTINUOUS
 62
     7
  5
27D
 10
-0.807241
 20
-3.744222
 30
0.0
 11
-0.811251
 21
-3.747541
 31
0.0
  0
LINE
  8
0
  6
CONTINUOUS
 62
     7
  5
27E
 10
-0.811251
 20
-3.747541
 30
0.0
 11
-0.814997
 21
-3.750961
 31
0.0
  0
LINE
  8
0
  6
CONTINUOUS
 62
     7
  5
27F
 10
-0.814997
 20
-3.750961
 30
0.0
 11
-0.818471
 21
-3.754473
 31
0.0
  0
LINE
  8
0
  6
CONTINUOUS
 62
     7
  5
280
 10
-0.818471
 20
-3.754473
 30
0.0
 11
-0.821668
 21
-3.758071
 31
0.0
  0
LINE
  8
0
  6
CONTINUOUS
 62
     7
  5
281
 10
-0.821668
 20
-3.758071
 30
0.0
 11
-0.824579
 21
-3.761748
 31
0.0
  0
LINE
  8
0
  6
CONTINUOUS
 62
     7
  5
282
 10
-0.824579
 20
-3.761748
 30
0.0
 11
-0.827201
 21
-3.765496
 31
0.0
  0
LINE
  8
0
  6
CONTINUOUS
 62
     7
  5
283
 10
-0.827201
 20
-3.765496
 30
0.0
 11
-0.829526
 21
-3.769308
 31
0.0
  0
LINE
  8
0
  6
CONTINUOUS
 62
     7
  5
284
 10
-0.829526
 20
-3.769308
 30
0.0
 11
-0.831551
 21
-3.773175
 31
0.0
  0
LINE
  8
0
  6
CONTINUOUS
 62
     7
  5
285
 10
-0.831551
 20
-3.773175
 30
0.0
 11
-0.833271
 21
-3.777091
 31
0.0
  0
LINE
  8
0
  6
CONTINUOUS
 62
     7
  5
286
 10
-0.833271
 20
-3.777091
 30
0.0
 11
-0.834683
 21
-3.781048
 31
0.0
  0
LINE
  8
0
  6
CONTINUOUS
 62
     7
  5
287
 10
-0.834683
 20
-3.781048
 30
0.0
 11
-0.835785
 21
-3.785036
 31
0.0
  0
LINE
  8
0
  6
CONTINUOUS
 62
     7
  5
288
 10
-0.835785
 20
-3.785036
 30
0.0
 11
-0.836573
 21
-3.789049
 31
0.0
  0
LINE
  8
0
  6
CONTINUOUS
 62
     7
  5
289
 10
-0.836573
 20
-3.789049
 30
0.0
 11
-0.837047
 21
-3.793078
 31
0.0
  0
LINE
  8
0
  6
CONTINUOUS
 62
     7
  5
28A
 10
-0.837047
 20
-3.793078
 30
0.0
 11
-0.837205
 21
-3.797116
 31
0.0
  0
LINE
  8
0
  6
CONTINUOUS
 62
     7
  5
28B
 10
-0.837205
 20
-4.337627
 30
0.0
 11
-0.837047
 21
-4.33359
 31
0.0
  0
LINE
  8
0
  6
CONTINUOUS
 62
     7
  5
28C
 10
-0.837047
 20
-4.33359
 30
0.0
 11
-0.836573
 21
-4.32956
 31
0.0
  0
LINE
  8
0
  6
CONTINUOUS
 62
     7
  5
28D
 10
-0.836573
 20
-4.32956
 30
0.0
 11
-0.835785
 21
-4.325547
 31
0.0
  0
LINE
  8
0
  6
CONTINUOUS
 62
     7
  5
28E
 10
-0.835785
 20
-4.325547
 30
0.0
 11
-0.834683
 21
-4.321559
 31
0.0
  0
LINE
  8
0
  6
CONTINUOUS
 62
     7
  5
28F
 10
-0.834683
 20
-4.321559
 30
0.0
 11
-0.833271
 21
-4.317603
 31
0.0
  0
LINE
  8
0
  6
CONTINUOUS
 62
     7
  5
290
 10
-0.833271
 20
-4.317603
 30
0.0
 11
-0.831551
 21
-4.313687
 31
0.0
  0
LINE
  8
0
  6
CONTINUOUS
 62
     7
  5
291
 10
-0.831551
 20
-4.313687
 30
0.0
 11
-0.829526
 21
-4.309819
 31
0.0
  0
LINE
  8
0
  6
CONTINUOUS
 62
     7
  5
292
 10
-0.829526
 20
-4.309819
 30
0.0
 11
-0.827201
 21
-4.306007
 31
0.0
  0
LINE
  8
0
  6
CONTINUOUS
 62
     7
  5
293
 10
-0.827201
 20
-4.306007
 30
0.0
 11
-0.824579
 21
-4.302259
 31
0.0
  0
LINE
  8
0
  6
CONTINUOUS
 62
     7
  5
294
 10
-0.824579
 20
-4.302259
 30
0.0
 11
-0.821668
 21
-4.298582
 31
0.0
  0
LINE
  8
0
  6
CONTINUOUS
 62
     7
  5
295
 10
-0.821668
 20
-4.298582
 30
0.0
 11
-0.818471
 21
-4.294984
 31
0.0
  0
LINE
  8
0
  6
CONTINUOUS
 62
     7
  5
296
 10
-0.818471
 20
-4.294984
 30
0.0
 11
-0.814997
 21
-4.291472
 31
0.0
  0
LINE
  8
0
  6
CONTINUOUS
 62
     7
  5
297
 10
-0.814997
 20
-4.291472
 30
0.0
 11
-0.811251
 21
-4.288053
 31
0.0
  0
LINE
  8
0
  6
CONTINUOUS
 62
     7
  5
298
 10
-0.811251
 20
-4.288053
 30
0.0
 11
-0.807241
 21
-4.284733
 31
0.0
  0
LINE
  8
0
  6
CONTINUOUS
 62
     7
  5
299
 10
-0.807241
 20
-4.284733
 30
0.0
 11
-0.802976
 21
-4.28152
 31
0.0
  0
LINE
  8
0
  6
CONTINUOUS
 62
     7
  5
29A
 10
-0.802976
 20
-4.28152
 30
0.0
 11
-0.798464
 21
-4.27842
 31
0.0
  0
LINE
  8
0
  6
CONTINUOUS
 62
     7
  5
29B
 10
-0.798464
 20
-4.27842
 30
0.0
 11
-0.793714
 21
-4.275439
 31
0.0
  0
LINE
  8
0
  6
CONTINUOUS
 62
     7
  5
29C
 10
-0.793714
 20
-4.275439
 30
0.0
 11
-0.788736
 21
-4.272584
 31
0.0
  0
LINE
  8
0
  6
CONTINUOUS
 62
     7
  5
29D
 10
-0.788736
 20
-4.272584
 30
0.0
 11
-0.783539
 21
-4.269859
 31
0.0
  0
LINE
  8
0
  6
CONTINUOUS
 62
     7
  5
29E
 10
-0.783539
 20
-4.269859
 30
0.0
 11
-0.778134
 21
-4.267271
 31
0.0
  0
LINE
  8
0
  6
CONTINUOUS
 62
     7
  5
29F
 10
-0.778134
 20
-4.267271
 30
0.0
 11
-0.772532
 21
-4.264825
 31
0.0
  0
LINE
  8
0
  6
CONTINUOUS
 62
     7
  5
2A0
 10
-0.772532
 20
-4.264825
 30
0.0
 11
-0.766745
 21
-4.262525
 31
0.0
  0
LINE
  8
0
  6
CONTINUOUS
 62
     7
  5
2A1
 10
-0.766745
 20
-4.262525
 30
0.0
 11
-0.760784
 21
-4.260377
 31
0.0
  0
LINE
  8
0
  6
CONTINUOUS
 62
     7
  5
2A2
 10
-0.760784
 20
-4.260377
 30
0.0
 11
-0.75466
 21
-4.258384
 31
0.0
  0
LINE
  8
0
  6
CONTINUOUS
 62
     7
  5
2A3
 10
-0.75466
 20
-4.258384
 30
0.0
 11
-0.748387
 21
-4.25655
 31
0.0
  0
LINE
  8
0
  6
CONTINUOUS
 62
     7
  5
2A4
 10
-0.748387
 20
-4.25655
 30
0.0
 11
-0.741977
 21
-4.25488
 31
0.0
  0
LINE
  8
0
  6
CONTINUOUS
 62
     7
  5
2A5
 10
-0.741977
 20
-4.25488
 30
0.0
 11
-0.735442
 21
-4.253377
 31
0.0
  0
LINE
  8
0
  6
CONTINUOUS
 62
     7
  5
2A6
 10
-0.735442
 20
-4.253377
 30
0.0
 11
-0.728797
 21
-4.252043
 31
0.0
  0
LINE
  8
0
  6
CONTINUOUS
 62
     7
  5
2A7
 10
-0.728797
 20
-4.252043
 30
0.0
 11
-0.722053
 21
-4.250882
 31
0.0
  0
LINE
  8
0
  6
CONTINUOUS
 62
     7
  5
2A8
 10
-0.722053
 20
-4.250882
 30
0.0
 11
-0.715226
 21
-4.249895
 31
0.0
  0
LINE
  8
0
  6
CONTINUOUS
 62
     7
  5
2A9
 10
-0.715226
 20
-4.249895
 30
0.0
 11
-0.708329
 21
-4.249085
 31
0.0
  0
LINE
  8
0
  6
CONTINUOUS
 62
     7
  5
2AA
 10
-0.708329
 20
-4.249085
 30
0.0
 11
-0.701375
 21
-4.248453
 31
0.0
  0
LINE
  8
0
  6
CONTINUOUS
 62
     7
  5
2AB
 10
-0.701375
 20
-4.248453
 30
0.0
 11
-0.694378
 21
-4.248001
 31
0.0
  0
LINE
  8
0
  6
CONTINUOUS
 62
     7
  5
2AC
 10
-0.694378
 20
-4.248001
 30
0.0
 11
-0.687354
 21
-4.247729
 31
0.0
  0
LINE
  8
0
  6
CONTINUOUS
 62
     7
  5
2AD
 10
-0.687354
 20
-4.247729
 30
0.0
 11
-0.680315
 21
-4.247639
 31
0.0
  0
LINE
  8
0
  6
CONTINUOUS
 62
     7
  5
2AE
 10
-0.680315
 20
-4.29235
 30
0.0
 11
-0.683856
 21
-4.292396
 31
0.0
  0
LINE
  8
0
  6
CONTINUOUS
 62
     7
  5
2AF
 10
-0.683856
 20
-4.292396
 30
0.0
 11
-0.687391
 21
-4.292533
 31
0.0
  0
LINE
  8
0
  6
CONTINUOUS
 62
     7
  5
2B0
 10
-0.687391
 20
-4.292533
 30
0.0
 11
-0.690911
 21
-4.29276
 31
0.0
  0
LINE
  8
0
  6
CONTINUOUS
 62
     7
  5
2B1
 10
-0.690911
 20
-4.29276
 30
0.0
 11
-0.69441
 21
-4.293078
 31
0.0
  0
LINE
  8
0
  6
CONTINUOUS
 62
     7
  5
2B2
 10
-0.69441
 20
-4.293078
 30
0.0
 11
-0.69788
 21
-4.293486
 31
0.0
  0
LINE
  8
0
  6
CONTINUOUS
 62
     7
  5
2B3
 10
-0.69788
 20
-4.293486
 30
0.0
 11
-0.701315
 21
-4.293982
 31
0.0
  0
LINE
  8
0
  6
CONTINUOUS
 62
     7
  5
2B4
 10
-0.701315
 20
-4.293982
 30
0.0
 11
-0.704708
 21
-4.294566
 31
0.0
  0
LINE
  8
0
  6
CONTINUOUS
 62
     7
  5
2B5
 10
-0.704708
 20
-4.294566
 30
0.0
 11
-0.708051
 21
-4.295238
 31
0.0
  0
LINE
  8
0
  6
CONTINUOUS
 62
     7
  5
2B6
 10
-0.708051
 20
-4.295238
 30
0.0
 11
-0.711339
 21
-4.295994
 31
0.0
  0
LINE
  8
0
  6
CONTINUOUS
 62
     7
  5
2B7
 10
-0.711339
 20
-4.295994
 30
0.0
 11
-0.714564
 21
-4.296834
 31
0.0
  0
LINE
  8
0
  6
CONTINUOUS
 62
     7
  5
2B8
 10
-0.714564
 20
-4.296834
 30
0.0
 11
-0.717721
 21
-4.297757
 31
0.0
  0
LINE
  8
0
  6
CONTINUOUS
 62
     7
  5
2B9
 10
-0.717721
 20
-4.297757
 30
0.0
 11
-0.720802
 21
-4.298759
 31
0.0
  0
LINE
  8
0
  6
CONTINUOUS
 62
     7
  5
2BA
 10
-0.720802
 20
-4.298759
 30
0.0
 11
-0.723801
 21
-4.29984
 31
0.0
  0
LINE
  8
0
  6
CONTINUOUS
 62
     7
  5
2BB
 10
-0.723801
 20
-4.29984
 30
0.0
 11
-0.726713
 21
-4.300998
 31
0.0
  0
LINE
  8
0
  6
CONTINUOUS
 62
     7
  5
2BC
 10
-0.726713
 20
-4.300998
 30
0.0
 11
-0.729531
 21
-4.302228
 31
0.0
  0
LINE
  8
0
  6
CONTINUOUS
 62
     7
  5
2BD
 10
-0.729531
 20
-4.302228
 30
0.0
 11
-0.732251
 21
-4.303531
 31
0.0
  0
LINE
  8
0
  6
CONTINUOUS
 62
     7
  5
2BE
 10
-0.732251
 20
-4.303531
 30
0.0
 11
-0.734865
 21
-4.304901
 31
0.0
  0
LINE
  8
0
  6
CONTINUOUS
 62
     7
  5
2BF
 10
-0.734865
 20
-4.304901
 30
0.0
 11
-0.73737
 21
-4.306338
 31
0.0
  0
LINE
  8
0
  6
CONTINUOUS
 62
     7
  5
2C0
 10
-0.73737
 20
-4.306338
 30
0.0
 11
-0.73976
 21
-4.307838
 31
0.0
  0
LINE
  8
0
  6
CONTINUOUS
 62
     7
  5
2C1
 10
-0.73976
 20
-4.307838
 30
0.0
 11
-0.74203
 21
-4.309398
 31
0.0
  0
LINE
  8
0
  6
CONTINUOUS
 62
     7
  5
2C2
 10
-0.74203
 20
-4.309398
 30
0.0
 11
-0.744176
 21
-4.311014
 31
0.0
  0
LINE
  8
0
  6
CONTINUOUS
 62
     7
  5
2C3
 10
-0.744176
 20
-4.311014
 30
0.0
 11
-0.746194
 21
-4.312684
 31
0.0
  0
LINE
  8
0
  6
CONTINUOUS
 62
     7
  5
2C4
 10
-0.746194
 20
-4.312684
 30
0.0
 11
-0.748078
 21
-4.314405
 31
0.0
  0
LINE
  8
0
  6
CONTINUOUS
 62
     7
  5
2C5
 10
-0.748078
 20
-4.314405
 30
0.0
 11
-0.749827
 21
-4.316172
 31
0.0
  0
LINE
  8
0
  6
CONTINUOUS
 62
     7
  5
2C6
 10
-0.749827
 20
-4.316172
 30
0.0
 11
-0.751435
 21
-4.317982
 31
0.0
  0
LINE
  8
0
  6
CONTINUOUS
 62
     7
  5
2C7
 10
-0.751435
 20
-4.317982
 30
0.0
 11
-0.7529
 21
-4.319832
 31
0.0
  0
LINE
  8
0
  6
CONTINUOUS
 62
     7
  5
2C8
 10
-0.7529
 20
-4.319832
 30
0.0
 11
-0.754219
 21
-4.321718
 31
0.0
  0
LINE
  8
0
  6
CONTINUOUS
 62
     7
  5
2C9
 10
-0.754219
 20
-4.321718
 30
0.0
 11
-0.755389
 21
-4.323636
 31
0.0
  0
LINE
  8
0
  6
CONTINUOUS
 62
     7
  5
2CA
 10
-0.755389
 20
-4.323636
 30
0.0
 11
-0.756407
 21
-4.325582
 31
0.0
  0
LINE
  8
0
  6
CONTINUOUS
 62
     7
  5
2CB
 10
-0.756407
 20
-4.325582
 30
0.0
 11
-0.757273
 21
-4.327552
 31
0.0
  0
LINE
  8
0
  6
CONTINUOUS
 62
     7
  5
2CC
 10
-0.757273
 20
-4.327552
 30
0.0
 11
-0.757983
 21
-4.329542
 31
0.0
  0
LINE
  8
0
  6
CONTINUOUS
 62
     7
  5
2CD
 10
-0.757983
 20
-4.329542
 30
0.0
 11
-0.758538
 21
-4.331549
 31
0.0
  0
LINE
  8
0
  6
CONTINUOUS
 62
     7
  5
2CE
 10
-0.758538
 20
-4.331549
 30
0.0
 11
-0.758934
 21
-4.333568
 31
0.0
  0
LINE
  8
0
  6
CONTINUOUS
 62
     7
  5
2CF
 10
-0.758934
 20
-4.333568
 30
0.0
 11
-0.759172
 21
-4.335596
 31
0.0
  0
LINE
  8
0
  6
CONTINUOUS
 62
     7
  5
2D0
 10
-0.759172
 20
-4.335596
 30
0.0
 11
-0.759252
 21
-4.337627
 31
0.0
  0
LINE
  8
0
  6
CONTINUOUS
 62
     7
  5
2D1
 10
-0.15689
 20
-3.707127
 30
0.0
 11
-0.680315
 21
-3.707127
 31
0.0
  0
LINE
  8
0
  6
CONTINUOUS
 62
     7
  5
2D2
 10
-0.15689
 20
-4.247639
 30
0.0
 11
-0.680315
 21
-4.247639
 31
0.0
  0
LINE
  8
0
  6
CONTINUOUS
 62
     7
  5
2D3
 10
-0.680315
 20
-4.29235
 30
0.0
 11
-0.15689
 21
-4.29235
 31
0.0
  0
LINE
  8
0
  6
CONTINUOUS
 62
     7
  5
2D4
 10
-0.15689
 20
-4.29235
 30
0.0
 11
-0.149851
 21
-4.29226
 31
0.0
  0
LINE
  8
0
  6
CONTINUOUS
 62
     7
  5
2D5
 10
-0.149851
 20
-4.29226
 30
0.0
 11
-0.142826
 21
-4.291988
 31
0.0
  0
LINE
  8
0
  6
CONTINUOUS
 62
     7
  5
2D6
 10
-0.142826
 20
-4.291988
 30
0.0
 11
-0.13583
 21
-4.291536
 31
0.0
  0
LINE
  8
0
  6
CONTINUOUS
 62
     7
  5
2D7
 10
-0.13583
 20
-4.291536
 30
0.0
 11
-0.128876
 21
-4.290904
 31
0.0
  0
LINE
  8
0
  6
CONTINUOUS
 62
     7
  5
2D8
 10
-0.128876
 20
-4.290904
 30
0.0
 11
-0.121979
 21
-4.290094
 31
0.0
  0
LINE
  8
0
  6
CONTINUOUS
 62
     7
  5
2D9
 10
-0.121979
 20
-4.290094
 30
0.0
 11
-0.115151
 21
-4.289108
 31
0.0
  0
LINE
  8
0
  6
CONTINUOUS
 62
     7
  5
2DA
 10
-0.115151
 20
-4.289108
 30
0.0
 11
-0.108408
 21
-4.287946
 31
0.0
  0
LINE
  8
0
  6
CONTINUOUS
 62
     7
  5
2DB
 10
-0.108408
 20
-4.287946
 30
0.0
 11
-0.101763
 21
-4.286612
 31
0.0
  0
LINE
  8
0
  6
CONTINUOUS
 62
     7
  5
2DC
 10
-0.101763
 20
-4.286612
 30
0.0
 11
-0.095228
 21
-4.285109
 31
0.0
  0
LINE
  8
0
  6
CONTINUOUS
 62
     7
  5
2DD
 10
-0.095228
 20
-4.285109
 30
0.0
 11
-0.088818
 21
-4.283439
 31
0.0
  0
LINE
  8
0
  6
CONTINUOUS
 62
     7
  5
2DE
 10
-0.088818
 20
-4.283439
 30
0.0
 11
-0.082545
 21
-4.281605
 31
0.0
  0
LINE
  8
0
  6
CONTINUOUS
 62
     7
  5
2DF
 10
-0.082545
 20
-4.281605
 30
0.0
 11
-0.076421
 21
-4.279613
 31
0.0
  0
LINE
  8
0
  6
CONTINUOUS
 62
     7
  5
2E0
 10
-0.076421
 20
-4.279613
 30
0.0
 11
-0.07046
 21
-4.277464
 31
0.0
  0
LINE
  8
0
  6
CONTINUOUS
 62
     7
  5
2E1
 10
-0.07046
 20
-4.277464
 30
0.0
 11
-0.064672
 21
-4.275164
 31
0.0
  0
LINE
  8
0
  6
CONTINUOUS
 62
     7
  5
2E2
 10
-0.064672
 20
-4.275164
 30
0.0
 11
-0.059071
 21
-4.272718
 31
0.0
  0
LINE
  8
0
  6
CONTINUOUS
 62
     7
  5
2E3
 10
-0.059071
 20
-4.272718
 30
0.0
 11
-0.053666
 21
-4.27013
 31
0.0
  0
LINE
  8
0
  6
CONTINUOUS
 62
     7
  5
2E4
 10
-0.053666
 20
-4.27013
 30
0.0
 11
-0.048469
 21
-4.267405
 31
0.0
  0
LINE
  8
0
  6
CONTINUOUS
 62
     7
  5
2E5
 10
-0.048469
 20
-4.267405
 30
0.0
 11
-0.043491
 21
-4.26455
 31
0.0
  0
LINE
  8
0
  6
CONTINUOUS
 62
     7
  5
2E6
 10
-0.043491
 20
-4.26455
 30
0.0
 11
-0.038741
 21
-4.261569
 31
0.0
  0
LINE
  8
0
  6
CONTINUOUS
 62
     7
  5
2E7
 10
-0.038741
 20
-4.261569
 30
0.0
 11
-0.034228
 21
-4.258469
 31
0.0
  0
LINE
  8
0
  6
CONTINUOUS
 62
     7
  5
2E8
 10
-0.034228
 20
-4.258469
 30
0.0
 11
-0.029963
 21
-4.255256
 31
0.0
  0
LINE
  8
0
  6
CONTINUOUS
 62
     7
  5
2E9
 10
-0.029963
 20
-4.255256
 30
0.0
 11
-0.025954
 21
-4.251936
 31
0.0
  0
LINE
  8
0
  6
CONTINUOUS
 62
     7
  5
2EA
 10
-0.025954
 20
-4.251936
 30
0.0
 11
-0.022208
 21
-4.248517
 31
0.0
  0
LINE
  8
0
  6
CONTINUOUS
 62
     7
  5
2EB
 10
-0.022208
 20
-4.248517
 30
0.0
 11
-0.018733
 21
-4.245005
 31
0.0
  0
LINE
  8
0
  6
CONTINUOUS
 62
     7
  5
2EC
 10
-0.018733
 20
-4.245005
 30
0.0
 11
-0.015537
 21
-4.241407
 31
0.0
  0
LINE
  8
0
  6
CONTINUOUS
 62
     7
  5
2ED
 10
-0.015537
 20
-4.241407
 30
0.0
 11
-0.012625
 21
-4.23773
 31
0.0
  0
LINE
  8
0
  6
CONTINUOUS
 62
     7
  5
2EE
 10
-0.012625
 20
-4.23773
 30
0.0
 11
-0.010004
 21
-4.233982
 31
0.0
  0
LINE
  8
0
  6
CONTINUOUS
 62
     7
  5
2EF
 10
-0.010004
 20
-4.233982
 30
0.0
 11
-0.007679
 21
-4.23017
 31
0.0
  0
LINE
  8
0
  6
CONTINUOUS
 62
     7
  5
2F0
 10
-0.007679
 20
-4.23017
 30
0.0
 11
-0.005654
 21
-4.226302
 31
0.0
  0
LINE
  8
0
  6
CONTINUOUS
 62
     7
  5
2F1
 10
-0.005654
 20
-4.226302
 30
0.0
 11
-0.003934
 21
-4.222386
 31
0.0
  0
LINE
  8
0
  6
CONTINUOUS
 62
     7
  5
2F2
 10
-0.003934
 20
-4.222386
 30
0.0
 11
-0.002521
 21
-4.21843
 31
0.0
  0
LINE
  8
0
  6
CONTINUOUS
 62
     7
  5
2F3
 10
-0.002521
 20
-4.21843
 30
0.0
 11
-0.00142
 21
-4.214442
 31
0.0
  0
LINE
  8
0
  6
CONTINUOUS
 62
     7
  5
2F4
 10
-0.00142
 20
-4.214442
 30
0.0
 11
-0.000632
 21
-4.210429
 31
0.0
  0
LINE
  8
0
  6
CONTINUOUS
 62
     7
  5
2F5
 10
-0.000632
 20
-4.210429
 30
0.0
 11
-0.000158
 21
-4.2064
 31
0.0
  0
LINE
  8
0
  6
CONTINUOUS
 62
     7
  5
2F6
 10
-0.000158
 20
-4.2064
 30
0.0
 11
0.0
 21
-4.202362
 31
0.0
  0
LINE
  8
0
  6
CONTINUOUS
 62
     7
  5
2F7
 10
-0.077953
 20
-3.661851
 30
0.0
 11
-0.078032
 21
-3.663882
 31
0.0
  0
LINE
  8
0
  6
CONTINUOUS
 62
     7
  5
2F8
 10
-0.078032
 20
-3.663882
 30
0.0
 11
-0.078271
 21
-3.665909
 31
0.0
  0
LINE
  8
0
  6
CONTINUOUS
 62
     7
  5
2F9
 10
-0.078271
 20
-3.665909
 30
0.0
 11
-0.078667
 21
-3.667928
 31
0.0
  0
LINE
  8
0
  6
CONTINUOUS
 62
     7
  5
2FA
 10
-0.078667
 20
-3.667928
 30
0.0
 11
-0.079221
 21
-3.669935
 31
0.0
  0
LINE
  8
0
  6
CONTINUOUS
 62
     7
  5
2FB
 10
-0.079221
 20
-3.669935
 30
0.0
 11
-0.079932
 21
-3.671926
 31
0.0
  0
LINE
  8
0
  6
CONTINUOUS
 62
     7
  5
2FC
 10
-0.079932
 20
-3.671926
 30
0.0
 11
-0.080797
 21
-3.673896
 31
0.0
  0
LINE
  8
0
  6
CONTINUOUS
 62
     7
  5
2FD
 10
-0.080797
 20
-3.673896
 30
0.0
 11
-0.081816
 21
-3.675842
 31
0.0
  0
LINE
  8
0
  6
CONTINUOUS
 62
     7
  5
2FE
 10
-0.081816
 20
-3.675842
 30
0.0
 11
-0.082986
 21
-3.67776
 31
0.0
  0
LINE
  8
0
  6
CONTINUOUS
 62
     7
  5
2FF
 10
-0.082986
 20
-3.67776
 30
0.0
 11
-0.084305
 21
-3.679646
 31
0.0
  0
LINE
  8
0
  6
CONTINUOUS
 62
     7
  5
300
 10
-0.084305
 20
-3.679646
 30
0.0
 11
-0.08577
 21
-3.681496
 31
0.0
  0
LINE
  8
0
  6
CONTINUOUS
 62
     7
  5
301
 10
-0.08577
 20
-3.681496
 30
0.0
 11
-0.087378
 21
-3.683306
 31
0.0
  0
LINE
  8
0
  6
CONTINUOUS
 62
     7
  5
302
 10
-0.087378
 20
-3.683306
 30
0.0
 11
-0.089126
 21
-3.685073
 31
0.0
  0
LINE
  8
0
  6
CONTINUOUS
 62
     7
  5
303
 10
-0.089126
 20
-3.685073
 30
0.0
 11
-0.091011
 21
-3.686793
 31
0.0
  0
LINE
  8
0
  6
CONTINUOUS
 62
     7
  5
304
 10
-0.091011
 20
-3.686793
 30
0.0
 11
-0.093028
 21
-3.688464
 31
0.0
  0
LINE
  8
0
  6
CONTINUOUS
 62
     7
  5
305
 10
-0.093028
 20
-3.688464
 30
0.0
 11
-0.095174
 21
-3.69008
 31
0.0
  0
LINE
  8
0
  6
CONTINUOUS
 62
     7
  5
306
 10
-0.095174
 20
-3.69008
 30
0.0
 11
-0.097445
 21
-3.69164
 31
0.0
  0
LINE
  8
0
  6
CONTINUOUS
 62
     7
  5
307
 10
-0.097445
 20
-3.69164
 30
0.0
 11
-0.099834
 21
-3.69314
 31
0.0
  0
LINE
  8
0
  6
CONTINUOUS
 62
     7
  5
308
 10
-0.099834
 20
-3.69314
 30
0.0
 11
-0.102339
 21
-3.694576
 31
0.0
  0
LINE
  8
0
  6
CONTINUOUS
 62
     7
  5
309
 10
-0.102339
 20
-3.694576
 30
0.0
 11
-0.104954
 21
-3.695947
 31
0.0
  0
LINE
  8
0
  6
CONTINUOUS
 62
     7
  5
30A
 10
-0.104954
 20
-3.695947
 30
0.0
 11
-0.107673
 21
-3.697249
 31
0.0
  0
LINE
  8
0
  6
CONTINUOUS
 62
     7
  5
30B
 10
-0.107673
 20
-3.697249
 30
0.0
 11
-0.110492
 21
-3.69848
 31
0.0
  0
LINE
  8
0
  6
CONTINUOUS
 62
     7
  5
30C
 10
-0.110492
 20
-3.69848
 30
0.0
 11
-0.113404
 21
-3.699637
 31
0.0
  0
LINE
  8
0
  6
CONTINUOUS
 62
     7
  5
30D
 10
-0.113404
 20
-3.699637
 30
0.0
 11
-0.116403
 21
-3.700718
 31
0.0
  0
LINE
  8
0
  6
CONTINUOUS
 62
     7
  5
30E
 10
-0.116403
 20
-3.700718
 30
0.0
 11
-0.119484
 21
-3.701721
 31
0.0
  0
LINE
  8
0
  6
CONTINUOUS
 62
     7
  5
30F
 10
-0.119484
 20
-3.701721
 30
0.0
 11
-0.12264
 21
-3.702643
 31
0.0
  0
LINE
  8
0
  6
CONTINUOUS
 62
     7
  5
310
 10
-0.12264
 20
-3.702643
 30
0.0
 11
-0.125866
 21
-3.703484
 31
0.0
  0
LINE
  8
0
  6
CONTINUOUS
 62
     7
  5
311
 10
-0.125866
 20
-3.703484
 30
0.0
 11
-0.129153
 21
-3.70424
 31
0.0
  0
LINE
  8
0
  6
CONTINUOUS
 62
     7
  5
312
 10
-0.129153
 20
-3.70424
 30
0.0
 11
-0.132497
 21
-3.704911
 31
0.0
  0
LINE
  8
0
  6
CONTINUOUS
 62
     7
  5
313
 10
-0.132497
 20
-3.704911
 30
0.0
 11
-0.13589
 21
-3.705496
 31
0.0
  0
LINE
  8
0
  6
CONTINUOUS
 62
     7
  5
314
 10
-0.13589
 20
-3.705496
 30
0.0
 11
-0.139325
 21
-3.705992
 31
0.0
  0
LINE
  8
0
  6
CONTINUOUS
 62
     7
  5
315
 10
-0.139325
 20
-3.705992
 30
0.0
 11
-0.142795
 21
-3.7064
 31
0.0
  0
LINE
  8
0
  6
CONTINUOUS
 62
     7
  5
316
 10
-0.142795
 20
-3.7064
 30
0.0
 11
-0.146294
 21
-3.706718
 31
0.0
  0
LINE
  8
0
  6
CONTINUOUS
 62
     7
  5
317
 10
-0.146294
 20
-3.706718
 30
0.0
 11
-0.149814
 21
-3.706945
 31
0.0
  0
LINE
  8
0
  6
CONTINUOUS
 62
     7
  5
318
 10
-0.149814
 20
-3.706945
 30
0.0
 11
-0.153348
 21
-3.707082
 31
0.0
  0
LINE
  8
0
  6
CONTINUOUS
 62
     7
  5
319
 10
-0.153348
 20
-3.707082
 30
0.0
 11
-0.15689
 21
-3.707127
 31
0.0
  0
LINE
  8
0
  6
CONTINUOUS
 62
     7
  5
31A
 10
-0.077953
 20
-4.202362
 30
0.0
 11
-0.078032
 21
-4.204394
 31
0.0
  0
LINE
  8
0
  6
CONTINUOUS
 62
     7
  5
31B
 10
-0.078032
 20
-4.204394
 30
0.0
 11
-0.078271
 21
-4.206421
 31
0.0
  0
LINE
  8
0
  6
CONTINUOUS
 62
     7
  5
31C
 10
-0.078271
 20
-4.206421
 30
0.0
 11
-0.078667
 21
-4.20844
 31
0.0
  0
LINE
  8
0
  6
CONTINUOUS
 62
     7
  5
31D
 10
-0.078667
 20
-4.20844
 30
0.0
 11
-0.079221
 21
-4.210447
 31
0.0
  0
LINE
  8
0
  6
CONTINUOUS
 62
     7
  5
31E
 10
-0.079221
 20
-4.210447
 30
0.0
 11
-0.079932
 21
-4.212437
 31
0.0
  0
LINE
  8
0
  6
CONTINUOUS
 62
     7
  5
31F
 10
-0.079932
 20
-4.212437
 30
0.0
 11
-0.080797
 21
-4.214407
 31
0.0
  0
LINE
  8
0
  6
CONTINUOUS
 62
     7
  5
320
 10
-0.080797
 20
-4.214407
 30
0.0
 11
-0.081816
 21
-4.216353
 31
0.0
  0
LINE
  8
0
  6
CONTINUOUS
 62
     7
  5
321
 10
-0.081816
 20
-4.216353
 30
0.0
 11
-0.082986
 21
-4.218271
 31
0.0
  0
LINE
  8
0
  6
CONTINUOUS
 62
     7
  5
322
 10
-0.082986
 20
-4.218271
 30
0.0
 11
-0.084305
 21
-4.220157
 31
0.0
  0
LINE
  8
0
  6
CONTINUOUS
 62
     7
  5
323
 10
-0.084305
 20
-4.220157
 30
0.0
 11
-0.08577
 21
-4.222007
 31
0.0
  0
LINE
  8
0
  6
CONTINUOUS
 62
     7
  5
324
 10
-0.08577
 20
-4.222007
 30
0.0
 11
-0.087378
 21
-4.223817
 31
0.0
  0
LINE
  8
0
  6
CONTINUOUS
 62
     7
  5
325
 10
-0.087378
 20
-4.223817
 30
0.0
 11
-0.089126
 21
-4.225584
 31
0.0
  0
LINE
  8
0
  6
CONTINUOUS
 62
     7
  5
326
 10
-0.089126
 20
-4.225584
 30
0.0
 11
-0.091011
 21
-4.227305
 31
0.0
  0
LINE
  8
0
  6
CONTINUOUS
 62
     7
  5
327
 10
-0.091011
 20
-4.227305
 30
0.0
 11
-0.093028
 21
-4.228975
 31
0.0
  0
LINE
  8
0
  6
CONTINUOUS
 62
     7
  5
328
 10
-0.093028
 20
-4.228975
 30
0.0
 11
-0.095174
 21
-4.230592
 31
0.0
  0
LINE
  8
0
  6
CONTINUOUS
 62
     7
  5
329
 10
-0.095174
 20
-4.230592
 30
0.0
 11
-0.097445
 21
-4.232151
 31
0.0
  0
LINE
  8
0
  6
CONTINUOUS
 62
     7
  5
32A
 10
-0.097445
 20
-4.232151
 30
0.0
 11
-0.099834
 21
-4.233651
 31
0.0
  0
LINE
  8
0
  6
CONTINUOUS
 62
     7
  5
32B
 10
-0.099834
 20
-4.233651
 30
0.0
 11
-0.102339
 21
-4.235088
 31
0.0
  0
LINE
  8
0
  6
CONTINUOUS
 62
     7
  5
32C
 10
-0.102339
 20
-4.235088
 30
0.0
 11
-0.104954
 21
-4.236459
 31
0.0
  0
LINE
  8
0
  6
CONTINUOUS
 62
     7
  5
32D
 10
-0.104954
 20
-4.236459
 30
0.0
 11
-0.107673
 21
-4.237761
 31
0.0
  0
LINE
  8
0
  6
CONTINUOUS
 62
     7
  5
32E
 10
-0.107673
 20
-4.237761
 30
0.0
 11
-0.110492
 21
-4.238992
 31
0.0
  0
LINE
  8
0
  6
CONTINUOUS
 62
     7
  5
32F
 10
-0.110492
 20
-4.238992
 30
0.0
 11
-0.113404
 21
-4.240149
 31
0.0
  0
LINE
  8
0
  6
CONTINUOUS
 62
     7
  5
330
 10
-0.113404
 20
-4.240149
 30
0.0
 11
-0.116403
 21
-4.24123
 31
0.0
  0
LINE
  8
0
  6
CONTINUOUS
 62
     7
  5
331
 10
-0.116403
 20
-4.24123
 30
0.0
 11
-0.119484
 21
-4.242232
 31
0.0
  0
LINE
  8
0
  6
CONTINUOUS
 62
     7
  5
332
 10
-0.119484
 20
-4.242232
 30
0.0
 11
-0.12264
 21
-4.243155
 31
0.0
  0
LINE
  8
0
  6
CONTINUOUS
 62
     7
  5
333
 10
-0.12264
 20
-4.243155
 30
0.0
 11
-0.125866
 21
-4.243995
 31
0.0
  0
LINE
  8
0
  6
CONTINUOUS
 62
     7
  5
334
 10
-0.125866
 20
-4.243995
 30
0.0
 11
-0.129153
 21
-4.244752
 31
0.0
  0
LINE
  8
0
  6
CONTINUOUS
 62
     7
  5
335
 10
-0.129153
 20
-4.244752
 30
0.0
 11
-0.132497
 21
-4.245423
 31
0.0
  0
LINE
  8
0
  6
CONTINUOUS
 62
     7
  5
336
 10
-0.132497
 20
-4.245423
 30
0.0
 11
-0.13589
 21
-4.246007
 31
0.0
  0
LINE
  8
0
  6
CONTINUOUS
 62
     7
  5
337
 10
-0.13589
 20
-4.246007
 30
0.0
 11
-0.139325
 21
-4.246503
 31
0.0
  0
LINE
  8
0
  6
CONTINUOUS
 62
     7
  5
338
 10
-0.139325
 20
-4.246503
 30
0.0
 11
-0.142795
 21
-4.246911
 31
0.0
  0
LINE
  8
0
  6
CONTINUOUS
 62
     7
  5
339
 10
-0.142795
 20
-4.246911
 30
0.0
 11
-0.146294
 21
-4.247229
 31
0.0
  0
LINE
  8
0
  6
CONTINUOUS
 62
     7
  5
33A
 10
-0.146294
 20
-4.247229
 30
0.0
 11
-0.149814
 21
-4.247456
 31
0.0
  0
LINE
  8
0
  6
CONTINUOUS
 62
     7
  5
33B
 10
-0.149814
 20
-4.247456
 30
0.0
 11
-0.153348
 21
-4.247593
 31
0.0
  0
LINE
  8
0
  6
CONTINUOUS
 62
     7
  5
33C
 10
-0.153348
 20
-4.247593
 30
0.0
 11
-0.15689
 21
-4.247639
 31
0.0
  0
LINE
  8
0
  6
CONTINUOUS
 62
     7
  5
33D
 10
-0.366535
 20
-4.447142
 30
0.0
 11
-0.366535
 21
-4.292518
 31
0.0
  0
LINE
  8
0
  6
CONTINUOUS
 62
     7
  5
33E
 10
-0.229535
 20
-4.447142
 30
0.0
 11
-0.229535
 21
-4.292518
 31
0.0
  0
LINE
  8
0
  6
CONTINUOUS
 62
     7
  5
33F
 10
-1.116535
 20
-4.114635
 30
0.0
 11
-1.116535
 21
-4.206142
 31
0.0
  0
LINE
  8
0
  6
CONTINUOUS
 62
     7
  5
340
 10
-1.116535
 20
-4.206142
 30
0.0
 11
-1.116535
 21
-4.297648
 31
0.0
  0
LINE
  8
0
  6
CONTINUOUS
 62
     7
  5
341
 10
-0.991535
 20
-4.081142
 30
0.0
 11
-0.991535
 21
-4.206142
 31
0.0
  0
LINE
  8
0
  6
CONTINUOUS
 62
     7
  5
342
 10
-0.991535
 20
-4.206142
 30
0.0
 11
-0.991535
 21
-4.331142
 31
0.0
  0
LINE
  8
0
  6
CONTINUOUS
 62
     7
  5
343
 10
-1.276947
 20
-2.740945
 30
0.0
 11
-1.457414
 21
-2.740945
 31
0.0
  0
LINE
  8
0
  6
CONTINUOUS
 62
     7
  5
344
 10
-1.249764
 20
-3.311024
 30
0.0
 11
-1.276947
 21
-2.740945
 31
0.0
  0
LINE
  8
0
  6
CONTINUOUS
 62
     7
  5
345
 10
-1.457414
 20
-2.740945
 30
0.0
 11
-1.51063
 21
-3.501969
 31
0.0
  0
LINE
  8
0
  6
CONTINUOUS
 62
     7
  5
346
 10
-1.51063
 20
-3.566142
 30
0.0
 11
-1.51063
 21
-3.501969
 31
0.0
  0
LINE
  8
0
  6
CONTINUOUS
 62
     7
  5
347
 10
-0.155906
 20
-3.566142
 30
0.0
 11
-1.51063
 21
-3.566142
 31
0.0
  0
LINE
  8
0
  6
CONTINUOUS
 62
     7
  5
348
 10
-0.155906
 20
-2.464173
 30
0.0
 11
-1.139764
 21
-2.464173
 31
0.0
  0
LINE
  8
0
  6
CONTINUOUS
 62
     7
  5
349
 10
-1.139764
 20
-2.464173
 30
0.0
 11
-1.139764
 21
-3.311024
 31
0.0
  0
LINE
  8
0
  6
CONTINUOUS
 62
     7
  5
34A
 10
-1.139764
 20
-3.311024
 30
0.0
 11
-1.249213
 21
-3.311024
 31
0.0
  0
LINE
  8
0
  6
CONTINUOUS
 62
     7
  5
34B
 10
0.0
 20
-2.464173
 30
0.0
 11
-0.155906
 21
-2.464173
 31
0.0
  0
LINE
  8
0
  6
CONTINUOUS
 62
     7
  5
34C
 10
-0.077953
 20
-1.911417
 30
0.0
 11
-0.077953
 21
-1.791339
 31
0.0
  0
LINE
  8
0
  6
CONTINUOUS
 62
     7
  5
34D
 10
-0.077953
 20
-1.791339
 30
0.0
 11
0.0
 21
-1.791339
 31
0.0
  0
LINE
  8
0
  6
CONTINUOUS
 62
     7
  5
34E
 10
-0.077953
 20
-4.202362
 30
0.0
 11
-0.077953
 21
-3.686143
 31
0.0
  0
LINE
  8
0
  6
CONTINUOUS
 62
     7
  5
34F
 10
-0.077953
 20
-3.686143
 30
0.0
 11
-0.077953
 21
-3.566142
 31
0.0
  0
LINE
  8
0
  6
CONTINUOUS
 62
     7
  5
350
 10
-0.077953
 20
-2.464173
 30
0.0
 11
-0.077953
 21
-1.911417
 31
0.0
  0
LINE
  8
0
  6
CONTINUOUS
 62
     7
  5
351
 10
0.0
 20
-3.686143
 30
0.0
 11
-0.077953
 21
-3.686143
 31
0.0
  0
LINE
  8
0
  6
CONTINUOUS
 62
     7
  5
352
 10
0.0
 20
-3.566142
 30
0.0
 11
-0.155906
 21
-3.566142
 31
0.0
  0
LINE
  8
0
  6
CONTINUOUS
 62
     7
  5
353
 10
1.712598
 20
-0.740157
 30
0.0
 11
0.26106
 21
-0.740157
 31
0.0
  0
LINE
  8
0
  6
CONTINUOUS
 62
     7
  5
354
 10
1.712598
 20
-1.066929
 30
0.0
 11
1.712598
 21
-0.740157
 31
0.0
  0
LINE
  8
0
  6
CONTINUOUS
 62
     7
  5
355
 10
2.767717
 20
-1.066929
 30
0.0
 11
1.712598
 21
-1.066929
 31
0.0
  0
LINE
  8
0
  6
CONTINUOUS
 62
     7
  5
356
 10
2.767717
 20
-1.066929
 30
0.0
 11
2.767717
 21
-1.086614
 31
0.0
  0
LINE
  8
0
  6
CONTINUOUS
 62
     7
  5
357
 10
2.767717
 20
-2.606299
 30
0.0
 11
2.767717
 21
-2.61711
 31
0.0
  0
LINE
  8
0
  6
CONTINUOUS
 62
     7
  5
358
 10
2.767717
 20
-2.094488
 30
0.0
 11
2.767717
 21
-2.606299
 31
0.0
  0
LINE
  8
0
  6
CONTINUOUS
 62
     7
  5
359
 10
2.767717
 20
2.61811
 30
0.0
 11
2.688976
 21
2.61811
 31
0.0
  0
LINE
  8
0
  6
CONTINUOUS
 62
     7
  5
35A
 10
0.496063
 20
2.61811
 30
0.0
 11
0.0
 21
2.61811
 31
0.0
  0
LINE
  8
0
  6
CONTINUOUS
 62
     7
  5
35B
 10
2.767717
 20
2.61811
 30
0.0
 11
2.767717
 21
-1.066929
 31
0.0
  0
LINE
  8
0
  6
CONTINUOUS
 62
     7
  5
35C
 10
0.105244
 20
0.586614
 30
0.0
 11
0.146583
 21
0.586614
 31
0.0
  0
ARC
  8
0
  6
CONTINUOUS
 62
     7
  5
35D
 10
0.146586
 20
0.598425
 30
0.0
 40
0.011811
 50
269.983018
 51
325.135103
  0
LINE
  8
0
  6
CONTINUOUS
 62
     7
  5
35E
 10
0.156277
 20
0.591673
 30
0.0
 11
0.22441
 21
0.688976
 31
0.0
  0
LINE
  8
0
  6
CONTINUOUS
 62
     7
  5
35F
 10
0.22441
 20
0.688976
 30
0.0
 11
0.26106
 21
0.688976
 31
0.0
  0
LINE
  8
0
  6
CONTINUOUS
 62
     7
  5
360
 10
0.26106
 20
0.688976
 30
0.0
 11
0.26106
 21
-0.740158
 31
0.0
  0
ARC
  8
0
  6
CONTINUOUS
 62
     7
  5
361
 10
0.19685
 20
0.809838
 30
0.0
 40
0.19685
 50
180.000602
 51
210.000023
  0
LINE
  8
0
  6
CONTINUOUS
 62
     7
  5
362
 10
0.026373
 20
0.711412
 30
0.0
 11
0.095016
 21
0.59252
 31
0.0
  0
ARC
  8
0
  6
CONTINUOUS
 62
     7
  5
363
 10
0.105244
 20
0.598425
 30
0.0
 40
0.011811
 50
210.000023
 51
270.0
  0
LINE
  8
0
  6
CONTINUOUS
 62
     7
  5
364
 10
2.688976
 20
2.61811
 30
0.0
 11
2.688976
 21
2.275591
 31
0.0
  0
LINE
  8
0
  6
CONTINUOUS
 62
     7
  5
365
 10
0.496063
 20
2.275591
 30
0.0
 11
0.496063
 21
2.61811
 31
0.0
  0
LINE
  8
0
  6
CONTINUOUS
 62
     7
  5
366
 10
2.688976
 20
2.275591
 30
0.0
 11
0.496063
 21
2.275591
 31
0.0
  0
LINE
  8
0
  6
CONTINUOUS
 62
     7
  5
367
 10
0.0
 20
0.809835
 30
0.0
 11
0.0
 21
2.61811
 31
0.0
  0
ARC
  8
0
  6
CONTINUOUS
 62
     7
  5
368
 10
0.495496
 20
2.606299
 30
0.0
 40
0.011811
 50
0.500015
 51
87.250279
  0
LINE
  8
0
  6
CONTINUOUS
 62
     7
  5
369
 10
0.507725
 20
2.55854
 30
0.0
 11
0.507307
 21
2.606402
 31
0.0
  0
ARC
  8
0
  6
CONTINUOUS
 62
     7
  5
36A
 10
0.566778
 20
2.559055
 30
0.0
 40
0.059055
 50
180.500015
 51
270.0
  0
LINE
  8
0
  6
CONTINUOUS
 62
     7
  5
36B
 10
2.61763
 20
2.5
 30
0.0
 11
0.566778
 21
2.5
 31
0.0
  0
ARC
  8
0
  6
CONTINUOUS
 62
     7
  5
36C
 10
2.61763
 20
2.559055
 30
0.0
 40
0.059055
 50
270.0
 51
360.0
  0
LINE
  8
0
  6
CONTINUOUS
 62
     7
  5
36D
 10
2.676685
 20
2.61811
 30
0.0
 11
2.676685
 21
2.559055
 31
0.0
  0
LINE
  8
0
  6
CONTINUOUS
 62
     7
  5
36E
 10
2.688976
 20
2.61811
 30
0.0
 11
2.676685
 21
2.61811
 31
0.0
  0
LINE
  8
0
  6
CONTINUOUS
 62
     7
  5
36F
 10
2.767819
 20
2.61811
 30
0.0
 11
2.767717
 21
2.61811
 31
0.0
  0
ARC
  8
0
  6
CONTINUOUS
 62
     7
  5
370
 10
2.767819
 20
2.606299
 30
0.0
 40
0.011811
 50
0.499995
 51
90.0
  0
LINE
  8
0
  6
CONTINUOUS
 62
     7
  5
371
 10
2.781594
 20
2.381374
 30
0.0
 11
2.77963
 21
2.606402
 31
0.0
  0
ARC
  8
0
  6
CONTINUOUS
 62
     7
  5
372
 10
2.840646
 20
2.38189
 30
0.0
 40
0.059055
 50
180.499995
 51
270.0
  0
LINE
  8
0
  6
CONTINUOUS
 62
     7
  5
373
 10
3.073855
 20
2.322835
 30
0.0
 11
2.840646
 21
2.322835
 31
0.0
  0
LINE
  8
0
  6
CONTINUOUS
 62
     7
  5
374
 10
-0.621546
 20
3.731102
 30
0.0
 11
-0.815354
 21
3.731102
 31
0.0
  0
LINE
  8
0
  6
CONTINUOUS
 62
     7
  5
375
 10
-0.815354
 20
1.998819
 30
0.0
 11
-0.059055
 21
1.998819
 31
0.0
  0
ARC
  8
0
  6
CONTINUOUS
 62
     7
  5
376
 10
-0.059055
 20
2.057874
 30
0.0
 40
0.059055
 50
270.0
 51
0.0
  0
LINE
  8
0
  6
CONTINUOUS
 62
     7
  5
377
 10
3.149213
 20
2.480315
 30
0.0
 11
3.323622
 21
2.480315
 31
0.0
  0
LINE
  8
0
  6
CONTINUOUS
 62
     7
  5
378
 10
3.141732
 20
2.47532
 30
0.0
 11
3.149213
 21
2.47532
 31
0.0
  0
LINE
  8
0
  6
CONTINUOUS
 62
     7
  5
379
 10
3.141732
 20
2.47532
 30
0.0
 11
3.141732
 21
2.468504
 31
0.0
  0
LINE
  8
0
  6
CONTINUOUS
 62
     7
  5
37A
 10
3.323622
 20
2.468504
 30
0.0
 11
3.323622
 21
2.480315
 31
0.0
  0
LINE
  8
0
  6
CONTINUOUS
 62
     7
  5
37B
 10
3.640776
 20
-0.563302
 30
0.0
 11
3.484252
 21
-0.51458
 31
0.0
  0
ARC
  8
0
  6
CONTINUOUS
 62
     7
  5
37C
 10
3.664178
 20
-0.48812
 30
0.0
 40
0.07874
 50
252.71
 51
269.71
  0
LINE
  8
0
  6
CONTINUOUS
 62
     7
  5
37D
 10
3.909193
 20
-0.568101
 30
0.0
 11
3.66378
 21
-0.566859
 31
0.0
  0
ARC
  8
0
  6
CONTINUOUS
 62
     7
  5
37E
 10
3.909353
 20
-0.536605
 30
0.0
 40
0.031496
 50
269.71
 51
343.475616
  0
ARC
  8
0
  6
CONTINUOUS
 62
     7
  5
37F
 10
1.901575
 20
0.059055
 30
0.0
 40
2.12577
 50
343.475616
 51
344.758905
  0
ARC
  8
0
  6
CONTINUOUS
 62
     7
  5
380
 10
3.92219
 20
-0.49149
 30
0.0
 40
0.031496
 50
344.758905
 51
67.9
  0
LINE
  8
0
  6
CONTINUOUS
 62
     7
  5
381
 10
3.484252
 20
-0.279669
 30
0.0
 11
3.934039
 21
-0.462308
 31
0.0
  0
LINE
  8
0
  6
CONTINUOUS
 62
     7
  5
382
 10
3.65726
 20
0.633265
 30
0.0
 11
3.484252
 21
0.568546
 31
0.0
  0
ARC
  8
0
  6
CONTINUOUS
 62
     7
  5
383
 10
3.629672
 20
0.707014
 30
0.0
 40
0.07874
 50
290.51
 51
307.51
  0
LINE
  8
0
  6
CONTINUOUS
 62
     7
  5
384
 10
3.872293
 20
0.793988
 30
0.0
 11
3.677617
 21
0.644554
 31
0.0
  0
ARC
  8
0
  6
CONTINUOUS
 62
     7
  5
385
 10
3.853115
 20
0.818972
 30
0.0
 40
0.031496
 50
307.51
 51
21.275616
  0
ARC
  8
0
  6
CONTINUOUS
 62
     7
  5
386
 10
1.901575
 20
0.059055
 30
0.0
 40
2.12577
 50
21.275616
 51
22.558905
  0
ARC
  8
0
  6
CONTINUOUS
 62
     7
  5
387
 10
3.835607
 20
0.862488
 30
0.0
 40
0.031496
 50
22.558905
 51
105.7
  0
LINE
  8
0
  6
CONTINUOUS
 62
     7
  5
388
 10
3.484252
 20
0.796443
 30
0.0
 11
3.827084
 21
0.892809
 31
0.0
  0
LINE
  8
0
  6
CONTINUOUS
 62
     7
  5
389
 10
2.385827
 20
-2.69685
 30
0.0
 11
3.141732
 21
-2.69685
 31
0.0
  0
LINE
  8
0
  6
CONTINUOUS
 62
     7
  5
38A
 10
2.346457
 20
-2.69685
 30
0.0
 11
2.385827
 21
-2.69685
 31
0.0
  0
LINE
  8
0
  6
CONTINUOUS
 62
     7
  5
38B
 10
2.346457
 20
-2.61811
 30
0.0
 11
2.346457
 21
-2.69685
 31
0.0
  0
LINE
  8
0
  6
CONTINUOUS
 62
     7
  5
38C
 10
3.141732
 20
-2.69685
 30
0.0
 11
3.141732
 21
-2.606299
 31
0.0
  0
LINE
  8
0
  6
CONTINUOUS
 62
     7
  5
38D
 10
2.768717
 20
-2.61811
 30
0.0
 11
3.141732
 21
-2.61811
 31
0.0
  0
LINE
  8
0
  6
CONTINUOUS
 62
     7
  5
38E
 10
3.323622
 20
-1.490945
 30
0.0
 11
3.484252
 21
-1.490945
 31
0.0
  0
LINE
  8
0
  6
CONTINUOUS
 62
     7
  5
38F
 10
3.484252
 20
-1.490945
 30
0.0
 11
3.484252
 21
-1.327559
 31
0.0
  0
LINE
  8
0
  6
CONTINUOUS
 62
     7
  5
390
 10
3.484252
 20
-1.327559
 30
0.0
 11
3.484252
 21
0.806693
 31
0.0
  0
LINE
  8
0
  6
CONTINUOUS
 62
     7
  5
391
 10
3.484252
 20
0.806693
 30
0.0
 11
3.484252
 21
0.970079
 31
0.0
  0
LINE
  8
0
  6
CONTINUOUS
 62
     7
  5
392
 10
3.323622
 20
0.970079
 30
0.0
 11
3.484252
 21
0.970079
 31
0.0
  0
LINE
  8
0
  6
CONTINUOUS
 62
     7
  5
393
 10
3.141732
 20
-1.535433
 30
0.0
 11
3.323622
 21
-1.535433
 31
0.0
  0
LINE
  8
0
  6
CONTINUOUS
 62
     7
  5
394
 10
3.323622
 20
-1.535433
 30
0.0
 11
3.323622
 21
-1.523622
 31
0.0
  0
LINE
  8
0
  6
CONTINUOUS
 62
     7
  5
395
 10
3.141732
 20
2.468504
 30
0.0
 11
3.141732
 21
2.291339
 31
0.0
  0
LINE
  8
0
  6
CONTINUOUS
 62
     7
  5
396
 10
3.323622
 20
-1.523622
 30
0.0
 11
3.323622
 21
2.468504
 31
0.0
  0
LINE
  8
0
  6
CONTINUOUS
 62
     7
  5
397
 10
3.141732
 20
-2.61811
 30
0.0
 11
3.141732
 21
-2.606299
 31
0.0
  0
LINE
  8
0
  6
CONTINUOUS
 62
     7
  5
398
 10
2.768717
 20
-2.606299
 30
0.0
 11
2.768717
 21
-2.61811
 31
0.0
  0
LINE
  8
0
  6
CONTINUOUS
 62
     7
  5
399
 10
3.141732
 20
-2.606299
 30
0.0
 11
3.141732
 21
-1.523622
 31
0.0
  0
LINE
  8
0
  6
CONTINUOUS
 62
     7
  5
39A
 10
2.768717
 20
2.291339
 30
0.0
 11
2.768717
 21
-2.606299
 31
0.0
  0
LINE
  8
0
  6
CONTINUOUS
 62
     7
  5
39B
 10
2.768717
 20
2.30315
 30
0.0
 11
3.141732
 21
2.30315
 31
0.0
  0
LINE
  8
0
  6
CONTINUOUS
 62
     7
  5
39C
 10
2.768717
 20
2.30315
 30
0.0
 11
2.768717
 21
2.291339
 31
0.0
  0
LINE
  8
0
  6
CONTINUOUS
 62
     7
  5
39D
 10
3.141732
 20
2.322835
 30
0.0
 11
3.073855
 21
2.322835
 31
0.0
  0
LINE
  8
0
  6
CONTINUOUS
 62
     7
  5
39E
 10
3.149213
 20
2.61811
 30
0.0
 11
3.149213
 21
2.47532
 31
0.0
  0
LINE
  8
0
  6
CONTINUOUS
 62
     7
  5
39F
 10
3.666535
 20
2.61811
 30
0.0
 11
3.149213
 21
2.61811
 31
0.0
  0
LINE
  8
0
  6
CONTINUOUS
 62
     7
  5
3A0
 10
3.666535
 20
3.116535
 30
0.0
 11
3.666535
 21
2.61811
 31
0.0
  0
LINE
  8
0
  6
CONTINUOUS
 62
     7
  5
3A1
 10
3.224344
 20
5.123705
 30
0.0
 11
3.666535
 21
3.116535
 31
0.0
  0
ARC
  8
0
  6
CONTINUOUS
 62
     7
  5
3A2
 10
3.193585
 20
5.116929
 30
0.0
 40
0.031496
 50
12.424142
 51
90.0
  0
LINE
  8
0
  6
CONTINUOUS
 62
     7
  5
3A3
 10
2.998778
 20
5.148425
 30
0.0
 11
3.193585
 21
5.148425
 31
0.0
  0
ARC
  8
0
  6
CONTINUOUS
 62
     7
  5
3A4
 10
2.998778
 20
5.08937
 30
0.0
 40
0.059055
 50
90.0
 51
175.679546
  0
LINE
  8
0
  6
CONTINUOUS
 62
     7
  5
3A5
 10
2.88043
 20
4.306785
 30
0.0
 11
2.93989
 21
5.093819
 31
0.0
  0
ARC
  8
0
  6
CONTINUOUS
 62
     7
  5
3A6
 10
2.860801
 20
4.308268
 30
0.0
 40
0.019685
 50
270.0
 51
355.679546
  0
LINE
  8
0
  6
CONTINUOUS
 62
     7
  5
3A7
 10
2.47723
 20
4.288583
 30
0.0
 11
2.860801
 21
4.288583
 31
0.0
  0
ARC
  8
0
  6
CONTINUOUS
 62
     7
  5
3A8
 10
2.47723
 20
4.308268
 30
0.0
 40
0.019685
 50
184.320457
 51
270.0
  0
LINE
  8
0
  6
CONTINUOUS
 62
     7
  5
3A9
 10
2.398141
 20
5.093819
 30
0.0
 11
2.457601
 21
4.306785
 31
0.0
  0
ARC
  8
0
  6
CONTINUOUS
 62
     7
  5
3AA
 10
2.339254
 20
5.08937
 30
0.0
 40
0.059055
 50
4.320457
 51
90.0
  0
LINE
  8
0
  6
CONTINUOUS
 62
     7
  5
3AB
 10
2.202334
 20
5.148425
 30
0.0
 11
2.339254
 21
5.148425
 31
0.0
  0
ARC
  8
0
  6
CONTINUOUS
 62
     7
  5
3AC
 10
2.202334
 20
5.116929
 30
0.0
 40
0.031496
 50
90.0
 51
176.020196
  0
LINE
  8
0
  6
CONTINUOUS
 62
     7
  5
3AD
 10
2.114406
 20
4.306902
 30
0.0
 11
2.170914
 21
5.119115
 31
0.0
  0
ARC
  8
0
  6
CONTINUOUS
 62
     7
  5
3AE
 10
2.094768
 20
4.308268
 30
0.0
 40
0.019685
 50
270.0
 51
356.020196
  0
LINE
  8
0
  6
CONTINUOUS
 62
     7
  5
3AF
 10
1.931494
 20
4.288583
 30
0.0
 11
2.094768
 21
4.288583
 31
0.0
  0
ARC
  8
0
  6
CONTINUOUS
 62
     7
  5
3B0
 10
1.931494
 20
4.308268
 30
0.0
 40
0.019685
 50
183.982595
 51
270.0
  0
LINE
  8
0
  6
CONTINUOUS
 62
     7
  5
3B1
 10
1.855308
 20
5.119117
 30
0.0
 11
1.911856
 21
4.306901
 31
0.0
  0
ARC
  8
0
  6
CONTINUOUS
 62
     7
  5
3B2
 10
1.823888
 20
5.116929
 30
0.0
 40
0.031496
 50
3.982595
 51
90.0
  0
LINE
  8
0
  6
CONTINUOUS
 62
     7
  5
3B3
 10
1.636249
 20
5.148425
 30
0.0
 11
1.823888
 21
5.148425
 31
0.0
  0
ARC
  8
0
  6
CONTINUOUS
 62
     7
  5
3B4
 10
1.636249
 20
5.08937
 30
0.0
 40
0.059055
 50
90.0
 51
147.500021
  0
LINE
  8
0
  6
CONTINUOUS
 62
     7
  5
3B5
 10
1.516792
 20
5.011771
 30
0.0
 11
1.586442
 21
5.1211
 31
0.0
  0
ARC
  8
0
  6
CONTINUOUS
 62
     7
  5
3B6
 10
1.566598
 20
4.98004
 30
0.0
 40
0.059055
 50
147.500021
 51
177.5
  0
LINE
  8
0
  6
CONTINUOUS
 62
     7
  5
3B7
 10
1.487002
 20
4.510869
 30
0.0
 11
1.507599
 21
4.982616
 31
0.0
  0
ARC
  8
0
  6
CONTINUOUS
 62
     7
  5
3B8
 10
1.357205
 20
4.516536
 30
0.0
 40
0.129921
 50
182.5
 51
357.5
  0
LINE
  8
0
  6
CONTINUOUS
 62
     7
  5
3B9
 10
1.20681
 20
4.982616
 30
0.0
 11
1.227407
 21
4.510869
 31
0.0
  0
ARC
  8
0
  6
CONTINUOUS
 62
     7
  5
3BA
 10
1.147811
 20
4.98004
 30
0.0
 40
0.059055
 50
2.5
 51
32.499979
  0
LINE
  8
0
  6
CONTINUOUS
 62
     7
  5
3BB
 10
1.127967
 20
5.1211
 30
0.0
 11
1.197618
 21
5.011771
 31
0.0
  0
ARC
  8
0
  6
CONTINUOUS
 62
     7
  5
3BC
 10
1.078161
 20
5.08937
 30
0.0
 40
0.059055
 50
32.499979
 51
90.0
  0
LINE
  8
0
  6
CONTINUOUS
 62
     7
  5
3BD
 10
0.890523
 20
5.148425
 30
0.0
 11
1.078161
 21
5.148425
 31
0.0
  0
ARC
  8
0
  6
CONTINUOUS
 62
     7
  5
3BE
 10
0.890523
 20
5.116929
 30
0.0
 40
0.031496
 50
90.0
 51
176.020196
  0
LINE
  8
0
  6
CONTINUOUS
 62
     7
  5
3BF
 10
0.802595
 20
4.306902
 30
0.0
 11
0.859103
 21
5.119115
 31
0.0
  0
ARC
  8
0
  6
CONTINUOUS
 62
     7
  5
3C0
 10
0.782957
 20
4.308268
 30
0.0
 40
0.019685
 50
270.0
 51
356.020196
  0
LINE
  8
0
  6
CONTINUOUS
 62
     7
  5
3C1
 10
0.619564
 20
4.288583
 30
0.0
 11
0.782957
 21
4.288583
 31
0.0
  0
ARC
  8
0
  6
CONTINUOUS
 62
     7
  5
3C2
 10
0.619564
 20
4.308268
 30
0.0
 40
0.019685
 50
183.982601
 51
270.0
  0
LINE
  8
0
  6
CONTINUOUS
 62
     7
  5
3C3
 10
0.543379
 20
5.119117
 30
0.0
 11
0.599927
 21
4.306901
 31
0.0
  0
ARC
  8
0
  6
CONTINUOUS
 62
     7
  5
3C4
 10
0.511959
 20
5.116929
 30
0.0
 40
0.031496
 50
3.982601
 51
90.0
  0
LINE
  8
0
  6
CONTINUOUS
 62
     7
  5
3C5
 10
0.375037
 20
5.148425
 30
0.0
 11
0.511959
 21
5.148425
 31
0.0
  0
ARC
  8
0
  6
CONTINUOUS
 62
     7
  5
3C6
 10
0.375037
 20
5.08937
 30
0.0
 40
0.059055
 50
90.0
 51
175.67954
  0
LINE
  8
0
  6
CONTINUOUS
 62
     7
  5
3C7
 10
0.25669
 20
4.306785
 30
0.0
 11
0.31615
 21
5.093819
 31
0.0
  0
ARC
  8
0
  6
CONTINUOUS
 62
     7
  5
3C8
 10
0.237061
 20
4.308268
 30
0.0
 40
0.019685
 50
270.0
 51
355.67954
  0
LINE
  8
0
  6
CONTINUOUS
 62
     7
  5
3C9
 10
-0.14651
 20
4.288583
 30
0.0
 11
0.237061
 21
4.288583
 31
0.0
  0
ARC
  8
0
  6
CONTINUOUS
 62
     7
  5
3CA
 10
-0.14651
 20
4.308268
 30
0.0
 40
0.019685
 50
184.32046
 51
270.0
  0
LINE
  8
0
  6
CONTINUOUS
 62
     7
  5
3CB
 10
-0.225599
 20
5.093819
 30
0.0
 11
-0.166139
 21
4.306785
 31
0.0
  0
ARC
  8
0
  6
CONTINUOUS
 62
     7
  5
3CC
 10
-0.284486
 20
5.08937
 30
0.0
 40
0.059055
 50
4.32046
 51
90.0
  0
LINE
  8
0
  6
CONTINUOUS
 62
     7
  5
3CD
 10
-0.46144
 20
5.148425
 30
0.0
 11
-0.284486
 21
5.148425
 31
0.0
  0
ARC
  8
0
  6
CONTINUOUS
 62
     7
  5
3CE
 10
-0.46144
 20
5.08937
 30
0.0
 40
0.059055
 50
90.0
 51
170.924647
  0
LINE
  8
0
  6
CONTINUOUS
 62
     7
  5
3CF
 10
-0.591986
 20
4.646495
 30
0.0
 11
-0.519756
 21
5.098685
 31
0.0
  0
ARC
  8
0
  6
CONTINUOUS
 62
     7
  5
3D0
 10
-0.53367
 20
4.63718
 30
0.0
 40
0.059055
 50
170.924647
 51
179.500001
  0
LINE
  8
0
  6
CONTINUOUS
 62
     7
  5
3D1
 10
-0.596457
 20
4.209842
 30
0.0
 11
-0.592723
 21
4.637695
 31
0.0
  0
LINE
  8
0
  6
CONTINUOUS
 62
     7
  5
3D2
 10
-0.596457
 20
4.209843
 30
0.0
 11
-0.505895
 21
4.209843
 31
0.0
  0
LINE
  8
0
  6
CONTINUOUS
 62
     7
  5
3D3
 10
2.976239
 20
4.209842
 30
0.0
 11
-0.505895
 21
4.209842
 31
0.0
  0
ARC
  8
0
  6
CONTINUOUS
 62
     7
  5
3D4
 10
2.976239
 20
4.198031
 30
0.0
 40
0.011811
 50
2.999999
 51
90.0
  0
LINE
  8
0
  6
CONTINUOUS
 62
     7
  5
3D5
 10
3.071361
 20
2.608671
 30
0.0
 11
2.988034
 21
4.19865
 31
0.0
  0
LINE
  8
0
  6
CONTINUOUS
 62
     7
  5
3D6
 10
3.073855
 20
2.322835
 30
0.0
 11
3.071361
 21
2.608671
 31
0.0
  0
LINE
  8
0
  6
CONTINUOUS
 62
     7
  5
3D7
 10
2.882336
 20
4.41304
 30
0.0
 11
2.797809
 21
4.288583
 31
0.0
  0
LINE
  8
0
  6
CONTINUOUS
 62
     7
  5
3D8
 10
2.53322
 20
4.465853
 30
0.0
 11
2.653617
 21
4.288583
 31
0.0
  0
ARC
  8
0
  6
CONTINUOUS
 62
     7
  5
3D9
 10
2.75507
 20
4.499475
 30
0.0
 40
0.153843
 50
325.816798
 51
330.759966
  0
LINE
  8
0
  6
CONTINUOUS
 62
     7
  5
3DA
 10
2.848303
 20
4.895794
 30
0.0
 11
2.900114
 21
4.56732
 31
0.0
  0
ARC
  8
0
  6
CONTINUOUS
 62
     7
  5
3DB
 10
2.877858
 20
4.900456
 30
0.0
 40
0.029921
 50
150.000001
 51
188.963563
  0
LINE
  8
0
  6
CONTINUOUS
 62
     7
  5
3DC
 10
2.919551
 20
5.032512
 30
0.0
 11
2.851946
 21
4.915416
 31
0.0
  0
LINE
  8
0
  6
CONTINUOUS
 62
     7
  5
3DD
 10
2.838145
 20
5.079512
 30
0.0
 11
2.919551
 21
5.032512
 31
0.0
  0
LINE
  8
0
  6
CONTINUOUS
 62
     7
  5
3DE
 10
2.770539
 20
4.962416
 30
0.0
 11
2.838145
 21
5.079512
 31
0.0
  0
ARC
  8
0
  6
CONTINUOUS
 62
     7
  5
3DF
 10
2.877858
 20
4.900456
 30
0.0
 40
0.123921
 50
150.000001
 51
188.963563
  0
LINE
  8
0
  6
CONTINUOUS
 62
     7
  5
3E0
 10
2.814182
 20
4.508798
 30
0.0
 11
2.755451
 21
4.881148
 31
0.0
  0
ARC
  8
0
  6
CONTINUOUS
 62
     7
  5
3E1
 10
2.75507
 20
4.499475
 30
0.0
 40
0.059843
 50
325.816798
 51
8.963563
  0
LINE
  8
0
  6
CONTINUOUS
 62
     7
  5
3E2
 10
2.684178
 20
4.288583
 30
0.0
 11
2.804575
 21
4.465853
 31
0.0
  0
LINE
  8
0
  6
CONTINUOUS
 62
     7
  5
3E3
 10
2.539987
 20
4.288583
 30
0.0
 11
2.455459
 21
4.41304
 31
0.0
  0
ARC
  8
0
  6
CONTINUOUS
 62
     7
  5
3E4
 10
2.582725
 20
4.499475
 30
0.0
 40
0.153843
 50
209.447491
 51
214.183202
  0
LINE
  8
0
  6
CONTINUOUS
 62
     7
  5
3E5
 10
2.437841
 20
4.568333
 30
0.0
 11
2.489493
 21
4.895794
 31
0.0
  0
ARC
  8
0
  6
CONTINUOUS
 62
     7
  5
3E6
 10
2.459937
 20
4.900456
 30
0.0
 40
0.029921
 50
351.036437
 51
29.999999
  0
LINE
  8
0
  6
CONTINUOUS
 62
     7
  5
3E7
 10
2.485849
 20
4.915416
 30
0.0
 11
2.418244
 21
5.032512
 31
0.0
  0
LINE
  8
0
  6
CONTINUOUS
 62
     7
  5
3E8
 10
2.418244
 20
5.032512
 30
0.0
 11
2.499651
 21
5.079512
 31
0.0
  0
LINE
  8
0
  6
CONTINUOUS
 62
     7
  5
3E9
 10
2.499651
 20
5.079512
 30
0.0
 11
2.567256
 21
4.962416
 31
0.0
  0
ARC
  8
0
  6
CONTINUOUS
 62
     7
  5
3EA
 10
2.459937
 20
4.900456
 30
0.0
 40
0.123921
 50
351.036437
 51
29.999999
  0
LINE
  8
0
  6
CONTINUOUS
 62
     7
  5
3EB
 10
2.582345
 20
4.881148
 30
0.0
 11
2.523613
 21
4.508798
 31
0.0
  0
ARC
  8
0
  6
CONTINUOUS
 62
     7
  5
3EC
 10
2.582725
 20
4.499475
 30
0.0
 40
0.059843
 50
171.036437
 51
214.183202
  0
LINE
  8
0
  6
CONTINUOUS
 62
     7
  5
3ED
 10
1.526334
 20
5.079512
 30
0.0
 11
1.550908
 21
5.065323
 31
0.0
  0
LINE
  8
0
  6
CONTINUOUS
 62
     7
  5
3EE
 10
1.458728
 20
4.962416
 30
0.0
 11
1.526334
 21
5.079512
 31
0.0
  0
ARC
  8
0
  6
CONTINUOUS
 62
     7
  5
3EF
 10
1.566047
 20
4.900456
 30
0.0
 40
0.123921
 50
150.000001
 51
188.963563
  0
LINE
  8
0
  6
CONTINUOUS
 62
     7
  5
3F0
 10
1.490263
 20
4.585559
 30
0.0
 11
1.44364
 21
4.881148
 31
0.0
  0
LINE
  8
0
  6
CONTINUOUS
 62
     7
  5
3F1
 10
1.163438
 20
5.065423
 30
0.0
 11
1.18784
 21
5.079512
 31
0.0
  0
LINE
  8
0
  6
CONTINUOUS
 62
     7
  5
3F2
 10
1.18784
 20
5.079512
 30
0.0
 11
1.255445
 21
4.962416
 31
0.0
  0
ARC
  8
0
  6
CONTINUOUS
 62
     7
  5
3F3
 10
1.148126
 20
4.900456
 30
0.0
 40
0.123921
 50
351.036437
 51
29.999999
  0
LINE
  8
0
  6
CONTINUOUS
 62
     7
  5
3F4
 10
1.270534
 20
4.881148
 30
0.0
 11
1.224095
 21
4.586733
 31
0.0
  0
LINE
  8
0
  6
CONTINUOUS
 62
     7
  5
3F5
 10
-0.543254
 20
4.951575
 30
0.0
 11
-0.851188
 21
4.951575
 31
0.0
  0
LINE
  8
0
  6
CONTINUOUS
 62
     7
  5
3F6
 10
-0.851188
 20
4.951575
 30
0.0
 11
-0.894094
 21
4.951575
 31
0.0
  0
LINE
  8
0
  6
CONTINUOUS
 62
     7
  5
3F7
 10
-0.894094
 20
3.731102
 30
0.0
 11
-0.894094
 21
4.951575
 31
0.0
  0
LINE
  8
0
  6
CONTINUOUS
 62
     7
  5
3F8
 10
-0.894094
 20
1.998819
 30
0.0
 11
-0.815354
 21
1.998819
 31
0.0
  0
LINE
  8
0
  6
CONTINUOUS
 62
     7
  5
3F9
 10
-0.894094
 20
1.998819
 30
0.0
 11
-0.894094
 21
3.731102
 31
0.0
  0
LINE
  8
0
  6
CONTINUOUS
 62
     7
  5
3FA
 10
-0.815354
 20
3.731102
 30
0.0
 11
-0.894094
 21
3.731102
 31
0.0
  0
LINE
  8
0
  6
CONTINUOUS
 62
     7
  5
3FB
 10
-0.6774
 20
2.665354
 30
0.0
 11
-0.596457
 21
4.209842
 31
0.0
  0
LINE
  8
0
  6
CONTINUOUS
 62
     7
  5
3FC
 10
-0.46144
 20
5.148425
 30
0.0
 11
-0.450394
 21
5.148425
 31
0.0
  0
LINE
  8
0
  6
CONTINUOUS
 62
     7
  5
3FD
 10
-0.367717
 20
5.148425
 30
0.0
 11
-0.284486
 21
5.148425
 31
0.0
  0
LINE
  8
0
  6
CONTINUOUS
 62
     7
  5
3FE
 10
0.375037
 20
5.148425
 30
0.0
 11
0.458268
 21
5.148425
 31
0.0
  0
LINE
  8
0
  6
CONTINUOUS
 62
     7
  5
3FF
 10
0.944094
 20
5.148425
 30
0.0
 11
1.078161
 21
5.148425
 31
0.0
  0
LINE
  8
0
  6
CONTINUOUS
 62
     7
  5
400
 10
1.636249
 20
5.148425
 30
0.0
 11
1.770079
 21
5.148425
 31
0.0
  0
LINE
  8
0
  6
CONTINUOUS
 62
     7
  5
401
 10
2.998778
 20
5.148425
 30
0.0
 11
3.08189
 21
5.148425
 31
0.0
  0
LINE
  8
0
  6
CONTINUOUS
 62
     7
  5
402
 10
-0.586838
 20
2.665354
 30
0.0
 11
-0.6774
 21
2.665354
 31
0.0
  0
LINE
  8
0
  6
CONTINUOUS
 62
     7
  5
403
 10
-0.505895
 20
4.209842
 30
0.0
 11
-0.586838
 21
2.665354
 31
0.0
  0
LINE
  8
0
  6
CONTINUOUS
 62
     7
  5
404
 10
-0.837205
 20
-4.5549
 30
0.0
 11
-0.759252
 21
-4.5549
 31
0.0
  0
LINE
  8
0
  6
CONTINUOUS
 62
     7
  5
405
 10
-0.758441
 20
-4.331142
 30
0.0
 11
-0.366535
 21
-4.331142
 31
0.0
  0
LINE
  8
0
  6
CONTINUOUS
 62
     7
  5
406
 10
-0.366535
 20
-4.447142
 30
0.0
 11
-0.229535
 21
-4.447142
 31
0.0
  0
LINE
  8
0
  6
CONTINUOUS
 62
     7
  5
407
 10
-0.991535
 20
-4.081142
 30
0.0
 11
-1.116535
 21
-4.114635
 31
0.0
  0
LINE
  8
0
  6
CONTINUOUS
 62
     7
  5
408
 10
-1.116535
 20
-4.297648
 30
0.0
 11
-0.991535
 21
-4.331142
 31
0.0
  0
LINE
  8
0
  6
CONTINUOUS
 62
     7
  5
409
 10
-0.837205
 20
-4.081142
 30
0.0
 11
-0.991535
 21
-4.081142
 31
0.0
  0
LINE
  8
0
  6
CONTINUOUS
 62
     7
  5
40A
 10
-0.991535
 20
-4.331142
 30
0.0
 11
-0.837205
 21
-4.331142
 31
0.0
  0
LINE
  8
0
  6
CONTINUOUS
 62
     3
  5
40B
 10
2.767717
 20
-2.244094
 30
0.0
 11
0.0
 21
-2.244094
 31
0.0
  0
LINE
  8
0
  6
CONTINUOUS
 62
     3
  5
40C
 10
1.901575
 20
0.15748
 30
0.0
 11
1.901575
 21
-0.03937
 31
0.0
  0
LINE
  8
0
  6
CONTINUOUS
 62
     3
  5
40D
 10
1.80315
 20
0.059055
 30
0.0
 11
4.027559
 21
0.059055
 31
0.0
  0
ENDSEC
  0
EOF
