999
DXF file: C:\Vinayak\New 2D genarating\updateCreo8 with 3dPdf\CAD\NSYS3D3420P_3D-CAD\drw0001_6.dxf
999
Pro/ENGINEER 2021284 by Parametric Technology Corporation
  0
SECTION
  2
HEADER
  9
$ACADVER
  1
AC1024
  9
$DWGCODEPAGE
  3
ANSI_1252
  9
$EXTMAX
 10
264.1890844474
 20
373.6388480042
 30
0.0
  9
$EXTMIN
 10
0.0
 20
0.0
 30
0.0
  9
$LIMMIN
 10
0.0
 20
0.0
  9
$LIMMAX
 10
264.1890844474
 20
373.6388480042
  9
$VIEWCTR
 10
132.0945422237
 20
186.8194240021
  9
$VIEWSIZE
 40
373.6388480042
  9
$CLAYER
  8
0
  9
$LTSCALE
 40
24.3557174995
  9
$CELTYPE
  6
BYLAYER
  9
$DIMSCALE
 40
1.0
  9
$DIMASZ
 40
3.1451081482
  9
$DIMEXO
 40
1.0
  9
$DIMDLI
 40
16.827586636
  9
$DIMEXE
 40
1.0
  9
$DIMCEN
 40
3.9854810454
  9
$DIMLFAC
 40
1.0
  9
$DIMBLK
  1
_FILLED
  9
$DIMALT
 70
0
  9
$DIMALTF
 40
0.0393700787
  9
$DIMTXT
 40
4.4031514075
  9
$DIMTOL
 70
1
  9
$DIMLIM
 70
0
  9
$DIMTFAC
 40
1.0
  9
$DIMTP
 40
0.01
  9
$DIMTM
 40
0.01
  9
$DIMGAP
 40
0.625
  9
$DIMDSEP
 70
46
  9
$AUNITS
 70
0
  9
$PDMODE
 70
3
  9
$PDSIZE
 40
0.3125
  9
$HANDSEED
  5
394
  9
$TILEMODE
 70
1
  9
$MEASUREMENT
 70
1
  9
$INSUNITS
 70
4
  0
ENDSEC
  0
SECTION
  2
CLASSES
  0
CLASS
  1
ACDBDICTIONARYWDFLT
  2
AcDbDictionaryWithDefault
  3
AutoCAD 2000
 90
0
 91
1
280
0
281
0
  0
CLASS
  1
ACDBPLACEHOLDER
  2
AcDbPlaceHolder
  3
AutoCAD 2000
 90
0
 91
1
280
0
281
0
  0
CLASS
  1
LAYOUT
  2
AcDbLayout
  3
AutoCAD 2000
 90
0
 91
0
280
0
281
0
  0
ENDSEC
  0
SECTION
  2
TABLES
  0
TABLE
  2
VPORT
  5
8
100
AcDbSymbolTable
 70
2
  0
VPORT
  5
1F4
100
AcDbSymbolTableRecord
100
AcDbViewportTableRecord
  2
*ACTIVE
 70
0
 10
0.0
 20
0.0
 11
1.0
 21
1.0
 12
132.0945422237
 22
186.8194240021
 13
0.0
 23
0.0
 14
1.0
 24
1.0
 15
0.0
 25
0.0
 16
0.0
 26
0.0
 36
1.0
 17
0.0
 27
0.0
 37
0.0
 40
373.6388480042
 41
0.7070707071
 42
50.0
 43
0.0
 44
0.0
 50
0.0
 51
0.0
 71
0
 72
100
 73
1
 74
1
 75
0
 76
0
 77
0
 78
0
  0
ENDTAB
  0
TABLE
  2
LTYPE
  5
5
100
AcDbSymbolTable
 70
6
  0
LTYPE
  5
14
100
AcDbSymbolTableRecord
100
AcDbLinetypeTableRecord
  2
BYBLOCK
 70
0
  3

 72
65
 73
0
 40
0.0
  0
LTYPE
  5
15
100
AcDbSymbolTableRecord
100
AcDbLinetypeTableRecord
  2
BYLAYER
 70
0
  3

 72
65
 73
0
 40
0.0
  0
LTYPE
  5
16
100
AcDbSymbolTableRecord
100
AcDbLinetypeTableRecord
  2
CONTINUOUS
 70
64
  3
Solid line
 72
65
 73
0
 40
0.0
  0
LTYPE
  5
1F5
100
AcDbSymbolTableRecord
100
AcDbLinetypeTableRecord
  2
CENTER
 70
64
  3
____ _ ____ _ ____ _ ____ _ ____ _ ____ _ ____
 72
65
 73
4
 40
0.6
 49
0.375
 74
0
 49
-0.075
 74
0
 49
0.075
 74
0
 49
-0.075
 74
0
  0
LTYPE
  5
1F6
100
AcDbSymbolTableRecord
100
AcDbLinetypeTableRecord
  2
HIDDEN
 70
64
  3
- - - - - - - - - - - - - - - - - - - -
 72
65
 73
2
 40
0.2
 49
0.1
 74
0
 49
-0.1
 74
0
  0
LTYPE
  5
1F7
100
AcDbSymbolTableRecord
100
AcDbLinetypeTableRecord
  2
PHANTOM
 70
64
  3
_____ _ _ _____ _ _ _____ _ _ _____
 72
65
 73
6
 40
0.8
 49
0.45
 74
0
 49
-0.05
 74
0
 49
0.1
 74
0
 49
-0.05
 74
0
 49
0.1
 74
0
 49
-0.05
 74
0
  0
LTYPE
  5
1F8
100
AcDbSymbolTableRecord
100
AcDbLinetypeTableRecord
  2
DOT
 70
64
  3
. . . . . . . . . . . . . . . . . . . .
 72
65
 73
2
 40
0.2
 49
0.1
 74
0
 49
-0.1
 74
0
  0
LTYPE
  5
1F9
100
AcDbSymbolTableRecord
100
AcDbLinetypeTableRecord
  2
DASHED
 70
64
  3
- - - - - - - - - - - - - - - - - - - -
 72
65
 73
2
 40
0.2
 49
0.1
 74
0
 49
-0.1
 74
0
  0
ENDTAB
  0
TABLE
  2
LAYER
  5
2
100
AcDbSymbolTable
 70
36
  0
LAYER
  5
10
100
AcDbSymbolTableRecord
100
AcDbLayerTableRecord
  2
0
 70
0
 62
7
  6
CONTINUOUS
370
-3
390
F
  0
LAYER
  5
1FA
100
AcDbSymbolTableRecord
100
AcDbLayerTableRecord
  2
DEFAULT_1
 70
0
 62
7
  6
CENTER
370
-3
390
F
  0
LAYER
  5
1FB
100
AcDbSymbolTableRecord
100
AcDbLayerTableRecord
  2
DEFAULT_2
 70
0
 62
8
  6
HIDDEN
370
-3
390
F
  0
LAYER
  5
1FC
100
AcDbSymbolTableRecord
100
AcDbLayerTableRecord
  2
DEFAULT_3
 70
0
 62
7
  6
PHANTOM
370
-3
390
F
  0
LAYER
  5
1FD
100
AcDbSymbolTableRecord
100
AcDbLayerTableRecord
  2
00_COMPONENTS
 70
0
 62
7
  6
CONTINUOUS
370
-3
390
F
  0
LAYER
  5
1FE
100
AcDbSymbolTableRecord
100
AcDbLayerTableRecord
  2
00_COMPONENTS_10
 70
0
 62
7
  6
CONTINUOUS
370
-3
390
F
  0
LAYER
  5
1FF
100
AcDbSymbolTableRecord
100
AcDbLayerTableRecord
  2
00_COMPONENTS_12
 70
0
 62
7
  6
CONTINUOUS
370
-3
390
F
  0
LAYER
  5
200
100
AcDbSymbolTableRecord
100
AcDbLayerTableRecord
  2
00_COMPONENTS_14
 70
0
 62
7
  6
CONTINUOUS
370
-3
390
F
  0
LAYER
  5
201
100
AcDbSymbolTableRecord
100
AcDbLayerTableRecord
  2
00_COMPONENTS_15
 70
0
 62
7
  6
CONTINUOUS
370
-3
390
F
  0
LAYER
  5
202
100
AcDbSymbolTableRecord
100
AcDbLayerTableRecord
  2
00_COMPONENTS_17
 70
0
 62
7
  6
CONTINUOUS
370
-3
390
F
  0
LAYER
  5
203
100
AcDbSymbolTableRecord
100
AcDbLayerTableRecord
  2
00_COMPONENTS_18
 70
0
 62
7
  6
CONTINUOUS
370
-3
390
F
  0
LAYER
  5
204
100
AcDbSymbolTableRecord
100
AcDbLayerTableRecord
  2
00_COMPONENTS_2
 70
0
 62
7
  6
CONTINUOUS
370
-3
390
F
  0
LAYER
  5
205
100
AcDbSymbolTableRecord
100
AcDbLayerTableRecord
  2
00_COMPONENTS_21
 70
0
 62
7
  6
CONTINUOUS
370
-3
390
F
  0
LAYER
  5
206
100
AcDbSymbolTableRecord
100
AcDbLayerTableRecord
  2
00_COMPONENTS_25
 70
0
 62
7
  6
CONTINUOUS
370
-3
390
F
  0
LAYER
  5
207
100
AcDbSymbolTableRecord
100
AcDbLayerTableRecord
  2
00_COMPONENTS_26
 70
0
 62
7
  6
CONTINUOUS
370
-3
390
F
  0
LAYER
  5
208
100
AcDbSymbolTableRecord
100
AcDbLayerTableRecord
  2
00_COMPONENTS_28
 70
0
 62
7
  6
CONTINUOUS
370
-3
390
F
  0
LAYER
  5
209
100
AcDbSymbolTableRecord
100
AcDbLayerTableRecord
  2
00_COMPONENTS_3
 70
0
 62
7
  6
CONTINUOUS
370
-3
390
F
  0
LAYER
  5
20A
100
AcDbSymbolTableRecord
100
AcDbLayerTableRecord
  2
00_COMPONENTS_30
 70
0
 62
7
  6
CONTINUOUS
370
-3
390
F
  0
LAYER
  5
20B
100
AcDbSymbolTableRecord
100
AcDbLayerTableRecord
  2
00_COMPONENTS_31
 70
0
 62
7
  6
CONTINUOUS
370
-3
390
F
  0
LAYER
  5
20C
100
AcDbSymbolTableRecord
100
AcDbLayerTableRecord
  2
00_COMPONENTS_5
 70
0
 62
7
  6
CONTINUOUS
370
-3
390
F
  0
LAYER
  5
20D
100
AcDbSymbolTableRecord
100
AcDbLayerTableRecord
  2
00_COMPONENTS_6
 70
0
 62
7
  6
CONTINUOUS
370
-3
390
F
  0
LAYER
  5
20E
100
AcDbSymbolTableRecord
100
AcDbLayerTableRecord
  2
00_COMPONENTS_7
 70
0
 62
7
  6
CONTINUOUS
370
-3
390
F
  0
LAYER
  5
20F
100
AcDbSymbolTableRecord
100
AcDbLayerTableRecord
  2
00_COMPONENTS_8
 70
0
 62
7
  6
CONTINUOUS
370
-3
390
F
  0
LAYER
  5
210
100
AcDbSymbolTableRecord
100
AcDbLayerTableRecord
  2
00_COMPONENTS_9
 70
0
 62
7
  6
CONTINUOUS
370
-3
390
F
  0
LAYER
  5
211
100
AcDbSymbolTableRecord
100
AcDbLayerTableRecord
  2
01_1_DEFAULT_DATUMS
 70
0
 62
7
  6
CONTINUOUS
370
-3
390
F
  0
LAYER
  5
212
100
AcDbSymbolTableRecord
100
AcDbLayerTableRecord
  2
01_PLANES
 70
0
 62
7
  6
CONTINUOUS
370
-3
390
F
  0
LAYER
  5
213
100
AcDbSymbolTableRecord
100
AcDbLayerTableRecord
  2
02_COORD_SYS
 70
0
 62
7
  6
CONTINUOUS
370
-3
390
F
  0
LAYER
  5
214
100
AcDbSymbolTableRecord
100
AcDbLayerTableRecord
  2
03_AXES
 70
0
 62
7
  6
CONTINUOUS
370
-3
390
F
  0
LAYER
  5
215
100
AcDbSymbolTableRecord
100
AcDbLayerTableRecord
  2
04_POINTS
 70
0
 62
7
  6
CONTINUOUS
370
-3
390
F
  0
LAYER
  5
216
100
AcDbSymbolTableRecord
100
AcDbLayerTableRecord
  2
05_CURVES
 70
0
 62
7
  6
CONTINUOUS
370
-3
390
F
  0
LAYER
  5
217
100
AcDbSymbolTableRecord
100
AcDbLayerTableRecord
  2
06_SURFS
 70
0
 62
7
  6
CONTINUOUS
370
-3
390
F
  0
LAYER
  5
218
100
AcDbSymbolTableRecord
100
AcDbLayerTableRecord
  2
07_COSMETICS
 70
0
 62
7
  6
CONTINUOUS
370
-3
390
F
  0
LAYER
  5
219
100
AcDbSymbolTableRecord
100
AcDbLayerTableRecord
  2
10_NOTES
 70
0
 62
7
  6
CONTINUOUS
370
-3
390
F
  0
LAYER
  5
21A
100
AcDbSymbolTableRecord
100
AcDbLayerTableRecord
  2
11_NOTES_PUB
 70
0
 62
7
  6
CONTINUOUS
370
-3
390
F
  0
LAYER
  5
21B
100
AcDbSymbolTableRecord
100
AcDbLayerTableRecord
  2
13_REF_GTOL
 70
0
 62
7
  6
CONTINUOUS
370
-3
390
F
  0
LAYER
  5
21C
100
AcDbSymbolTableRecord
100
AcDbLayerTableRecord
  2
16_MISC
 70
0
 62
7
  6
CONTINUOUS
370
-3
390
F
  0
LAYER
  5
21D
100
AcDbSymbolTableRecord
100
AcDbLayerTableRecord
  2
17_NO_PRINT
 70
0
 62
7
  6
CONTINUOUS
370
-3
390
F
  0
LAYER
  5
21E
100
AcDbSymbolTableRecord
100
AcDbLayerTableRecord
  2
18_DATUM_CAMS_JOINTS
 70
0
 62
7
  6
CONTINUOUS
370
-3
390
F
  0
LAYER
  5
21F
100
AcDbSymbolTableRecord
100
AcDbLayerTableRecord
  2
19_DATUM_FUNCTIONAL
 70
0
 62
7
  6
CONTINUOUS
370
-3
390
F
  0
LAYER
  5
220
100
AcDbSymbolTableRecord
100
AcDbLayerTableRecord
  2
20_DATUM_KINEMATIC_SCHEME
 70
0
 62
7
  6
CONTINUOUS
370
-3
390
F
  0
ENDTAB
  0
TABLE
  2
STYLE
  5
3
100
AcDbSymbolTable
 70
1
  0
STYLE
  5
11
100
AcDbSymbolTableRecord
100
AcDbTextStyleTableRecord
  2
STANDARD
 70
0
 40
0.0
 41
0.8
 50
0.0
 71
0
 42
0.2
  3
txt
  4

  0
STYLE
  5
221
100
AcDbSymbolTableRecord
100
AcDbTextStyleTableRecord
  2
TEXTSTYLE_1
 70
0
 40
0.0
 41
0.8
 50
0.0
 71
0
 42
0.2
  3
gdt
  4

  0
ENDTAB
  0
TABLE
  2
VIEW
  5
6
100
AcDbSymbolTable
 70
0
  0
ENDTAB
  0
TABLE
  2
UCS
  5
7
100
AcDbSymbolTable
 70
0
  0
ENDTAB
  0
TABLE
  2
APPID
  5
9
100
AcDbSymbolTable
 70
1
  0
APPID
  5
222
100
AcDbSymbolTableRecord
100
AcDbRegAppTableRecord
  2
ACAD
 70
0
  0
ENDTAB
  0
TABLE
  2
BLOCK_RECORD
  5
1
100
AcDbSymbolTable
 70
0
  0
BLOCK_RECORD
  5
223
100
AcDbSymbolTableRecord
100
AcDbBlockTableRecord
  2
*Model_Space
  0
BLOCK_RECORD
  5
224
100
AcDbSymbolTableRecord
100
AcDbBlockTableRecord
  2
*Paper_Space
  0
BLOCK_RECORD
  5
225
100
AcDbSymbolTableRecord
100
AcDbBlockTableRecord
  2
_FILLED
  0
ENDTAB
  0
TABLE
  2
DIMSTYLE
  5
A
100
AcDbSymbolTable
 70
1
100
AcDbDimStyleTable
 71
0
  0
DIMSTYLE
105
226
100
AcDbSymbolTableRecord
100
AcDbDimStyleTableRecord
  2
STANDARD
 70
0
  3

  4

 40
1.0
 41
3.1451081482
 42
1.0
 43
0.38
 44
1.0
 45
0.0
 46
0.0
 47
0.01
 48
0.01
140
4.4031514075
141
0.09
142
0.0
143
25.4
144
1.0
145
0.0
146
1.0
147
0.625
 71
1
 72
0
 73
0
 74
0
 75
0
 76
0
 77
1
 78
8
 79
2
170
0
171
1
172
0
173
0
174
0
175
0
176
0
177
0
178
0
270
2
179
2
271
2
272
2
273
2
274
2
275
0
280
0
281
0
282
0
283
1
284
8
285
0
286
0
287
3
288
0
340
11
278
46
341
225
342
225
343
225
344
225
  0
ENDTAB
  0
ENDSEC
  0
SECTION
  2
BLOCKS
  0
BLOCK
  5
20
100
AcDbEntity
  8
0
100
AcDbBlockBegin
  2
*Model_Space
 70
0
 10
0.0
 20
0.0
 30
0.0
  3
*Model_Space
  1

  0
ENDBLK
  5
21
100
AcDbEntity
  8
0
100
AcDbBlockEnd
  0
BLOCK
  5
1C
100
AcDbEntity
  8
0
100
AcDbBlockBegin
  2
*Paper_Space
 70
0
 10
0.0
 20
0.0
 30
0.0
  3
*Paper_Space
  1

  0
ENDBLK
  5
1D
100
AcDbEntity
  8
0
100
AcDbBlockEnd
  0
BLOCK
  5
227
100
AcDbEntity
  8
0
100
AcDbBlockBegin
  2
_FILLED
 70
64
 10
0.0
 20
0.0
  3
_FILLED
  1

  0
SOLID
  5
228
100
AcDbEntity
  8
0
  6
BYBLOCK
 62
0
100
AcDbTrace
 10
0.0
 20
0.0
 11
-1.0
 21
0.25
 12
-1.0
 22
-0.25
 13
-1.0
 23
-0.25
  0
ENDBLK
  5
229
100
AcDbEntity
  8
0
  6
BYBLOCK
 62
0
100
AcDbBlockEnd
  0
ENDSEC
  0
SECTION
  2
ENTITIES
  0
LINE
  5
22A
100
AcDbEntity
  8
00_COMPONENTS_3
100
AcDbLine
 62
7
  6
CONTINUOUS
 10
218.2021638587
 20
36.5858051524
 11
218.1971024115
 21
36.5847636956
  0
LINE
  5
22B
100
AcDbEntity
  8
00_COMPONENTS_3
100
AcDbLine
 62
7
  6
CONTINUOUS
 10
218.2024165368
 20
36.5809563097
 11
218.1981731443
 21
36.5800995542
  0
LINE
  5
22C
100
AcDbEntity
  8
00_COMPONENTS_3
100
AcDbLine
 62
7
  6
CONTINUOUS
 10
218.2026431786
 20
36.5817272184
 11
218.1984059682
 21
36.5808895572
  0
LINE
  5
22D
100
AcDbEntity
  8
00_COMPONENTS_3
100
AcDbLine
 62
7
  6
CONTINUOUS
 10
218.2024853545
 20
36.5869113332
 11
218.1974389333
 21
36.5859181761
  0
LINE
  5
22E
100
AcDbEntity
  8
00_COMPONENTS_3
100
AcDbLine
 62
7
  6
CONTINUOUS
 10
218.072023906
 20
36.5579716288
 11
218.0911855781
 21
36.5596929783
  0
LINE
  5
22F
100
AcDbEntity
  8
00_COMPONENTS_21
100
AcDbLine
 62
7
  6
CONTINUOUS
 10
39.0708686029
 20
40.0841720734
 11
36.4495820611
 21
40.8086073799
  0
LINE
  5
230
100
AcDbEntity
  8
00_COMPONENTS_3
100
AcDbLine
 62
7
  6
CONTINUOUS
 10
159.7021638587
 20
36.5858051524
 11
159.6971024115
 21
36.5847636956
  0
LINE
  5
231
100
AcDbEntity
  8
00_COMPONENTS_3
100
AcDbLine
 62
7
  6
CONTINUOUS
 10
159.7024165368
 20
36.5809563097
 11
159.6981731443
 21
36.5800995542
  0
LINE
  5
232
100
AcDbEntity
  8
00_COMPONENTS_3
100
AcDbLine
 62
7
  6
CONTINUOUS
 10
159.7026431786
 20
36.5817272184
 11
159.6984059682
 21
36.5808895572
  0
LINE
  5
233
100
AcDbEntity
  8
00_COMPONENTS_3
100
AcDbLine
 62
7
  6
CONTINUOUS
 10
159.7024853545
 20
36.5869113332
 11
159.6974389333
 21
36.5859181761
  0
LINE
  5
234
100
AcDbEntity
  8
00_COMPONENTS_3
100
AcDbLine
 62
7
  6
CONTINUOUS
 10
218.0424339586
 20
36.5554066362
 11
218.072023906
 21
36.5579716288
  0
LINE
  5
235
100
AcDbEntity
  8
00_COMPONENTS_3
100
AcDbLine
 62
7
  6
CONTINUOUS
 10
159.5424339586
 20
36.5554066362
 11
159.5911855781
 21
36.5596929783
  0
LINE
  5
236
100
AcDbEntity
  8
00_COMPONENTS_3
100
AcDbLine
 62
7
  6
CONTINUOUS
 10
101.0424339586
 20
36.5554066362
 11
101.0911855781
 21
36.5596929783
  0
LINE
  5
237
100
AcDbEntity
  8
00_COMPONENTS_3
100
AcDbLine
 62
7
  6
CONTINUOUS
 10
159.5424334659
 20
36.5554124433
 11
159.5528810953
 21
36.5562993328
  0
LINE
  5
238
100
AcDbEntity
  8
00_COMPONENTS_3
100
AcDbLine
 62
7
  6
CONTINUOUS
 10
101.0424334659
 20
36.5554124433
 11
101.0528810953
 21
36.5562993328
  0
LINE
  5
239
100
AcDbEntity
  8
00_COMPONENTS_3
100
AcDbLine
 62
7
  6
CONTINUOUS
 10
219.4432716525
 20
36.7598306661
 11
219.3779270836
 21
36.7598306661
  0
LINE
  5
23A
100
AcDbEntity
  8
00_COMPONENTS_3
100
AcDbLine
 62
7
  6
CONTINUOUS
 10
217.8961652143
 20
36.7598306661
 11
216.8661652143
 21
36.7598306661
  0
LINE
  5
23B
100
AcDbEntity
  8
00_COMPONENTS_3
100
AcDbLine
 62
7
  6
CONTINUOUS
 10
215.384403345
 20
36.7598306661
 11
215.319058776
 21
36.7598306661
  0
LINE
  5
23C
100
AcDbEntity
  8
00_COMPONENTS_3
100
AcDbLine
 62
7
  6
CONTINUOUS
 10
160.9432716525
 20
36.7598306661
 11
160.8779270836
 21
36.7598306661
  0
LINE
  5
23D
100
AcDbEntity
  8
00_COMPONENTS_3
100
AcDbLine
 62
7
  6
CONTINUOUS
 10
159.3961652143
 20
36.7598306661
 11
158.3661652143
 21
36.7598306661
  0
LINE
  5
23E
100
AcDbEntity
  8
00_COMPONENTS_3
100
AcDbLine
 62
7
  6
CONTINUOUS
 10
156.884403345
 20
36.7598306661
 11
156.819058776
 21
36.7598306661
  0
LINE
  5
23F
100
AcDbEntity
  8
00_COMPONENTS_3
100
AcDbLine
 62
7
  6
CONTINUOUS
 10
102.4432716525
 20
36.7598306661
 11
102.3779270836
 21
36.7598306661
  0
LINE
  5
240
100
AcDbEntity
  8
00_COMPONENTS_3
100
AcDbLine
 62
7
  6
CONTINUOUS
 10
100.8961652143
 20
36.7598306661
 11
99.8661652143
 21
36.7598306661
  0
LINE
  5
241
100
AcDbEntity
  8
00_COMPONENTS_3
100
AcDbLine
 62
7
  6
CONTINUOUS
 10
98.384403345
 20
36.7598306661
 11
98.319058776
 21
36.7598306661
  0
LINE
  5
242
100
AcDbEntity
  8
00_COMPONENTS_8
100
AcDbLine
 62
7
  6
CONTINUOUS
 10
236.6811652143
 20
37.0841720734
 11
65.0811652143
 21
37.0841720734
  0
LINE
  5
243
100
AcDbEntity
  8
00_COMPONENTS_8
100
AcDbLine
 62
7
  6
CONTINUOUS
 10
236.6811652143
 20
38.0841720734
 11
65.0811670486
 21
38.0841720734
  0
LINE
  5
244
100
AcDbEntity
  8
00_COMPONENTS_21
100
AcDbLine
 62
7
  6
CONTINUOUS
 10
39.0708686029
 20
39.0841720734
 11
54.7708686029
 21
39.0841720734
  0
LINE
  5
245
100
AcDbEntity
  8
00_COMPONENTS_21
100
AcDbLine
 62
7
  6
CONTINUOUS
 10
39.0708686029
 20
40.0841720734
 11
54.7708686029
 21
40.0841720734
  0
LINE
  5
246
100
AcDbEntity
  8
00_COMPONENTS_3
100
AcDbLine
 62
7
  6
CONTINUOUS
 10
99.5597025708
 20
36.5817241896
 11
99.5632131719
 21
36.581030173
  0
LINE
  5
247
100
AcDbEntity
  8
00_COMPONENTS_3
100
AcDbLine
 62
7
  6
CONTINUOUS
 10
99.559929237
 20
36.580953205
 11
99.5634450346
 21
36.5802431091
  0
LINE
  5
248
100
AcDbEntity
  8
00_COMPONENTS_3
100
AcDbLine
 62
7
  6
CONTINUOUS
 10
101.2021638587
 20
36.5858051524
 11
101.1971024115
 21
36.5847636956
  0
LINE
  5
249
100
AcDbEntity
  8
00_COMPONENTS_3
100
AcDbLine
 62
7
  6
CONTINUOUS
 10
101.2024165368
 20
36.5809563097
 11
101.1981731443
 21
36.5800995542
  0
LINE
  5
24A
100
AcDbEntity
  8
00_COMPONENTS_3
100
AcDbLine
 62
7
  6
CONTINUOUS
 10
101.2026431786
 20
36.5817272184
 11
101.1984059682
 21
36.5808895572
  0
LINE
  5
24B
100
AcDbEntity
  8
00_COMPONENTS_3
100
AcDbLine
 62
7
  6
CONTINUOUS
 10
101.2024853545
 20
36.5869113332
 11
101.1974389333
 21
36.5859181761
  0
LINE
  5
24C
100
AcDbEntity
  8
00_COMPONENTS_3
100
AcDbLine
 62
7
  6
CONTINUOUS
 10
158.0597025708
 20
36.5817241896
 11
158.0632131719
 21
36.581030173
  0
LINE
  5
24D
100
AcDbEntity
  8
00_COMPONENTS_3
100
AcDbLine
 62
7
  6
CONTINUOUS
 10
158.059929237
 20
36.580953205
 11
158.0634450346
 21
36.5802431091
  0
LINE
  5
24E
100
AcDbEntity
  8
00_COMPONENTS_3
100
AcDbLine
 62
7
  6
CONTINUOUS
 10
216.5597025708
 20
36.5817241896
 11
216.5632131719
 21
36.581030173
  0
LINE
  5
24F
100
AcDbEntity
  8
00_COMPONENTS_3
100
AcDbLine
 62
7
  6
CONTINUOUS
 10
216.559929237
 20
36.580953205
 11
216.5634450346
 21
36.5802431091
  0
LINE
  5
250
100
AcDbEntity
  8
00_COMPONENTS_8
100
AcDbLine
 62
7
  6
CONTINUOUS
 10
55.8708686029
 20
55.9158887601
 11
59.4995472235
 21
56.6212324321
  0
LINE
  5
251
100
AcDbEntity
  8
00_COMPONENTS_8
100
AcDbLine
 62
7
  6
CONTINUOUS
 10
59.49954534
 20
57.6028612183
 11
55.8708686029
 21
56.8975174719
  0
LWPOLYLINE
  5
252
100
AcDbEntity
  8
00_COMPONENTS_28
100
AcDbPolyline
 62
7
  6
CONTINUOUS
 90
3
 70
0
 10
30.2120225893
 20
165.3232078006
 10
30.256898674
 20
164.8524156609
 10
30.270868293
 20
164.5326051551
  0
LWPOLYLINE
  5
253
100
AcDbEntity
  8
00_COMPONENTS_28
100
AcDbPolyline
 62
7
  6
CONTINUOUS
 90
3
 70
0
 10
29.8813085505
 20
165.4896187639
 10
29.967869913
 20
164.4972185036
 10
30.0794479096
 20
163.7377608569
  0
LWPOLYLINE
  5
254
100
AcDbEntity
  8
00_COMPONENTS_28
100
AcDbPolyline
 62
7
  6
CONTINUOUS
 90
4
 70
0
 10
29.8813750686
 20
164.0598343537
 10
29.9139854298
 20
163.6381705302
 10
30.06445305
 20
162.6852972461
 10
30.1484272458
 20
162.3236406198
  0
LWPOLYLINE
  5
255
100
AcDbEntity
  8
00_COMPONENTS_28
100
AcDbPolyline
 62
7
  6
CONTINUOUS
 90
4
 70
0
 10
30.0669265412
 20
167.5428095648
 10
30.1099105094
 20
166.5374612967
 10
30.1441212071
 20
166.048808255
 10
30.2120252907
 20
165.3231213153
  0
LINE
  5
256
100
AcDbEntity
  8
00_COMPONENTS_28
100
AcDbLine
 62
7
  6
CONTINUOUS
 10
30.0770274429
 20
167.543003722
 11
30.0772020536
 21
167.5364265671
  0
LINE
  5
257
100
AcDbEntity
  8
00_COMPONENTS_28
100
AcDbLine
 62
7
  6
CONTINUOUS
 10
30.0770688867
 20
167.5430224132
 11
30.0772020536
 21
167.5364265671
  0
LINE
  5
258
100
AcDbEntity
  8
00_COMPONENTS_28
100
AcDbLine
 62
7
  6
CONTINUOUS
 10
30.2708683046
 20
200.0358721397
 11
30.2708686027
 21
200.0345758416
  0
LINE
  5
259
100
AcDbEntity
  8
00_COMPONENTS_28
100
AcDbLine
 62
7
  6
CONTINUOUS
 10
29.8811019008
 20
164.0701171946
 11
29.8811019008
 21
165.4896187639
  0
LINE
  5
25A
100
AcDbEntity
  8
00_COMPONENTS_28
100
AcDbLine
 62
7
  6
CONTINUOUS
 10
29.8811019008
 20
165.4987081174
 11
29.8811019008
 21
183.3963113111
  0
LINE
  5
25B
100
AcDbEntity
  8
00_COMPONENTS_28
100
AcDbLine
 62
7
  6
CONTINUOUS
 10
29.8811019008
 20
190.7720328356
 11
29.8811019008
 21
200.4982270919
  0
LINE
  5
25C
100
AcDbEntity
  8
00_COMPONENTS_28
100
AcDbLine
 62
7
  6
CONTINUOUS
 10
29.8905957276
 20
165.4987293006
 11
29.8905957276
 21
183.5232041761
  0
LINE
  5
25D
100
AcDbEntity
  8
00_COMPONENTS_28
100
AcDbLine
 62
7
  6
CONTINUOUS
 10
29.8905899831
 20
190.6451582196
 11
29.8905829552
 21
199.0691275683
  0
LINE
  5
25E
100
AcDbEntity
  8
00_COMPONENTS_28
100
AcDbLine
 62
7
  6
CONTINUOUS
 10
29.8905949502
 20
199.2283724953
 11
29.8905949502
 21
200.4981990202
  0
LINE
  5
25F
100
AcDbEntity
  8
00_COMPONENTS_28
100
AcDbLine
 62
7
  6
CONTINUOUS
 10
29.8905965088
 20
164.0701424368
 11
29.8905965088
 21
165.3831350859
  0
LINE
  5
260
100
AcDbEntity
  8
00_COMPONENTS_28
100
AcDbLine
 62
7
  6
CONTINUOUS
 10
29.9057494527
 20
182.6563756462
 11
29.9057437731
 21
181.9270490245
  0
LINE
  5
261
100
AcDbEntity
  8
00_COMPONENTS_28
100
AcDbLine
 62
7
  6
CONTINUOUS
 10
29.9077266849
 20
182.6563680033
 11
29.907700825
 21
181.9270562841
  0
LINE
  5
262
100
AcDbEntity
  8
00_COMPONENTS_28
100
AcDbLine
 62
7
  6
CONTINUOUS
 10
33.731270438
 20
197.5145932636
 11
33.731270438
 21
167.0537518843
  0
LINE
  5
263
100
AcDbEntity
  8
00_COMPONENTS_28
100
AcDbLine
 62
7
  6
CONTINUOUS
 10
34.2898014109
 20
157.4846045938
 11
34.2898014109
 21
160.3338401678
  0
LINE
  5
264
100
AcDbEntity
  8
00_COMPONENTS_28
100
AcDbLine
 62
7
  6
CONTINUOUS
 10
34.2898014109
 20
204.2345076303
 11
34.2898014109
 21
207.083739553
  0
LINE
  5
265
100
AcDbEntity
  8
00_COMPONENTS_28
100
AcDbLine
 62
7
  6
CONTINUOUS
 10
35.032253319
 20
207.2548869824
 11
35.032253319
 21
204.3860244225
  0
LINE
  5
266
100
AcDbEntity
  8
00_COMPONENTS_28
100
AcDbLine
 62
7
  6
CONTINUOUS
 10
35.032253319
 20
160.1823178128
 11
35.032253319
 21
157.3134571644
  0
LINE
  5
267
100
AcDbEntity
  8
00_COMPONENTS_21
100
AcDbLine
 62
7
  6
CONTINUOUS
 10
35.8708686029
 20
42.2841720734
 11
35.8708686029
 21
331.8841720734
  0
LINE
  5
268
100
AcDbEntity
  8
00_COMPONENTS_21
100
AcDbLine
 62
7
  6
CONTINUOUS
 10
36.4495820611
 20
333.3597367669
 11
36.4495820611
 21
40.8086073799
  0
LINE
  5
269
100
AcDbEntity
  8
00_COMPONENTS_28
100
AcDbLine
 62
7
  6
CONTINUOUS
 10
30.2708686029
 20
162.5339830467
 11
30.2708686
 21
162.5339301528
  0
LINE
  5
26A
100
AcDbEntity
  8
00_COMPONENTS_28
100
AcDbLine
 62
7
  6
CONTINUOUS
 10
30.2708686027
 20
164.5337905069
 11
30.2708683354
 21
164.5325639462
  0
LINE
  5
26B
100
AcDbEntity
  8
00_COMPONENTS_28
100
AcDbLine
 62
7
  6
CONTINUOUS
 10
30.2708686029
 20
202.0346194733
 11
30.270868342
 21
202.034089596
  0
LWPOLYLINE
  5
26C
100
AcDbEntity
  8
00_COMPONENTS_28
100
AcDbPolyline
 62
7
  6
CONTINUOUS
 90
3
 70
0
 10
30.0669365767
 20
197.0255262556
 10
29.9036751643
 20
182.2907064251
 10
30.0669364649
 20
167.5428178445
  0
LINE
  5
26D
100
AcDbEntity
  8
00_COMPONENTS_28
100
AcDbLine
 62
7
  6
CONTINUOUS
 10
30.0772020805
 20
197.031919257
 11
30.0770685775
 21
197.0253212464
  0
LINE
  5
26E
100
AcDbEntity
  8
00_COMPONENTS_28
100
AcDbLine
 62
7
  6
CONTINUOUS
 10
30.0772020805
 20
197.031919257
 11
30.0770274932
 21
197.0253398335
  0
LWPOLYLINE
  5
26F
100
AcDbEntity
  8
00_COMPONENTS_28
100
AcDbPolyline
 62
7
  6
CONTINUOUS
 90
3
 70
0
 10
30.2708709851
 20
200.0358102984
 10
30.2571416813
 20
199.7192161207
 10
30.1447464578
 20
198.5274325673
  0
LWPOLYLINE
  5
270
100
AcDbEntity
  8
00_COMPONENTS_28
100
AcDbPolyline
 62
7
  6
CONTINUOUS
 90
9
 70
0
 10
30.2708565106
 20
202.034041846
 10
30.2684414819
 20
201.9830640246
 10
30.2456687863
 20
201.7982996754
 10
30.1939208912
 20
201.4873352162
 10
30.1568620759
 20
201.2780943743
 10
30.0675693793
 20
200.7583901505
 10
29.9735305632
 20
200.1160493383
 10
29.8991102761
 20
199.3760715957
 10
29.8822391624
 20
199.0834405969
  0
LWPOLYLINE
  5
271
100
AcDbEntity
  8
00_COMPONENTS_28
100
AcDbPolyline
 62
7
  6
CONTINUOUS
 90
3
 70
0
 10
30.1447464578
 20
198.5274325673
 10
30.1104174787
 20
198.0391638122
 10
30.0669265157
 20
197.0255352016
  0
LINE
  5
272
100
AcDbEntity
  8
00_COMPONENTS_28
100
AcDbLine
 62
7
  6
CONTINUOUS
 10
30.2120343039
 20
199.2452475327
 11
30.2120241521
 21
199.2451558782
  0
LINE
  5
273
100
AcDbEntity
  8
00_COMPONENTS_28
100
AcDbLine
 62
7
  6
CONTINUOUS
 10
29.8820368691
 20
199.0915054704
 11
29.883244113
 21
199.100871555
  0
LINE
  5
274
100
AcDbEntity
  8
00_COMPONENTS_8
100
AcDbLine
 62
7
  6
CONTINUOUS
 10
59.3087363792
 20
316.5654848906
 11
59.4995472235
 21
317.5471117147
  0
LWPOLYLINE
  5
275
100
AcDbEntity
  8
00_COMPONENTS_28
100
AcDbPolyline
 62
7
  6
CONTINUOUS
 90
5
 70
0
 10
30.2627005664
 20
202.6596252947
 10
30.1483408879
 20
202.2443782005
 10
30.0649286862
 20
201.8852883823
 10
29.914693206
 20
200.9370744018
 10
29.8813721954
 20
200.5084961272
  0
LINE
  5
276
100
AcDbEntity
  8
00_COMPONENTS_28
100
AcDbLine
 62
7
  6
CONTINUOUS
 10
30.2770509023
 20
202.707068646
 11
30.2635429278
 21
202.6594540552
  0
LINE
  5
277
100
AcDbEntity
  8
00_COMPONENTS_28
100
AcDbLine
 62
7
  6
CONTINUOUS
 10
30.2818986409
 20
202.7230308402
 11
30.2708718375
 21
202.6866568945
  0
LINE
  5
278
100
AcDbEntity
  8
00_COMPONENTS_12
100
AcDbLine
 62
7
  6
CONTINUOUS
 10
55.8708686029
 20
81.0841720734
 11
61.8811652143
 21
81.0841720734
  0
LINE
  5
279
100
AcDbEntity
  8
00_COMPONENTS_12
100
AcDbLine
 62
7
  6
CONTINUOUS
 10
60.3811652143
 20
88.5332289708
 11
59.6811652143
 21
88.6332289708
  0
LINE
  5
27A
100
AcDbEntity
  8
00_COMPONENTS_28
100
AcDbLine
 62
7
  6
CONTINUOUS
 10
30.2719107658
 20
161.8782409221
 11
30.28193748
 21
161.8452353409
  0
LINE
  5
27B
100
AcDbEntity
  8
00_COMPONENTS_28
100
AcDbLine
 62
7
  6
CONTINUOUS
 10
30.2636080223
 20
161.9088101556
 11
30.2782553808
 21
161.8573137353
  0
LINE
  5
27C
100
AcDbEntity
  8
00_COMPONENTS_28
100
AcDbLine
 62
7
  6
CONTINUOUS
 10
30.1484272458
 20
162.3236406198
 11
30.2636543082
 21
161.9052537113
  0
LINE
  5
27D
100
AcDbEntity
  8
00_COMPONENTS_8
100
AcDbLine
 62
7
  6
CONTINUOUS
 10
59.4995472234
 20
56.6212324321
 11
59.3087384479
 21
57.6028596583
  0
LWPOLYLINE
  5
27E
100
AcDbEntity
  8
00_COMPONENTS_28
100
AcDbPolyline
 62
7
  6
CONTINUOUS
 90
4
 70
0
 10
30.0794479096
 20
163.7377608569
 10
30.2314669068
 20
162.8607178561
 10
30.2617527277
 20
162.6517625942
 10
30.270859007
 20
162.5340544682
  0
LINE
  5
27F
100
AcDbEntity
  8
00_COMPONENTS_28
100
AcDbLine
 62
7
  6
CONTINUOUS
 10
29.8813859222
 20
165.488982976
 11
29.8813094197
 21
165.4895996329
  0
LINE
  5
280
100
AcDbEntity
  8
00_COMPONENTS_28
100
AcDbLine
 62
7
  6
CONTINUOUS
 10
30.2120252907
 20
165.3231213153
 11
30.2120158606
 21
165.3232070183
  0
LINE
  5
281
100
AcDbEntity
  8
00_COMPONENTS_21
100
AcDbLine
 62
7
  6
CONTINUOUS
 10
39.0708686029
 20
335.0841720734
 11
39.0708686029
 21
334.0841720734
  0
LINE
  5
282
100
AcDbEntity
  8
00_COMPONENTS_21
100
AcDbLine
 62
7
  6
CONTINUOUS
 10
39.0708686029
 20
40.0841720734
 11
39.0708686029
 21
39.0841720734
  0
LINE
  5
283
100
AcDbEntity
  8
00_COMPONENTS_21
100
AcDbLine
 62
7
  6
CONTINUOUS
 10
41.917472005
 20
40.0841720734
 11
41.917472005
 21
334.0841720734
  0
LINE
  5
284
100
AcDbEntity
  8
00_COMPONENTS_21
100
AcDbLine
 62
7
  6
CONTINUOUS
 10
42.7366240493
 20
39.0841720734
 11
42.7366240493
 21
40.0841720734
  0
LINE
  5
285
100
AcDbEntity
  8
00_COMPONENTS_21
100
AcDbLine
 62
7
  6
CONTINUOUS
 10
42.7366240493
 20
334.0841720734
 11
42.7366240493
 21
335.0841720734
  0
LINE
  5
286
100
AcDbEntity
  8
00_COMPONENTS_21
100
AcDbLine
 62
7
  6
CONTINUOUS
 10
44.5387585467
 20
335.0841720734
 11
44.5387585467
 21
39.0841720734
  0
LINE
  5
287
100
AcDbEntity
  8
00_COMPONENTS_21
100
AcDbLine
 62
7
  6
CONTINUOUS
 10
54.7708686029
 20
39.0841720734
 11
54.7708686029
 21
335.0841720734
  0
LINE
  5
288
100
AcDbEntity
  8
00_COMPONENTS_21
100
AcDbLine
 62
7
  6
CONTINUOUS
 10
55.8708686029
 20
40.9759253849
 11
55.8708686029
 21
333.1924187895
  0
LINE
  5
289
100
AcDbEntity
  8
00_COMPONENTS_8
100
AcDbLine
 62
7
  6
CONTINUOUS
 10
59.49954534
 20
57.6028612183
 11
59.4995455108
 21
81.0841720711
  0
LINE
  5
28A
100
AcDbEntity
  8
00_COMPONENTS_8
100
AcDbLine
 62
7
  6
CONTINUOUS
 10
59.4995458745
 20
131.0841720711
 11
59.4995466891
 21
243.0841720711
  0
LINE
  5
28B
100
AcDbEntity
  8
00_COMPONENTS_8
100
AcDbLine
 62
7
  6
CONTINUOUS
 10
59.4995470527
 20
293.0841720711
 11
59.4995472235
 21
316.5654845312
  0
LINE
  5
28C
100
AcDbEntity
  8
00_COMPONENTS_12
100
AcDbLine
 62
7
  6
CONTINUOUS
 10
59.6811652143
 20
88.6332289708
 11
59.6811652143
 21
96.3351151759
  0
LINE
  5
28D
100
AcDbEntity
  8
00_COMPONENTS_12
100
AcDbLine
 62
7
  6
CONTINUOUS
 10
59.6811652143
 20
115.8332289708
 11
59.6811652143
 21
123.5351151759
  0
LINE
  5
28E
100
AcDbEntity
  8
00_COMPONENTS_12
100
AcDbLine
 62
7
  6
CONTINUOUS
 10
59.6811652143
 20
250.6332289708
 11
59.6811652143
 21
258.3351151759
  0
LINE
  5
28F
100
AcDbEntity
  8
00_COMPONENTS_12
100
AcDbLine
 62
7
  6
CONTINUOUS
 10
59.6811652143
 20
277.8332289708
 11
59.6811652143
 21
285.5351151759
  0
LINE
  5
290
100
AcDbEntity
  8
00_COMPONENTS_12
100
AcDbLine
 62
7
  6
CONTINUOUS
 10
60.3811652143
 20
81.0841720734
 11
60.3811652143
 21
131.0841720734
  0
LINE
  5
291
100
AcDbEntity
  8
00_COMPONENTS_12
100
AcDbLine
 62
7
  6
CONTINUOUS
 10
60.3811652143
 20
243.0841720734
 11
60.3811652143
 21
293.0841720734
  0
LINE
  5
292
100
AcDbEntity
  8
00_COMPONENTS_12
100
AcDbLine
 62
7
  6
CONTINUOUS
 10
61.3811652143
 20
293.0841720734
 11
61.3811652143
 21
243.0841720734
  0
LINE
  5
293
100
AcDbEntity
  8
00_COMPONENTS_12
100
AcDbLine
 62
7
  6
CONTINUOUS
 10
61.3811652143
 20
131.0841720734
 11
61.3811652143
 21
81.0841720734
  0
LINE
  5
294
100
AcDbEntity
  8
00_COMPONENTS_8
100
AcDbLine
 62
7
  6
CONTINUOUS
 10
61.8811652143
 20
40.2841720734
 11
61.8811652143
 21
81.0841720734
  0
LINE
  5
295
100
AcDbEntity
  8
00_COMPONENTS_12
100
AcDbLine
 62
7
  6
CONTINUOUS
 10
61.8811652143
 20
81.0841720734
 11
61.8811652143
 21
131.0841720734
  0
LINE
  5
296
100
AcDbEntity
  8
00_COMPONENTS_8
100
AcDbLine
 62
7
  6
CONTINUOUS
 10
61.8811652143
 20
131.0841720734
 11
61.8811652143
 21
243.0841720734
  0
LINE
  5
297
100
AcDbEntity
  8
00_COMPONENTS_12
100
AcDbLine
 62
7
  6
CONTINUOUS
 10
61.8811652143
 20
243.0841720734
 11
61.8811652143
 21
293.0841720734
  0
LINE
  5
298
100
AcDbEntity
  8
00_COMPONENTS_8
100
AcDbLine
 62
7
  6
CONTINUOUS
 10
61.8811652143
 20
293.0841720734
 11
61.8811652143
 21
333.8841720734
  0
LINE
  5
299
100
AcDbEntity
  8
00_COMPONENTS_12
100
AcDbLine
 62
7
  6
CONTINUOUS
 10
59.6811652143
 20
96.3351151759
 11
60.3811652143
 21
96.4351151759
  0
LINE
  5
29A
100
AcDbEntity
  8
00_COMPONENTS_12
100
AcDbLine
 62
7
  6
CONTINUOUS
 10
59.6811652143
 20
115.8332289708
 11
60.3811652718
 21
115.7332289626
  0
LINE
  5
29B
100
AcDbEntity
  8
00_COMPONENTS_12
100
AcDbLine
 62
7
  6
CONTINUOUS
 10
60.3811654749
 20
116.094290726
 11
59.6811649538
 21
116.1943114351
  0
LINE
  5
29C
100
AcDbEntity
  8
00_COMPONENTS_8
100
AcDbLine
 62
7
  6
CONTINUOUS
 10
65.0811652143
 20
337.0841720734
 11
65.0811652143
 21
37.0841720734
  0
LINE
  5
29D
100
AcDbEntity
  8
00_COMPONENTS_12
100
AcDbLine
 62
7
  6
CONTINUOUS
 10
59.6811649538
 20
123.1740327122
 11
60.3811654747
 21
123.2740534208
  0
LINE
  5
29E
100
AcDbEntity
  8
00_COMPONENTS_12
100
AcDbLine
 62
7
  6
CONTINUOUS
 10
60.3811652718
 20
123.6351151842
 11
59.6811652143
 21
123.5351151759
  0
LINE
  5
29F
100
AcDbEntity
  8
00_COMPONENTS_12
100
AcDbLine
 62
7
  6
CONTINUOUS
 10
61.8811652143
 20
131.0841720734
 11
55.8708686029
 21
131.0841720734
  0
LINE
  5
2A0
100
AcDbEntity
  8
00_COMPONENTS_28
100
AcDbLine
 62
7
  6
CONTINUOUS
 10
35.032253319
 20
157.3134571644
 11
34.2898070268
 21
157.484602098
  0
LINE
  5
2A1
100
AcDbEntity
  8
00_COMPONENTS_3
100
AcDbLine
 62
7
  6
CONTINUOUS
 10
101.2034446128
 20
36.5554021687
 11
101.2024853545
 21
36.5869113332
  0
LINE
  5
2A2
100
AcDbEntity
  8
00_COMPONENTS_3
100
AcDbLine
 62
7
  6
CONTINUOUS
 10
99.8661652143
 20
36.7598306661
 11
99.8661652143
 21
36.5600711839
  0
LINE
  5
2A3
100
AcDbEntity
  8
00_COMPONENTS_3
100
AcDbLine
 62
7
  6
CONTINUOUS
 10
100.8961652143
 20
36.5600711839
 11
100.8961652143
 21
36.7598306661
  0
LINE
  5
2A4
100
AcDbEntity
  8
00_COMPONENTS_3
100
AcDbLine
 62
7
  6
CONTINUOUS
 10
99.5588675113
 20
36.5546759308
 11
99.5589949861
 21
36.5596929783
  0
LINE
  5
2A5
100
AcDbEntity
  8
00_COMPONENTS_3
100
AcDbLine
 62
7
  6
CONTINUOUS
 10
99.5589949861
 20
36.5596929783
 11
99.5596659202
 21
36.5817314351
  0
LINE
  5
2A6
100
AcDbEntity
  8
00_COMPONENTS_28
100
AcDbLine
 62
7
  6
CONTINUOUS
 10
35.0322543972
 20
157.3134571268
 11
35.8708686029
 21
157.2841720734
  0
LINE
  5
2A7
100
AcDbEntity
  8
00_COMPONENTS_28
100
AcDbLine
 62
7
  6
CONTINUOUS
 10
29.8811019008
 20
164.0701171946
 11
29.890596509
 21
164.0701171946
  0
LINE
  5
2A8
100
AcDbEntity
  8
00_COMPONENTS_28
100
AcDbLine
 62
7
  6
CONTINUOUS
 10
29.8811019008
 20
165.4987081174
 11
29.8905957276
 21
165.4987081174
  0
LINE
  5
2A9
100
AcDbEntity
  8
00_COMPONENTS_28
100
AcDbLine
 62
7
  6
CONTINUOUS
 10
29.8905949503
 20
200.4982270919
 11
29.8811019008
 21
200.4982270919
  0
LINE
  5
2AA
100
AcDbEntity
  8
00_COMPONENTS_3
100
AcDbLine
 62
7
  6
CONTINUOUS
 10
159.7034446128
 20
36.5554021687
 11
159.7024853545
 21
36.5869113332
  0
LINE
  5
2AB
100
AcDbEntity
  8
00_COMPONENTS_3
100
AcDbLine
 62
7
  6
CONTINUOUS
 10
158.3661652143
 20
36.7598306661
 11
158.3661652143
 21
36.5600711839
  0
LINE
  5
2AC
100
AcDbEntity
  8
00_COMPONENTS_3
100
AcDbLine
 62
7
  6
CONTINUOUS
 10
159.3961652143
 20
36.5600711839
 11
159.3961652143
 21
36.7598306661
  0
LINE
  5
2AD
100
AcDbEntity
  8
00_COMPONENTS_28
100
AcDbLine
 62
7
  6
CONTINUOUS
 10
35.0322543972
 20
207.25488702
 11
35.8708686029
 21
207.2841720734
  0
LINE
  5
2AE
100
AcDbEntity
  8
00_COMPONENTS_3
100
AcDbLine
 62
7
  6
CONTINUOUS
 10
158.0588675113
 20
36.5546759308
 11
158.0589949861
 21
36.5596929783
  0
LINE
  5
2AF
100
AcDbEntity
  8
00_COMPONENTS_3
100
AcDbLine
 62
7
  6
CONTINUOUS
 10
158.0589949861
 20
36.5596929783
 11
158.0596659202
 21
36.5817314351
  0
LINE
  5
2B0
100
AcDbEntity
  8
00_COMPONENTS_28
100
AcDbLine
 62
7
  6
CONTINUOUS
 10
35.032253319
 20
207.2548869824
 11
34.2898070268
 21
207.0837420488
  0
LINE
  5
2B1
100
AcDbEntity
  8
00_COMPONENTS_12
100
AcDbLine
 62
7
  6
CONTINUOUS
 10
55.8708686029
 20
243.0841720734
 11
61.8811652143
 21
243.0841720734
  0
LINE
  5
2B2
100
AcDbEntity
  8
00_COMPONENTS_12
100
AcDbLine
 62
7
  6
CONTINUOUS
 10
60.3811652143
 20
250.5332289708
 11
59.6811652143
 21
250.6332289708
  0
LINE
  5
2B3
100
AcDbEntity
  8
00_COMPONENTS_3
100
AcDbLine
 62
7
  6
CONTINUOUS
 10
101.0911855781
 20
36.5596929783
 11
101.0967679066
 21
36.5661056914
  0
LINE
  5
2B4
100
AcDbEntity
  8
00_COMPONENTS_21
100
AcDbLine
 62
7
  6
CONTINUOUS
 10
36.4495820613
 20
40.4487274772
 11
36.8180947968
 21
40.7067628725
  0
LINE
  5
2B5
100
AcDbEntity
  8
00_COMPONENTS_21
100
AcDbLine
 62
7
  6
CONTINUOUS
 10
36.4495820612
 20
333.7196166697
 11
36.8180947968
 21
333.4615812743
  0
LINE
  5
2B6
100
AcDbEntity
  8
00_COMPONENTS_3
100
AcDbLine
 62
7
  6
CONTINUOUS
 10
218.2034446128
 20
36.5554021687
 11
218.2024853545
 21
36.5869113332
  0
LINE
  5
2B7
100
AcDbEntity
  8
00_COMPONENTS_3
100
AcDbLine
 62
7
  6
CONTINUOUS
 10
216.8661652143
 20
36.7598306661
 11
216.8661652143
 21
36.5600711839
  0
LINE
  5
2B8
100
AcDbEntity
  8
00_COMPONENTS_3
100
AcDbLine
 62
7
  6
CONTINUOUS
 10
217.8961652143
 20
36.5600711839
 11
217.8961652143
 21
36.7598306661
  0
LINE
  5
2B9
100
AcDbEntity
  8
00_COMPONENTS_3
100
AcDbLine
 62
7
  6
CONTINUOUS
 10
216.5588675113
 20
36.5546759308
 11
216.5589949861
 21
36.5596929783
  0
LINE
  5
2BA
100
AcDbEntity
  8
00_COMPONENTS_3
100
AcDbLine
 62
7
  6
CONTINUOUS
 10
216.5589949861
 20
36.5596929783
 11
216.5596659202
 21
36.5817314351
  0
LINE
  5
2BB
100
AcDbEntity
  8
00_COMPONENTS_12
100
AcDbLine
 62
7
  6
CONTINUOUS
 10
59.6811652143
 20
258.3351151759
 11
60.3811652143
 21
258.4351151759
  0
LINE
  5
2BC
100
AcDbEntity
  8
00_COMPONENTS_12
100
AcDbLine
 62
7
  6
CONTINUOUS
 10
59.6811652143
 20
277.8332289708
 11
60.3811652718
 21
277.7332289626
  0
LINE
  5
2BD
100
AcDbEntity
  8
00_COMPONENTS_12
100
AcDbLine
 62
7
  6
CONTINUOUS
 10
60.3811654749
 20
278.094290726
 11
59.6811649538
 21
278.1943114351
  0
LINE
  5
2BE
100
AcDbEntity
  8
00_COMPONENTS_8
100
AcDbLine
 62
7
  6
CONTINUOUS
 10
236.6811652143
 20
37.0841720734
 11
236.6811652143
 21
337.0841720734
  0
LINE
  5
2BF
100
AcDbEntity
  8
00_COMPONENTS_8
100
AcDbLine
 62
7
  6
CONTINUOUS
 10
238.8811652143
 20
334.8841720734
 11
238.8811652143
 21
39.2841720734
  0
LINE
  5
2C0
100
AcDbEntity
  8
00_COMPONENTS_12
100
AcDbLine
 62
7
  6
CONTINUOUS
 10
59.6811649538
 20
285.1740327122
 11
60.3811654747
 21
285.2740534208
  0
LINE
  5
2C1
100
AcDbEntity
  8
00_COMPONENTS_12
100
AcDbLine
 62
7
  6
CONTINUOUS
 10
60.3811652718
 20
285.6351151842
 11
59.6811652143
 21
285.5351151759
  0
LINE
  5
2C2
100
AcDbEntity
  8
00_COMPONENTS_12
100
AcDbLine
 62
7
  6
CONTINUOUS
 10
61.8811652143
 20
293.0841720734
 11
55.8708686029
 21
293.0841720734
  0
LINE
  5
2C3
100
AcDbEntity
  8
00_COMPONENTS_3
100
AcDbLine
 62
7
  6
CONTINUOUS
 10
159.5911855781
 20
36.5596929783
 11
159.5967679066
 21
36.5661056914
  0
LINE
  5
2C4
100
AcDbEntity
  8
00_COMPONENTS_8
100
AcDbLine
 62
7
  6
CONTINUOUS
 10
55.8708686029
 20
317.2708282032
 11
59.4995472235
 21
316.5654845312
  0
LINE
  5
2C5
100
AcDbEntity
  8
00_COMPONENTS_8
100
AcDbLine
 62
7
  6
CONTINUOUS
 10
59.4995472235
 20
317.5471117147
 11
55.8708686029
 21
318.2524553868
  0
LINE
  5
2C6
100
AcDbEntity
  8
00_COMPONENTS_21
100
AcDbLine
 62
7
  6
CONTINUOUS
 10
39.0708686029
 20
334.0841720734
 11
54.7708686029
 21
334.0841720734
  0
LINE
  5
2C7
100
AcDbEntity
  8
00_COMPONENTS_21
100
AcDbLine
 62
7
  6
CONTINUOUS
 10
39.0708686029
 20
335.0841720734
 11
54.7708686029
 21
335.0841720734
  0
LINE
  5
2C8
100
AcDbEntity
  8
00_COMPONENTS_8
100
AcDbLine
 62
7
  6
CONTINUOUS
 10
236.6811652143
 20
336.0841720734
 11
65.0811652143
 21
336.0841720734
  0
LINE
  5
2C9
100
AcDbEntity
  8
00_COMPONENTS_8
100
AcDbLine
 62
7
  6
CONTINUOUS
 10
236.6811652143
 20
337.0841720734
 11
65.0811652143
 21
337.0841720734
  0
LINE
  5
2CA
100
AcDbEntity
  8
00_COMPONENTS_3
100
AcDbLine
 62
7
  6
CONTINUOUS
 10
218.0911855781
 20
36.5596929783
 11
218.0967679066
 21
36.5661056914
  0
LINE
  5
2CB
100
AcDbEntity
  8
00_COMPONENTS_21
100
AcDbLine
 62
7
  6
CONTINUOUS
 10
36.4495820611
 20
333.3597367669
 11
39.0708686029
 21
334.0841720734
  0
ARC
  5
2CC
100
AcDbEntity
  8
00_COMPONENTS_21
100
AcDbCircle
 62
7
  6
CONTINUOUS
 10
27.6870985211
 20
92.6209126454
 40
59.1070191413
100
AcDbArc
 50
297.272036157
 51
297.4090881292
  0
ARC
  5
2CD
100
AcDbEntity
  8
00_COMPONENTS_8
100
AcDbCircle
 62
7
  6
CONTINUOUS
 10
77.9454834931
 20
79.2811019703
 40
28.4639879882
100
AcDbArc
 50
229.6056662615
 51
229.7245484994
  0
ARC
  5
2CE
100
AcDbEntity
  8
00_COMPONENTS_21
100
AcDbCircle
 62
7
  6
CONTINUOUS
 10
39.0708686029
 20
42.2841720734
 40
3.2
100
AcDbArc
 50
180.0
 51
270.0000000002
  0
ARC
  5
2CF
100
AcDbEntity
  8
00_COMPONENTS_8
100
AcDbCircle
 62
7
  6
CONTINUOUS
 10
65.0811652143
 20
40.2841720734
 40
3.2
100
AcDbArc
 50
187.0291868286
 51
270.0
  0
ARC
  5
2D0
100
AcDbEntity
  8
00_COMPONENTS_21
100
AcDbCircle
 62
7
  6
CONTINUOUS
 10
39.0708686029
 20
42.2841720734
 40
2.2
100
AcDbArc
 50
242.0576650138
 51
270.0000000002
  0
ARC
  5
2D1
100
AcDbEntity
  8
00_COMPONENTS_8
100
AcDbCircle
 62
7
  6
CONTINUOUS
 10
65.0811652143
 20
40.2841720734
 40
2.2
100
AcDbArc
 50
220.9535721594
 51
270.0000238852
  0
ARC
  5
2D2
100
AcDbEntity
  8
00_COMPONENTS_8
100
AcDbCircle
 62
7
  6
CONTINUOUS
 10
59.8811652143
 20
54.6579780652
 40
2.0
100
AcDbArc
 50
0.0
 51
101.0
  0
ARC
  5
2D3
100
AcDbEntity
  8
00_COMPONENTS_21
100
AcDbCircle
 62
7
  6
CONTINUOUS
 10
54.7708686029
 20
40.1841720734
 40
1.1
100
AcDbArc
 50
270.0
 51
28.916305978
  0
ARC
  5
2D4
100
AcDbEntity
  8
00_COMPONENTS_21
100
AcDbCircle
 62
7
  6
CONTINUOUS
 10
54.9873307658
 20
41.3938254242
 40
1.0262969028
100
AcDbArc
 50
312.479328675
 51
315.8932415578
  0
ARC
  5
2D5
100
AcDbEntity
  8
00_COMPONENTS_28
100
AcDbCircle
 62
7
  6
CONTINUOUS
 10
49.6291810129
 20
167.029421682
 40
19.8238046046
100
AcDbArc
 50
188.1863294594
 51
189.1505840175
  0
ARC
  5
2D6
100
AcDbEntity
  8
00_COMPONENTS_28
100
AcDbCircle
 62
7
  6
CONTINUOUS
 10
46.0667234992
 20
166.5121196204
 40
16.2239883255
100
AcDbArc
 50
186.7989509957
 51
188.1695098652
  0
ARC
  5
2D7
100
AcDbEntity
  8
00_COMPONENTS_28
100
AcDbCircle
 62
7
  6
CONTINUOUS
 10
39.9005055045
 20
164.7855896744
 40
10.0579356425
100
AcDbArc
 50
194.6881610458
 51
196.3454976206
  0
ARC
  5
2D8
100
AcDbEntity
  8
00_COMPONENTS_28
100
AcDbCircle
 62
7
  6
CONTINUOUS
 10
39.5468608158
 20
164.6775548503
 40
9.6881812998
100
AcDbArc
 50
196.3209989883
 51
196.7945728736
  0
ARC
  5
2D9
100
AcDbEntity
  8
00_COMPONENTS_28
100
AcDbCircle
 62
7
  6
CONTINUOUS
 10
39.5306828328
 20
164.6926741202
 40
9.6766400083
100
AcDbArc
 50
191.377838528
 51
194.7112083128
  0
ARC
  5
2DA
100
AcDbEntity
  8
00_COMPONENTS_28
100
AcDbCircle
 62
7
  6
CONTINUOUS
 10
39.0468384077
 20
164.5969580793
 40
9.1834217673
100
AcDbArc
 50
188.5887200936
 51
191.387926778
  0
ARC
  5
2DB
100
AcDbEntity
  8
00_COMPONENTS_28
100
AcDbCircle
 62
7
  6
CONTINUOUS
 10
38.3532402995
 20
164.5017291229
 40
8.4833854804
100
AcDbArc
 50
182.9875935555
 51
188.652350956
  0
ARC
  5
2DC
100
AcDbEntity
  8
00_COMPONENTS_28
100
AcDbCircle
 62
7
  6
CONTINUOUS
 10
37.3117019362
 20
164.2841720734
 40
7.4408333333
100
AcDbArc
 50
199.1332403138
 51
246.0384220121
  0
ARC
  5
2DD
100
AcDbEntity
  8
00_COMPONENTS_28
100
AcDbCircle
 62
7
  6
CONTINUOUS
 10
36.8986707855
 20
165.8557148368
 40
7.0268612605
100
AcDbArc
 50
182.991834678
 51
183.5955266565
  0
ARC
  5
2DE
100
AcDbEntity
  8
00_COMPONENTS_28
100
AcDbCircle
 62
7
  6
CONTINUOUS
 10
30.7399173946
 20
183.395840101
 40
0.8588178723
100
AcDbArc
 50
171.4716869805
 51
179.9685527531
  0
ARC
  5
2DF
100
AcDbEntity
  8
00_COMPONENTS_28
100
AcDbCircle
 62
7
  6
CONTINUOUS
 10
30.0811019008
 20
164.0701170549
 40
0.2
100
AcDbArc
 50
180.0
 51
182.9466549973
  0
ARC
  5
2E0
100
AcDbEntity
  8
00_COMPONENTS_28
100
AcDbCircle
 62
7
  6
CONTINUOUS
 10
30.0811019008
 20
165.4987081174
 40
0.2
100
AcDbArc
 50
180.0
 51
182.6051944186
  0
ARC
  5
2E1
100
AcDbEntity
  8
00_COMPONENTS_8
100
AcDbCircle
 62
7
  6
CONTINUOUS
 10
99.5510181827
 20
104.8923172023
 40
61.9711668706
100
AcDbArc
 50
229.7919107016
 51
230.1981852485
  0
ARC
  5
2E2
100
AcDbEntity
  8
00_COMPONENTS_3
100
AcDbCircle
 62
7
  6
CONTINUOUS
 10
100.3811652143
 20
44.3349533234
 40
7.85078125
100
AcDbArc
 50
247.7363165305
 51
254.7718910881
  0
ARC
  5
2E3
100
AcDbEntity
  8
00_COMPONENTS_3
100
AcDbCircle
 62
7
  6
CONTINUOUS
 10
100.3811652143
 20
44.3349533234
 40
7.85078125
100
AcDbArc
 50
285.2281089067
 51
292.2294220766
  0
ARC
  5
2E4
100
AcDbEntity
  8
00_COMPONENTS_3
100
AcDbCircle
 62
7
  6
CONTINUOUS
 10
158.8811652143
 20
44.3349533234
 40
7.85078125
100
AcDbArc
 50
247.7363165305
 51
254.7718910881
  0
ARC
  5
2E5
100
AcDbEntity
  8
00_COMPONENTS_3
100
AcDbCircle
 62
7
  6
CONTINUOUS
 10
158.8811652143
 20
44.3349533234
 40
7.85078125
100
AcDbArc
 50
285.2281089067
 51
292.2294220766
  0
ARC
  5
2E6
100
AcDbEntity
  8
00_COMPONENTS_3
100
AcDbCircle
 62
7
  6
CONTINUOUS
 10
100.3811652143
 20
44.3349533234
 40
7.8338714079
100
AcDbArc
 50
277.035724314
 51
284.7669642634
  0
ARC
  5
2E7
100
AcDbEntity
  8
00_COMPONENTS_3
100
AcDbCircle
 62
7
  6
CONTINUOUS
 10
100.3811652143
 20
44.3349533234
 40
7.8338714079
100
AcDbArc
 50
255.2330357366
 51
262.964275686
  0
ARC
  5
2E8
100
AcDbEntity
  8
00_COMPONENTS_3
100
AcDbCircle
 62
7
  6
CONTINUOUS
 10
158.8811652143
 20
44.3349533234
 40
7.8338714079
100
AcDbArc
 50
277.035724314
 51
284.7669642634
  0
ARC
  5
2E9
100
AcDbEntity
  8
00_COMPONENTS_3
100
AcDbCircle
 62
7
  6
CONTINUOUS
 10
158.8811652143
 20
44.3349533234
 40
7.8338714079
100
AcDbArc
 50
255.2330357366
 51
262.964275686
  0
ARC
  5
2EA
100
AcDbEntity
  8
00_COMPONENTS_3
100
AcDbCircle
 62
7
  6
CONTINUOUS
 10
100.3815556673
 20
44.3603142848
 40
7.8329034397
100
AcDbArc
 50
264.7963673976
 51
265.2180422598
  0
ARC
  5
2EB
100
AcDbEntity
  8
00_COMPONENTS_3
100
AcDbCircle
 62
7
  6
CONTINUOUS
 10
158.8815556672
 20
44.360314284
 40
7.8329034389
100
AcDbArc
 50
264.7963673976
 51
265.2180422598
  0
ARC
  5
2EC
100
AcDbEntity
  8
00_COMPONENTS_3
100
AcDbCircle
 62
7
  6
CONTINUOUS
 10
100.7030942341
 20
42.1964946424
 40
5.7307182662
100
AcDbArc
 50
254.1311990279
 51
258.4934340556
  0
ARC
  5
2ED
100
AcDbEntity
  8
00_COMPONENTS_3
100
AcDbCircle
 62
7
  6
CONTINUOUS
 10
159.2030942341
 20
42.1964946424
 40
5.7307182661
100
AcDbArc
 50
254.1311990279
 51
258.4934340556
  0
ARC
  5
2EE
100
AcDbEntity
  8
00_COMPONENTS_3
100
AcDbCircle
 62
7
  6
CONTINUOUS
 10
100.1391350128
 20
41.7374101797
 40
5.2601388582
100
AcDbArc
 50
279.8875643752
 51
281.6029979853
  0
ARC
  5
2EF
100
AcDbEntity
  8
00_COMPONENTS_3
100
AcDbCircle
 62
7
  6
CONTINUOUS
 10
158.6391350128
 20
41.7374101798
 40
5.2601388583
100
AcDbArc
 50
279.8875643752
 51
281.6029979853
  0
ARC
  5
2F0
100
AcDbEntity
  8
00_COMPONENTS_3
100
AcDbCircle
 62
7
  6
CONTINUOUS
 10
100.6013768774
 20
41.7273777035
 40
5.2507425231
100
AcDbArc
 50
258.5990644961
 51
259.7955024518
  0
ARC
  5
2F1
100
AcDbEntity
  8
00_COMPONENTS_3
100
AcDbCircle
 62
7
  6
CONTINUOUS
 10
159.1013768774
 20
41.7273777036
 40
5.2507425232
100
AcDbArc
 50
258.5990644961
 51
259.7955024518
  0
ARC
  5
2F2
100
AcDbEntity
  8
00_COMPONENTS_3
100
AcDbCircle
 62
7
  6
CONTINUOUS
 10
100.1610778452
 20
41.726720857
 40
5.2500740465
100
AcDbArc
 50
280.2044325088
 51
281.3930934826
  0
ARC
  5
2F3
100
AcDbEntity
  8
00_COMPONENTS_3
100
AcDbCircle
 62
7
  6
CONTINUOUS
 10
158.6610778451
 20
41.7267208572
 40
5.2500740467
100
AcDbArc
 50
280.2044325089
 51
281.3930934826
  0
ARC
  5
2F4
100
AcDbEntity
  8
00_COMPONENTS_3
100
AcDbCircle
 62
7
  6
CONTINUOUS
 10
101.1190287364
 20
40.4864690819
 40
3.9327177121
100
AcDbArc
 50
266.7513601303
 51
268.7575826022
  0
ARC
  5
2F5
100
AcDbEntity
  8
00_COMPONENTS_3
100
AcDbCircle
 62
7
  6
CONTINUOUS
 10
99.6433016922
 20
40.4864690819
 40
3.9327177121
100
AcDbArc
 50
271.2424173978
 51
273.2486398697
  0
ARC
  5
2F6
100
AcDbEntity
  8
00_COMPONENTS_3
100
AcDbCircle
 62
7
  6
CONTINUOUS
 10
159.6190287364
 20
40.4864690819
 40
3.9327177121
100
AcDbArc
 50
266.7513601303
 51
268.7575826022
  0
ARC
  5
2F7
100
AcDbEntity
  8
00_COMPONENTS_3
100
AcDbCircle
 62
7
  6
CONTINUOUS
 10
158.1433016922
 20
40.4864690819
 40
3.9327177121
100
AcDbArc
 50
271.2424173978
 51
273.2486398697
  0
ARC
  5
2F8
100
AcDbEntity
  8
00_COMPONENTS_3
100
AcDbCircle
 62
7
  6
CONTINUOUS
 10
101.1187686775
 20
40.4580339202
 40
3.9042767202
100
AcDbArc
 50
271.2429967188
 51
273.2589493847
  0
ARC
  5
2F9
100
AcDbEntity
  8
00_COMPONENTS_3
100
AcDbCircle
 62
7
  6
CONTINUOUS
 10
99.6435617511
 20
40.4580339203
 40
3.9042767203
100
AcDbArc
 50
266.7410506153
 51
268.7570032812
  0
ARC
  5
2FA
100
AcDbEntity
  8
00_COMPONENTS_3
100
AcDbCircle
 62
7
  6
CONTINUOUS
 10
159.6187686775
 20
40.4580339202
 40
3.9042767202
100
AcDbArc
 50
271.2429967188
 51
273.2589493847
  0
ARC
  5
2FB
100
AcDbEntity
  8
00_COMPONENTS_3
100
AcDbCircle
 62
7
  6
CONTINUOUS
 10
158.1435617511
 20
40.4580339203
 40
3.9042767203
100
AcDbArc
 50
266.7410506153
 51
268.7570032812
  0
ARC
  5
2FC
100
AcDbEntity
  8
00_COMPONENTS_3
100
AcDbCircle
 62
7
  6
CONTINUOUS
 10
100.5882944781
 20
39.5377754663
 40
3.0451535552
100
AcDbArc
 50
281.6544973822
 51
284.195477626
  0
ARC
  5
2FD
100
AcDbEntity
  8
00_COMPONENTS_3
100
AcDbCircle
 62
7
  6
CONTINUOUS
 10
159.0882944781
 20
39.5377754663
 40
3.0451535552
100
AcDbArc
 50
281.6544973822
 51
284.195477626
  0
ARC
  5
2FE
100
AcDbEntity
  8
00_COMPONENTS_8
100
AcDbCircle
 62
7
  6
CONTINUOUS
 10
99.4617768434
 20
269.3769711803
 40
61.8364654739
100
AcDbArc
 50
129.7981613342
 51
130.2054094452
  0
ARC
  5
2FF
100
AcDbEntity
  8
00_COMPONENTS_8
100
AcDbCircle
 62
7
  6
CONTINUOUS
 10
77.7077136614
 20
295.1664190003
 40
28.0972833318
100
AcDbArc
 50
130.2737544363
 51
130.3939991739
  0
ARC
  5
300
100
AcDbEntity
  8
00_COMPONENTS_28
100
AcDbCircle
 62
7
  6
CONTINUOUS
 10
49.1985382865
 20
197.603803713
 40
19.3882907776
100
AcDbArc
 50
171.2143312726
 51
171.6383960066
  0
ARC
  5
301
100
AcDbEntity
  8
00_COMPONENTS_28
100
AcDbCircle
 62
7
  6
CONTINUOUS
 10
39.9714549396
 20
199.7633121827
 40
10.1314925943
100
AcDbArc
 50
163.6916730183
 51
165.3474838253
  0
ARC
  5
302
100
AcDbEntity
  8
00_COMPONENTS_28
100
AcDbCircle
 62
7
  6
CONTINUOUS
 10
39.6069376778
 20
199.8579538602
 40
9.7548900829
100
AcDbArc
 50
165.3437059631
 51
168.6746995746
  0
ARC
  5
303
100
AcDbEntity
  8
00_COMPONENTS_28
100
AcDbCircle
 62
7
  6
CONTINUOUS
 10
39.2780441492
 20
199.9699788573
 40
9.4079483741
100
AcDbArc
 50
163.2160191863
 51
163.6961407941
  0
ARC
  5
304
100
AcDbEntity
  8
00_COMPONENTS_28
100
AcDbCircle
 62
7
  6
CONTINUOUS
 10
39.0985426735
 20
199.9625253918
 40
9.2358592532
100
AcDbArc
 50
168.6914316403
 51
171.5761645754
  0
ARC
  5
305
100
AcDbEntity
  8
00_COMPONENTS_28
100
AcDbCircle
 62
7
  6
CONTINUOUS
 10
38.4710153565
 20
200.0544410923
 40
8.6016369385
100
AcDbArc
 50
171.5694684245
 51
176.9719866163
  0
ARC
  5
306
100
AcDbEntity
  8
00_COMPONENTS_28
100
AcDbCircle
 62
7
  6
CONTINUOUS
 10
37.3117019362
 20
200.2841720734
 40
7.4408333333
100
AcDbArc
 50
113.9615779879
 51
160.8665539308
  0
ARC
  5
307
100
AcDbEntity
  8
00_COMPONENTS_21
100
AcDbCircle
 62
7
  6
CONTINUOUS
 10
39.0708686029
 20
331.8841720734
 40
3.2
100
AcDbArc
 50
89.9999999998
 51
180.0
  0
ARC
  5
308
100
AcDbEntity
  8
00_COMPONENTS_8
100
AcDbCircle
 62
7
  6
CONTINUOUS
 10
65.0811652143
 20
333.8841720734
 40
3.2
100
AcDbArc
 50
90.0
 51
180.0
  0
ARC
  5
309
100
AcDbEntity
  8
00_COMPONENTS_28
100
AcDbCircle
 62
7
  6
CONTINUOUS
 10
27.3728663718
 20
200.0914716913
 40
2.9090596991
100
AcDbArc
 50
359.0915693396
 51
359.8067203209
  0
ARC
  5
30A
100
AcDbEntity
  8
00_COMPONENTS_21
100
AcDbCircle
 62
7
  6
CONTINUOUS
 10
39.0708686029
 20
331.8841720734
 40
2.2
100
AcDbArc
 50
89.9999999998
 51
117.9423349856
  0
ARC
  5
30B
100
AcDbEntity
  8
00_COMPONENTS_8
100
AcDbCircle
 62
7
  6
CONTINUOUS
 10
65.0811652143
 20
333.8841720734
 40
2.2
100
AcDbArc
 50
90.0
 51
139.0582691641
  0
ARC
  5
30C
100
AcDbEntity
  8
00_COMPONENTS_8
100
AcDbCircle
 62
7
  6
CONTINUOUS
 10
59.8811652143
 20
319.5103660816
 40
2.0
100
AcDbArc
 50
258.9999999987
 51
360.0
  0
ARC
  5
30D
100
AcDbEntity
  8
00_COMPONENTS_21
100
AcDbCircle
 62
7
  6
CONTINUOUS
 10
54.7708686029
 20
333.9841720734
 40
1.1
100
AcDbArc
 50
350.7275521108
 51
90.0
  0
ARC
  5
30E
100
AcDbEntity
  8
00_COMPONENTS_28
100
AcDbCircle
 62
7
  6
CONTINUOUS
 10
29.2009702911
 20
202.1198134797
 40
1.0814610086
100
AcDbArc
 50
355.9257063715
 51
356.8097953896
  0
ARC
  5
30F
100
AcDbEntity
  8
00_COMPONENTS_28
100
AcDbCircle
 62
7
  6
CONTINUOUS
 10
30.7399290033
 20
190.772506035
 40
0.8588295144
100
AcDbArc
 50
180.0315801619
 51
188.5241046677
  0
ARC
  5
310
100
AcDbEntity
  8
00_COMPONENTS_28
100
AcDbCircle
 62
7
  6
CONTINUOUS
 10
30.0811019008
 20
199.0696360294
 40
0.2
100
AcDbArc
 50
175.9929770089
 51
180.1788231471
  0
ARC
  5
311
100
AcDbEntity
  8
00_COMPONENTS_28
100
AcDbCircle
 62
7
  6
CONTINUOUS
 10
30.0811019008
 20
200.4982270919
 40
0.2
100
AcDbArc
 50
177.0561902664
 51
180.0
  0
ARC
  5
312
100
AcDbEntity
  8
00_COMPONENTS_28
100
AcDbCircle
 62
7
  6
CONTINUOUS
 10
380.2934978973
 20
176.813321772
 40
350.3391427949
100
AcDbArc
 50
181.3348549012
 51
181.51627962
  0
ARC
  5
313
100
AcDbEntity
  8
00_COMPONENTS_3
100
AcDbCircle
 62
7
  6
CONTINUOUS
 10
217.3811652143
 20
44.3349533234
 40
7.85078125
100
AcDbArc
 50
247.7363165305
 51
254.7718910881
  0
ARC
  5
314
100
AcDbEntity
  8
00_COMPONENTS_3
100
AcDbCircle
 62
7
  6
CONTINUOUS
 10
217.3811652143
 20
44.3349533234
 40
7.85078125
100
AcDbArc
 50
285.2281089067
 51
292.2294220766
  0
ARC
  5
315
100
AcDbEntity
  8
00_COMPONENTS_3
100
AcDbCircle
 62
7
  6
CONTINUOUS
 10
217.3811652143
 20
44.3349533234
 40
7.8338714079
100
AcDbArc
 50
277.035724314
 51
284.7669642634
  0
ARC
  5
316
100
AcDbEntity
  8
00_COMPONENTS_3
100
AcDbCircle
 62
7
  6
CONTINUOUS
 10
217.3811652143
 20
44.3349533234
 40
7.8338714079
100
AcDbArc
 50
255.2330357366
 51
262.964275686
  0
ARC
  5
317
100
AcDbEntity
  8
00_COMPONENTS_3
100
AcDbCircle
 62
7
  6
CONTINUOUS
 10
217.3815556672
 20
44.360314284
 40
7.8329034389
100
AcDbArc
 50
264.7963673976
 51
265.2180422598
  0
ARC
  5
318
100
AcDbEntity
  8
00_COMPONENTS_3
100
AcDbCircle
 62
7
  6
CONTINUOUS
 10
217.7030942341
 20
42.1964946424
 40
5.7307182661
100
AcDbArc
 50
254.1311990279
 51
258.4934340556
  0
ARC
  5
319
100
AcDbEntity
  8
00_COMPONENTS_3
100
AcDbCircle
 62
7
  6
CONTINUOUS
 10
217.1391350128
 20
41.7374101798
 40
5.2601388583
100
AcDbArc
 50
279.8875643752
 51
281.6029979853
  0
ARC
  5
31A
100
AcDbEntity
  8
00_COMPONENTS_3
100
AcDbCircle
 62
7
  6
CONTINUOUS
 10
217.6013768774
 20
41.7273777037
 40
5.2507425232
100
AcDbArc
 50
258.5990644961
 51
259.7955024518
  0
ARC
  5
31B
100
AcDbEntity
  8
00_COMPONENTS_3
100
AcDbCircle
 62
7
  6
CONTINUOUS
 10
217.1610778451
 20
41.7267208572
 40
5.2500740468
100
AcDbArc
 50
280.2044325089
 51
281.3930934826
  0
ARC
  5
31C
100
AcDbEntity
  8
00_COMPONENTS_3
100
AcDbCircle
 62
7
  6
CONTINUOUS
 10
218.1190287364
 20
40.4864690819
 40
3.9327177121
100
AcDbArc
 50
266.7513601303
 51
268.7575826022
  0
ARC
  5
31D
100
AcDbEntity
  8
00_COMPONENTS_3
100
AcDbCircle
 62
7
  6
CONTINUOUS
 10
216.6433016922
 20
40.4864690819
 40
3.9327177121
100
AcDbArc
 50
271.2424173978
 51
273.2486398697
  0
ARC
  5
31E
100
AcDbEntity
  8
00_COMPONENTS_3
100
AcDbCircle
 62
7
  6
CONTINUOUS
 10
218.1187686775
 20
40.4580339202
 40
3.9042767202
100
AcDbArc
 50
271.2429967188
 51
273.2589493847
  0
ARC
  5
31F
100
AcDbEntity
  8
00_COMPONENTS_3
100
AcDbCircle
 62
7
  6
CONTINUOUS
 10
216.6435617511
 20
40.4580339203
 40
3.9042767203
100
AcDbArc
 50
266.7410506153
 51
268.7570032812
  0
ARC
  5
320
100
AcDbEntity
  8
00_COMPONENTS_3
100
AcDbCircle
 62
7
  6
CONTINUOUS
 10
217.5882944781
 20
39.5377754664
 40
3.0451535552
100
AcDbArc
 50
281.6544973823
 51
284.195477626
  0
ARC
  5
321
100
AcDbEntity
  8
00_COMPONENTS_8
100
AcDbCircle
 62
7
  6
CONTINUOUS
 10
236.6811652143
 20
39.2841720734
 40
2.2
100
AcDbArc
 50
270.0
 51
360.0
  0
ARC
  5
322
100
AcDbEntity
  8
00_COMPONENTS_28
100
AcDbCircle
 62
7
  6
CONTINUOUS
 10
380.9194559875
 20
187.7429361943
 40
350.9652014788
100
AcDbArc
 50
178.4844520931
 51
178.6648659418
  0
ARC
  5
323
100
AcDbEntity
  8
00_COMPONENTS_8
100
AcDbCircle
 62
7
  6
CONTINUOUS
 10
236.6811652143
 20
334.8841720734
 40
2.2
100
AcDbArc
 50
0.0
 51
90.0
  0
SPLINE
  5
324
100
AcDbEntity
  8
00_COMPONENTS_3
100
AcDbSpline
 62
7
  6
CONTINUOUS
 70
0
 71
3
 72
9
 73
5
 74
0
 42
0.0000001
 43
0.0000001
 44
0.0000000001
 40
0.0
 40
0.0
 40
0.0
 40
0.0
 40
0.2550951084
 40
1.0
 40
1.0
 40
1.0
 40
1.0
 10
218.7709296952
 20
36.7341720734
 30
0.0
 10
218.7232321108
 20
36.7191965396
 30
0.0
 10
218.5355665133
 20
36.6627115684
 30
0.0
 10
218.3451397481
 20
36.6152959074
 30
0.0
 10
218.2021638587
 20
36.5858051524
 30
0.0
  0
LINE
  5
325
100
AcDbEntity
  8
00_COMPONENTS_3
100
AcDbLine
 62
7
  6
CONTINUOUS
 10
218.0423812588
 20
36.5554021687
 11
218.0337572898
 21
36.5546759308
  0
SPLINE
  5
326
100
AcDbEntity
  8
00_COMPONENTS_3
100
AcDbSpline
 62
7
  6
CONTINUOUS
 70
0
 71
3
 72
9
 73
5
 74
0
 42
0.0000001
 43
0.0000001
 44
0.0000000001
 40
0.0
 40
0.0
 40
0.0
 40
0.0
 40
0.2542764768
 40
1.0
 40
1.0
 40
1.0
 40
1.0
 10
216.5589949861
 20
36.5596929783
 30
0.0
 10
216.5224442437
 20
36.5675413691
 30
0.0
 10
216.3792760046
 20
36.6010072843
 30
0.0
 10
216.2385517761
 20
36.6451028809
 30
0.0
 10
216.1361125046
 20
36.6841720734
 30
0.0
  0
SPLINE
  5
327
100
AcDbEntity
  8
00_COMPONENTS_3
100
AcDbSpline
 62
7
  6
CONTINUOUS
 70
0
 71
3
 72
9
 73
5
 74
0
 42
0.0000001
 43
0.0000001
 44
0.0000000001
 40
0.0
 40
0.0
 40
0.0
 40
0.0
 40
0.2462187459
 40
1.0
 40
1.0
 40
1.0
 40
1.0
 10
218.7709296952
 20
36.7341720734
 30
0.0
 10
218.7362860865
 20
36.7190046539
 30
0.0
 10
218.5942683348
 20
36.6604351908
 30
0.0
 10
218.4473008932
 20
36.6140077225
 30
0.0
 10
218.335060123
 20
36.5856065609
 30
0.0
  0
SPLINE
  5
328
100
AcDbEntity
  8
00_COMPONENTS_3
100
AcDbSpline
 62
7
  6
CONTINUOUS
 70
0
 71
3
 72
9
 73
5
 74
0
 42
0.0000001
 43
0.0000001
 44
0.0000000001
 40
0.0
 40
0.0
 40
0.0
 40
0.0
 40
0.2550951084
 40
1.0
 40
1.0
 40
1.0
 40
1.0
 10
101.7709296952
 20
36.7341720734
 30
0.0
 10
101.7232321108
 20
36.7191965396
 30
0.0
 10
101.5355665133
 20
36.6627115684
 30
0.0
 10
101.3451397481
 20
36.6152959074
 30
0.0
 10
101.2021638587
 20
36.5858051524
 30
0.0
  0
LINE
  5
329
100
AcDbEntity
  8
00_COMPONENTS_3
100
AcDbLine
 62
7
  6
CONTINUOUS
 10
101.0423812588
 20
36.5554021687
 11
101.0337572898
 21
36.5546759308
  0
SPLINE
  5
32A
100
AcDbEntity
  8
00_COMPONENTS_3
100
AcDbSpline
 62
7
  6
CONTINUOUS
 70
0
 71
3
 72
9
 73
5
 74
0
 42
0.0000001
 43
0.0000001
 44
0.0000000001
 40
0.0
 40
0.0
 40
0.0
 40
0.0
 40
0.2542764768
 40
1.0
 40
1.0
 40
1.0
 40
1.0
 10
99.5589949861
 20
36.5596929783
 30
0.0
 10
99.5224442437
 20
36.5675413691
 30
0.0
 10
99.3792760046
 20
36.6010072843
 30
0.0
 10
99.2385517761
 20
36.6451028809
 30
0.0
 10
99.1361125046
 20
36.6841720734
 30
0.0
  0
SPLINE
  5
32B
100
AcDbEntity
  8
00_COMPONENTS_3
100
AcDbSpline
 62
7
  6
CONTINUOUS
 70
0
 71
3
 72
9
 73
5
 74
0
 42
0.0000001
 43
0.0000001
 44
0.0000000001
 40
0.0
 40
0.0
 40
0.0
 40
0.0
 40
0.2462187459
 40
1.0
 40
1.0
 40
1.0
 40
1.0
 10
101.7709296952
 20
36.7341720734
 30
0.0
 10
101.7362860865
 20
36.7190046539
 30
0.0
 10
101.5942683348
 20
36.6604351908
 30
0.0
 10
101.4473008932
 20
36.6140077225
 30
0.0
 10
101.335060123
 20
36.5856065609
 30
0.0
  0
SPLINE
  5
32C
100
AcDbEntity
  8
00_COMPONENTS_3
100
AcDbSpline
 62
7
  6
CONTINUOUS
 70
0
 71
3
 72
9
 73
5
 74
0
 42
0.0000001
 43
0.0000001
 44
0.0000000001
 40
0.0
 40
0.0
 40
0.0
 40
0.0
 40
0.2550951084
 40
1.0
 40
1.0
 40
1.0
 40
1.0
 10
160.2709296952
 20
36.7341720734
 30
0.0
 10
160.2232321108
 20
36.7191965396
 30
0.0
 10
160.0355665133
 20
36.6627115684
 30
0.0
 10
159.8451397481
 20
36.6152959074
 30
0.0
 10
159.7021638587
 20
36.5858051524
 30
0.0
  0
LINE
  5
32D
100
AcDbEntity
  8
00_COMPONENTS_3
100
AcDbLine
 62
7
  6
CONTINUOUS
 10
159.5423812588
 20
36.5554021687
 11
159.5337572898
 21
36.5546759308
  0
SPLINE
  5
32E
100
AcDbEntity
  8
00_COMPONENTS_3
100
AcDbSpline
 62
7
  6
CONTINUOUS
 70
0
 71
3
 72
9
 73
5
 74
0
 42
0.0000001
 43
0.0000001
 44
0.0000000001
 40
0.0
 40
0.0
 40
0.0
 40
0.0
 40
0.2542764768
 40
1.0
 40
1.0
 40
1.0
 40
1.0
 10
158.0589949861
 20
36.5596929783
 30
0.0
 10
158.0224442437
 20
36.5675413691
 30
0.0
 10
157.8792760046
 20
36.6010072843
 30
0.0
 10
157.7385517761
 20
36.6451028809
 30
0.0
 10
157.6361125046
 20
36.6841720734
 30
0.0
  0
SPLINE
  5
32F
100
AcDbEntity
  8
00_COMPONENTS_3
100
AcDbSpline
 62
7
  6
CONTINUOUS
 70
0
 71
3
 72
9
 73
5
 74
0
 42
0.0000001
 43
0.0000001
 44
0.0000000001
 40
0.0
 40
0.0
 40
0.0
 40
0.0
 40
0.2462187459
 40
1.0
 40
1.0
 40
1.0
 40
1.0
 10
160.2709296952
 20
36.7341720734
 30
0.0
 10
160.2362860865
 20
36.7190046539
 30
0.0
 10
160.0942683348
 20
36.6604351908
 30
0.0
 10
159.9473008932
 20
36.6140077225
 30
0.0
 10
159.835060123
 20
36.5856065609
 30
0.0
  0
SPLINE
  5
330
100
AcDbEntity
  8
00_COMPONENTS_28
100
AcDbSpline
 62
7
  6
CONTINUOUS
 70
0
 71
3
 72
14
 73
10
 74
0
 42
0.0000001
 43
0.0000001
 44
0.0000000001
 40
0.0
 40
0.0
 40
0.0
 40
0.0
 40
0.0668714878
 40
0.1557349142
 40
0.2661351512
 40
0.3950434653
 40
0.5383856879
 40
0.6907075975
 40
1.0
 40
1.0
 40
1.0
 40
1.0
 10
30.0771777081
 20
167.5364235624
 30
0.0
 10
30.1502044589
 20
167.4977905708
 30
0.0
 10
30.3298452557
 20
167.4264371484
 30
0.0
 10
30.6465565278
 20
167.3373937497
 30
0.0
 10
31.0441618061
 20
167.2564463428
 30
0.0
 10
31.5117429855
 20
167.1858789408
 30
0.0
 10
32.0333665535
 20
167.1293905053
 30
0.0
 10
32.7787632338
 20
167.0736466969
 30
0.0
 10
33.3491639569
 20
167.0561100872
 30
0.0
 10
33.7312705218
 20
167.0537508271
 30
0.0
  0
SPLINE
  5
331
100
AcDbEntity
  8
00_COMPONENTS_28
100
AcDbSpline
 62
7
  6
CONTINUOUS
 70
0
 71
3
 72
11
 73
7
 74
0
 42
0.0000001
 43
0.0000001
 44
0.0000000001
 40
0.0
 40
0.0
 40
0.0
 40
0.0
 40
0.3073879217
 40
0.5880196843
 40
0.8243516017
 40
1.0
 40
1.0
 40
1.0
 40
1.0
 10
29.8813850649
 20
164.05957746
 30
0.0
 10
29.8897571655
 20
163.9043029618
 30
0.0
 10
29.9155654097
 20
163.6076909377
 30
0.0
 10
29.9804578534
 20
163.1953751371
 30
0.0
 10
30.0599016115
 20
162.8538790054
 30
0.0
 10
30.1226388677
 20
162.6547114986
 30
0.0
 10
30.1550155576
 20
162.5719638097
 30
0.0
  0
SPLINE
  5
332
100
AcDbEntity
  8
00_COMPONENTS_28
100
AcDbSpline
 62
7
  6
CONTINUOUS
 70
0
 71
3
 72
9
 73
5
 74
0
 42
0.0000001
 43
0.0000001
 44
0.0000000001
 40
0.0
 40
0.0
 40
0.0
 40
0.0
 40
0.5860974524
 40
1.0
 40
1.0
 40
1.0
 40
1.0
 10
30.1550155576
 20
162.5719638097
 30
0.0
 10
30.1662479491
 20
162.5432562909
 30
0.0
 10
30.1866955384
 20
162.4947943162
 30
0.0
 10
30.2110579888
 20
162.4479668031
 30
0.0
 10
30.223013476
 20
162.4297735678
 30
0.0
  0
SPLINE
  5
333
100
AcDbEntity
  8
00_COMPONENTS_28
100
AcDbSpline
 62
7
  6
CONTINUOUS
 70
0
 71
3
 72
13
 73
9
 74
0
 42
0.0000001
 43
0.0000001
 44
0.0000000001
 40
0.0
 40
0.0
 40
0.0
 40
0.0
 40
0.3596775725
 40
0.5583903147
 40
0.6321390596
 40
0.7214406012
 40
0.8421817829
 40
1.0
 40
1.0
 40
1.0
 40
1.0
 10
30.223013476
 20
162.4297735678
 30
0.0
 10
30.2291653409
 20
162.4204119814
 30
0.0
 10
30.2387385517
 20
162.4068920723
 30
0.0
 10
30.2565679388
 20
162.3931691139
 30
0.0
 10
30.2680536712
 20
162.3970346739
 30
0.0
 10
30.273331707
 20
162.4045469349
 30
0.0
 10
30.2772084839
 20
162.4153338918
 30
0.0
 10
30.2788111095
 20
162.423906217
 30
0.0
 10
30.2795105298
 20
162.4287713773
 30
0.0
  0
SPLINE
  5
334
100
AcDbEntity
  8
00_COMPONENTS_28
100
AcDbSpline
 62
7
  6
CONTINUOUS
 70
0
 71
3
 72
9
 73
5
 74
0
 42
0.0000001
 43
0.0000001
 44
0.0000000001
 40
0.0
 40
0.0
 40
0.0
 40
0.0
 40
0.194565496
 40
1.0
 40
1.0
 40
1.0
 40
1.0
 10
30.2795105298
 20
162.4287713773
 30
0.0
 10
30.2803530459
 20
162.4346319115
 30
0.0
 10
30.2830465862
 20
162.4649810166
 30
0.0
 10
30.2816902656
 20
162.4955116998
 30
0.0
 10
30.2800917233
 20
162.5199695374
 30
0.0
  0
SPLINE
  5
335
100
AcDbEntity
  8
00_COMPONENTS_28
100
AcDbSpline
 62
7
  6
CONTINUOUS
 70
0
 71
3
 72
9
 73
5
 74
0
 42
0.0000001
 43
0.0000001
 44
0.0000000001
 40
0.0
 40
0.0
 40
0.0
 40
0.0
 40
0.2303021398
 40
1.0
 40
1.0
 40
1.0
 40
1.0
 10
30.2800917233
 20
162.5199695374
 30
0.0
 10
30.2797255082
 20
162.5255726604
 30
0.0
 10
30.2779501132
 20
162.5498900098
 30
0.0
 10
30.2755338671
 20
162.5741573399
 30
0.0
 10
30.2734556971
 20
162.592808193
 30
0.0
  0
LINE
  5
336
100
AcDbEntity
  8
00_COMPONENTS_28
100
AcDbLine
 62
7
  6
CONTINUOUS
 10
30.2484233865
 20
202.611084969
 11
30.2476081003
 21
202.6082980939
  0
SPLINE
  5
337
100
AcDbEntity
  8
00_COMPONENTS_28
100
AcDbSpline
 62
7
  6
CONTINUOUS
 70
0
 71
3
 72
12
 73
8
 74
0
 42
0.0000001
 43
0.0000001
 44
0.0000000001
 40
0.0
 40
0.0
 40
0.0
 40
0.0
 40
0.2504356141
 40
0.375778956
 40
0.5010349653
 40
0.7508432938
 40
1.0
 40
1.0
 40
1.0
 40
1.0
 10
34.2898014109
 20
160.3338351593
 30
0.0
 10
33.7929467253
 20
160.5717834307
 30
0.0
 10
33.0865728528
 20
161.019275428
 30
0.0
 10
32.2660202933
 20
161.7572729905
 30
0.0
 10
31.5301308706
 20
162.5786031257
 30
0.0
 10
30.7792685151
 20
163.7400486009
 30
0.0
 10
30.3728986688
 20
164.7679828633
 30
0.0
 10
30.2202034723
 20
165.2943633593
 30
0.0
  0
SPLINE
  5
338
100
AcDbEntity
  8
00_COMPONENTS_28
100
AcDbSpline
 62
7
  6
CONTINUOUS
 70
0
 71
3
 72
25
 73
21
 74
0
 42
0.0000001
 43
0.0000001
 44
0.0000000001
 40
0.0
 40
0.0
 40
0.0
 40
0.0
 40
0.0136137378
 40
0.0248652348
 40
0.0337519645
 40
0.0403756859
 40
0.0451454789
 40
0.0492792081
 40
0.0545728455
 40
0.0620792021
 40
0.0851747971
 40
0.1199558775
 40
0.166567977
 40
0.2248684271
 40
0.2942280303
 40
0.373836696
 40
0.4626026677
 40
0.5592588901
 40
0.7712539966
 40
1.0
 40
1.0
 40
1.0
 40
1.0
 10
30.2706474638
 20
162.5340427333
 30
0.0
 10
30.2706395997
 20
162.5261167439
 30
0.0
 10
30.2703224114
 20
162.51163219
 30
0.0
 10
30.2686337176
 20
162.4920481226
 30
0.0
 10
30.2657206069
 20
162.4766654438
 30
0.0
 10
30.2616622797
 20
162.4655816245
 30
0.0
 10
30.2556664603
 20
162.4581229127
 30
0.0
 10
30.2467908106
 20
162.4568118299
 30
0.0
 10
30.2378225704
 20
162.4617654115
 30
0.0
 10
30.2227732251
 20
162.4762732543
 30
0.0
 10
30.2021819284
 20
162.5088039129
 30
0.0
 10
30.1752481986
 20
162.5632428386
 30
0.0
 10
30.144649425
 20
162.6387288591
 30
0.0
 10
30.1113299514
 20
162.7345699555
 30
0.0
 10
30.0764658705
 20
162.8501389664
 30
0.0
 10
30.0413668864
 20
162.9840503481
 30
0.0
 10
30.0072947227
 20
163.1345750234
 30
0.0
 10
29.9637376205
 20
163.3618555646
 30
0.0
 10
29.9198019996
 20
163.6718305878
 30
0.0
 10
29.8982805909
 20
163.9276954521
 30
0.0
 10
29.8910971986
 20
164.0606787646
 30
0.0
  0
LINE
  5
339
100
AcDbEntity
  8
00_COMPONENTS_28
100
AcDbLine
 62
7
  6
CONTINUOUS
 10
29.8910971986
 20
164.0606787646
 11
29.8905929187
 21
164.0701403015
  0
SPLINE
  5
33A
100
AcDbEntity
  8
00_COMPONENTS_28
100
AcDbSpline
 62
7
  6
CONTINUOUS
 70
0
 71
3
 72
9
 73
5
 74
0
 42
0.0000001
 43
0.0000001
 44
0.0000000001
 40
0.0
 40
0.0
 40
0.0
 40
0.0
 40
0.5284575415
 40
1.0
 40
1.0
 40
1.0
 40
1.0
 10
30.0771756824
 20
167.5364242348
 30
0.0
 10
30.0867711611
 20
167.1450654135
 30
0.0
 10
30.1210375388
 20
166.4048464286
 30
0.0
 10
30.181657634
 20
165.6663548492
 30
0.0
 10
30.2176219871
 20
165.3188969011
 30
0.0
  0
LINE
  5
33B
100
AcDbEntity
  8
00_COMPONENTS_28
100
AcDbLine
 62
7
  6
CONTINUOUS
 10
30.2176219871
 20
165.3188969011
 11
30.2201748146
 21
165.2943557301
  0
SPLINE
  5
33C
100
AcDbEntity
  8
00_COMPONENTS_28
100
AcDbSpline
 62
7
  6
CONTINUOUS
 70
0
 71
3
 72
8
 73
4
 74
0
 42
0.0000001
 43
0.0000001
 44
0.0000000001
 40
0.0
 40
0.0
 40
0.0
 40
0.0
 40
1.0
 40
1.0
 40
1.0
 40
1.0
 10
30.2201748146
 20
165.2943557301
 30
0.0
 10
30.2159585864
 20
165.3033859908
 30
0.0
 10
30.2131198534
 20
165.3132159774
 30
0.0
 10
30.2120251235
 20
165.3231217209
 30
0.0
  0
SPLINE
  5
33D
100
AcDbEntity
  8
00_COMPONENTS_28
100
AcDbSpline
 62
7
  6
CONTINUOUS
 70
0
 71
3
 72
23
 73
19
 74
0
 42
0.0000001
 43
0.0000001
 44
0.0000000001
 40
0.0
 40
0.0
 40
0.0
 40
0.0
 40
0.055809333
 40
0.1039195473
 40
0.1434478015
 40
0.1734929255
 40
0.1849411026
 40
0.1943105466
 40
0.2023667875
 40
0.2104723088
 40
0.2201711819
 40
0.2325890237
 40
0.2680292934
 40
0.3191814507
 40
0.3854874536
 40
0.55845623
 40
0.7694300511
 40
1.0
 40
1.0
 40
1.0
 40
1.0
 10
30.2708560029
 20
164.5326927985
 30
0.0
 10
30.2708395454
 20
164.5011669838
 30
0.0
 10
30.2697988477
 20
164.4424634732
 30
0.0
 10
30.2641491095
 20
164.3615384352
 30
0.0
 10
30.2541565006
 20
164.2958087938
 30
0.0
 10
30.2414667945
 20
164.2513997019
 30
0.0
 10
30.2273914591
 20
164.2261793384
 30
0.0
 10
30.2161664796
 20
164.2140130604
 30
0.0
 10
30.2026693328
 20
164.2076295912
 30
0.0
 10
30.1875393143
 20
164.2085744359
 30
0.0
 10
30.1720922154
 20
164.2165569496
 30
0.0
 10
30.1478766591
 20
164.2385608505
 30
0.0
 10
30.1173092726
 20
164.2861788676
 30
0.0
 10
30.0811370618
 20
164.3645956261
 30
0.0
 10
30.0265788625
 20
164.5195990908
 30
0.0
 10
29.9686144574
 20
164.7678171654
 30
0.0
 10
29.9173582314
 20
165.111380949
 30
0.0
 10
29.8977973178
 20
165.3602441791
 30
0.0
 10
29.891024551
 20
165.4903133243
 30
0.0
  0
LINE
  5
33E
100
AcDbEntity
  8
00_COMPONENTS_28
100
AcDbLine
 62
7
  6
CONTINUOUS
 10
29.891024551
 20
165.4903133243
 11
29.8905914935
 21
165.4987267211
  0
SPLINE
  5
33F
100
AcDbEntity
  8
00_COMPONENTS_28
100
AcDbSpline
 62
7
  6
CONTINUOUS
 70
0
 71
3
 72
9
 73
5
 74
0
 42
0.0000001
 43
0.0000001
 44
0.0000000001
 40
0.0
 40
0.0
 40
0.0
 40
0.0
 40
0.3036615997
 40
1.0
 40
1.0
 40
1.0
 40
1.0
 10
29.8905967041
 20
165.4987269251
 30
0.0
 10
29.8896808882
 20
165.4982112608
 30
0.0
 10
29.886740667
 20
165.496418488
 30
0.0
 10
29.8839248474
 20
165.4941877433
 30
0.0
 10
29.8825922769
 20
165.492179527
 30
0.0
  0
SPLINE
  5
340
100
AcDbEntity
  8
00_COMPONENTS_28
100
AcDbSpline
 62
7
  6
CONTINUOUS
 70
0
 71
3
 72
8
 73
4
 74
0
 42
0.0000001
 43
0.0000001
 44
0.0000000001
 40
0.0
 40
0.0
 40
0.0
 40
0.0
 40
1.0
 40
1.0
 40
1.0
 40
1.0
 10
29.8825922769
 20
165.492179527
 30
0.0
 10
29.8819625883
 20
165.4912305708
 30
0.0
 10
29.881481544
 20
165.4901178249
 30
0.0
 10
29.8813859222
 20
165.488982976
 30
0.0
  0
SPLINE
  5
341
100
AcDbEntity
  8
00_COMPONENTS_28
100
AcDbSpline
 62
7
  6
CONTINUOUS
 70
0
 71
3
 72
9
 73
5
 74
0
 42
0.0000001
 43
0.0000001
 44
0.0000000001
 40
0.0
 40
0.0
 40
0.0
 40
0.0
 40
0.2550745143
 40
1.0
 40
1.0
 40
1.0
 40
1.0
 10
29.8856410039
 20
165.4150421056
 30
0.0
 10
29.88765661
 20
165.3829823374
 30
0.0
 10
29.896438316
 20
165.257353061
 30
0.0
 10
29.9088586093
 20
165.1319646027
 30
0.0
 10
29.9205708538
 20
165.0388856486
 30
0.0
  0
SPLINE
  5
342
100
AcDbEntity
  8
00_COMPONENTS_28
100
AcDbSpline
 62
7
  6
CONTINUOUS
 70
0
 71
3
 72
22
 73
18
 74
0
 42
0.0000001
 43
0.0000001
 44
0.0000000001
 40
0.0
 40
0.0
 40
0.0
 40
0.0
 40
0.2410156406
 40
0.3486648635
 40
0.4448129775
 40
0.5273025281
 40
0.5946666635
 40
0.6462216337
 40
0.6825339262
 40
0.7062561031
 40
0.7155730249
 40
0.7249214052
 40
0.7480153015
 40
0.7803317951
 40
0.8223617981
 40
0.8735361105
 40
1.0
 40
1.0
 40
1.0
 40
1.0
 10
29.9205708538
 20
165.0388856486
 30
0.0
 10
29.9339965667
 20
164.9321895046
 30
0.0
 10
29.9579965086
 20
164.7782967076
 30
0.0
 10
30.000692974
 20
164.5844193118
 30
0.0
 10
30.0339865364
 20
164.4610446607
 30
0.0
 10
30.0686277997
 20
164.3567931776
 30
0.0
 10
30.1030583783
 20
164.2737366293
 30
0.0
 10
30.1363380893
 20
164.2125986907
 30
0.0
 10
30.1666229106
 20
164.1731753454
 30
0.0
 10
30.1937633496
 20
164.154816635
 30
0.0
 10
30.2132753545
 20
164.1548202403
 30
0.0
 10
30.2305587685
 20
164.1630501265
 30
0.0
 10
30.2477196767
 20
164.187883342
 30
0.0
 10
30.2616854085
 20
164.229008841
 30
0.0
 10
30.2721401955
 20
164.2842468067
 30
0.0
 10
30.2817242419
 20
164.3818149885
 30
0.0
 10
30.2824390262
 20
164.4612341773
 30
0.0
 10
30.2816135945
 20
164.517654404
 30
0.0
  0
SPLINE
  5
343
100
AcDbEntity
  8
00_COMPONENTS_28
100
AcDbSpline
 62
7
  6
CONTINUOUS
 70
0
 71
3
 72
9
 73
5
 74
0
 42
0.0000001
 43
0.0000001
 44
0.0000000001
 40
0.0
 40
0.0
 40
0.0
 40
0.0
 40
0.4549021244
 40
1.0
 40
1.0
 40
1.0
 40
1.0
 10
30.2816135945
 20
164.517654404
 30
0.0
 10
30.2798849098
 20
164.6358141287
 30
0.0
 10
30.2627445513
 20
164.895272702
 30
0.0
 10
30.2359591612
 20
165.1536396261
 30
0.0
 10
30.2202034723
 20
165.2943633593
 30
0.0
  0
SPLINE
  5
344
100
AcDbEntity
  8
00_COMPONENTS_28
100
AcDbSpline
 62
7
  6
CONTINUOUS
 70
0
 71
3
 72
9
 73
5
 74
0
 42
0.0000001
 43
0.0000001
 44
0.0000000001
 40
0.0
 40
0.0
 40
0.0
 40
0.0
 40
0.4055363462
 40
1.0
 40
1.0
 40
1.0
 40
1.0
 10
29.8816847901
 20
199.0836044489
 30
0.0
 10
29.8816353977
 20
199.0820761644
 30
0.0
 10
29.8815128574
 20
199.0784041852
 30
0.0
 10
29.8824827141
 20
199.0742420137
 30
0.0
 10
29.8841570681
 20
199.072751854
 30
0.0
  0
LINE
  5
345
100
AcDbEntity
  8
00_COMPONENTS_28
100
AcDbLine
 62
7
  6
CONTINUOUS
 10
29.8841570681
 20
199.072751854
 11
29.8877750068
 21
199.0696360294
  0
SPLINE
  5
346
100
AcDbEntity
  8
00_COMPONENTS_28
100
AcDbSpline
 62
7
  6
CONTINUOUS
 70
0
 71
3
 72
9
 73
5
 74
0
 42
0.0000001
 43
0.0000001
 44
0.0000000001
 40
0.0
 40
0.0
 40
0.0
 40
0.0
 40
0.2492552736
 40
1.0
 40
1.0
 40
1.0
 40
1.0
 10
34.2898083187
 20
204.2344841445
 30
0.0
 10
34.3485559305
 20
204.2575970592
 30
0.0
 10
34.5883821195
 20
204.3394861177
 30
0.0
 10
34.842197622
 20
204.3801201249
 30
0.0
 10
35.0322533285
 20
204.3860010208
 30
0.0
  0
SPLINE
  5
347
100
AcDbEntity
  8
00_COMPONENTS_28
100
AcDbSpline
 62
7
  6
CONTINUOUS
 70
0
 71
3
 72
12
 73
8
 74
0
 42
0.0000001
 43
0.0000001
 44
0.0000000001
 40
0.0
 40
0.0
 40
0.0
 40
0.0
 40
0.2491565432
 40
0.4989655069
 40
0.6242215802
 40
0.7495647001
 40
1.0
 40
1.0
 40
1.0
 40
1.0
 10
30.2202143424
 20
199.2740465709
 30
0.0
 10
30.372910402
 20
199.8004210093
 30
0.0
 10
30.7792979116
 20
200.8283381201
 30
0.0
 10
31.5301540331
 20
201.9897718483
 30
0.0
 10
32.2660416915
 20
202.8110913151
 30
0.0
 10
33.0865885
 20
203.5490774708
 30
0.0
 10
33.7929520443
 20
203.996568401
 30
0.0
 10
34.2898014109
 20
204.2345140346
 30
0.0
  0
SPLINE
  5
348
100
AcDbEntity
  8
00_COMPONENTS_28
100
AcDbSpline
 62
7
  6
CONTINUOUS
 70
0
 71
3
 72
13
 73
9
 74
0
 42
0.0000001
 43
0.0000001
 44
0.0000000001
 40
0.0
 40
0.0
 40
0.0
 40
0.0
 40
0.0794923762
 40
0.1720200262
 40
0.4015335095
 40
0.5373676401
 40
0.6840280224
 40
1.0
 40
1.0
 40
1.0
 40
1.0
 10
34.2897547969
 20
204.2344855634
 30
0.0
 10
34.2982462671
 20
204.1831615669
 30
0.0
 10
34.3414091829
 20
204.0763100387
 30
0.0
 10
34.5012602635
 20
203.8659857477
 30
0.0
 10
34.7423252506
 20
203.6803846659
 30
0.0
 10
35.032492423
 20
203.5133139782
 30
0.0
 10
35.3864237698
 20
203.3444206084
 30
0.0
 10
35.6729624367
 20
203.2439362321
 30
0.0
 10
35.8708696855
 20
203.1840152996
 30
0.0
  0
SPLINE
  5
349
100
AcDbEntity
  8
00_COMPONENTS_28
100
AcDbSpline
 62
7
  6
CONTINUOUS
 70
0
 71
3
 72
14
 73
10
 74
0
 42
0.0000001
 43
0.0000001
 44
0.0000000001
 40
0.0
 40
0.0
 40
0.0
 40
0.0
 40
0.3092911189
 40
0.4616127744
 40
0.6049550208
 40
0.7338636044
 40
0.8442642576
 40
0.9331281344
 40
1.0
 40
1.0
 40
1.0
 40
1.0
 10
33.7312705218
 20
197.5145946681
 30
0.0
 10
33.349165553
 20
197.5122354856
 30
0.0
 10
32.7787667448
 20
197.4946990893
 30
0.0
 10
32.0333719253
 20
197.4389557688
 30
0.0
 10
31.5117482926
 20
197.3824676226
 30
0.0
 10
31.0441662139
 20
197.3119003998
 30
0.0
 10
30.6465595082
 20
197.2309530167
 30
0.0
 10
30.3298466995
 20
197.1419094445
 30
0.0
 10
30.1502048958
 20
197.0705557684
 30
0.0
 10
30.0771777288
 20
197.0319225704
 30
0.0
  0
LINE
  5
34A
100
AcDbEntity
  8
00_COMPONENTS_28
100
AcDbLine
 62
7
  6
CONTINUOUS
 10
30.2201836331
 20
199.2740470437
 11
30.2176298026
 21
199.2494717518
  0
SPLINE
  5
34B
100
AcDbEntity
  8
00_COMPONENTS_28
100
AcDbSpline
 62
7
  6
CONTINUOUS
 70
0
 71
3
 72
9
 73
5
 74
0
 42
0.0000001
 43
0.0000001
 44
0.0000000001
 40
0.0
 40
0.0
 40
0.0
 40
0.0
 40
0.4715537964
 40
1.0
 40
1.0
 40
1.0
 40
1.0
 10
30.2176298026
 20
199.2494717518
 30
0.0
 10
30.1816977922
 20
198.901997886
 30
0.0
 10
30.1209623147
 20
198.1635074098
 30
0.0
 10
30.0867881005
 20
197.4232743392
 30
0.0
 10
30.0771757997
 20
197.0319197297
 30
0.0
  0
SPLINE
  5
34C
100
AcDbEntity
  8
00_COMPONENTS_28
100
AcDbSpline
 62
7
  6
CONTINUOUS
 70
0
 71
3
 72
9
 73
5
 74
0
 42
0.0000001
 43
0.0000001
 44
0.0000000001
 40
0.0
 40
0.0
 40
0.0
 40
0.0
 40
0.6583569993
 40
1.0
 40
1.0
 40
1.0
 40
1.0
 10
30.0771758296
 20
197.0319209687
 30
0.0
 10
30.0745785002
 20
197.0311583963
 30
0.0
 10
30.0708439436
 20
197.0300789999
 30
0.0
 10
30.0671091759
 20
197.0269354974
 30
0.0
 10
30.067053533
 20
197.0255318694
 30
0.0
  0
SPLINE
  5
34D
100
AcDbEntity
  8
00_COMPONENTS_28
100
AcDbSpline
 62
7
  6
CONTINUOUS
 70
0
 71
3
 72
9
 73
5
 74
0
 42
0.0000001
 43
0.0000001
 44
0.0000000001
 40
0.0
 40
0.0
 40
0.0
 40
0.0
 40
0.4996001326
 40
1.0
 40
1.0
 40
1.0
 40
1.0
 10
30.0495382704
 20
195.920557503
 30
0.0
 10
29.9979169803
 20
193.712062636
 30
0.0
 10
29.923889815
 20
189.2907906773
 30
0.0
 10
29.9067401764
 20
184.8690097193
 30
0.0
 10
29.9057494527
 20
182.6563756462
 30
0.0
  0
SPLINE
  5
34E
100
AcDbEntity
  8
00_COMPONENTS_28
100
AcDbSpline
 62
7
  6
CONTINUOUS
 70
0
 71
3
 72
9
 73
5
 74
0
 42
0.0000001
 43
0.0000001
 44
0.0000000001
 40
0.0
 40
0.0
 40
0.0
 40
0.0
 40
0.5003992451
 40
1.0
 40
1.0
 40
1.0
 40
1.0
 10
29.9057437731
 20
181.9270490245
 30
0.0
 10
29.9067005098
 20
179.7126043403
 30
0.0
 10
29.9237782234
 20
175.2871993849
 30
0.0
 10
29.9977763806
 20
170.8623021614
 30
0.0
 10
30.0494291272
 20
168.6519943287
 30
0.0
  0
SPLINE
  5
34F
100
AcDbEntity
  8
00_COMPONENTS_28
100
AcDbSpline
 62
7
  6
CONTINUOUS
 70
0
 71
3
 72
9
 73
5
 74
0
 42
0.0000001
 43
0.0000001
 44
0.0000000001
 40
0.0
 40
0.0
 40
0.0
 40
0.0
 40
0.6583232088
 40
1.0
 40
1.0
 40
1.0
 40
1.0
 10
30.0772020016
 20
167.5364271586
 30
0.0
 10
30.0746024484
 20
167.537189369
 30
0.0
 10
30.0708653998
 20
167.5382700614
 30
0.0
 10
30.0671232184
 20
167.5414076357
 30
0.0
 10
30.0670637403
 20
167.5428123733
 30
0.0
  0
SPLINE
  5
350
100
AcDbEntity
  8
00_COMPONENTS_28
100
AcDbSpline
 62
7
  6
CONTINUOUS
 70
0
 71
3
 72
12
 73
8
 74
0
 42
0.0000001
 43
0.0000001
 44
0.0000000001
 40
0.0
 40
0.0
 40
0.0
 40
0.0
 40
0.23253949
 40
0.3537288365
 40
0.4779901627
 40
0.7342985638
 40
1.0
 40
1.0
 40
1.0
 40
1.0
 10
35.8708696085
 20
162.6058517904
 30
0.0
 10
35.5170519664
 20
162.7928581516
 30
0.0
 10
35.0352989605
 20
163.193515035
 30
0.0
 10
34.5471645843
 20
163.8573930292
 30
0.0
 10
34.1388295677
 20
164.6216049016
 30
0.0
 10
33.8108478108
 20
165.6955750052
 30
0.0
 10
33.7312699117
 20
166.5964831523
 30
0.0
 10
33.7312693201
 20
167.0537523161
 30
0.0
  0
SPLINE
  5
351
100
AcDbEntity
  8
00_COMPONENTS_28
100
AcDbSpline
 62
7
  6
CONTINUOUS
 70
0
 71
3
 72
12
 73
8
 74
0
 42
0.0000001
 43
0.0000001
 44
0.0000000001
 40
0.0
 40
0.0
 40
0.0
 40
0.0
 40
0.2657014307
 40
0.5220098326
 40
0.6462711596
 40
0.7674605071
 40
1.0
 40
1.0
 40
1.0
 40
1.0
 10
33.7312693151
 20
197.5145928318
 30
0.0
 10
33.7312699698
 20
197.9718618988
 30
0.0
 10
33.810847963
 20
198.8727698542
 30
0.0
 10
34.1388297655
 20
199.9467397106
 30
0.0
 10
34.547164771
 20
200.7109514056
 30
0.0
 10
35.0352991056
 20
201.3748292448
 30
0.0
 10
35.517052036
 20
201.775486034
 30
0.0
 10
35.8708696155
 20
201.9624923604
 30
0.0
  0
LINE
  5
352
100
AcDbEntity
  8
00_COMPONENTS_28
100
AcDbLine
 62
7
  6
CONTINUOUS
 10
29.8905708698
 20
199.0691384008
 11
29.8912834988
 21
199.0829141942
  0
SPLINE
  5
353
100
AcDbEntity
  8
00_COMPONENTS_28
100
AcDbSpline
 62
7
  6
CONTINUOUS
 70
0
 71
3
 72
23
 73
19
 74
0
 42
0.0000001
 43
0.0000001
 44
0.0000000001
 40
0.0
 40
0.0
 40
0.0
 40
0.0
 40
0.2306920244
 40
0.4416655901
 40
0.6144770898
 40
0.6806788682
 40
0.7317186184
 40
0.7670481056
 40
0.7794248778
 40
0.7890985014
 40
0.7972015562
 40
0.8052789172
 40
0.8146839172
 40
0.8261736054
 40
0.856305051
 40
0.8959172066
 40
0.9441094992
 40
1.0
 40
1.0
 40
1.0
 40
1.0
 10
29.8912834988
 20
199.0829141942
 30
0.0
 10
29.8981230816
 20
199.2126673579
 30
0.0
 10
29.9177968803
 20
199.4608590849
 30
0.0
 10
29.9691601016
 20
199.8033599956
 30
0.0
 10
30.0271293116
 20
200.0506617309
 30
0.0
 10
30.0816308342
 20
200.2049540081
 30
0.0
 10
30.1177237901
 20
200.2829250227
 30
0.0
 10
30.1482262826
 20
200.3302188153
 30
0.0
 10
30.1723826016
 20
200.3519999806
 30
0.0
 10
30.187799178
 20
200.3598550586
 30
0.0
 10
30.2028888711
 20
200.3606794484
 30
0.0
 10
30.2163283565
 20
200.3542142312
 30
0.0
 10
30.2275104583
 20
200.3420041175
 30
0.0
 10
30.2415383027
 20
200.3167498189
 30
0.0
 10
30.2541926127
 20
200.2723505985
 30
0.0
 10
30.2641599145
 20
200.206669135
 30
0.0
 10
30.269797802
 20
200.125842094
 30
0.0
 10
30.2708385452
 20
200.0672182011
 30
0.0
 10
30.2708562467
 20
200.0357388456
 30
0.0
  0
SPLINE
  5
354
100
AcDbEntity
  8
00_COMPONENTS_28
100
AcDbSpline
 62
7
  6
CONTINUOUS
 70
0
 71
3
 72
9
 73
5
 74
0
 42
0.0000001
 43
0.0000001
 44
0.0000000001
 40
0.0
 40
0.0
 40
0.0
 40
0.0
 40
0.4884861937
 40
1.0
 40
1.0
 40
1.0
 40
1.0
 10
29.8877750068
 20
199.0696360294
 30
0.0
 10
29.8882220522
 20
199.0694965689
 30
0.0
 10
29.8891189207
 20
199.0691642126
 30
0.0
 10
29.8901011405
 20
199.0690575445
 30
0.0
 10
29.8905864705
 20
199.0691276639
 30
0.0
  0
LINE
  5
355
100
AcDbEntity
  8
00_COMPONENTS_28
100
AcDbLine
 62
7
  6
CONTINUOUS
 10
29.8905949502
 20
200.4981990202
 11
29.8911167678
 21
200.507808689
  0
SPLINE
  5
356
100
AcDbEntity
  8
00_COMPONENTS_28
100
AcDbSpline
 62
7
  6
CONTINUOUS
 70
0
 71
3
 72
25
 73
21
 74
0
 42
0.0000001
 43
0.0000001
 44
0.0000000001
 40
0.0
 40
0.0
 40
0.0
 40
0.0
 40
0.2274580942
 40
0.4389500408
 40
0.5355326544
 40
0.6242403835
 40
0.7040131872
 40
0.7738434237
 40
0.8325182661
 40
0.8791391289
 40
0.9138616115
 40
0.9373121758
 40
0.9450418982
 40
0.9504584977
 40
0.9546070564
 40
0.9593996008
 40
0.966119103
 40
0.9751094235
 40
0.9864036438
 40
1.0
 40
1.0
 40
1.0
 40
1.0
 10
29.8911167678
 20
200.507808689
 30
0.0
 10
29.8983818988
 20
200.6400553646
 30
0.0
 10
29.9192646702
 20
200.8949556857
 30
0.0
 10
29.9631692907
 20
201.2038972552
 30
0.0
 10
30.0066896578
 20
201.4308392175
 30
0.0
 10
30.0407569821
 20
201.5814066953
 30
0.0
 10
30.0758686434
 20
201.7156799258
 30
0.0
 10
30.1106085788
 20
201.8319142174
 30
0.0
 10
30.1438868136
 20
201.9283183428
 30
0.0
 10
30.174747758
 20
202.003916402
 30
0.0
 10
30.2020650688
 20
202.058391376
 30
0.0
 10
30.2226958814
 20
202.0911977656
 30
0.0
 10
30.2376464978
 20
202.1063538759
 30
0.0
 10
30.2465643541
 20
202.111800904
 30
0.0
 10
30.2556274818
 20
202.1108413912
 30
0.0
 10
30.2617481206
 20
202.1033053561
 30
0.0
 10
30.2658494399
 20
202.0921168542
 30
0.0
 10
30.26883448
 20
202.0765953155
 30
0.0
 10
30.2705538645
 20
202.0569367849
 30
0.0
 10
30.2708679207
 20
202.0424344204
 30
0.0
 10
30.2708682818
 20
202.0345174274
 30
0.0
  0
SPLINE
  5
357
100
AcDbEntity
  8
00_COMPONENTS_28
100
AcDbSpline
 62
7
  6
CONTINUOUS
 70
0
 71
3
 72
11
 73
7
 74
0
 42
0.0000001
 43
0.0000001
 44
0.0000000001
 40
0.0
 40
0.0
 40
0.0
 40
0.0
 40
0.3080135885
 40
0.5891245874
 40
0.8250167763
 40
1.0
 40
1.0
 40
1.0
 40
1.0
 10
29.8813877913
 20
200.5088157312
 30
0.0
 10
29.8898403406
 20
200.6649303772
 30
0.0
 10
29.9158299098
 20
200.9630996418
 30
0.0
 10
29.9811900466
 20
201.377122675
 30
0.0
 10
30.0612481934
 20
201.7193627225
 30
0.0
 10
30.1242813778
 20
201.9186007671
 30
0.0
 10
30.1568799005
 20
202.0012212783
 30
0.0
  0
SPLINE
  5
358
100
AcDbEntity
  8
00_COMPONENTS_28
100
AcDbSpline
 62
7
  6
CONTINUOUS
 70
0
 71
3
 72
9
 73
5
 74
0
 42
0.0000001
 43
0.0000001
 44
0.0000000001
 40
0.0
 40
0.0
 40
0.0
 40
0.0
 40
0.5769156336
 40
1.0
 40
1.0
 40
1.0
 40
1.0
 10
30.1568799005
 20
202.0012212783
 30
0.0
 10
30.1670706076
 20
202.0270494863
 30
0.0
 10
30.1858264999
 20
202.0713890001
 30
0.0
 10
30.2079220168
 20
202.1142804756
 30
0.0
 10
30.2186754126
 20
202.1315717406
 30
0.0
  0
SPLINE
  5
359
100
AcDbEntity
  8
00_COMPONENTS_28
100
AcDbSpline
 62
7
  6
CONTINUOUS
 70
0
 71
3
 72
14
 73
10
 74
0
 42
0.0000001
 43
0.0000001
 44
0.0000000001
 40
0.0
 40
0.0
 40
0.0
 40
0.0
 40
0.1787830541
 40
0.3086052988
 40
0.3956097869
 40
0.4583041915
 40
0.534152483
 40
0.6467593719
 40
1.0
 40
1.0
 40
1.0
 40
1.0
 10
30.2186754126
 20
202.1315717406
 30
0.0
 10
30.2232518963
 20
202.1389306431
 30
0.0
 10
30.2316212393
 20
202.1514555924
 30
0.0
 10
30.2443906417
 20
202.1655918931
 30
0.0
 10
30.2558624328
 20
202.1739070303
 30
0.0
 10
30.2679622716
 20
202.1725842682
 30
0.0
 10
30.2749709036
 20
202.1614171411
 30
0.0
 10
30.2815225233
 20
202.1362527777
 30
0.0
 10
30.2820310493
 20
202.1132352339
 30
0.0
 10
30.2819472118
 20
202.0961133219
 30
0.0
  0
SPLINE
  5
35A
100
AcDbEntity
  8
00_COMPONENTS_28
100
AcDbSpline
 62
7
  6
CONTINUOUS
 70
0
 71
3
 72
9
 73
5
 74
0
 42
0.0000001
 43
0.0000001
 44
0.0000000001
 40
0.0
 40
0.0
 40
0.0
 40
0.0
 40
0.3046554539
 40
1.0
 40
1.0
 40
1.0
 40
1.0
 10
29.8906078897
 20
164.0701172434
 30
0.0
 10
29.8896516701
 20
164.0695609329
 30
0.0
 10
29.8865992372
 20
164.0676346646
 30
0.0
 10
29.883687084
 20
164.0652034569
 30
0.0
 10
29.8824046588
 20
164.0630284253
 30
0.0
  0
SPLINE
  5
35B
100
AcDbEntity
  8
00_COMPONENTS_28
100
AcDbSpline
 62
7
  6
CONTINUOUS
 70
0
 71
3
 72
8
 73
4
 74
0
 42
0.0000001
 43
0.0000001
 44
0.0000000001
 40
0.0
 40
0.0
 40
0.0
 40
0.0
 40
1.0
 40
1.0
 40
1.0
 40
1.0
 10
29.8824046588
 20
164.0630284253
 30
0.0
 10
29.8817956592
 20
164.0619955436
 30
0.0
 10
29.8813736816
 20
164.0607776495
 30
0.0
 10
29.8813855321
 20
164.0595786564
 30
0.0
  0
SPLINE
  5
35C
100
AcDbEntity
  8
00_COMPONENTS_28
100
AcDbSpline
 62
7
  6
CONTINUOUS
 70
0
 71
3
 72
9
 73
5
 74
0
 42
0.0000001
 43
0.0000001
 44
0.0000000001
 40
0.0
 40
0.0
 40
0.0
 40
0.0
 40
0.6931406966
 40
1.0
 40
1.0
 40
1.0
 40
1.0
 10
29.8814010195
 20
200.5087457293
 30
0.0
 10
29.8813840943
 20
200.5068494742
 30
0.0
 10
29.8829116429
 20
200.5041890785
 30
0.0
 10
29.8848669311
 20
200.5023273708
 30
0.0
 10
29.8855016841
 20
200.5017779298
 30
0.0
  0
SPLINE
  5
35D
100
AcDbEntity
  8
00_COMPONENTS_28
100
AcDbSpline
 62
7
  6
CONTINUOUS
 70
0
 71
3
 72
8
 73
4
 74
0
 42
0.0000001
 43
0.0000001
 44
0.0000000001
 40
0.0
 40
0.0
 40
0.0
 40
0.0
 40
1.0
 40
1.0
 40
1.0
 40
1.0
 10
29.8855016841
 20
200.5017779298
 30
0.0
 10
29.8870645789
 20
200.5004250907
 30
0.0
 10
29.8888032648
 20
200.4992729719
 30
0.0
 10
29.8905891199
 20
200.4982320417
 30
0.0
  0
SPLINE
  5
35E
100
AcDbEntity
  8
00_COMPONENTS_28
100
AcDbSpline
 62
7
  6
CONTINUOUS
 70
0
 71
3
 72
14
 73
10
 74
0
 42
0.0000001
 43
0.0000001
 44
0.0000000001
 40
0.0
 40
0.0
 40
0.0
 40
0.0
 40
0.0794074417
 40
0.1716360197
 40
0.2791906191
 40
0.4016880082
 40
0.5374110421
 40
0.6840467892
 40
1.0
 40
1.0
 40
1.0
 40
1.0
 10
34.289759834
 20
160.333872829
 30
0.0
 10
34.3014003004
 20
160.3845390305
 30
0.0
 10
34.3425925488
 20
160.4908257516
 30
0.0
 10
34.4514654976
 20
160.6395889397
 30
0.0
 10
34.6070922958
 20
160.7833176151
 30
0.0
 10
34.8025097264
 20
160.9224765757
 30
0.0
 10
35.0323087142
 20
161.0551762498
 30
0.0
 10
35.3860499669
 20
161.2243325457
 30
0.0
 10
35.6735213279
 20
161.3223311739
 30
0.0
 10
35.8708673229
 20
161.3843014313
 30
0.0
  0
SPLINE
  5
35F
100
AcDbEntity
  8
00_COMPONENTS_28
100
AcDbSpline
 62
7
  6
CONTINUOUS
 70
0
 71
3
 72
9
 73
5
 74
0
 42
0.0000001
 43
0.0000001
 44
0.0000000001
 40
0.0
 40
0.0
 40
0.0
 40
0.0
 40
0.750744656
 40
1.0
 40
1.0
 40
1.0
 40
1.0
 10
35.032253328
 20
160.182345832
 30
0.0
 10
34.8421975494
 20
160.1882272162
 30
0.0
 10
34.5883820187
 20
160.2288618698
 30
0.0
 10
34.3485558681
 20
160.3107514694
 30
0.0
 10
34.2898082525
 20
160.3338645183
 30
0.0
  0
SPLINE
  5
360
100
AcDbEntity
  8
00_COMPONENTS_28
100
AcDbSpline
 62
7
  6
CONTINUOUS
 70
0
 71
3
 72
14
 73
10
 74
0
 42
0.0000001
 43
0.0000001
 44
0.0000000001
 40
0.0
 40
0.0
 40
0.0
 40
0.0
 40
0.0789117533
 40
0.1648203769
 40
0.2643020389
 40
0.3804165013
 40
0.5136359401
 40
0.6627310991
 40
1.0
 40
1.0
 40
1.0
 40
1.0
 10
35.0322718707
 20
160.1823174991
 30
0.0
 10
35.0322819731
 20
160.2090217477
 30
0.0
 10
35.0430173154
 20
160.2652693875
 30
0.0
 10
35.0903453358
 20
160.3429313639
 30
0.0
 10
35.1664426945
 20
160.4123573901
 30
0.0
 10
35.2680982237
 20
160.4734183776
 30
0.0
 10
35.3930298883
 20
160.5250945383
 30
0.0
 10
35.5944737018
 20
160.5842015729
 30
0.0
 10
35.7575570161
 20
160.6106681156
 30
0.0
 10
35.8708690792
 20
160.6243408571
 30
0.0
  0
LINE
  5
361
100
AcDbEntity
  8
00_COMPONENTS_28
100
AcDbLine
 62
7
  6
CONTINUOUS
 10
29.8877750068
 20
199.0696360294
 11
29.882208454
 21
199.0696149568
  0
LINE
  5
362
100
AcDbEntity
  8
00_COMPONENTS_28
100
AcDbLine
 62
7
  6
CONTINUOUS
 10
29.882208454
 20
199.0696149568
 11
29.8811016318
 21
199.0694214085
  0
SPLINE
  5
363
100
AcDbEntity
  8
00_COMPONENTS_28
100
AcDbSpline
 62
7
  6
CONTINUOUS
 70
0
 71
3
 72
8
 73
4
 74
0
 42
0.0000001
 43
0.0000001
 44
0.0000000001
 40
0.0
 40
0.0
 40
0.0
 40
0.0
 40
1.0
 40
1.0
 40
1.0
 40
1.0
 10
30.2202149614
 20
199.2740455971
 30
0.0
 10
30.215985923
 20
199.2650067658
 30
0.0
 10
30.2131377979
 20
199.2551653307
 30
0.0
 10
30.2120341565
 20
199.2452473061
 30
0.0
  0
SPLINE
  5
364
100
AcDbEntity
  8
00_COMPONENTS_28
100
AcDbSpline
 62
7
  6
CONTINUOUS
 70
0
 71
3
 72
23
 73
19
 74
0
 42
0.0000001
 43
0.0000001
 44
0.0000000001
 40
0.0
 40
0.0
 40
0.0
 40
0.0
 40
0.2303266143
 40
0.4409688526
 40
0.6137892347
 40
0.680256811
 40
0.7314002982
 40
0.7670772389
 40
0.7797426669
 40
0.789669671
 40
0.7979104068
 40
0.8060307938
 40
0.8154405659
 40
0.8268998955
 40
0.8568301804
 40
0.8961936163
 40
0.9442308615
 40
1.0
 40
1.0
 40
1.0
 40
1.0
 10
29.8825806344
 20
199.1013390917
 30
0.0
 10
29.890038627
 20
199.2345376239
 30
0.0
 10
29.9111847232
 20
199.4892851961
 30
0.0
 10
29.9654166953
 20
199.8409213787
 30
0.0
 10
30.0272644841
 20
200.0946780164
 30
0.0
 10
30.084460757
 20
200.2531596556
 30
0.0
 10
30.1225696062
 20
200.333372637
 30
0.0
 10
30.1548103623
 20
200.3819186993
 30
0.0
 10
30.1801216717
 20
200.4045432943
 30
0.0
 10
30.1962416396
 20
200.4129174224
 30
0.0
 10
30.2119921965
 20
200.4140827466
 30
0.0
 10
30.2260310429
 20
200.4076157776
 30
0.0
 10
30.2377031187
 20
200.3951990628
 30
0.0
 10
30.2523444806
 20
200.3694947785
 30
0.0
 10
30.2654864366
 20
200.324135855
 30
0.0
 10
30.2756195675
 20
200.2569255004
 30
0.0
 10
30.2811639372
 20
200.1740904378
 30
0.0
 10
30.2820137909
 20
200.1139601821
 30
0.0
 10
30.281909519
 20
200.0816583845
 30
0.0
  0
SPLINE
  5
365
100
AcDbEntity
  8
00_COMPONENTS_28
100
AcDbSpline
 62
7
  6
CONTINUOUS
 70
0
 71
3
 72
9
 73
5
 74
0
 42
0.0000001
 43
0.0000001
 44
0.0000000001
 40
0.0
 40
0.0
 40
0.0
 40
0.0
 40
0.2350953928
 40
1.0
 40
1.0
 40
1.0
 40
1.0
 10
30.2815604325
 20
200.0453501737
 30
0.0
 10
30.2813130822
 20
200.0296066039
 30
0.0
 10
30.2797524223
 20
199.9626478626
 30
0.0
 10
30.2763987776
 20
199.895739213
 30
0.0
 10
30.2731754977
 20
199.8446112333
 30
0.0
  0
SPLINE
  5
366
100
AcDbEntity
  8
00_COMPONENTS_28
100
AcDbSpline
 62
7
  6
CONTINUOUS
 70
0
 71
3
 72
9
 73
5
 74
0
 42
0.0000001
 43
0.0000001
 44
0.0000000001
 40
0.0
 40
0.0
 40
0.0
 40
0.0
 40
0.2383443419
 40
1.0
 40
1.0
 40
1.0
 40
1.0
 10
30.2731754977
 20
199.8446112333
 30
0.0
 10
30.2719275419
 20
199.8248160358
 30
0.0
 10
30.2662630759
 20
199.7417898939
 30
0.0
 10
30.2590611475
 20
199.658875196
 30
0.0
 10
30.2531318208
 20
199.5957698191
 30
0.0
  0
SPLINE
  5
367
100
AcDbEntity
  8
00_COMPONENTS_28
100
AcDbSpline
 62
7
  6
CONTINUOUS
 70
0
 71
3
 72
9
 73
5
 74
0
 42
0.0000001
 43
0.0000001
 44
0.0000000001
 40
0.0
 40
0.0
 40
0.0
 40
0.0
 40
0.242233728
 40
1.0
 40
1.0
 40
1.0
 40
1.0
 10
30.2531318208
 20
199.5957698191
 30
0.0
 10
30.2506890107
 20
199.5697711749
 30
0.0
 10
30.2402779628
 20
199.4624729767
 30
0.0
 10
30.2289069237
 20
199.3552710835
 30
0.0
 10
30.2202143424
 20
199.2740465709
 30
0.0
  0
SPLINE
  5
368
100
AcDbEntity
  8
00_COMPONENTS_28
100
AcDbSpline
 62
7
  6
CONTINUOUS
 70
0
 71
3
 72
14
 73
10
 74
0
 42
0.0000001
 43
0.0000001
 44
0.0000000001
 40
0.0
 40
0.0
 40
0.0
 40
0.0
 40
0.3372687188
 40
0.4863638658
 40
0.6195832889
 40
0.7356978058
 40
0.835179573
 40
0.9210882431
 40
1.0
 40
1.0
 40
1.0
 40
1.0
 10
35.870869082
 20
203.9440032582
 30
0.0
 10
35.7575572893
 20
203.9576759503
 30
0.0
 10
35.5944743406
 20
203.9841423816
 30
0.0
 10
35.3930309276
 20
204.0432491327
 30
0.0
 10
35.2680994351
 20
204.0949250701
 30
0.0
 10
35.1664439679
 20
204.1559858165
 30
0.0
 10
35.0903464965
 20
204.2254115084
 30
0.0
 10
35.0430180949
 20
204.3030730922
 30
0.0
 10
35.0322823178
 20
204.3593205319
 30
0.0
 10
35.0322719404
 20
204.3860247318
 30
0.0
  0
SPLINE
  5
369
100
AcDbEntity
  8
00_COMPONENTS_28
100
AcDbSpline
 62
7
  6
CONTINUOUS
 70
0
 71
3
 72
10
 73
6
 74
0
 42
0.0000001
 43
0.0000001
 44
0.0000000001
 40
0.0
 40
0.0
 40
0.0
 40
0.0
 40
0.1796183523
 40
0.4128352536
 40
1.0
 40
1.0
 40
1.0
 40
1.0
 10
30.2734556971
 20
162.592808193
 30
0.0
 10
30.2648222106
 20
162.6702907301
 30
0.0
 10
30.2374178921
 20
162.8474725672
 30
0.0
 10
30.1616332016
 20
163.2747984096
 30
0.0
 10
30.0981458489
 20
163.6252289416
 30
0.0
 10
30.0576582909
 20
163.8768469651
 30
0.0
  0
SPLINE
  5
36A
100
AcDbEntity
  8
00_COMPONENTS_28
100
AcDbSpline
 62
7
  6
CONTINUOUS
 70
0
 71
3
 72
9
 73
5
 74
0
 42
0.0000001
 43
0.0000001
 44
0.0000000001
 40
0.0
 40
0.0
 40
0.0
 40
0.0
 40
0.2436321177
 40
1.0
 40
1.0
 40
1.0
 40
1.0
 10
29.9568275203
 20
164.5914299699
 30
0.0
 10
29.9482056284
 20
164.6640743104
 30
0.0
 10
29.9150426016
 20
164.9624991238
 30
0.0
 10
29.8917713569
 20
165.2620840792
 30
0.0
 10
29.8813872556
 20
165.488957375
 30
0.0
  0
SPLINE
  5
36B
100
AcDbEntity
  8
00_COMPONENTS_28
100
AcDbSpline
 62
7
  6
CONTINUOUS
 70
0
 71
3
 72
9
 73
5
 74
0
 42
0.0000001
 43
0.0000001
 44
0.0000000001
 40
0.0
 40
0.0
 40
0.0
 40
0.0
 40
0.2331869174
 40
1.0
 40
1.0
 40
1.0
 40
1.0
 10
30.2819472118
 20
202.0961133219
 30
0.0
 10
30.2819333178
 20
202.0932758013
 30
0.0
 10
30.281776541
 20
202.0811078426
 30
0.0
 10
30.2812720638
 20
202.0689460117
 30
0.0
 10
30.280755352
 20
202.0596292997
 30
0.0
  0
SPLINE
  5
36C
100
AcDbEntity
  8
00_COMPONENTS_28
100
AcDbSpline
 62
7
  6
CONTINUOUS
 70
0
 71
3
 72
9
 73
5
 74
0
 42
0.0000001
 43
0.0000001
 44
0.0000000001
 40
0.0
 40
0.0
 40
0.0
 40
0.0
 40
0.4250138335
 40
1.0
 40
1.0
 40
1.0
 40
1.0
 10
30.2796981889
 20
202.0429757566
 30
0.0
 10
30.2752862798
 20
201.9807951984
 30
0.0
 10
30.2558036286
 20
201.8352469964
 30
0.0
 10
30.2316030229
 20
201.6906277899
 30
0.0
 10
30.2171742513
 20
201.6075379225
 30
0.0
  0
SPLINE
  5
36D
100
AcDbEntity
  8
00_COMPONENTS_28
100
AcDbSpline
 62
7
  6
CONTINUOUS
 70
0
 71
3
 72
9
 73
5
 74
0
 42
0.0000001
 43
0.0000001
 44
0.0000000001
 40
0.0
 40
0.0
 40
0.0
 40
0.0
 40
0.4570388597
 40
1.0
 40
1.0
 40
1.0
 40
1.0
 10
30.2171742513
 20
201.6075379225
 30
0.0
 10
30.1896040027
 20
201.4487712331
 30
0.0
 10
30.1258362224
 20
201.1020050029
 30
0.0
 10
30.066972352
 20
200.7543368465
 30
0.0
 10
30.0377377589
 20
200.5651450337
 30
0.0
  0
SPLINE
  5
36E
100
AcDbEntity
  8
00_COMPONENTS_28
100
AcDbSpline
 62
7
  6
CONTINUOUS
 70
0
 71
3
 72
9
 73
5
 74
0
 42
0.0000001
 43
0.0000001
 44
0.0000000001
 40
0.0
 40
0.0
 40
0.0
 40
0.0
 40
0.2379126071
 40
1.0
 40
1.0
 40
1.0
 40
1.0
 10
30.0163449153
 20
200.42324989
 30
0.0
 10
30.0010921301
 20
200.3194160536
 30
0.0
 10
29.9407447425
 20
199.8824675492
 30
0.0
 10
29.8988072432
 20
199.442700369
 30
0.0
 10
29.8827616135
 20
199.106911095
 30
0.0
  0
LINE
  5
36F
100
AcDbEntity
  8
00_COMPONENTS_28
100
AcDbLine
 62
7
  6
CONTINUOUS
 10
29.8827616135
 20
199.106911095
 11
29.8820368691
 21
199.0915054704
  0
SPLINE
  5
370
100
AcDbEntity
  8
00_COMPONENTS_21
100
AcDbSpline
 62
7
  6
CONTINUOUS
 70
0
 71
3
 72
9
 73
5
 74
0
 42
0.0000001
 43
0.0000001
 44
0.0000000001
 40
0.0
 40
0.0
 40
0.0
 40
0.0
 40
0.2406492627
 40
1.0
 40
1.0
 40
1.0
 40
1.0
 10
35.8708686029
 20
331.8841720734
 30
0.0
 10
35.8708686029
 20
331.9663071307
 30
0.0
 10
35.8938713749
 20
332.3077514224
 30
0.0
 10
36.0121394828
 20
332.6383945111
 30
0.0
 10
36.1325769085
 20
332.8678818687
 30
0.0
  0
SPLINE
  5
371
100
AcDbEntity
  8
00_COMPONENTS_21
100
AcDbSpline
 62
7
  6
CONTINUOUS
 70
0
 71
3
 72
9
 73
5
 74
0
 42
0.0000001
 43
0.0000001
 44
0.0000000001
 40
0.0
 40
0.0
 40
0.0
 40
0.0
 40
0.2403080268
 40
1.0
 40
1.0
 40
1.0
 40
1.0
 10
36.1325769085
 20
332.8678818687
 30
0.0
 10
36.1543736225
 20
332.909414393
 30
0.0
 10
36.2493459025
 20
333.0800008785
 30
0.0
 10
36.3598709094
 20
333.2416726302
 30
0.0
 10
36.4495820611
 20
333.3597367669
 30
0.0
  0
SPLINE
  5
372
100
AcDbEntity
  8
00_COMPONENTS_21
100
AcDbSpline
 62
7
  6
CONTINUOUS
 70
0
 71
3
 72
9
 73
5
 74
0
 42
0.0000001
 43
0.0000001
 44
0.0000000001
 40
0.0
 40
0.0
 40
0.0
 40
0.0
 40
0.2600646193
 40
1.0
 40
1.0
 40
1.0
 40
1.0
 10
36.4495820611
 20
40.8086073799
 30
0.0
 10
36.4188731371
 20
40.8490217824
 30
0.0
 10
36.3035196311
 20
41.0064401694
 30
0.0
 10
36.1996874859
 20
41.1725865037
 30
0.0
 10
36.1325769085
 20
41.3004622781
 30
0.0
  0
SPLINE
  5
373
100
AcDbEntity
  8
00_COMPONENTS_21
100
AcDbSpline
 62
7
  6
CONTINUOUS
 70
0
 71
3
 72
9
 73
5
 74
0
 42
0.0000001
 43
0.0000001
 44
0.0000000001
 40
0.0
 40
0.0
 40
0.0
 40
0.0
 40
0.2647055554
 40
1.0
 40
1.0
 40
1.0
 40
1.0
 10
36.1325769085
 20
41.3004622781
 30
0.0
 10
36.0906143169
 20
41.3804198511
 30
0.0
 10
35.9461249194
 20
41.6892535372
 30
0.0
 10
35.8708686029
 20
42.0333385866
 30
0.0
 10
35.8708686029
 20
42.2841720734
 30
0.0
  0
LINE
  5
374
100
AcDbEntity
  8
00_COMPONENTS_21
100
AcDbLine
 62
7
  6
CONTINUOUS
 10
54.7708686029
 20
334.0841720734
 11
54.8590583073
 21
334.0386171487
  0
SPLINE
  5
375
100
AcDbEntity
  8
00_COMPONENTS_21
100
AcDbSpline
 62
7
  6
CONTINUOUS
 70
0
 71
3
 72
9
 73
5
 74
0
 42
0.0000001
 43
0.0000001
 44
0.0000000001
 40
0.0
 40
0.0
 40
0.0
 40
0.0
 40
0.2578359639
 40
1.0
 40
1.0
 40
1.0
 40
1.0
 10
54.8590583073
 20
334.0386171487
 30
0.0
 10
54.897541153
 20
334.0186994911
 30
0.0
 10
55.0466455526
 20
333.9411898851
 30
0.0
 10
55.1947136477
 20
333.8614792323
 30
0.0
 10
55.3021557653
 20
333.7981295132
 30
0.0
  0
SPLINE
  5
376
100
AcDbEntity
  8
00_COMPONENTS_21
100
AcDbSpline
 62
7
  6
CONTINUOUS
 70
0
 71
3
 72
9
 73
5
 74
0
 42
0.0000001
 43
0.0000001
 44
0.0000000001
 40
0.0
 40
0.0
 40
0.0
 40
0.0
 40
0.2641213967
 40
1.0
 40
1.0
 40
1.0
 40
1.0
 10
55.3021557653
 20
333.7981295132
 30
0.0
 10
55.3249615808
 20
333.7846828125
 30
0.0
 10
55.4108496944
 20
333.733023224
 30
0.0
 10
55.494824085
 20
333.6780015439
 30
0.0
 10
55.554239968
 20
333.6342902054
 30
0.0
  0
SPLINE
  5
377
100
AcDbEntity
  8
00_COMPONENTS_21
100
AcDbSpline
 62
7
  6
CONTINUOUS
 70
0
 71
3
 72
8
 73
4
 74
0
 42
0.0000001
 43
0.0000001
 44
0.0000000001
 40
0.0
 40
0.0
 40
0.0
 40
0.0
 40
1.0
 40
1.0
 40
1.0
 40
1.0
 10
55.554239968
 20
333.6342902054
 30
0.0
 10
55.599199735
 20
333.601214006
 30
0.0
 10
55.6429063222
 20
333.5662078185
 30
0.0
 10
55.6838627667
 20
333.5282870422
 30
0.0
  0
SPLINE
  5
378
100
AcDbEntity
  8
00_COMPONENTS_21
100
AcDbSpline
 62
7
  6
CONTINUOUS
 70
0
 71
3
 72
8
 73
4
 74
0
 42
0.0000001
 43
0.0000001
 44
0.0000000001
 40
0.0
 40
0.0
 40
0.0
 40
0.0
 40
1.0
 40
1.0
 40
1.0
 40
1.0
 10
55.6838627667
 20
333.5282870422
 30
0.0
 10
55.7192128208
 20
333.4955571137
 30
0.0
 10
55.7527587725
 20
333.4604704978
 30
0.0
 10
55.7819761878
 20
333.4221662267
 30
0.0
  0
SPLINE
  5
379
100
AcDbEntity
  8
00_COMPONENTS_21
100
AcDbSpline
 62
7
  6
CONTINUOUS
 70
0
 71
3
 72
9
 73
5
 74
0
 42
0.0000001
 43
0.0000001
 44
0.0000000001
 40
0.0
 40
0.0
 40
0.0
 40
0.0
 40
0.2783788047
 40
1.0
 40
1.0
 40
1.0
 40
1.0
 10
55.7819761878
 20
333.4221662267
 30
0.0
 10
55.7959712643
 20
333.4038185666
 30
0.0
 10
55.8426608447
 20
333.3356110081
 30
0.0
 10
55.8708288381
 20
333.25223579
 30
0.0
 10
55.870865954
 20
333.1924177268
 30
0.0
  0
SPLINE
  5
37A
100
AcDbEntity
  8
00_COMPONENTS_21
100
AcDbSpline
 62
7
  6
CONTINUOUS
 70
0
 71
3
 72
9
 73
5
 74
0
 42
0.0000001
 43
0.0000001
 44
0.0000000001
 40
0.0
 40
0.0
 40
0.0
 40
0.0
 40
0.2578501867
 40
1.0
 40
1.0
 40
1.0
 40
1.0
 10
54.8964593126
 20
40.1491069104
 30
0.0
 10
54.931556586
 20
40.1673273839
 30
0.0
 10
55.0675023394
 20
40.2382955254
 30
0.0
 10
55.2023954143
 20
40.3114372329
 30
0.0
 10
55.3004546635
 20
40.3692228878
 30
0.0
  0
SPLINE
  5
37B
100
AcDbEntity
  8
00_COMPONENTS_21
100
AcDbSpline
 62
7
  6
CONTINUOUS
 70
0
 71
3
 72
9
 73
5
 74
0
 42
0.0000001
 43
0.0000001
 44
0.0000000001
 40
0.0
 40
0.0
 40
0.0
 40
0.0
 40
0.2636618878
 40
1.0
 40
1.0
 40
1.0
 40
1.0
 10
55.3004546635
 20
40.3692228878
 30
0.0
 10
55.3227631076
 20
40.3823691036
 30
0.0
 10
55.4069378314
 20
40.4329431012
 30
0.0
 10
55.4892870905
 20
40.486714755
 30
0.0
 10
55.5477091629
 20
40.5293323843
 30
0.0
  0
SPLINE
  5
37C
100
AcDbEntity
  8
00_COMPONENTS_21
100
AcDbSpline
 62
7
  6
CONTINUOUS
 70
0
 71
3
 72
8
 73
4
 74
0
 42
0.0000001
 43
0.0000001
 44
0.0000000001
 40
0.0
 40
0.0
 40
0.0
 40
0.0
 40
1.0
 40
1.0
 40
1.0
 40
1.0
 10
55.5477091629
 20
40.5293323843
 30
0.0
 10
55.593713427
 20
40.5628914931
 30
0.0
 10
55.6384611227
 20
40.5984056756
 30
0.0
 10
55.6804138665
 20
40.6369098753
 30
0.0
  0
SPLINE
  5
37D
100
AcDbEntity
  8
00_COMPONENTS_21
100
AcDbSpline
 62
7
  6
CONTINUOUS
 70
0
 71
3
 72
9
 73
5
 74
0
 42
0.0000001
 43
0.0000001
 44
0.0000000001
 40
0.0
 40
0.0
 40
0.0
 40
0.0
 40
0.291189759
 40
1.0
 40
1.0
 40
1.0
 40
1.0
 10
55.7242573094
 20
40.6795253457
 30
0.0
 10
55.7468520233
 20
40.7028904891
 30
0.0
 10
55.8201196526
 20
40.7860283332
 30
0.0
 10
55.8708175241
 20
40.896807733
 30
0.0
 10
55.8708659874
 20
40.9759263138
 30
0.0
  0
LINE
  5
37E
100
AcDbEntity
  8
00_COMPONENTS_8
100
AcDbLine
 62
7
  6
CONTINUOUS
 10
59.8811800984
 20
316.8861789576
 11
60.0057643919
 21
316.9902996627
  0
SPLINE
  5
37F
100
AcDbEntity
  8
00_COMPONENTS_8
100
AcDbSpline
 62
7
  6
CONTINUOUS
 70
0
 71
3
 72
9
 73
5
 74
0
 42
0.0000001
 43
0.0000001
 44
0.0000000001
 40
0.0
 40
0.0
 40
0.0
 40
0.0
 40
0.2596887086
 40
1.0
 40
1.0
 40
1.0
 40
1.0
 10
60.0057643919
 20
316.9902996627
 30
0.0
 10
60.1003061599
 20
317.0694175882
 30
0.0
 10
60.4634722607
 20
317.3749262903
 30
0.0
 10
60.8196609478
 20
317.6904136681
 30
0.0
 10
61.063805775
 20
317.9432052516
 30
0.0
  0
SPLINE
  5
380
100
AcDbEntity
  8
00_COMPONENTS_8
100
AcDbSpline
 62
7
  6
CONTINUOUS
 70
0
 71
3
 72
9
 73
5
 74
0
 42
0.0000001
 43
0.0000001
 44
0.0000000001
 40
0.0
 40
0.0
 40
0.0
 40
0.0
 40
0.5485369838
 40
1.0
 40
1.0
 40
1.0
 40
1.0
 10
61.063805775
 20
317.9432052516
 30
0.0
 10
61.29251584
 20
318.1800154276
 30
0.0
 10
61.6872259401
 20
318.6402325095
 30
0.0
 10
61.8811652143
 20
319.2394067997
 30
0.0
 10
61.8811652143
 20
319.510367041
 30
0.0
  0
SPLINE
  5
381
100
AcDbEntity
  8
00_COMPONENTS_8
100
AcDbSpline
 62
7
  6
CONTINUOUS
 70
0
 71
3
 72
9
 73
5
 74
0
 42
0.0000001
 43
0.0000001
 44
0.0000000001
 40
0.0
 40
0.0
 40
0.0
 40
0.0
 40
0.3953816312
 40
1.0
 40
1.0
 40
1.0
 40
1.0
 10
238.8811652143
 20
39.2841720734
 30
0.0
 10
238.8811652143
 20
39.1913853361
 30
0.0
 10
238.7436968467
 20
38.970276953
 30
0.0
 10
238.543037969
 20
38.8501946106
 30
0.0
 10
238.4195928444
 20
38.7802376437
 30
0.0
  0
SPLINE
  5
382
100
AcDbEntity
  8
00_COMPONENTS_8
100
AcDbSpline
 62
7
  6
CONTINUOUS
 70
0
 71
3
 72
9
 73
5
 74
0
 42
0.0000001
 43
0.0000001
 44
0.0000000001
 40
0.0
 40
0.0
 40
0.0
 40
0.0
 40
0.2357405662
 40
1.0
 40
1.0
 40
1.0
 40
1.0
 10
238.4195928444
 20
38.7802376437
 30
0.0
 10
238.399356133
 20
38.7687693985
 30
0.0
 10
238.3129076126
 20
38.7211896795
 30
0.0
 10
238.2243800848
 20
38.6774570344
 30
0.0
 10
238.1560760087
 20
38.64550282
 30
0.0
  0
SPLINE
  5
383
100
AcDbEntity
  8
00_COMPONENTS_8
100
AcDbSpline
 62
7
  6
CONTINUOUS
 70
0
 71
3
 72
9
 73
5
 74
0
 42
0.0000001
 43
0.0000001
 44
0.0000000001
 40
0.0
 40
0.0
 40
0.0
 40
0.0
 40
0.2306009759
 40
1.0
 40
1.0
 40
1.0
 40
1.0
 10
238.1560760087
 20
38.64550282
 30
0.0
 10
238.1033145267
 20
38.6208197878
 30
0.0
 10
237.8727047303
 20
38.5176445009
 30
0.0
 10
237.6370163108
 20
38.4262705936
 30
0.0
 10
237.4547986726
 20
38.3586793567
 30
0.0
  0
SPLINE
  5
384
100
AcDbEntity
  8
00_COMPONENTS_8
100
AcDbSpline
 62
7
  6
CONTINUOUS
 70
0
 71
3
 72
9
 73
5
 74
0
 42
0.0000001
 43
0.0000001
 44
0.0000000001
 40
0.0
 40
0.0
 40
0.0
 40
0.0
 40
0.2442275471
 40
1.0
 40
1.0
 40
1.0
 40
1.0
 10
237.4547986726
 20
38.3586793567
 30
0.0
 10
237.3921414026
 20
38.3354374662
 30
0.0
 10
237.1350514978
 20
38.2417174288
 30
0.0
 10
236.8765271764
 20
38.1520109567
 30
0.0
 10
236.6811652143
 20
38.0841720734
 30
0.0
  0
SPLINE
  5
385
100
AcDbEntity
  8
00_COMPONENTS_8
100
AcDbSpline
 62
7
  6
CONTINUOUS
 70
0
 71
3
 72
9
 73
5
 74
0
 42
0.0000001
 43
0.0000001
 44
0.0000000001
 40
0.0
 40
0.0
 40
0.0
 40
0.0
 40
0.2536471098
 40
1.0
 40
1.0
 40
1.0
 40
1.0
 10
236.6811652143
 20
336.0841720734
 30
0.0
 10
236.7467306103
 20
336.0614046769
 30
0.0
 10
237.005211799
 20
335.9716282799
 30
0.0
 10
237.26331946
 20
335.8806914598
 30
0.0
 10
237.4547965766
 20
335.8096655663
 30
0.0
  0
SPLINE
  5
386
100
AcDbEntity
  8
00_COMPONENTS_8
100
AcDbSpline
 62
7
  6
CONTINUOUS
 70
0
 71
3
 72
9
 73
5
 74
0
 42
0.0000001
 43
0.0000001
 44
0.0000000001
 40
0.0
 40
0.0
 40
0.0
 40
0.0
 40
0.2677969196
 40
1.0
 40
1.0
 40
1.0
 40
1.0
 10
237.4547965766
 20
335.8096655663
 30
0.0
 10
237.5182162944
 20
335.7861408643
 30
0.0
 10
237.7544783179
 20
335.6968819523
 30
0.0
 10
237.9885529923
 20
335.6012123199
 30
0.0
 10
238.1560732915
 20
335.5228425963
 30
0.0
  0
SPLINE
  5
387
100
AcDbEntity
  8
00_COMPONENTS_8
100
AcDbSpline
 62
7
  6
CONTINUOUS
 70
0
 71
3
 72
9
 73
5
 74
0
 42
0.0000001
 43
0.0000001
 44
0.0000000001
 40
0.0
 40
0.0
 40
0.0
 40
0.0
 40
0.2640637244
 40
1.0
 40
1.0
 40
1.0
 40
1.0
 10
238.1560732915
 20
335.5228425963
 30
0.0
 10
238.1796732682
 20
335.5118020021
 30
0.0
 10
238.2687224644
 20
335.4693158815
 30
0.0
 10
238.3564183104
 20
335.4239078259
 30
0.0
 10
238.4195929425
 20
335.3881064458
 30
0.0
  0
SPLINE
  5
388
100
AcDbEntity
  8
00_COMPONENTS_8
100
AcDbSpline
 62
7
  6
CONTINUOUS
 70
0
 71
3
 72
9
 73
5
 74
0
 42
0.0000001
 43
0.0000001
 44
0.0000000001
 40
0.0
 40
0.0
 40
0.0
 40
0.0
 40
0.604618345
 40
1.0
 40
1.0
 40
1.0
 40
1.0
 10
238.4195929425
 20
335.3881064458
 30
0.0
 10
238.5430380402
 20
335.3181494914
 30
0.0
 10
238.7436968576
 20
335.1980671366
 30
0.0
 10
238.8811652143
 20
334.9769588006
 30
0.0
 10
238.8811652143
 20
334.8841720734
 30
0.0
  0
SPLINE
  5
389
100
AcDbEntity
  8
00_COMPONENTS_8
100
AcDbSpline
 62
7
  6
CONTINUOUS
 70
0
 71
3
 72
9
 73
5
 74
0
 42
0.0000001
 43
0.0000001
 44
0.0000000001
 40
0.0
 40
0.0
 40
0.0
 40
0.0
 40
0.4514058646
 40
1.0
 40
1.0
 40
1.0
 40
1.0
 10
61.8811447205
 20
54.6579780652
 30
0.0
 10
61.8811447205
 20
54.9290101151
 30
0.0
 10
61.6870635179
 20
55.5284086076
 30
0.0
 10
61.2921426047
 20
55.9887533604
 30
0.0
 10
61.0632983971
 20
56.2256609465
 30
0.0
  0
SPLINE
  5
38A
100
AcDbEntity
  8
00_COMPONENTS_8
100
AcDbSpline
 62
7
  6
CONTINUOUS
 70
0
 71
3
 72
9
 73
5
 74
0
 42
0.0000001
 43
0.0000001
 44
0.0000000001
 40
0.0
 40
0.0
 40
0.0
 40
0.0
 40
0.2380681603
 40
1.0
 40
1.0
 40
1.0
 40
1.0
 10
61.0632983971
 20
56.2256609465
 30
0.0
 10
60.9848110927
 20
56.3069137692
 30
0.0
 10
60.6459341342
 20
56.6393761593
 30
0.0
 10
60.2830524381
 20
56.9459438664
 30
0.0
 10
60.0057824005
 20
57.1779914388
 30
0.0
  0
LINE
  5
38B
100
AcDbEntity
  8
00_COMPONENTS_8
100
AcDbLine
 62
7
  6
CONTINUOUS
 10
60.0057824005
 20
57.1779914388
 11
59.8811651851
 21
57.2821472125
  0
SPLINE
  5
38C
100
AcDbEntity
  8
00_COMPONENTS_8
100
AcDbSpline
 62
7
  6
CONTINUOUS
 70
0
 71
3
 72
9
 73
5
 74
0
 42
0.0000001
 43
0.0000001
 44
0.0000000001
 40
0.0
 40
0.0
 40
0.0
 40
0.0
 40
0.2301664293
 40
1.0
 40
1.0
 40
1.0
 40
1.0
 10
61.8811652143
 20
333.8841720734
 30
0.0
 10
61.8811652143
 20
333.9251633633
 30
0.0
 10
61.8996172328
 20
334.1036077314
 30
0.0
 10
61.9914278529
 20
334.2672152083
 30
0.0
 10
62.0759268596
 20
334.3751832895
 30
0.0
  0
SPLINE
  5
38D
100
AcDbEntity
  8
00_COMPONENTS_8
100
AcDbSpline
 62
7
  6
CONTINUOUS
 70
0
 71
3
 72
9
 73
5
 74
0
 42
0.0000001
 43
0.0000001
 44
0.0000000001
 40
0.0
 40
0.0
 40
0.0
 40
0.0
 40
0.4327699367
 40
1.0
 40
1.0
 40
1.0
 40
1.0
 10
62.0759268596
 20
334.3751832895
 30
0.0
 10
62.2171341684
 20
334.5556100516
 30
0.0
 10
62.6372603308
 20
334.8934666735
 30
0.0
 10
63.0977501837
 20
335.1527010358
 30
0.0
 10
63.3643200514
 20
335.2909765462
 30
0.0
  0
SPLINE
  5
38E
100
AcDbEntity
  8
00_COMPONENTS_8
100
AcDbSpline
 62
7
  6
CONTINUOUS
 70
0
 71
3
 72
9
 73
5
 74
0
 42
0.0000001
 43
0.0000001
 44
0.0000000001
 40
0.0
 40
0.0
 40
0.0
 40
0.0
 40
0.2352263414
 40
1.0
 40
1.0
 40
1.0
 40
1.0
 10
63.3643200514
 20
335.2909765462
 30
0.0
 10
63.4959701674
 20
335.3592662862
 30
0.0
 10
64.0611242031
 20
335.6390494967
 30
0.0
 10
64.6394388592
 20
335.8908390079
 30
0.0
 10
65.0811652143
 20
336.0841720734
 30
0.0
  0
SPLINE
  5
38F
100
AcDbEntity
  8
00_COMPONENTS_8
100
AcDbSpline
 62
7
  6
CONTINUOUS
 70
0
 71
3
 72
9
 73
5
 74
0
 42
0.0000001
 43
0.0000001
 44
0.0000000001
 40
0.0
 40
0.0
 40
0.0
 40
0.0
 40
0.2600323186
 40
1.0
 40
1.0
 40
1.0
 40
1.0
 10
65.0811652143
 20
38.0841720734
 30
0.0
 10
64.9310259696
 20
38.1498844315
 30
0.0
 10
64.3538202069
 20
38.4027824663
 30
0.0
 10
63.7788027681
 20
38.6623908859
 30
0.0
 10
63.3647983714
 20
38.8771195898
 30
0.0
  0
SPLINE
  5
390
100
AcDbEntity
  8
00_COMPONENTS_8
100
AcDbSpline
 62
7
  6
CONTINUOUS
 70
0
 71
3
 72
9
 73
5
 74
0
 42
0.0000001
 43
0.0000001
 44
0.0000000001
 40
0.0
 40
0.0
 40
0.0
 40
0.0
 40
0.5672381432
 40
1.0
 40
1.0
 40
1.0
 40
1.0
 10
63.3647983714
 20
38.8771195898
 30
0.0
 10
63.0981318037
 20
39.0154296341
 30
0.0
 10
62.6374802123
 20
39.2747227405
 30
0.0
 10
62.2171934818
 20
39.6126639177
 30
0.0
 10
62.0759408594
 20
39.7931442061
 30
0.0
  0
SPLINE
  5
391
100
AcDbEntity
  8
00_COMPONENTS_8
100
AcDbSpline
 62
7
  6
CONTINUOUS
 70
0
 71
3
 72
9
 73
5
 74
0
 42
0.0000001
 43
0.0000001
 44
0.0000000001
 40
0.0
 40
0.0
 40
0.0
 40
0.0
 40
0.2798744647
 40
1.0
 40
1.0
 40
1.0
 40
1.0
 10
62.0759408594
 20
39.7931442061
 30
0.0
 10
62.0452687409
 20
39.8323343655
 30
0.0
 10
61.9433951833
 20
39.9773866359
 30
0.0
 10
61.8811652143
 20
40.1561228263
 30
0.0
 10
61.8811652143
 20
40.2841720734
 30
0.0
  0
ENDSEC
  0
SECTION
  2
OBJECTS
  0
DICTIONARY
  5
C
100
AcDbDictionary
280
0
281
1
  3
ACAD_GROUP
350
D
  3
ACAD_MLINESTYLE
350
17
  3
ACAD_LAYOUT
350
1A
  3
ACAD_PLOTSETTINGS
350
19
  3
ACAD_PLOTSTYLENAME
350
E
  0
DICTIONARY
  5
D
102
{ACAD_REACTORS
330
C
102
}
100
AcDbDictionary
280
0
281
1
  0
ACDBDICTIONARYWDFLT
  5
E
102
{ACAD_REACTORS
330
C
102
}
100
AcDbDictionary
281
1
  3
Normal
350
F
100
AcDbDictionaryWithDefault
340
F
  0
DICTIONARY
  5
17
102
{ACAD_REACTORS
330
C
102
}
100
AcDbDictionary
280
0
281
1
  3
Standard
350
18
  0
DICTIONARY
  5
19
102
{ACAD_REACTORS
330
C
102
}
100
AcDbDictionary
281
1
  0
DICTIONARY
  5
1A
102
{ACAD_REACTORS
330
C
102
}
100
AcDbDictionary
281
1
  3
Model
350
392
  3
Layout1
350
393
  0
ACDBPLACEHOLDER
  5
F
102
{ACAD_REACTORS
330
E
102
}
  0
MLINESTYLE
  5
18
102
{ACAD_REACTORS
330
17
102
}
100
AcDbMlineStyle
  2
STANDARD
 70
0
  3

 62
256
 51
90.0
 52
90.0
 71
2
 49
0.5
 62
256
  6
BYLAYER
 49
-0.5
 62
256
  6
BYLAYER
  0
LAYOUT
  5
392
102
{ACAD_REACTORS
330
1A
102
}
100
AcDbPlotSettings
  1

  2
none_device
  4

  6

 40
0.0
 41
0.0
 42
0.0
 43
0.0
 44
210.0
 45
297.0
 46
0.0
 47
0.0
 48
0.0
 49
0.0
140
0.0
141
0.0
142
1.0
143
1.0
 70
1024
 72
1
 73
0
 74
0
  7

 75
0
147
1.0
148
0.0
149
0.0
100
AcDbLayout
  1
Model
 70
0
 71
0
 10
0.0
 20
0.0
 11
210.0
 21
297.0
 12
0.0
 22
0.0
 32
0.0
 14
0.0
 24
0.0
 34
0.0
 15
0.0
 25
0.0
 35
0.0
146
0.0
 13
0.0
 23
0.0
 33
0.0
 16
1.0
 26
0.0
 36
0.0
 17
0.0
 27
1.0
 37
0.0
 76
0
330
223
345
0
346
0
  0
LAYOUT
  5
393
102
{ACAD_REACTORS
330
1A
102
}
100
AcDbPlotSettings
  1

  2
none_device
  4

  6

 40
0.0
 41
0.0
 42
0.0
 43
0.0
 44
210.0
 45
297.0
 46
0.0
 47
0.0
 48
0.0
 49
0.0
140
0.0
141
0.0
142
1.0
143
1.0
 70
0
 72
1
 73
0
 74
0
  7

 75
0
147
1.0
148
0.0
149
0.0
100
AcDbLayout
  1
Layout1
 70
0
 71
1
 10
0.0
 20
0.0
 11
210.0
 21
297.0
 12
0.0
 22
0.0
 32
0.0
 14
0.0
 24
0.0
 34
0.0
 15
0.0
 25
0.0
 35
0.0
146
0.0
 13
0.0
 23
0.0
 33
0.0
 16
1.0
 26
0.0
 36
0.0
 17
0.0
 27
1.0
 37
0.0
 76
0
330
224
345
0
346
0
  0
ENDSEC
  0
EOF
