999
DXF file: C:\Users\sesa63760\Dev\_Creo\CAD\MCADID0004690_3D-CAD\drw0001_1.dxf
999
Pro/ENGINEER 2019471 by Parametric Technology Corporation
  0
SECTION
  2
HEADER
  9
$ACADVER
  1
AC1024
  9
$DWGCODEPAGE
  3
ANSI_1252
  9
$EXTMAX
 10
220.0720384221
 20
311.2447400541
 30
0.0
  9
$EXTMIN
 10
0.0
 20
0.0
 30
0.0
  9
$LIMMIN
 10
0.0
 20
0.0
  9
$LIMMAX
 10
220.0720384221
 20
311.2447400541
  9
$VIEWCTR
 10
110.036019211
 20
155.622370027
  9
$VIEWSIZE
 40
311.2447400541
  9
$CLAYER
  8
0
  9
$LTSCALE
 40
20.2885460183
  9
$CELTYPE
  6
BYLAYER
  9
$DIMSCALE
 40
1.0
  9
$DIMASZ
 40
2.6199052193
  9
$DIMEXO
 40
1.0
  9
$DIMDLI
 40
14.0175408854
  9
$DIMEXE
 40
1.0
  9
$DIMCEN
 40
3.3199438939
  9
$DIMLFAC
 40
1.0
  9
$DIMBLK
  1
_FILLED
  9
$DIMALT
 70
0
  9
$DIMALTF
 40
0.0393700787
  9
$DIMTXT
 40
3.667867307
  9
$DIMTOL
 70
1
  9
$DIMLIM
 70
0
  9
$DIMTFAC
 40
1.0
  9
$DIMTP
 40
0.01
  9
$DIMTM
 40
0.01
  9
$DIMGAP
 40
0.625
  9
$DIMDSEP
 70
46
  9
$AUNITS
 70
0
  9
$PDMODE
 70
3
  9
$PDSIZE
 40
0.3125
  9
$HANDSEED
  5
2E6
  9
$TILEMODE
 70
1
  9
$MEASUREMENT
 70
1
  9
$INSUNITS
 70
4
  0
ENDSEC
  0
SECTION
  2
CLASSES
  0
CLASS
  1
ACDBDICTIONARYWDFLT
  2
AcDbDictionaryWithDefault
  3
AutoCAD 2000
 90
0
 91
1
280
0
281
0
  0
CLASS
  1
ACDBPLACEHOLDER
  2
AcDbPlaceHolder
  3
AutoCAD 2000
 90
0
 91
1
280
0
281
0
  0
CLASS
  1
LAYOUT
  2
AcDbLayout
  3
AutoCAD 2000
 90
0
 91
0
280
0
281
0
  0
ENDSEC
  0
SECTION
  2
TABLES
  0
TABLE
  2
VPORT
  5
8
100
AcDbSymbolTable
 70
2
  0
VPORT
  5
1F4
100
AcDbSymbolTableRecord
100
AcDbViewportTableRecord
  2
*ACTIVE
 70
0
 10
0.0
 20
0.0
 11
1.0
 21
1.0
 12
110.036019211
 22
155.622370027
 13
0.0
 23
0.0
 14
1.0
 24
1.0
 15
0.0
 25
0.0
 16
0.0
 26
0.0
 36
1.0
 17
0.0
 27
0.0
 37
0.0
 40
311.2447400541
 41
0.7070707071
 42
50.0
 43
0.0
 44
0.0
 50
0.0
 51
0.0
 71
0
 72
100
 73
1
 74
1
 75
0
 76
0
 77
0
 78
0
  0
ENDTAB
  0
TABLE
  2
LTYPE
  5
5
100
AcDbSymbolTable
 70
6
  0
LTYPE
  5
14
100
AcDbSymbolTableRecord
100
AcDbLinetypeTableRecord
  2
BYBLOCK
 70
0
  3

 72
65
 73
0
 40
0.0
  0
LTYPE
  5
15
100
AcDbSymbolTableRecord
100
AcDbLinetypeTableRecord
  2
BYLAYER
 70
0
  3

 72
65
 73
0
 40
0.0
  0
LTYPE
  5
16
100
AcDbSymbolTableRecord
100
AcDbLinetypeTableRecord
  2
CONTINUOUS
 70
64
  3
Solid line
 72
65
 73
0
 40
0.0
  0
LTYPE
  5
1F5
100
AcDbSymbolTableRecord
100
AcDbLinetypeTableRecord
  2
CENTER
 70
64
  3
____ _ ____ _ ____ _ ____ _ ____ _ ____ _ ____
 72
65
 73
4
 40
0.6
 49
0.375
 74
0
 49
-0.075
 74
0
 49
0.075
 74
0
 49
-0.075
 74
0
  0
LTYPE
  5
1F6
100
AcDbSymbolTableRecord
100
AcDbLinetypeTableRecord
  2
HIDDEN
 70
64
  3
- - - - - - - - - - - - - - - - - - - -
 72
65
 73
2
 40
0.2
 49
0.1
 74
0
 49
-0.1
 74
0
  0
LTYPE
  5
1F7
100
AcDbSymbolTableRecord
100
AcDbLinetypeTableRecord
  2
PHANTOM
 70
64
  3
_____ _ _ _____ _ _ _____ _ _ _____
 72
65
 73
6
 40
0.8
 49
0.45
 74
0
 49
-0.05
 74
0
 49
0.1
 74
0
 49
-0.05
 74
0
 49
0.1
 74
0
 49
-0.05
 74
0
  0
LTYPE
  5
1F8
100
AcDbSymbolTableRecord
100
AcDbLinetypeTableRecord
  2
DOT
 70
64
  3
. . . . . . . . . . . . . . . . . . . .
 72
65
 73
2
 40
0.2
 49
0.1
 74
0
 49
-0.1
 74
0
  0
LTYPE
  5
1F9
100
AcDbSymbolTableRecord
100
AcDbLinetypeTableRecord
  2
DASHED
 70
64
  3
- - - - - - - - - - - - - - - - - - - -
 72
65
 73
2
 40
0.2
 49
0.1
 74
0
 49
-0.1
 74
0
  0
ENDTAB
  0
TABLE
  2
LAYER
  5
2
100
AcDbSymbolTable
 70
36
  0
LAYER
  5
10
100
AcDbSymbolTableRecord
100
AcDbLayerTableRecord
  2
0
 70
0
 62
7
  6
CONTINUOUS
370
-3
390
F
  0
LAYER
  5
1FA
100
AcDbSymbolTableRecord
100
AcDbLayerTableRecord
  2
DEFAULT_1
 70
0
 62
7
  6
CENTER
370
-3
390
F
  0
LAYER
  5
1FB
100
AcDbSymbolTableRecord
100
AcDbLayerTableRecord
  2
DEFAULT_2
 70
0
 62
7
  6
HIDDEN
370
-3
390
F
  0
LAYER
  5
1FC
100
AcDbSymbolTableRecord
100
AcDbLayerTableRecord
  2
DEFAULT_3
 70
0
 62
7
  6
PHANTOM
370
-3
390
F
  0
LAYER
  5
1FD
100
AcDbSymbolTableRecord
100
AcDbLayerTableRecord
  2
00_COMPONENTS
 70
0
 62
7
  6
CONTINUOUS
370
-3
390
F
  0
LAYER
  5
1FE
100
AcDbSymbolTableRecord
100
AcDbLayerTableRecord
  2
01_1_DEFAULT_DATUMS
 70
0
 62
7
  6
CONTINUOUS
370
-3
390
F
  0
LAYER
  5
1FF
100
AcDbSymbolTableRecord
100
AcDbLayerTableRecord
  2
01_PLANES
 70
0
 62
7
  6
CONTINUOUS
370
-3
390
F
  0
LAYER
  5
200
100
AcDbSymbolTableRecord
100
AcDbLayerTableRecord
  2
02_COORD_SYS
 70
0
 62
7
  6
CONTINUOUS
370
-3
390
F
  0
LAYER
  5
201
100
AcDbSymbolTableRecord
100
AcDbLayerTableRecord
  2
03_AXES
 70
0
 62
7
  6
CONTINUOUS
370
-3
390
F
  0
LAYER
  5
202
100
AcDbSymbolTableRecord
100
AcDbLayerTableRecord
  2
04_POINTS
 70
0
 62
7
  6
CONTINUOUS
370
-3
390
F
  0
LAYER
  5
203
100
AcDbSymbolTableRecord
100
AcDbLayerTableRecord
  2
05_CURVES
 70
0
 62
7
  6
CONTINUOUS
370
-3
390
F
  0
LAYER
  5
204
100
AcDbSymbolTableRecord
100
AcDbLayerTableRecord
  2
06_SURFS
 70
0
 62
7
  6
CONTINUOUS
370
-3
390
F
  0
LAYER
  5
205
100
AcDbSymbolTableRecord
100
AcDbLayerTableRecord
  2
07_COSMETICS
 70
0
 62
7
  6
CONTINUOUS
370
-3
390
F
  0
LAYER
  5
206
100
AcDbSymbolTableRecord
100
AcDbLayerTableRecord
  2
10_NOTES
 70
0
 62
7
  6
CONTINUOUS
370
-3
390
F
  0
LAYER
  5
207
100
AcDbSymbolTableRecord
100
AcDbLayerTableRecord
  2
11_NOTES_PUB
 70
0
 62
7
  6
CONTINUOUS
370
-3
390
F
  0
LAYER
  5
208
100
AcDbSymbolTableRecord
100
AcDbLayerTableRecord
  2
13_REF_GTOL
 70
0
 62
7
  6
CONTINUOUS
370
-3
390
F
  0
LAYER
  5
209
100
AcDbSymbolTableRecord
100
AcDbLayerTableRecord
  2
16_MISC
 70
0
 62
7
  6
CONTINUOUS
370
-3
390
F
  0
LAYER
  5
20A
100
AcDbSymbolTableRecord
100
AcDbLayerTableRecord
  2
17_NO_PRINT
 70
0
 62
7
  6
CONTINUOUS
370
-3
390
F
  0
LAYER
  5
20B
100
AcDbSymbolTableRecord
100
AcDbLayerTableRecord
  2
18_DATUM_CAMS_JOINTS
 70
0
 62
7
  6
CONTINUOUS
370
-3
390
F
  0
LAYER
  5
20C
100
AcDbSymbolTableRecord
100
AcDbLayerTableRecord
  2
19_DATUM_FUNCTIONAL
 70
0
 62
7
  6
CONTINUOUS
370
-3
390
F
  0
LAYER
  5
20D
100
AcDbSymbolTableRecord
100
AcDbLayerTableRecord
  2
20_DATUM_KINEMATIC_SCHEME
 70
0
 62
7
  6
CONTINUOUS
370
-3
390
F
  0
ENDTAB
  0
TABLE
  2
STYLE
  5
3
100
AcDbSymbolTable
 70
1
  0
STYLE
  5
11
100
AcDbSymbolTableRecord
100
AcDbTextStyleTableRecord
  2
STANDARD
 70
0
 40
0.0
 41
1.0
 50
0.0
 71
0
 42
0.2
  3
ARIAL.TTF
  4

  0
STYLE
  5
20E
100
AcDbSymbolTableRecord
100
AcDbTextStyleTableRecord
  2
TEXTSTYLE_1
 70
0
 40
0.0
 41
0.8
 50
0.0
 71
0
 42
0.2
  3
gdt
  4

  0
ENDTAB
  0
TABLE
  2
VIEW
  5
6
100
AcDbSymbolTable
 70
0
  0
ENDTAB
  0
TABLE
  2
UCS
  5
7
100
AcDbSymbolTable
 70
0
  0
ENDTAB
  0
TABLE
  2
APPID
  5
9
100
AcDbSymbolTable
 70
1
  0
APPID
  5
20F
100
AcDbSymbolTableRecord
100
AcDbRegAppTableRecord
  2
ACAD
 70
0
  0
ENDTAB
  0
TABLE
  2
BLOCK_RECORD
  5
1
100
AcDbSymbolTable
 70
0
  0
BLOCK_RECORD
  5
210
100
AcDbSymbolTableRecord
100
AcDbBlockTableRecord
  2
*Model_Space
  0
BLOCK_RECORD
  5
211
100
AcDbSymbolTableRecord
100
AcDbBlockTableRecord
  2
*Paper_Space
  0
BLOCK_RECORD
  5
212
100
AcDbSymbolTableRecord
100
AcDbBlockTableRecord
  2
_FILLED
  0
ENDTAB
  0
TABLE
  2
DIMSTYLE
  5
A
100
AcDbSymbolTable
 70
1
100
AcDbDimStyleTable
 71
0
  0
DIMSTYLE
105
213
100
AcDbSymbolTableRecord
100
AcDbDimStyleTableRecord
  2
STANDARD
 70
0
  3

  4

 40
1.0
 41
2.6199052193
 42
1.0
 43
0.38
 44
1.0
 45
0.0
 46
0.0
 47
0.01
 48
0.01
140
3.667867307
141
0.09
142
0.0
143
25.4
144
1.0
145
0.0
146
1.0
147
0.625
 71
1
 72
0
 73
0
 74
0
 75
0
 76
0
 77
1
 78
8
 79
2
170
0
171
1
172
0
173
0
174
0
175
0
176
0
177
0
178
0
270
2
179
2
271
2
272
2
273
2
274
2
275
0
280
0
281
0
282
0
283
1
284
8
285
0
286
0
287
3
288
0
340
11
278
46
341
212
342
212
343
212
344
212
  0
ENDTAB
  0
ENDSEC
  0
SECTION
  2
BLOCKS
  0
BLOCK
  5
20
100
AcDbEntity
  8
0
100
AcDbBlockBegin
  2
*Model_Space
 70
0
 10
0.0
 20
0.0
 30
0.0
  3
*Model_Space
  1

  0
ENDBLK
  5
21
100
AcDbEntity
  8
0
100
AcDbBlockEnd
  0
BLOCK
  5
1C
100
AcDbEntity
  8
0
100
AcDbBlockBegin
  2
*Paper_Space
 70
0
 10
0.0
 20
0.0
 30
0.0
  3
*Paper_Space
  1

  0
ENDBLK
  5
1D
100
AcDbEntity
  8
0
100
AcDbBlockEnd
  0
BLOCK
  5
214
100
AcDbEntity
  8
0
100
AcDbBlockBegin
  2
_FILLED
 70
64
 10
0.0
 20
0.0
  3
_FILLED
  1

  0
SOLID
  5
215
100
AcDbEntity
  8
0
  6
BYBLOCK
 62
0
100
AcDbTrace
 10
0.0
 20
0.0
 11
-1.0
 21
0.25
 12
-1.0
 22
-0.25
 13
-1.0
 23
-0.25
  0
ENDBLK
  5
216
100
AcDbEntity
  8
0
  6
BYBLOCK
 62
0
100
AcDbBlockEnd
  0
ENDSEC
  0
SECTION
  2
ENTITIES
  0
LINE
  5
217
100
AcDbEntity
  8
0
100
AcDbLine
 62
7
  6
BYLAYER
 10
183.4073724979
 20
205.5203787056
 11
169.6908495653
 21
197.6009173897
  0
LINE
  5
218
100
AcDbEntity
  8
0
100
AcDbLine
 62
7
  6
BYLAYER
 10
169.7529883712
 20
197.4055836412
 11
183.3844816905
 21
205.2754169029
  0
LINE
  5
219
100
AcDbEntity
  8
0
100
AcDbLine
 62
7
  6
BYLAYER
 10
169.6788633671
 20
196.6941950674
 11
168.7406815886
 21
196.1525387982
  0
LINE
  5
21A
100
AcDbEntity
  8
0
100
AcDbLine
 62
7
  6
BYLAYER
 10
184.5027472185
 20
205.1603265204
 11
171.2075710973
 21
197.4843986964
  0
LINE
  5
21B
100
AcDbEntity
  8
0
100
AcDbLine
 62
7
  6
BYLAYER
 10
168.890684916
 20
195.8927330983
 11
163.8112466566
 21
192.9601355571
  0
LINE
  5
21C
100
AcDbEntity
  8
0
100
AcDbLine
 62
7
  6
BYLAYER
 10
184.4657282152
 20
204.7569908263
 11
176.0547421298
 21
199.9009347325
  0
LINE
  5
21D
100
AcDbEntity
  8
0
100
AcDbLine
 62
7
  6
BYLAYER
 10
171.4384873794
 20
196.8219162468
 11
176.2695600002
 21
199.6111205029
  0
LINE
  5
21E
100
AcDbEntity
  8
0
100
AcDbLine
 62
7
  6
BYLAYER
 10
60.6146195408
 20
130.3199388992
 11
161.7304682623
 21
188.6988529028
  0
LINE
  5
21F
100
AcDbEntity
  8
0
100
AcDbLine
 62
7
  6
BYLAYER
 10
173.6827317095
 20
194.7335856645
 11
181.6083741478
 21
199.309452288
  0
LINE
  5
220
100
AcDbEntity
  8
0
100
AcDbLine
 62
7
  6
BYLAYER
 10
25.6469439409
 20
109.2365709063
 11
61.0021358016
 21
129.6487785999
  0
LINE
  5
221
100
AcDbEntity
  8
0
100
AcDbLine
 62
7
  6
BYLAYER
 10
26.6469481041
 20
108.6592521025
 11
62.0021399648
 21
129.0714597961
  0
LINE
  5
222
100
AcDbEntity
  8
0
100
AcDbLine
 62
7
  6
BYLAYER
 10
25.6469619609
 20
108.0818517109
 11
25.9969646633
 21
108.2839246591
  0
LINE
  5
223
100
AcDbEntity
  8
0
100
AcDbLine
 62
7
  6
BYLAYER
 10
26.2219413667
 20
108.2406402058
 11
26.572594312
 21
108.4430885697
  0
LINE
  5
224
100
AcDbEntity
  8
0
100
AcDbLine
 62
7
  6
BYLAYER
 10
26.6469661242
 20
107.504532907
 11
26.9969688265
 21
107.7066058553
  0
LINE
  5
225
100
AcDbEntity
  8
0
100
AcDbLine
 62
7
  6
BYLAYER
 10
27.2219455299
 20
107.663321402
 11
62.5771373906
 21
128.0755290955
  0
LINE
  5
226
100
AcDbEntity
  8
0
100
AcDbLine
 62
7
  6
BYLAYER
 10
26.2219593867
 20
107.0859210103
 11
26.5726123321
 21
107.2883693742
  0
LINE
  5
227
100
AcDbEntity
  8
0
100
AcDbLine
 62
7
  6
BYLAYER
 10
27.22196355
 20
106.5086022065
 11
62.5771554107
 21
126.9208099
  0
LINE
  5
228
100
AcDbEntity
  8
0
100
AcDbLine
 62
7
  6
BYLAYER
 10
183.0817284368
 20
196.4650446991
 11
175.2827672026
 21
191.9623248659
  0
LINE
  5
229
100
AcDbEntity
  8
0
100
AcDbLine
 62
7
  6
BYLAYER
 10
164.8990072995
 20
182.3853984829
 11
165.2835730972
 21
182.5448768287
  0
LINE
  5
22A
100
AcDbEntity
  8
0
100
AcDbLine
 62
7
  6
BYLAYER
 10
168.130418762
 20
183.3294582941
 11
167.6855428694
 21
183.1453677908
  0
LINE
  5
22B
100
AcDbEntity
  8
0
100
AcDbLine
 62
7
  6
BYLAYER
 10
160.5274155582
 20
190.7825396785
 11
160.1973285362
 21
190.5290488147
  0
LINE
  5
22C
100
AcDbEntity
  8
0
100
AcDbLine
 62
7
  6
BYLAYER
 10
162.2483659776
 20
192.5628268828
 11
162.6302967539
 21
192.8556672902
  0
LINE
  5
22D
100
AcDbEntity
  8
0
100
AcDbLine
 62
7
  6
BYLAYER
 10
189.7473803569
 20
194.7110905048
 11
190.2781117117
 21
195.0334171962
  0
LINE
  5
22E
100
AcDbEntity
  8
0
100
AcDbLine
 62
7
  6
BYLAYER
 10
62.9646716715
 20
126.2496496008
 11
164.0805203931
 21
184.6285636044
  0
LINE
  5
22F
100
AcDbEntity
  8
0
100
AcDbLine
 62
7
  6
BYLAYER
 10
181.7008889905
 20
192.2836275697
 11
175.9693178275
 21
188.9745229957
  0
LINE
  5
230
100
AcDbEntity
  8
0
100
AcDbLine
 62
7
  6
BYLAYER
 10
173.8907958325
 20
187.2325431018
 11
168.8047824662
 21
184.2961494436
  0
LINE
  5
231
100
AcDbEntity
  8
0
100
AcDbLine
 62
7
  6
BYLAYER
 10
176.4276058049
 20
188.4433128723
 11
181.8786878575
 21
191.590477646
  0
LINE
  5
232
100
AcDbEntity
  8
0
100
AcDbLine
 62
7
  6
BYLAYER
 10
174.9789809385
 20
187.5143936711
 11
174.04079916
 21
186.9727374019
  0
LINE
  5
233
100
AcDbEntity
  8
0
100
AcDbLine
 62
7
  6
BYLAYER
 10
175.6320523266
 20
187.2231465059
 11
180.7469845636
 21
190.1762363822
  0
LINE
  5
234
100
AcDbEntity
  8
0
100
AcDbLine
 62
7
  6
BYLAYER
 10
175.7702972724
 20
187.0712157215
 11
180.7240937563
 21
189.9312745796
  0
LINE
  5
235
100
AcDbEntity
  8
0
100
AcDbLine
 62
7
  6
BYLAYER
 10
160.1970647722
 20
190.529425874
 11
162.2482720599
 21
192.5629610888
  0
LINE
  5
236
100
AcDbEntity
  8
0
100
AcDbLine
 62
7
  6
BYLAYER
 10
164.8990670959
 20
182.3852703382
 11
167.6857678221
 21
183.1448859447
  0
LINE
  5
237
100
AcDbEntity
  8
0
100
AcDbLine
 62
7
  6
BYLAYER
 10
181.1851203838
 20
189.5851403297
 11
181.0586610061
 21
189.4799040699
  0
LINE
  5
238
100
AcDbEntity
  8
0
100
AcDbLine
 62
7
  6
BYLAYER
 10
190.5088019654
 20
197.0574618634
 11
190.3724620225
 21
196.9440032499
  0
LINE
  5
239
100
AcDbEntity
  8
0
100
AcDbLine
 62
7
  6
BYLAYER
 10
182.8726199819
 20
190.7028265219
 11
182.6648170153
 21
190.5298982079
  0
LINE
  5
23A
100
AcDbEntity
  8
0
100
AcDbLine
 62
7
  6
BYLAYER
 10
182.2554759923
 20
189.1578954711
 11
181.7927385213
 21
188.743837142
  0
LINE
  5
23B
100
AcDbEntity
  8
0
100
AcDbLine
 62
7
  6
BYLAYER
 10
195.9452362224
 20
184.8309259756
 11
196.1412541485
 21
184.9719628728
  0
LINE
  5
23C
100
AcDbEntity
  8
0
100
AcDbLine
 62
7
  6
BYLAYER
 10
192.8972182988
 20
194.974167837
 11
192.6549965243
 21
194.9649645308
  0
LINE
  5
23D
100
AcDbEntity
  8
0
100
AcDbLine
 62
7
  6
BYLAYER
 10
180.6588877442
 20
187.5655060846
 11
180.6316129184
 21
187.4237601663
  0
LINE
  5
23E
100
AcDbEntity
  8
0
100
AcDbLine
 62
7
  6
BYLAYER
 10
192.6160116274
 20
194.7657301228
 11
192.5888128569
 21
194.6240405727
  0
LINE
  5
23F
100
AcDbEntity
  8
0
100
AcDbLine
 62
7
  6
BYLAYER
 10
191.8515272601
 20
195.6187243804
 11
191.8788020859
 21
195.7604702987
  0
LINE
  5
240
100
AcDbEntity
  8
0
100
AcDbLine
 62
7
  6
BYLAYER
 10
175.7702972724
 20
187.0712157215
 11
175.6320523266
 21
187.2231465059
  0
LINE
  5
241
100
AcDbEntity
  8
0
100
AcDbLine
 62
7
  6
BYLAYER
 10
184.6490478968
 20
181.4160124607
 11
181.087718786
 21
186.2206586053
  0
LINE
  5
242
100
AcDbEntity
  8
0
100
AcDbLine
 62
7
  6
BYLAYER
 10
184.4657282152
 20
204.7569908263
 11
184.6759619484
 21
204.6382703494
  0
LINE
  5
243
100
AcDbEntity
  8
0
100
AcDbLine
 62
7
  6
BYLAYER
 10
186.7108921814
 20
179.2221071417
 11
185.0106740155
 21
181.5158987015
  0
LINE
  5
244
100
AcDbEntity
  8
0
100
AcDbLine
 62
7
  6
BYLAYER
 10
181.3688985152
 20
186.4290763586
 11
180.6316129184
 21
187.4237601663
  0
LINE
  5
245
100
AcDbEntity
  8
0
100
AcDbLine
 62
7
  6
BYLAYER
 10
179.9148551216
 20
188.9420471309
 11
179.6561951811
 21
189.2910093996
  0
LINE
  5
246
100
AcDbEntity
  8
0
100
AcDbLine
 62
7
  6
BYLAYER
 10
180.5586679345
 20
189.1912038741
 11
180.2549885012
 21
189.6009029452
  0
LINE
  5
247
100
AcDbEntity
  8
0
100
AcDbLine
 62
7
  6
BYLAYER
 10
180.7240937563
 20
189.9312745796
 11
181.0586610061
 21
189.4799040699
  0
LINE
  5
248
100
AcDbEntity
  8
0
100
AcDbLine
 62
7
  6
BYLAYER
 10
181.1851203838
 20
189.5851403296
 11
180.7469845636
 21
190.1762363822
  0
LINE
  5
249
100
AcDbEntity
  8
0
100
AcDbLine
 62
7
  6
BYLAYER
 10
181.7131044684
 20
189.9111034498
 11
182.3482674334
 21
189.0541949204
  0
LINE
  5
24A
100
AcDbEntity
  8
0
100
AcDbLine
 62
7
  6
BYLAYER
 10
189.3852516927
 20
180.6520444293
 11
189.7145589977
 21
180.2077706698
  0
LINE
  5
24B
100
AcDbEntity
  8
0
100
AcDbLine
 62
7
  6
BYLAYER
 10
181.8786878575
 20
191.590477646
 11
182.6648170153
 21
190.5298982079
  0
LINE
  5
24C
100
AcDbEntity
  8
0
100
AcDbLine
 62
7
  6
BYLAYER
 10
182.8726199818
 20
190.7028265219
 11
181.7008889905
 21
192.2836275697
  0
LINE
  5
24D
100
AcDbEntity
  8
0
100
AcDbLine
 62
7
  6
BYLAYER
 10
176.2695600002
 20
199.6111205029
 11
176.0547421299
 21
199.9009347325
  0
LINE
  5
24E
100
AcDbEntity
  8
0
100
AcDbLine
 62
7
  6
BYLAYER
 10
195.6327304649
 20
185.2498170021
 11
196.011925973
 21
184.7382382686
  0
LINE
  5
24F
100
AcDbEntity
  8
0
100
AcDbLine
 62
7
  6
BYLAYER
 10
196.1412541485
 20
184.9719628728
 11
195.8198055192
 21
185.4056343672
  0
LINE
  5
250
100
AcDbEntity
  8
0
100
AcDbLine
 62
7
  6
BYLAYER
 10
189.1572419159
 20
195.485769859
 11
189.8196145232
 21
194.5921523655
  0
LINE
  5
251
100
AcDbEntity
  8
0
100
AcDbLine
 62
7
  6
BYLAYER
 10
181.0962473615
 20
199.0137459835
 11
182.6962828545
 21
196.2424851849
  0
LINE
  5
252
100
AcDbEntity
  8
0
100
AcDbLine
 62
7
  6
BYLAYER
 10
183.5595990022
 20
205.3150075015
 11
183.4073724979
 21
205.5203787056
  0
LINE
  5
253
100
AcDbEntity
  8
0
100
AcDbLine
 62
7
  6
BYLAYER
 10
184.6759659829
 20
204.6382720953
 11
190.4337377999
 21
196.8703699158
  0
LINE
  5
254
100
AcDbEntity
  8
0
100
AcDbLine
 62
7
  6
BYLAYER
 10
190.5088019654
 20
197.0574618633
 11
184.5027472185
 21
205.1603265204
  0
LINE
  5
255
100
AcDbEntity
  8
0
100
AcDbLine
 62
7
  6
BYLAYER
 10
197.9580813488
 20
187.5588172741
 11
196.2636306618
 21
189.8448278358
  0
LINE
  5
256
100
AcDbEntity
  8
0
100
AcDbLine
 62
7
  6
BYLAYER
 10
192.6160876827
 20
194.765786491
 11
191.8788020859
 21
195.7604702987
  0
LINE
  5
257
100
AcDbEntity
  8
0
100
AcDbLine
 62
7
  6
BYLAYER
 10
196.4585965226
 20
190.1695580997
 11
192.8972674118
 21
194.9742042443
  0
ARC
  5
258
100
AcDbEntity
  8
0
100
AcDbCircle
 62
7
  6
BYLAYER
 10
170.1891573276
 20
213.6389218106
 40
38.8036262674
100
AcDbArc
 50
307.5028232079
 51
309.1730883569
  0
ARC
  5
259
100
AcDbEntity
  8
0
100
AcDbCircle
 62
7
  6
BYLAYER
 10
162.7410779918
 20
219.7370228603
 40
38.3912327371
100
AcDbArc
 50
301.9085905446
 51
303.2465490311
  0
ARC
  5
25A
100
AcDbEntity
  8
0
100
AcDbCircle
 62
7
  6
BYLAYER
 10
170.3562348037
 20
216.9160693242
 40
28.5210961213
100
AcDbArc
 50
310.6873996782
 51
311.5243044455
  0
ARC
  5
25B
100
AcDbEntity
  8
0
100
AcDbCircle
 62
7
  6
BYLAYER
 10
172.752001373
 20
214.7452291438
 40
28.3869630647
100
AcDbArc
 50
311.4522160938
 51
311.6822206576
  0
ARC
  5
25C
100
AcDbEntity
  8
0
100
AcDbCircle
 62
7
  6
BYLAYER
 10
175.1674417113
 20
211.6493266383
 40
24.4265142489
100
AcDbArc
 50
311.8051901878
 51
311.9772488075
  0
ARC
  5
25D
100
AcDbEntity
  8
0
100
AcDbCircle
 62
7
  6
BYLAYER
 10
170.5761043394
 20
207.5639603143
 40
23.8762995056
100
AcDbArc
 50
300.8232969452
 51
301.3456145454
  0
ARC
  5
25E
100
AcDbEntity
  8
0
100
AcDbCircle
 62
7
  6
BYLAYER
 10
170.4804961088
 20
207.1510257046
 40
20.5952934531
100
AcDbArc
 50
300.3343113996
 51
300.9052917115
  0
ARC
  5
25F
100
AcDbEntity
  8
0
100
AcDbCircle
 62
7
  6
BYLAYER
 10
171.9887363022
 20
204.5800755762
 40
17.6145955059
100
AcDbArc
 50
300.0050882668
 51
300.3235528434
  0
ARC
  5
260
100
AcDbEntity
  8
0
100
AcDbCircle
 62
7
  6
BYLAYER
 10
173.4321034578
 20
202.0748315909
 40
14.7233075219
100
AcDbArc
 50
298.9491266795
 51
300.016319669
  0
ARC
  5
261
100
AcDbEntity
  8
0
100
AcDbCircle
 62
7
  6
BYLAYER
 10
174.5012207279
 20
188.6963471049
 40
2.0625810776
100
AcDbArc
 50
291.8929921335
 51
294.5816474627
  0
ARC
  5
262
100
AcDbEntity
  8
0
100
AcDbCircle
 62
7
  6
BYLAYER
 10
170.454798259
 20
195.6990861509
 40
2.0497566787
100
AcDbArc
 50
111.8411520159
 51
128.1637902153
  0
ARC
  5
263
100
AcDbEntity
  8
0
100
AcDbCircle
 62
7
  6
BYLAYER
 10
174.5051099909
 20
188.6837169989
 40
2.0495997724
100
AcDbArc
 50
300.0211211338
 51
308.1181439006
  0
ARC
  5
264
100
AcDbEntity
  8
0
100
AcDbCircle
 62
7
  6
BYLAYER
 10
169.8217171307
 20
194.4228523342
 40
2.0486166515
100
AcDbArc
 50
141.1274797957
 51
143.1440195225
  0
ARC
  5
265
100
AcDbEntity
  8
0
100
AcDbCircle
 62
7
  6
BYLAYER
 10
173.0833917478
 20
188.77245784
 40
2.047354559
100
AcDbArc
 50
276.8434069372
 51
279.0049198434
  0
ARC
  5
266
100
AcDbEntity
  8
0
100
AcDbCircle
 62
7
  6
BYLAYER
 10
174.5103708959
 20
188.6763321669
 40
2.0405737313
100
AcDbArc
 50
294.5817912778
 51
299.9969644418
  0
ARC
  5
267
100
AcDbEntity
  8
0
100
AcDbCircle
 62
7
  6
BYLAYER
 10
167.2138144754
 20
184.916009024
 40
1.8322954557
100
AcDbArc
 50
300.0164865293
 51
306.1228518692
  0
ARC
  5
268
100
AcDbEntity
  8
0
100
AcDbCircle
 62
7
  6
BYLAYER
 10
163.546085031
 20
191.2687513537
 40
1.832203689
100
AcDbArc
 50
113.910653356
 51
119.9886779679
  0
ARC
  5
269
100
AcDbEntity
  8
0
100
AcDbCircle
 62
7
  6
BYLAYER
 10
169.6464213481
 20
194.592104179
 40
1.8044045609
100
AcDbArc
 50
123.8132165843
 51
131.1736349529
  0
ARC
  5
26A
100
AcDbEntity
  8
0
100
AcDbCircle
 62
7
  6
BYLAYER
 10
173.1422176896
 20
188.5371562749
 40
1.8042756945
100
AcDbArc
 50
288.850617049
 51
296.1752026245
  0
ARC
  5
26B
100
AcDbEntity
  8
0
100
AcDbCircle
 62
7
  6
BYLAYER
 10
169.619319226
 20
194.6311181373
 40
1.7569077738
100
AcDbArc
 50
120.0069196934
 51
123.7868926554
  0
ARC
  5
26C
100
AcDbEntity
  8
0
100
AcDbCircle
 62
7
  6
BYLAYER
 10
173.162538352
 20
188.4934870889
 40
1.7561382797
100
AcDbArc
 50
296.2011855983
 51
303.8620254864
  0
ARC
  5
26D
100
AcDbEntity
  8
0
100
AcDbCircle
 62
7
  6
BYLAYER
 10
183.9095848173
 20
203.8958857984
 40
1.476089212
100
AcDbArc
 50
107.74345527
 51
110.8387687985
  0
ARC
  5
26E
100
AcDbEntity
  8
0
100
AcDbCircle
 62
7
  6
BYLAYER
 10
183.8799483195
 20
203.9893743658
 40
1.3780159776
100
AcDbArc
 50
103.3763174206
 51
107.7544506059
  0
ARC
  5
26F
100
AcDbEntity
  8
0
100
AcDbCircle
 62
7
  6
BYLAYER
 10
141.0815461198
 20
252.5365820452
 40
86.632347247
100
AcDbArc
 50
305.9428290262
 51
306.8986140684
  0
ARC
  5
270
100
AcDbEntity
  8
0
100
AcDbCircle
 62
7
  6
BYLAYER
 10
141.3445210062
 20
252.1878197117
 40
86.1955519454
100
AcDbArc
 50
306.898013436
 51
307.0378893061
  0
ARC
  5
271
100
AcDbEntity
  8
0
100
AcDbCircle
 62
7
  6
BYLAYER
 10
142.7457652844
 20
250.2426011932
 40
83.7982737043
100
AcDbArc
 50
305.6512629073
 51
305.9422537505
  0
ARC
  5
272
100
AcDbEntity
  8
0
100
AcDbCircle
 62
7
  6
BYLAYER
 10
144.5480474939
 20
247.9762400654
 40
80.9040698504
100
AcDbArc
 50
307.0973652932
 51
307.8965778402
  0
ARC
  5
273
100
AcDbEntity
  8
0
100
AcDbCircle
 62
7
  6
BYLAYER
 10
147.230501922
 20
243.9540988471
 40
76.0743924746
100
AcDbArc
 50
304.6540383448
 51
305.4716108911
  0
ARC
  5
274
100
AcDbEntity
  8
0
100
AcDbCircle
 62
7
  6
BYLAYER
 10
150.9350999895
 20
239.800890965
 40
70.5295132076
100
AcDbArc
 50
308.0786462598
 51
308.5465103414
  0
ARC
  5
275
100
AcDbEntity
  8
0
100
AcDbCircle
 62
7
  6
BYLAYER
 10
152.4109291768
 20
236.4909410846
 40
66.9895042717
100
AcDbArc
 50
304.404378063
 51
304.6388805988
  0
ARC
  5
276
100
AcDbEntity
  8
0
100
AcDbCircle
 62
7
  6
BYLAYER
 10
154.761667374
 20
233.0577336114
 40
62.828628943
100
AcDbArc
 50
304.1512460856
 51
304.4046890884
  0
ARC
  5
277
100
AcDbEntity
  8
0
100
AcDbCircle
 62
7
  6
BYLAYER
 10
155.7666466044
 20
233.7463708025
 40
62.7834807983
100
AcDbArc
 50
308.5411329167
 51
309.0227768074
  0
ARC
  5
278
100
AcDbEntity
  8
0
100
AcDbCircle
 62
7
  6
BYLAYER
 10
159.0322040597
 20
229.7145506756
 40
57.5950864035
100
AcDbArc
 50
309.0243231043
 51
309.2560532616
  0
ARC
  5
279
100
AcDbEntity
  8
0
100
AcDbCircle
 62
7
  6
BYLAYER
 10
159.0177704854
 20
226.7719537517
 40
55.2374897927
100
AcDbArc
 50
303.2982081993
 51
304.1580222615
  0
ARC
  5
27A
100
AcDbEntity
  8
0
100
AcDbCircle
 62
7
  6
BYLAYER
 10
161.0901969456
 20
227.1958824952
 40
54.3425452326
100
AcDbArc
 50
309.2562892819
 51
309.4567595859
  0
ARC
  5
27B
100
AcDbEntity
  8
0
100
AcDbCircle
 62
7
  6
BYLAYER
 10
163.4224538779
 20
224.3638231927
 40
50.6737605221
100
AcDbArc
 50
309.4556466251
 51
309.7443879593
  0
ARC
  5
27C
100
AcDbEntity
  8
0
100
AcDbCircle
 62
7
  6
BYLAYER
 10
260.4121256716
 20
261.3621072753
 40
111.2229749397
100
AcDbArc
 50
220.6044372248
 51
220.9658512257
  0
ARC
  5
27D
100
AcDbEntity
  8
0
100
AcDbCircle
 62
7
  6
BYLAYER
 10
276.3461653312
 20
233.7602436377
 40
111.2207755937
100
AcDbArc
 50
199.0359098898
 51
199.397328563
  0
SPLINE
  5
27E
100
AcDbEntity
  8
0
100
AcDbSpline
 62
7
  6
BYLAYER
 70
0
 71
3
 72
9
 73
5
 74
0
 42
0.0000001
 43
0.0000001
 44
0.0000000001
 40
0.0
 40
0.0
 40
0.0
 40
0.0
 40
0.2876492677
 40
1.0
 40
1.0
 40
1.0
 40
1.0
 10
180.5305028657
 20
189.2128514624
 30
0.0
 10
180.4905835166
 20
189.1917341433
 30
0.0
 10
180.3512363147
 20
189.1194571047
 30
0.0
 10
180.2095544043
 20
189.051295635
 30
0.0
 10
180.1061628552
 20
189.0086567399
 30
0.0
  0
SPLINE
  5
27F
100
AcDbEntity
  8
0
100
AcDbSpline
 62
7
  6
BYLAYER
 70
0
 71
3
 72
9
 73
5
 74
0
 42
0.0000001
 43
0.0000001
 44
0.0000000001
 40
0.0
 40
0.0
 40
0.0
 40
0.0
 40
0.287795327
 40
1.0
 40
1.0
 40
1.0
 40
1.0
 10
180.1061628552
 20
189.0086567399
 30
0.0
 10
180.0881905226
 20
189.0012449117
 30
0.0
 10
180.0254608778
 20
188.9762412159
 30
0.0
 10
179.9614602129
 20
188.9539847534
 30
0.0
 10
179.9148551217
 20
188.9420471309
 30
0.0
  0
SPLINE
  5
280
100
AcDbEntity
  8
0
100
AcDbSpline
 62
7
  6
BYLAYER
 70
0
 71
3
 72
9
 73
5
 74
0
 42
0.0000001
 43
0.0000001
 44
0.0000000001
 40
0.0
 40
0.0
 40
0.0
 40
0.0
 40
0.2767177309
 40
1.0
 40
1.0
 40
1.0
 40
1.0
 10
182.6648170153
 20
190.5298982079
 30
0.0
 10
182.5301950032
 20
190.4398867072
 30
0.0
 10
182.0421797803
 20
190.1169154804
 30
0.0
 10
181.5482283852
 20
189.802672607
 30
0.0
 10
181.1851203838
 20
189.5851403297
 30
0.0
  0
LINE
  5
281
100
AcDbEntity
  8
0
100
AcDbLine
 62
7
  6
BYLAYER
 10
169.2529952996
 20
197.1168834453
 11
169.1908564937
 21
197.3122171938
  0
SPLINE
  5
282
100
AcDbEntity
  8
0
100
AcDbSpline
 62
7
  6
BYLAYER
 70
0
 71
3
 72
9
 73
5
 74
0
 42
0.0000001
 43
0.0000001
 44
0.0000000001
 40
0.0
 40
0.0
 40
0.0
 40
0.0
 40
0.5055641701
 40
1.0
 40
1.0
 40
1.0
 40
1.0
 10
184.5027472757
 20
205.1603264881
 30
0.0
 10
184.3924668646
 20
205.2308164317
 30
0.0
 10
184.1542880725
 20
205.3432473667
 30
0.0
 10
183.8907953137
 20
205.3697527664
 30
0.0
 10
183.7630910813
 20
205.36101308
 30
0.0
  0
SPLINE
  5
283
100
AcDbEntity
  8
0
100
AcDbSpline
 62
7
  6
BYLAYER
 70
0
 71
3
 72
9
 73
5
 74
0
 42
0.0000001
 43
0.0000001
 44
0.0000000001
 40
0.0
 40
0.0
 40
0.0
 40
0.0
 40
0.7454124655
 40
1.0
 40
1.0
 40
1.0
 40
1.0
 10
183.7630910813
 20
205.36101308
 30
0.0
 10
183.7124131678
 20
205.3575448388
 30
0.0
 10
183.6446341608
 20
205.34844463
 30
0.0
 10
183.5780304421
 20
205.3340121427
 30
0.0
 10
183.5611501142
 20
205.3300069548
 30
0.0
  0
SPLINE
  5
284
100
AcDbEntity
  8
0
100
AcDbSpline
 62
7
  6
BYLAYER
 70
0
 71
3
 72
9
 73
5
 74
0
 42
0.0000001
 43
0.0000001
 44
0.0000000001
 40
0.0
 40
0.0
 40
0.0
 40
0.0
 40
0.4999986373
 40
1.0
 40
1.0
 40
1.0
 40
1.0
 10
173.6827317095
 20
194.7335856645
 30
0.0
 10
174.0294944735
 20
194.3255862956
 30
0.0
 10
174.6466467981
 20
193.4425858657
 30
0.0
 10
175.1027958632
 20
192.4666276936
 30
0.0
 10
175.2827672026
 20
191.9623248659
 30
0.0
  0
SPLINE
  5
285
100
AcDbEntity
  8
0
100
AcDbSpline
 62
7
  6
BYLAYER
 70
0
 71
3
 72
11
 73
7
 74
0
 42
0.0000001
 43
0.0000001
 44
0.0000000001
 40
0.0
 40
0.0
 40
0.0
 40
0.0
 40
0.2490057253
 40
0.4365847158
 40
0.6265266068
 40
1.0
 40
1.0
 40
1.0
 40
1.0
 10
175.2703042009
 20
186.7825155257
 30
0.0
 10
175.2588032536
 20
186.7951544266
 30
0.0
 10
175.2354713574
 20
186.8142253209
 30
0.0
 10
175.2078212369
 20
186.8473511095
 30
0.0
 10
175.1805261083
 20
186.8914179239
 30
0.0
 10
175.1493081301
 20
186.9154889078
 30
0.0
 10
175.132059255
 20
186.93444631
 30
0.0
  0
SPLINE
  5
286
100
AcDbEntity
  8
0
100
AcDbSpline
 62
7
  6
BYLAYER
 70
0
 71
3
 72
15
 73
11
 74
0
 42
0.0000001
 43
0.0000001
 44
0.0000000001
 40
0.0
 40
0.0
 40
0.0
 40
0.0
 40
0.027445133
 40
0.0506994726
 40
0.0813134713
 40
0.1651687361
 40
0.2789968208
 40
0.4214650725
 40
0.5907712656
 40
1.0
 40
1.0
 40
1.0
 40
1.0
 10
197.95799786
 20
187.5587554073
 30
0.0
 10
197.9747470339
 20
187.5361734154
 30
0.0
 10
197.9615826032
 20
187.4743577101
 30
0.0
 10
197.924571673
 20
187.4034670963
 30
0.0
 10
197.8461133876
 20
187.284022072
 30
0.0
 10
197.6957415007
 20
187.1056768791
 30
0.0
 10
197.4551485286
 20
186.8528943878
 30
0.0
 10
197.1412391282
 20
186.5503824275
 30
0.0
 10
196.5950644504
 20
186.0529636579
 30
0.0
 10
196.1437504422
 20
185.6685910451
 30
0.0
 10
195.8214164899
 20
185.4005426953
 30
0.0
  0
LINE
  5
287
100
AcDbEntity
  8
0
100
AcDbLine
 62
7
  6
BYLAYER
 10
194.4336516082
 20
184.2825314758
 11
194.3274106057
 21
184.1994290711
  0
LINE
  5
288
100
AcDbEntity
  8
0
100
AcDbLine
 62
7
  6
BYLAYER
 10
194.3274106057
 20
184.1994290711
 11
194.2424071026
 21
184.1331578917
  0
LINE
  5
289
100
AcDbEntity
  8
0
100
AcDbLine
 62
7
  6
BYLAYER
 10
193.3470613516
 20
183.4462101191
 11
193.2638103954
 21
183.3833099432
  0
LINE
  5
28A
100
AcDbEntity
  8
0
100
AcDbLine
 62
7
  6
BYLAYER
 10
191.5876078515
 20
182.1498329247
 11
191.4680176118
 21
182.064217852
  0
LINE
  5
28B
100
AcDbEntity
  8
0
100
AcDbLine
 62
7
  6
BYLAYER
 10
191.4680176118
 20
182.064217852
 11
191.3764341195
 21
181.9988742023
  0
SPLINE
  5
28C
100
AcDbEntity
  8
0
100
AcDbSpline
 62
7
  6
BYLAYER
 70
0
 71
3
 72
9
 73
5
 74
0
 42
0.0000001
 43
0.0000001
 44
0.0000000001
 40
0.0
 40
0.0
 40
0.0
 40
0.0
 40
0.2810083411
 40
1.0
 40
1.0
 40
1.0
 40
1.0
 10
189.3429689752
 20
180.6031047823
 30
0.0
 10
189.211675311
 20
180.5169597305
 30
0.0
 10
188.742875486
 20
180.2128620617
 30
0.0
 10
188.267993118
 20
179.9177853402
 30
0.0
 10
187.9200469651
 20
179.7168783114
 30
0.0
  0
SPLINE
  5
28D
100
AcDbEntity
  8
0
100
AcDbSpline
 62
7
  6
BYLAYER
 70
0
 71
3
 72
9
 73
5
 74
0
 42
0.0000001
 43
0.0000001
 44
0.0000000001
 40
0.0
 40
0.0
 40
0.0
 40
0.0
 40
0.2471112493
 40
1.0
 40
1.0
 40
1.0
 40
1.0
 10
168.4585039448
 20
195.9503118444
 30
0.0
 10
168.4377185421
 20
195.9321466389
 30
0.0
 10
168.3552601984
 20
195.8567577044
 30
0.0
 10
168.2795660404
 20
195.7740182511
 30
0.0
 10
168.2267784403
 20
195.7085431053
 30
0.0
  0
SPLINE
  5
28E
100
AcDbEntity
  8
0
100
AcDbSpline
 62
7
  6
BYLAYER
 70
0
 71
3
 72
9
 73
5
 74
0
 42
0.0000001
 43
0.0000001
 44
0.0000000001
 40
0.0
 40
0.0
 40
0.0
 40
0.0
 40
0.253343084
 40
1.0
 40
1.0
 40
1.0
 40
1.0
 10
173.4038421985
 20
186.7503371219
 30
0.0
 10
173.4314673078
 20
186.7547172448
 30
0.0
 10
173.5401367493
 20
186.7742622996
 30
0.0
 10
173.6471799223
 20
186.802989886
 30
0.0
 10
173.7251825434
 20
186.8296543683
 30
0.0
  0
SPLINE
  5
28F
100
AcDbEntity
  8
0
100
AcDbSpline
 62
7
  6
BYLAYER
 70
0
 71
3
 72
19
 73
15
 74
0
 42
0.0000001
 43
0.0000001
 44
0.0000000001
 40
0.0
 40
0.0
 40
0.0
 40
0.0
 40
0.0455587203
 40
0.0948534908
 40
0.1496182914
 40
0.2104861126
 40
0.3483825183
 40
0.4999611112
 40
0.6515465981
 40
0.7894663542
 40
0.8503496774
 40
0.9051289611
 40
0.9544356032
 40
1.0
 40
1.0
 40
1.0
 40
1.0
 10
162.8034716724
 20
192.9437127735
 30
0.0
 10
162.9901784397
 20
193.0265285562
 30
0.0
 10
163.4101913778
 20
193.1339855318
 30
0.0
 10
164.0877741185
 20
193.1026812961
 30
0.0
 10
164.8029512192
 20
192.8936943891
 30
0.0
 10
165.8181660365
 20
192.3708763946
 30
0.0
 10
167.0211575299
 20
191.3278974697
 30
0.0
 10
168.1917993169
 20
189.7169418236
 30
0.0
 10
169.0020326089
 20
187.8977348045
 30
0.0
 10
169.3042195569
 20
186.3343084688
 30
0.0
 10
169.2497513722
 20
185.1934432662
 30
0.0
 10
169.073399221
 20
184.469337887
 30
0.0
 10
168.7619536656
 20
183.8666024908
 30
0.0
 10
168.4590110469
 20
183.5563596383
 30
0.0
 10
168.2939866713
 20
183.4359635301
 30
0.0
  0
SPLINE
  5
290
100
AcDbEntity
  8
0
100
AcDbSpline
 62
7
  6
BYLAYER
 70
0
 71
3
 72
12
 73
8
 74
0
 42
0.0000001
 43
0.0000001
 44
0.0000000001
 40
0.0
 40
0.0
 40
0.0
 40
0.0
 40
0.1105306856
 40
0.1954946616
 40
0.3048449271
 40
0.6004368298
 40
1.0
 40
1.0
 40
1.0
 40
1.0
 10
196.4585187609
 20
190.1695005249
 30
0.0
 10
196.4715602491
 20
190.1518712746
 30
0.0
 10
196.4691479201
 20
190.1067807138
 30
0.0
 10
196.4471586737
 20
190.0518835185
 30
0.0
 10
196.4002393655
 20
189.9658047698
 30
0.0
 10
196.3049862785
 20
189.8376546055
 30
0.0
 10
196.2147280409
 20
189.733177896
 30
0.0
 10
196.1614910674
 20
189.6744429991
 30
0.0
  0
SPLINE
  5
291
100
AcDbEntity
  8
0
100
AcDbSpline
 62
7
  6
BYLAYER
 70
0
 71
3
 72
15
 73
11
 74
0
 42
0.0000001
 43
0.0000001
 44
0.0000000001
 40
0.0
 40
0.0
 40
0.0
 40
0.0
 40
0.0338286111
 40
0.0764348056
 40
0.1849877549
 40
0.3181175519
 40
0.4664043564
 40
0.7659379756
 40
0.8958996174
 40
1.0
 40
1.0
 40
1.0
 40
1.0
 10
196.1614910674
 20
189.6744429991
 30
0.0
 10
196.064095771
 20
189.5669894322
 30
0.0
 10
195.8345458146
 20
189.3328568182
 30
0.0
 10
195.2570772131
 20
188.7891773749
 30
0.0
 10
194.3341848043
 20
187.9924329014
 30
0.0
 10
193.0359336987
 20
186.9388994892
 30
0.0
 10
191.0640190537
 20
185.4173440797
 30
0.0
 10
189.0577830299
 20
183.9628112996
 30
0.0
 10
187.157092909
 20
182.6897124784
 30
0.0
 10
186.3051424543
 20
182.1586801592
 30
0.0
 10
185.9186604197
 20
181.9355221888
 30
0.0
  0
SPLINE
  5
292
100
AcDbEntity
  8
0
100
AcDbSpline
 62
7
  6
BYLAYER
 70
0
 71
3
 72
9
 73
5
 74
0
 42
0.0000001
 43
0.0000001
 44
0.0000000001
 40
0.0
 40
0.0
 40
0.0
 40
0.0
 40
0.2450804912
 40
1.0
 40
1.0
 40
1.0
 40
1.0
 10
60.6146195408
 20
130.3199388992
 30
0.0
 10
60.5891968536
 20
130.3052596262
 30
0.0
 10
60.4888852397
 20
130.2394959655
 30
0.0
 10
60.4042881141
 20
130.1507818802
 30
0.0
 10
60.3520316475
 20
130.0769839405
 30
0.0
  0
SPLINE
  5
293
100
AcDbEntity
  8
0
100
AcDbSpline
 62
7
  6
BYLAYER
 70
0
 71
3
 72
9
 73
5
 74
0
 42
0.0000001
 43
0.0000001
 44
0.0000000001
 40
0.0
 40
0.0
 40
0.0
 40
0.0
 40
0.2239639512
 40
1.0
 40
1.0
 40
1.0
 40
1.0
 10
60.3520316475
 20
130.0769839405
 30
0.0
 10
60.3132870753
 20
130.0222678491
 30
0.0
 10
60.166623879
 20
129.7590298661
 30
0.0
 10
60.1253090774
 20
129.448597436
 30
0.0
 10
60.1281783491
 20
129.2163049649
 30
0.0
  0
SPLINE
  5
294
100
AcDbEntity
  8
0
100
AcDbSpline
 62
7
  6
BYLAYER
 70
0
 71
3
 72
11
 73
7
 74
0
 42
0.0000001
 43
0.0000001
 44
0.0000000001
 40
0.0
 40
0.0
 40
0.0
 40
0.0
 40
0.2906164553
 40
0.5501533503
 40
0.7832033096
 40
1.0
 40
1.0
 40
1.0
 40
1.0
 10
61.7651030462
 20
126.3804756079
 30
0.0
 10
61.8701386856
 20
126.3180494224
 30
0.0
 10
62.0790670223
 20
126.2152847577
 30
0.0
 10
62.4011707252
 20
126.1336233027
 30
0.0
 10
62.7035509626
 20
126.1388448268
 30
0.0
 10
62.885735695
 20
126.2040713055
 30
0.0
 10
62.9646716715
 20
126.2496496008
 30
0.0
  0
SPLINE
  5
295
100
AcDbEntity
  8
0
100
AcDbSpline
 62
7
  6
BYLAYER
 70
0
 71
3
 72
10
 73
6
 74
0
 42
0.0000001
 43
0.0000001
 44
0.0000000001
 40
0.0
 40
0.0
 40
0.0
 40
0.0
 40
0.2966716705
 40
0.5725060785
 40
1.0
 40
1.0
 40
1.0
 40
1.0
 10
25.6469466376
 20
108.5726029435
 30
0.0
 10
25.6786382809
 20
108.5177130307
 30
0.0
 10
25.7507778881
 20
108.4169643084
 30
0.0
 10
25.9043687294
 20
108.2715885422
 30
0.0
 10
26.0589914784
 20
108.2031924821
 30
0.0
 10
26.1494176187
 20
108.216018022
 30
0.0
  0
SPLINE
  5
296
100
AcDbEntity
  8
0
100
AcDbSpline
 62
7
  6
BYLAYER
 70
0
 71
3
 72
8
 73
4
 74
0
 42
0.0000001
 43
0.0000001
 44
0.0000000001
 40
0.0
 40
0.0
 40
0.0
 40
0.0
 40
1.0
 40
1.0
 40
1.0
 40
1.0
 10
26.1494176187
 20
108.216018022
 30
0.0
 10
26.1746892107
 20
108.2196024038
 30
0.0
 10
26.1997946156
 20
108.2279508897
 30
0.0
 10
26.2219001398
 20
108.2407120399
 30
0.0
  0
SPLINE
  5
297
100
AcDbEntity
  8
0
100
AcDbSpline
 62
7
  6
BYLAYER
 70
0
 71
3
 72
11
 73
7
 74
0
 42
0.0000001
 43
0.0000001
 44
0.0000000001
 40
0.0
 40
0.0
 40
0.0
 40
0.0
 40
0.3073867212
 40
0.5850434504
 40
0.8135197351
 40
1.0
 40
1.0
 40
1.0
 40
1.0
 10
25.6469646577
 20
107.417883748
 30
0.0
 10
25.6838743107
 20
107.3539562445
 30
0.0
 10
25.7677553734
 20
107.239382348
 30
0.0
 10
25.9189524359
 20
107.1125379446
 30
0.0
 10
26.0769664611
 20
107.0477347957
 30
0.0
 10
26.1831342738
 20
107.0636035542
 30
0.0
 10
26.2219181598
 20
107.0859928444
 30
0.0
  0
SPLINE
  5
298
100
AcDbEntity
  8
0
100
AcDbSpline
 62
7
  6
BYLAYER
 70
0
 71
3
 72
11
 73
7
 74
0
 42
0.0000001
 43
0.0000001
 44
0.0000000001
 40
0.0
 40
0.0
 40
0.0
 40
0.0
 40
0.3073867212
 40
0.5850434504
 40
0.8135197351
 40
1.0
 40
1.0
 40
1.0
 40
1.0
 10
26.6469688209
 20
106.8405649442
 30
0.0
 10
26.6838784739
 20
106.7766374407
 30
0.0
 10
26.7677595366
 20
106.6620635441
 30
0.0
 10
26.9189565991
 20
106.5352191408
 30
0.0
 10
27.0769706243
 20
106.4704159919
 30
0.0
 10
27.183138437
 20
106.4862847504
 30
0.0
 10
27.2219223231
 20
106.5086740406
 30
0.0
  0
SPLINE
  5
299
100
AcDbEntity
  8
0
100
AcDbSpline
 62
7
  6
BYLAYER
 70
0
 71
3
 72
10
 73
6
 74
0
 42
0.0000001
 43
0.0000001
 44
0.0000000001
 40
0.0
 40
0.0
 40
0.0
 40
0.0
 40
0.2966716705
 40
0.5725060785
 40
1.0
 40
1.0
 40
1.0
 40
1.0
 10
26.6469508008
 20
107.9952841396
 30
0.0
 10
26.6786424441
 20
107.9403942268
 30
0.0
 10
26.7507820513
 20
107.8396455046
 30
0.0
 10
26.9043728926
 20
107.6942697384
 30
0.0
 10
27.0589956416
 20
107.6258736783
 30
0.0
 10
27.1494217819
 20
107.6386992182
 30
0.0
  0
SPLINE
  5
29A
100
AcDbEntity
  8
0
100
AcDbSpline
 62
7
  6
BYLAYER
 70
0
 71
3
 72
8
 73
4
 74
0
 42
0.0000001
 43
0.0000001
 44
0.0000000001
 40
0.0
 40
0.0
 40
0.0
 40
0.0
 40
1.0
 40
1.0
 40
1.0
 40
1.0
 10
27.1494217819
 20
107.6386992182
 30
0.0
 10
27.1746933739
 20
107.6422836
 30
0.0
 10
27.1997987788
 20
107.6506320859
 30
0.0
 10
27.221904303
 20
107.6633932361
 30
0.0
  0
SPLINE
  5
29B
100
AcDbEntity
  8
0
100
AcDbSpline
 62
7
  6
BYLAYER
 70
0
 71
3
 72
9
 73
5
 74
0
 42
0.0000001
 43
0.0000001
 44
0.0000000001
 40
0.0
 40
0.0
 40
0.0
 40
0.0
 40
0.2570592778
 40
1.0
 40
1.0
 40
1.0
 40
1.0
 10
173.6776366591
 20
186.8554575427
 30
0.0
 10
173.7214738389
 20
186.8458367614
 30
0.0
 10
173.8927238559
 20
186.8118216164
 30
0.0
 10
174.0668739931
 20
186.7918557183
 30
0.0
 10
174.1964691013
 20
186.7863625279
 30
0.0
  0
SPLINE
  5
29C
100
AcDbEntity
  8
0
100
AcDbSpline
 62
7
  6
BYLAYER
 70
0
 71
3
 72
9
 73
5
 74
0
 42
0.0000001
 43
0.0000001
 44
0.0000000001
 40
0.0
 40
0.0
 40
0.0
 40
0.0
 40
0.2610670838
 40
1.0
 40
1.0
 40
1.0
 40
1.0
 10
174.1964691013
 20
186.7863625279
 30
0.0
 10
174.2791615433
 20
186.7828574161
 30
0.0
 10
174.5961918558
 20
186.7837325697
 30
0.0
 10
174.9142782899
 20
186.8481223896
 30
0.0
 10
175.132059255
 20
186.93444631
 30
0.0
  0
SPLINE
  5
29D
100
AcDbEntity
  8
0
100
AcDbSpline
 62
7
  6
BYLAYER
 70
0
 71
3
 72
14
 73
10
 74
0
 42
0.0000001
 43
0.0000001
 44
0.0000000001
 40
0.0
 40
0.0
 40
0.0
 40
0.0
 40
0.0321645279
 40
0.0562121714
 40
0.0868695702
 40
0.169249412
 40
0.2804311786
 40
0.5873250747
 40
1.0
 40
1.0
 40
1.0
 40
1.0
 10
191.8787287367
 20
195.7604159322
 30
0.0
 10
191.8673473932
 20
195.7758505228
 30
0.0
 10
191.8303136811
 20
195.7867584081
 30
0.0
 10
191.7795370837
 20
195.7839987903
 30
0.0
 10
191.6984569972
 20
195.7695169669
 30
0.0
 10
191.5715184669
 20
195.7270479867
 30
0.0
 10
191.2968116021
 20
195.6099959702
 30
0.0
 10
190.858335682
 20
195.3783969303
 30
0.0
 10
190.4883996866
 20
195.1611221524
 30
0.0
 10
190.2780985332
 20
195.0334059233
 30
0.0
  0
SPLINE
  5
29E
100
AcDbEntity
  8
0
100
AcDbSpline
 62
7
  6
BYLAYER
 70
0
 71
3
 72
11
 73
7
 74
0
 42
0.0000001
 43
0.0000001
 44
0.0000000001
 40
0.0
 40
0.0
 40
0.0
 40
0.0
 40
0.3507212362
 40
0.6370169393
 40
0.8543425892
 40
1.0
 40
1.0
 40
1.0
 40
1.0
 10
181.7927383298
 20
188.7438370198
 30
0.0
 10
181.6499237945
 20
188.61604452
 30
0.0
 10
181.3931828245
 20
188.3810354329
 30
0.0
 10
181.0591087689
 20
188.0544123012
 30
0.0
 10
180.8195737432
 20
187.7931538748
 30
0.0
 10
180.6974222572
 20
187.6351464687
 30
0.0
 10
180.6588877442
 20
187.5655060846
 30
0.0
  0
SPLINE
  5
29F
100
AcDbEntity
  8
0
100
AcDbSpline
 62
7
  6
BYLAYER
 70
0
 71
3
 72
11
 73
7
 74
0
 42
0.0000001
 43
0.0000001
 44
0.0000000001
 40
0.0
 40
0.0
 40
0.0
 40
0.0
 40
0.1864626887
 40
0.4149283877
 40
0.6926166073
 40
1.0
 40
1.0
 40
1.0
 40
1.0
 10
26.646989331
 20
108.6591802684
 30
0.0
 10
26.6082076613
 20
108.6367922577
 30
0.0
 10
26.5413879903
 20
108.5527784072
 30
0.0
 10
26.5184960158
 20
108.3835297521
 30
0.0
 10
26.5527514145
 20
108.1891538544
 30
0.0
 10
26.6100401778
 20
108.0592133231
 30
0.0
 10
26.6469508008
 20
107.9952841396
 30
0.0
  0
SPLINE
  5
2A0
100
AcDbEntity
  8
0
100
AcDbSpline
 62
7
  6
BYLAYER
 70
0
 71
3
 72
9
 73
5
 74
0
 42
0.0000001
 43
0.0000001
 44
0.0000000001
 40
0.0
 40
0.0
 40
0.0
 40
0.0
 40
0.241933032
 40
1.0
 40
1.0
 40
1.0
 40
1.0
 10
169.2544035492
 20
197.117698043
 30
0.0
 10
169.1941279825
 20
197.0700318779
 30
0.0
 10
168.9562692474
 20
196.8587916065
 30
0.0
 10
168.7685988846
 20
196.5938886534
 30
0.0
 10
168.6571601
 20
196.380443204
 30
0.0
  0
SPLINE
  5
2A1
100
AcDbEntity
  8
0
100
AcDbSpline
 62
7
  6
BYLAYER
 70
0
 71
3
 72
9
 73
5
 74
0
 42
0.0000001
 43
0.0000001
 44
0.0000000001
 40
0.0
 40
0.0
 40
0.0
 40
0.0
 40
0.2453791061
 40
1.0
 40
1.0
 40
1.0
 40
1.0
 10
168.6571601
 20
196.380443204
 30
0.0
 10
168.6436026333
 20
196.3544757674
 30
0.0
 10
168.5900737847
 20
196.2477560708
 30
0.0
 10
168.5433615674
 20
196.1376465989
 30
0.0
 10
168.5117609972
 20
196.0532835779
 30
0.0
  0
SPLINE
  5
2A2
100
AcDbEntity
  8
0
100
AcDbSpline
 62
7
  6
BYLAYER
 70
0
 71
3
 72
11
 73
7
 74
0
 42
0.0000001
 43
0.0000001
 44
0.0000000001
 40
0.0
 40
0.0
 40
0.0
 40
0.0
 40
0.1864626887
 40
0.4149283877
 40
0.6926166073
 40
1.0
 40
1.0
 40
1.0
 40
1.0
 10
26.6470073511
 20
107.5044610729
 30
0.0
 10
26.6082256814
 20
107.4820730622
 30
0.0
 10
26.5414060104
 20
107.3980592117
 30
0.0
 10
26.5185140359
 20
107.2288105566
 30
0.0
 10
26.5527694346
 20
107.034434659
 30
0.0
 10
26.6100581979
 20
106.9044941276
 30
0.0
 10
26.6469688209
 20
106.8405649442
 30
0.0
  0
SPLINE
  5
2A3
100
AcDbEntity
  8
0
100
AcDbSpline
 62
7
  6
BYLAYER
 70
0
 71
3
 72
11
 73
7
 74
0
 42
0.0000001
 43
0.0000001
 44
0.0000000001
 40
0.0
 40
0.0
 40
0.0
 40
0.0
 40
0.1864626887
 40
0.4149283877
 40
0.6926166073
 40
1.0
 40
1.0
 40
1.0
 40
1.0
 10
25.6470031878
 20
108.0817798768
 30
0.0
 10
25.6082215182
 20
108.0593918661
 30
0.0
 10
25.5414018472
 20
107.9753780155
 30
0.0
 10
25.5185098726
 20
107.8061293604
 30
0.0
 10
25.5527652713
 20
107.6117534628
 30
0.0
 10
25.6100540347
 20
107.4818129315
 30
0.0
 10
25.6469646577
 20
107.417883748
 30
0.0
  0
SPLINE
  5
2A4
100
AcDbEntity
  8
0
100
AcDbSpline
 62
7
  6
BYLAYER
 70
0
 71
3
 72
9
 73
5
 74
0
 42
0.0000001
 43
0.0000001
 44
0.0000000001
 40
0.0
 40
0.0
 40
0.0
 40
0.0
 40
0.2754580127
 40
1.0
 40
1.0
 40
1.0
 40
1.0
 10
181.3445376471
 20
186.6707592396
 30
0.0
 10
181.3311549326
 20
186.6556060583
 30
0.0
 10
181.2829716599
 20
186.600249327
 30
0.0
 10
181.2363859806
 20
186.5434564721
 30
0.0
 10
181.204318586
 20
186.5010369974
 30
0.0
  0
SPLINE
  5
2A5
100
AcDbEntity
  8
0
100
AcDbSpline
 62
7
  6
BYLAYER
 70
0
 71
3
 72
10
 73
6
 74
0
 42
0.0000001
 43
0.0000001
 44
0.0000000001
 40
0.0
 40
0.0
 40
0.0
 40
0.0
 40
0.3837526355
 40
0.6728702756
 40
1.0
 40
1.0
 40
1.0
 40
1.0
 10
181.204318586
 20
186.5010369974
 30
0.0
 10
181.1802143275
 20
186.469151339
 30
0.0
 10
181.1390187959
 20
186.4105164926
 30
0.0
 10
181.0898846577
 20
186.3247800924
 30
0.0
 10
181.0675174594
 20
186.2480980883
 30
0.0
 10
181.0878117007
 20
186.2207274441
 30
0.0
  0
SPLINE
  5
2A6
100
AcDbEntity
  8
0
100
AcDbSpline
 62
7
  6
BYLAYER
 70
0
 71
3
 72
9
 73
5
 74
0
 42
0.0000001
 43
0.0000001
 44
0.0000000001
 40
0.0
 40
0.0
 40
0.0
 40
0.0
 40
0.2282004162
 40
1.0
 40
1.0
 40
1.0
 40
1.0
 10
192.6549965243
 20
194.9649645308
 30
0.0
 10
192.6447261152
 20
194.9616443646
 30
0.0
 10
192.5998970771
 20
194.9465472505
 30
0.0
 10
192.5557280851
 20
194.9295396207
 30
0.0
 10
192.5219211877
 20
194.9157644318
 30
0.0
  0
SPLINE
  5
2A7
100
AcDbEntity
  8
0
100
AcDbSpline
 62
7
  6
BYLAYER
 70
0
 71
3
 72
11
 73
7
 74
0
 42
0.0000001
 43
0.0000001
 44
0.0000000001
 40
0.0
 40
0.0
 40
0.0
 40
0.0
 40
0.1864626887
 40
0.4149283877
 40
0.6926166073
 40
1.0
 40
1.0
 40
1.0
 40
1.0
 10
25.6469851678
 20
109.2364990722
 30
0.0
 10
25.6082034981
 20
109.2141110615
 30
0.0
 10
25.5413838271
 20
109.130097211
 30
0.0
 10
25.5184918526
 20
108.9608485559
 30
0.0
 10
25.5527472513
 20
108.7664726583
 30
0.0
 10
25.6100360146
 20
108.6365321269
 30
0.0
 10
25.6469466376
 20
108.5726029435
 30
0.0
  0
SPLINE
  5
2A8
100
AcDbEntity
  8
0
100
AcDbSpline
 62
7
  6
BYLAYER
 70
0
 71
3
 72
10
 73
6
 74
0
 42
0.0000001
 43
0.0000001
 44
0.0000000001
 40
0.0
 40
0.0
 40
0.0
 40
0.0
 40
0.6040330432
 40
0.8289671426
 40
1.0
 40
1.0
 40
1.0
 40
1.0
 10
185.9186604197
 20
181.9355221888
 30
0.0
 10
185.7158189134
 20
181.8183998007
 30
0.0
 10
185.4346093939
 20
181.6618941537
 30
0.0
 10
185.083755991
 20
181.4966204093
 30
0.0
 10
184.9405207089
 20
181.4404397867
 30
0.0
 10
184.8771816927
 20
181.4207739888
 30
0.0
  0
SPLINE
  5
2A9
100
AcDbEntity
  8
0
100
AcDbSpline
 62
7
  6
BYLAYER
 70
0
 71
3
 72
10
 73
6
 74
0
 42
0.0000001
 43
0.0000001
 44
0.0000000001
 40
0.0
 40
0.0
 40
0.0
 40
0.0
 40
0.3716247575
 40
0.6554917899
 40
1.0
 40
1.0
 40
1.0
 40
1.0
 10
184.8771816927
 20
181.4207739888
 30
0.0
 10
184.849315117
 20
181.4121218423
 30
0.0
 10
184.7987679301
 20
181.3986286833
 30
0.0
 10
184.7239971318
 20
181.3865897636
 30
0.0
 10
184.6652495503
 20
181.3943512165
 30
0.0
 10
184.6491350327
 20
181.4160770339
 30
0.0
  0
SPLINE
  5
2AA
100
AcDbEntity
  8
0
100
AcDbSpline
 62
7
  6
BYLAYER
 70
0
 71
3
 72
14
 73
10
 74
0
 42
0.0000001
 43
0.0000001
 44
0.0000000001
 40
0.0
 40
0.0
 40
0.0
 40
0.0
 40
0.4114026784
 40
0.5776219992
 40
0.7160402785
 40
0.826286391
 40
0.9085964923
 40
0.9644013639
 40
1.0
 40
1.0
 40
1.0
 40
1.0
 10
187.9200469651
 20
179.7168783114
 30
0.0
 10
187.7616467781
 20
179.625416714
 30
0.0
 10
187.5372590155
 20
179.5002416952
 30
0.0
 10
187.2524097636
 20
179.3579437015
 30
0.0
 10
187.0840107329
 20
179.2825130082
 30
0.0
 10
186.9464224831
 20
179.2299728442
 30
0.0
 10
186.8392512405
 20
179.2018524278
 30
0.0
 10
186.7623864274
 20
179.1929752185
 30
0.0
 10
186.7204043276
 20
179.2094568671
 30
0.0
 10
186.7109756702
 20
179.2221690085
 30
0.0
  0
SPLINE
  5
2AB
100
AcDbEntity
  8
0
100
AcDbSpline
 62
7
  6
BYLAYER
 70
0
 71
3
 72
11
 73
7
 74
0
 42
0.0000001
 43
0.0000001
 44
0.0000000001
 40
0.0
 40
0.0
 40
0.0
 40
0.0
 40
0.207124335
 40
0.4403135811
 40
0.7051454885
 40
1.0
 40
1.0
 40
1.0
 40
1.0
 10
160.1971406678
 20
190.5293169785
 30
0.0
 10
160.0411606721
 20
190.3747129401
 30
0.0
 10
159.7739465824
 20
189.9784248188
 30
0.0
 10
159.5627438403
 20
189.2525929161
 30
0.0
 10
159.5192333604
 20
188.4072014318
 30
0.0
 10
159.5981762981
 20
187.8158161122
 30
0.0
 10
159.6620759194
 20
187.5097755389
 30
0.0
  0
SPLINE
  5
2AC
100
AcDbEntity
  8
0
100
AcDbSpline
 62
7
  6
BYLAYER
 70
0
 71
3
 72
11
 73
7
 74
0
 42
0.0000001
 43
0.0000001
 44
0.0000000001
 40
0.0
 40
0.0
 40
0.0
 40
0.0
 40
0.2948830804
 40
0.5597379864
 40
0.7929192671
 40
1.0
 40
1.0
 40
1.0
 40
1.0
 10
162.0131578186
 20
183.4347738286
 30
0.0
 10
162.2464516393
 20
183.2259437417
 30
0.0
 10
162.7195826911
 20
182.8610088748
 30
0.0
 10
163.4743317804
 20
182.4749723186
 30
0.0
 10
164.2094353332
 20
182.294346466
 30
0.0
 10
164.6868778943
 20
182.327544453
 30
0.0
 10
164.899010466
 20
182.3853916878
 30
0.0
  0
SPLINE
  5
2AD
100
AcDbEntity
  8
0
100
AcDbSpline
 62
7
  6
BYLAYER
 70
0
 71
3
 72
14
 73
10
 74
0
 42
0.0000001
 43
0.0000001
 44
0.0000000001
 40
0.0
 40
0.0
 40
0.0
 40
0.0
 40
0.0314214636
 40
0.0553038555
 40
0.0859045534
 40
0.1683826779
 40
0.2798190589
 40
0.5873564371
 40
1.0
 40
1.0
 40
1.0
 40
1.0
 10
190.433629607
 20
196.8702896722
 30
0.0
 10
190.4447882786
 20
196.8553110136
 30
0.0
 10
190.4435469764
 20
196.8172175411
 30
0.0
 10
190.4255409045
 20
196.7705469462
 30
0.0
 10
190.3871044397
 20
196.6980201039
 30
0.0
 10
190.3084176308
 20
196.5900833205
 30
0.0
 10
190.1146362276
 20
196.3632690929
 30
0.0
 10
189.7639018829
 20
196.0141582662
 30
0.0
 10
189.4475618149
 20
195.7256937837
 30
0.0
 10
189.2639443844
 20
195.5630498101
 30
0.0
  0
SPLINE
  5
2AE
100
AcDbEntity
  8
0
100
AcDbSpline
 62
7
  6
BYLAYER
 70
0
 71
3
 72
11
 73
7
 74
0
 42
0.0000001
 43
0.0000001
 44
0.0000000001
 40
0.0
 40
0.0
 40
0.0
 40
0.0
 40
0.2242850415
 40
0.4826790982
 40
0.7499279011
 40
1.0
 40
1.0
 40
1.0
 40
1.0
 10
188.9500403818
 20
195.2891574299
 30
0.0
 10
188.5183867372
 20
194.9177032152
 30
0.0
 10
187.5704127444
 20
194.1404415845
 30
0.0
 10
186.0644137956
 20
192.9749900601
 30
0.0
 10
184.477353709
 20
191.8082459739
 30
0.0
 10
183.3996707014
 20
191.056918053
 30
0.0
 10
182.8726199819
 20
190.7028265219
 30
0.0
  0
SPLINE
  5
2AF
100
AcDbEntity
  8
0
100
AcDbSpline
 62
7
  6
BYLAYER
 70
0
 71
3
 72
12
 73
8
 74
0
 42
0.0000001
 43
0.0000001
 44
0.0000000001
 40
0.0
 40
0.0
 40
0.0
 40
0.0
 40
0.4123576585
 40
0.7180864955
 40
0.8286997162
 40
0.9112310155
 40
1.0
 40
1.0
 40
1.0
 40
1.0
 10
190.4055045884
 20
180.4904970525
 30
0.0
 10
190.3150480795
 20
180.4382667051
 30
0.0
 10
190.1554735636
 20
180.3497662252
 30
0.0
 10
189.968415662
 20
180.2575500646
 30
0.0
 10
189.8478819914
 20
180.212123696
 30
0.0
 10
189.7834121152
 20
180.194446724
 30
0.0
 10
189.727927432
 20
180.1896905853
 30
0.0
 10
189.7145949232
 20
180.2077972968
 30
0.0
  0
SPLINE
  5
2B0
100
AcDbEntity
  8
0
100
AcDbSpline
 62
7
  6
BYLAYER
 70
0
 71
3
 72
10
 73
6
 74
0
 42
0.0000001
 43
0.0000001
 44
0.0000000001
 40
0.0
 40
0.0
 40
0.0
 40
0.0
 40
0.1693139
 40
0.3971528427
 40
1.0
 40
1.0
 40
1.0
 40
1.0
 10
196.011925973
 20
184.7382382686
 30
0.0
 10
195.9464316036
 20
184.6630484184
 30
0.0
 10
195.7824035818
 20
184.4958956204
 30
0.0
 10
195.3504454
 20
184.095557811
 30
0.0
 10
194.9751866267
 20
183.781151871
 30
0.0
 10
194.7000593831
 20
183.5567494834
 30
0.0
  0
SPLINE
  5
2B1
100
AcDbEntity
  8
0
100
AcDbSpline
 62
7
  6
BYLAYER
 70
0
 71
3
 72
9
 73
5
 74
0
 42
0.0000001
 43
0.0000001
 44
0.0000000001
 40
0.0
 40
0.0
 40
0.0
 40
0.0
 40
0.2526539268
 40
1.0
 40
1.0
 40
1.0
 40
1.0
 10
193.812825184
 20
182.8550992977
 30
0.0
 10
193.6474741562
 20
182.7278929428
 30
0.0
 10
192.9895809789
 20
182.2289096247
 30
0.0
 10
192.3197675993
 20
181.7455291632
 30
0.0
 10
191.8113709792
 20
181.3957585962
 30
0.0
  0
SPLINE
  5
2B2
100
AcDbEntity
  8
0
100
AcDbSpline
 62
7
  6
BYLAYER
 70
0
 71
3
 72
9
 73
5
 74
0
 42
0.0000001
 43
0.0000001
 44
0.0000000001
 40
0.0
 40
0.0
 40
0.0
 40
0.0
 40
0.2707201606
 40
1.0
 40
1.0
 40
1.0
 40
1.0
 10
191.8113709792
 20
181.3957585962
 30
0.0
 10
191.7250410321
 20
181.3363646637
 30
0.0
 10
191.4052327407
 20
181.1183218934
 30
0.0
 10
191.081823677
 20
180.9054730028
 30
0.0
 10
190.8428060207
 20
180.7552923663
 30
0.0
  0
SPLINE
  5
2B3
100
AcDbEntity
  8
0
100
AcDbSpline
 62
7
  6
BYLAYER
 70
0
 71
3
 72
9
 73
5
 74
0
 42
0.0000001
 43
0.0000001
 44
0.0000000001
 40
0.0
 40
0.0
 40
0.0
 40
0.0
 40
0.2710821711
 40
1.0
 40
1.0
 40
1.0
 40
1.0
 10
190.8428060207
 20
180.7552923663
 30
0.0
 10
190.8036905509
 20
180.7307151605
 30
0.0
 10
190.6590619793
 20
180.6405900633
 30
0.0
 10
190.5130769076
 20
180.5526102124
 30
0.0
 10
190.4055045884
 20
180.4904970525
 30
0.0
  0
SPLINE
  5
2B4
100
AcDbEntity
  8
0
100
AcDbSpline
 62
7
  6
BYLAYER
 70
0
 71
3
 72
10
 73
6
 74
0
 42
0.0000001
 43
0.0000001
 44
0.0000000001
 40
0.0
 40
0.0
 40
0.0
 40
0.0
 40
0.2966716705
 40
0.5725060785
 40
1.0
 40
1.0
 40
1.0
 40
1.0
 10
26.22195669
 20
107.7498889732
 30
0.0
 10
26.1902650467
 20
107.804778886
 30
0.0
 10
26.1181254395
 20
107.9055276082
 30
0.0
 10
25.9645345982
 20
108.0509033745
 30
0.0
 10
25.8099118492
 20
108.1192994345
 30
0.0
 10
25.7194857089
 20
108.1064738947
 30
0.0
  0
SPLINE
  5
2B5
100
AcDbEntity
  8
0
100
AcDbSpline
 62
7
  6
BYLAYER
 70
0
 71
3
 72
8
 73
4
 74
0
 42
0.0000001
 43
0.0000001
 44
0.0000000001
 40
0.0
 40
0.0
 40
0.0
 40
0.0
 40
1.0
 40
1.0
 40
1.0
 40
1.0
 10
25.7194857089
 20
108.1064738947
 30
0.0
 10
25.694214117
 20
108.1028895129
 30
0.0
 10
25.669108712
 20
108.094541027
 30
0.0
 10
25.6470031878
 20
108.0817798768
 30
0.0
  0
SPLINE
  5
2B6
100
AcDbEntity
  8
0
100
AcDbSpline
 62
7
  6
BYLAYER
 70
0
 71
3
 72
10
 73
6
 74
0
 42
0.0000001
 43
0.0000001
 44
0.0000000001
 40
0.0
 40
0.0
 40
0.0
 40
0.0
 40
0.2966716705
 40
0.5725060785
 40
1.0
 40
1.0
 40
1.0
 40
1.0
 10
27.2219608532
 20
107.1725701694
 30
0.0
 10
27.1902692099
 20
107.2274600821
 30
0.0
 10
27.1181296028
 20
107.3282088044
 30
0.0
 10
26.9645387614
 20
107.4735845706
 30
0.0
 10
26.8099160124
 20
107.5419806307
 30
0.0
 10
26.7194898722
 20
107.5291550908
 30
0.0
  0
SPLINE
  5
2B7
100
AcDbEntity
  8
0
100
AcDbSpline
 62
7
  6
BYLAYER
 70
0
 71
3
 72
8
 73
4
 74
0
 42
0.0000001
 43
0.0000001
 44
0.0000000001
 40
0.0
 40
0.0
 40
0.0
 40
0.0
 40
1.0
 40
1.0
 40
1.0
 40
1.0
 10
26.7194898722
 20
107.5291550908
 30
0.0
 10
26.6942182802
 20
107.525570709
 30
0.0
 10
26.6691128752
 20
107.5172222231
 30
0.0
 10
26.6470073511
 20
107.5044610729
 30
0.0
  0
SPLINE
  5
2B8
100
AcDbEntity
  8
0
100
AcDbSpline
 62
7
  6
BYLAYER
 70
0
 71
3
 72
11
 73
7
 74
0
 42
0.0000001
 43
0.0000001
 44
0.0000000001
 40
0.0
 40
0.0
 40
0.0
 40
0.0
 40
0.2418208982
 40
0.4921297643
 40
0.7459024429
 40
1.0
 40
1.0
 40
1.0
 40
1.0
 10
176.2695600002
 20
199.6111205029
 30
0.0
 10
176.6192170807
 20
199.6083087751
 30
0.0
 10
177.3308016348
 20
199.5626281334
 30
0.0
 10
178.3972737645
 20
199.3909023086
 30
0.0
 10
179.4578607715
 20
199.1057054171
 30
0.0
 10
180.1394391809
 20
198.8218883609
 30
0.0
 10
180.4632722989
 20
198.6483092313
 30
0.0
  0
SPLINE
  5
2B9
100
AcDbEntity
  8
0
100
AcDbSpline
 62
7
  6
BYLAYER
 70
0
 71
3
 72
11
 73
7
 74
0
 42
0.0000001
 43
0.0000001
 44
0.0000000001
 40
0.0
 40
0.0
 40
0.0
 40
0.0
 40
0.3073867212
 40
0.5850434504
 40
0.8135197351
 40
1.0
 40
1.0
 40
1.0
 40
1.0
 10
27.2219428332
 20
108.3272893648
 30
0.0
 10
27.1850331801
 20
108.3912168683
 30
0.0
 10
27.1011521175
 20
108.5057907649
 30
0.0
 10
26.9499550549
 20
108.6326351682
 30
0.0
 10
26.7919410298
 20
108.6974383171
 30
0.0
 10
26.685773217
 20
108.6815695586
 30
0.0
 10
26.646989331
 20
108.6591802684
 30
0.0
  0
LINE
  5
2BA
100
AcDbEntity
  8
0
100
AcDbLine
 62
7
  6
BYLAYER
 10
169.6908495653
 20
197.6009173897
 11
169.7529883712
 21
197.4055836412
  0
SPLINE
  5
2BB
100
AcDbEntity
  8
0
100
AcDbSpline
 62
7
  6
BYLAYER
 70
0
 71
3
 72
10
 73
6
 74
0
 42
0.0000001
 43
0.0000001
 44
0.0000000001
 40
0.0
 40
0.0
 40
0.0
 40
0.0
 40
0.5281958803
 40
0.7682589967
 40
1.0
 40
1.0
 40
1.0
 40
1.0
 10
175.9693175378
 20
188.9745229149
 30
0.0
 10
175.8946671546
 20
188.6651582133
 30
0.0
 10
175.7191519627
 20
188.2219162744
 30
0.0
 10
175.3298073744
 20
187.7567516465
 30
0.0
 10
175.0998980327
 20
187.584212216
 30
0.0
 10
174.9789809385
 20
187.5143936711
 30
0.0
  0
SPLINE
  5
2BC
100
AcDbEntity
  8
0
100
AcDbSpline
 62
7
  6
BYLAYER
 70
0
 71
3
 72
9
 73
5
 74
0
 42
0.0000001
 43
0.0000001
 44
0.0000000001
 40
0.0
 40
0.0
 40
0.0
 40
0.0
 40
0.4771433452
 40
1.0
 40
1.0
 40
1.0
 40
1.0
 10
175.6320523265
 20
187.2231465059
 30
0.0
 10
175.8156923511
 20
187.3686067975
 30
0.0
 10
176.1473607614
 20
187.7442522743
 30
0.0
 10
176.3498975371
 20
188.1986358579
 30
0.0
 10
176.42759866
 20
188.4433086818
 30
0.0
  0
SPLINE
  5
2BD
100
AcDbEntity
  8
0
100
AcDbSpline
 62
7
  6
BYLAYER
 70
0
 71
3
 72
11
 73
7
 74
0
 42
0.0000001
 43
0.0000001
 44
0.0000000001
 40
0.0
 40
0.0
 40
0.0
 40
0.0
 40
0.2857677586
 40
0.543721697
 40
0.7785584396
 40
1.0
 40
1.0
 40
1.0
 40
1.0
 10
171.1418378946
 20
196.0242468936
 30
0.0
 10
170.9289069634
 20
196.1308140931
 30
0.0
 10
170.5064850079
 20
196.3022771838
 30
0.0
 10
169.8634644624
 20
196.4221786386
 30
0.0
 10
169.2624865756
 20
196.3825522349
 30
0.0
 10
168.9004689363
 20
196.2448013538
 30
0.0
 10
168.7406815886
 20
196.1525387982
 30
0.0
  0
SPLINE
  5
2BE
100
AcDbEntity
  8
0
100
AcDbSpline
 62
7
  6
BYLAYER
 70
0
 71
3
 72
14
 73
10
 74
0
 42
0.0000001
 43
0.0000001
 44
0.0000000001
 40
0.0
 40
0.0
 40
0.0
 40
0.0
 40
0.0881063518
 40
0.1854787183
 40
0.2964232716
 40
0.4215563771
 40
0.5587889511
 40
0.704312384
 40
1.0
 40
1.0
 40
1.0
 40
1.0
 10
174.1410495937
 20
187.0352218842
 30
0.0
 10
174.3395945919
 20
187.1684294066
 30
0.0
 10
174.7013283304
 20
187.5390415418
 30
0.0
 10
175.0318894574
 20
188.285840538
 30
0.0
 10
175.1671443906
 20
189.1889061962
 30
0.0
 10
175.1083267305
 20
190.2058306544
 30
0.0
 10
174.8609127224
 20
191.2894825798
 30
0.0
 10
174.2947264944
 20
192.7569046724
 30
0.0
 10
173.6442217615
 20
193.784603532
 30
0.0
 10
173.1256107566
 20
194.3968791885
 30
0.0
  0
SPLINE
  5
2BF
100
AcDbEntity
  8
0
100
AcDbSpline
 62
7
  6
BYLAYER
 70
0
 71
3
 72
9
 73
5
 74
0
 42
0.0000001
 43
0.0000001
 44
0.0000000001
 40
0.0
 40
0.0
 40
0.0
 40
0.0
 40
0.5259733566
 40
1.0
 40
1.0
 40
1.0
 40
1.0
 10
173.1256107566
 20
194.3968791885
 30
0.0
 10
172.833419158
 20
194.741842564
 30
0.0
 10
172.2243138156
 20
195.354699323
 30
0.0
 10
171.5061852027
 20
195.8418991621
 30
0.0
 10
171.1418378946
 20
196.0242468936
 30
0.0
  0
SPLINE
  5
2C0
100
AcDbEntity
  8
0
100
AcDbSpline
 62
7
  6
BYLAYER
 70
0
 71
3
 72
18
 73
14
 74
0
 42
0.0000001
 43
0.0000001
 44
0.0000000001
 40
0.0
 40
0.0
 40
0.0
 40
0.0
 40
0.044206261
 40
0.0910874021
 40
0.1425030048
 40
0.1994765904
 40
0.3295577897
 40
0.4758812474
 40
0.6271867124
 40
0.7708723592
 40
0.8365493624
 40
0.8968008612
 40
1.0
 40
1.0
 40
1.0
 40
1.0
 10
168.890684916
 20
195.8927330983
 30
0.0
 10
169.0405871135
 20
195.9792878852
 30
0.0
 10
169.3800530884
 20
196.1087667687
 30
0.0
 10
169.9433446815
 20
196.1472144422
 30
0.0
 10
170.5465343812
 20
196.0369087857
 30
0.0
 10
171.4171946777
 20
195.6861813621
 30
0.0
 10
172.4842046528
 20
194.9009898969
 30
0.0
 10
173.5754998486
 20
193.6158253884
 30
0.0
 10
174.4131748688
 20
192.0914395891
 30
0.0
 10
174.831406393
 20
190.7288210186
 30
0.0
 10
174.9419627155
 20
189.6746739588
 30
0.0
 10
174.9039148232
 20
188.7784229484
 30
0.0
 10
174.708827935
 20
188.1401084023
 30
0.0
 10
174.486170423
 20
187.8028929977
 30
0.0
  0
SPLINE
  5
2C1
100
AcDbEntity
  8
0
100
AcDbSpline
 62
7
  6
BYLAYER
 70
0
 71
3
 72
9
 73
5
 74
0
 42
0.0000001
 43
0.0000001
 44
0.0000000001
 40
0.0
 40
0.0
 40
0.0
 40
0.0
 40
0.2590452502
 40
1.0
 40
1.0
 40
1.0
 40
1.0
 10
174.486170423
 20
187.8028929977
 30
0.0
 10
174.4467458036
 20
187.7431843049
 30
0.0
 10
174.2828629145
 20
187.520750696
 30
0.0
 10
174.0680296122
 20
187.3348793737
 30
0.0
 10
173.8907958325
 20
187.2325431018
 30
0.0
  0
SPLINE
  5
2C2
100
AcDbEntity
  8
0
100
AcDbSpline
 62
7
  6
BYLAYER
 70
0
 71
3
 72
14
 73
10
 74
0
 42
0.0000001
 43
0.0000001
 44
0.0000000001
 40
0.0
 40
0.0
 40
0.0
 40
0.0
 40
0.0274910055
 40
0.050729732
 40
0.0813535902
 40
0.165217825
 40
0.2789533429
 40
0.5907077098
 40
1.0
 40
1.0
 40
1.0
 40
1.0
 10
189.8195636222
 20
194.5921146371
 30
0.0
 10
189.8306204261
 20
194.5771523818
 30
0.0
 10
189.8220127955
 20
194.536329123
 30
0.0
 10
189.7976393699
 20
194.4894002597
 30
0.0
 10
189.745856894
 20
194.4104702706
 30
0.0
 10
189.6466556271
 20
194.2925918456
 30
0.0
 10
189.408692204
 20
194.0425572856
 30
0.0
 10
188.9928201871
 20
193.6599025807
 30
0.0
 10
188.6218164617
 20
193.3428058966
 30
0.0
 10
188.4089087611
 20
193.1656295535
 30
0.0
  0
SPLINE
  5
2C3
100
AcDbEntity
  8
0
100
AcDbSpline
 62
7
  6
BYLAYER
 70
0
 71
3
 72
11
 73
7
 74
0
 42
0.0000001
 43
0.0000001
 44
0.0000000001
 40
0.0
 40
0.0
 40
0.0
 40
0.0
 40
0.1864626887
 40
0.4149283877
 40
0.6926166073
 40
1.0
 40
1.0
 40
1.0
 40
1.0
 10
27.221904303
 20
107.6633932361
 30
0.0
 10
27.2606859727
 20
107.6857812468
 30
0.0
 10
27.3275056437
 20
107.7697950973
 30
0.0
 10
27.3503976182
 20
107.9390437524
 30
0.0
 10
27.3161422195
 20
108.13341965
 30
0.0
 10
27.2588534562
 20
108.2633601814
 30
0.0
 10
27.2219428332
 20
108.3272893648
 30
0.0
  0
SPLINE
  5
2C4
100
AcDbEntity
  8
0
100
AcDbSpline
 62
7
  6
BYLAYER
 70
0
 71
3
 72
11
 73
7
 74
0
 42
0.0000001
 43
0.0000001
 44
0.0000000001
 40
0.0
 40
0.0
 40
0.0
 40
0.0
 40
0.2368670549
 40
0.4857073048
 40
0.7413690856
 40
1.0
 40
1.0
 40
1.0
 40
1.0
 10
181.7008889281
 20
192.2836274473
 30
0.0
 10
181.8343936448
 20
192.5599692659
 30
0.0
 10
182.0699296432
 20
193.145559226
 30
0.0
 10
182.3214549882
 20
194.0750357417
 30
0.0
 10
182.4532350948
 20
195.0578924662
 30
0.0
 10
182.4317705155
 20
195.729368891
 30
0.0
 10
182.3813140752
 20
196.06064835
 30
0.0
  0
SPLINE
  5
2C5
100
AcDbEntity
  8
0
100
AcDbSpline
 62
7
  6
BYLAYER
 70
0
 71
3
 72
11
 73
7
 74
0
 42
0.0000001
 43
0.0000001
 44
0.0000000001
 40
0.0
 40
0.0
 40
0.0
 40
0.0
 40
0.1864703903
 40
0.4149825518
 40
0.6926793082
 40
1.0
 40
1.0
 40
1.0
 40
1.0
 10
62.0021796009
 20
129.071392043
 30
0.0
 10
62.0409584001
 20
129.0937849276
 30
0.0
 10
62.1471395545
 20
129.1096312489
 30
0.0
 10
62.3051620833
 20
129.0448290659
 30
0.0
 10
62.4563681973
 20
128.9179863721
 30
0.0
 10
62.5402331644
 20
128.8034104918
 30
0.0
 10
62.5771346939
 20
128.7394970584
 30
0.0
  0
SPLINE
  5
2C6
100
AcDbEntity
  8
0
100
AcDbSpline
 62
7
  6
BYLAYER
 70
0
 71
3
 72
19
 73
15
 74
0
 42
0.0000001
 43
0.0000001
 44
0.0000000001
 40
0.0
 40
0.0
 40
0.0
 40
0.0
 40
0.0454159067
 40
0.0940794862
 40
0.1481537189
 40
0.2086079539
 40
0.3468538895
 40
0.499995416
 40
0.6531363873
 40
0.7913855744
 40
0.8518427401
 40
0.9059189314
 40
0.9545840446
 40
1.0
 40
1.0
 40
1.0
 40
1.0
 10
165.2835730972
 20
182.5448768287
 30
0.0
 10
165.4404025691
 20
182.635431482
 30
0.0
 10
165.7339334443
 20
182.8823015939
 30
0.0
 10
166.0464010155
 20
183.3931138639
 30
0.0
 10
166.2321395602
 20
184.0230264215
 30
0.0
 10
166.3120383091
 20
185.0332906065
 30
0.0
 10
166.0614100091
 20
186.4356490167
 30
0.0
 10
165.3412645237
 20
188.0700084527
 30
0.0
 10
164.2859348961
 20
189.510866072
 30
0.0
 10
163.1967469139
 20
190.4291022912
 30
0.0
 10
162.2818498531
 20
190.865049122
 30
0.0
 10
161.6434273631
 20
191.0191307154
 30
0.0
 10
161.044802556
 20
191.0038964267
 30
0.0
 10
160.6842451981
 20
190.8730944289
 30
0.0
 10
160.5274155582
 20
190.7825396785
 30
0.0
  0
SPLINE
  5
2C7
100
AcDbEntity
  8
0
100
AcDbSpline
 62
7
  6
BYLAYER
 70
0
 71
3
 72
19
 73
15
 74
0
 42
0.0000001
 43
0.0000001
 44
0.0000000001
 40
0.0
 40
0.0
 40
0.0
 40
0.0
 40
0.0453963594
 40
0.0940855343
 40
0.1481627579
 40
0.2086153937
 40
0.3468595755
 40
0.4999954821
 40
0.6531324574
 40
0.7913794974
 40
0.8518338845
 40
0.905912768
 40
0.9546031763
 40
1.0
 40
1.0
 40
1.0
 40
1.0
 10
161.7304682623
 20
188.6988529028
 30
0.0
 10
161.8079244681
 20
188.7435767661
 30
0.0
 10
161.9861239544
 20
188.8080661078
 30
0.0
 10
162.2818910092
 20
188.8158171658
 30
0.0
 10
162.597397389
 20
188.7396384104
 30
0.0
 10
163.0493406764
 20
188.524083715
 30
0.0
 10
163.5875959044
 20
188.0705579101
 30
0.0
 10
164.1089660434
 20
187.3585992962
 30
0.0
 10
164.4648775002
 20
186.5511038504
 30
0.0
 10
164.5885380141
 20
185.8581918155
 30
0.0
 10
164.5492636941
 20
185.359006285
 30
0.0
 10
164.4574987746
 20
185.0476665567
 30
0.0
 10
164.3029182206
 20
184.7953834507
 30
0.0
 10
164.1579773911
 20
184.6732879251
 30
0.0
 10
164.0805203931
 20
184.6285636044
 30
0.0
  0
SPLINE
  5
2C8
100
AcDbEntity
  8
0
100
AcDbSpline
 62
7
  6
BYLAYER
 70
0
 71
3
 72
9
 73
5
 74
0
 42
0.0000001
 43
0.0000001
 44
0.0000000001
 40
0.0
 40
0.0
 40
0.0
 40
0.0
 40
0.5228676078
 40
1.0
 40
1.0
 40
1.0
 40
1.0
 10
171.2075691291
 20
197.4843976254
 30
0.0
 10
170.9565552149
 20
197.5394866977
 30
0.0
 10
170.4612343436
 20
197.5912415447
 30
0.0
 10
169.9696035069
 20
197.4914074743
 30
0.0
 10
169.7516647243
 20
197.4048208188
 30
0.0
  0
SPLINE
  5
2C9
100
AcDbEntity
  8
0
100
AcDbSpline
 62
7
  6
BYLAYER
 70
0
 71
3
 72
10
 73
6
 74
0
 42
0.0000001
 43
0.0000001
 44
0.0000000001
 40
0.0
 40
0.0
 40
0.0
 40
0.0
 40
0.2317450211
 40
0.4718107773
 40
1.0
 40
1.0
 40
1.0
 40
1.0
 10
169.6788633671
 20
196.6941950674
 30
0.0
 10
169.7997798949
 20
196.7640132853
 30
0.0
 10
170.0641462937
 20
196.8768730747
 30
0.0
 10
170.66164192
 20
196.9815180999
 30
0.0
 10
171.1332512874
 20
196.9119301928
 30
0.0
 10
171.4384885381
 20
196.8219168295
 30
0.0
  0
SPLINE
  5
2CA
100
AcDbEntity
  8
0
100
AcDbSpline
 62
7
  6
BYLAYER
 70
0
 71
3
 72
11
 73
7
 74
0
 42
0.0000001
 43
0.0000001
 44
0.0000000001
 40
0.0
 40
0.0
 40
0.0
 40
0.0
 40
0.1864626887
 40
0.4149283877
 40
0.6926166073
 40
1.0
 40
1.0
 40
1.0
 40
1.0
 10
27.2219223231
 20
106.5086740406
 30
0.0
 10
27.2607039927
 20
106.5310620513
 30
0.0
 10
27.3275236637
 20
106.6150759018
 30
0.0
 10
27.3504156383
 20
106.7843245569
 30
0.0
 10
27.3161602396
 20
106.9787004546
 30
0.0
 10
27.2588714762
 20
107.1086409859
 30
0.0
 10
27.2219608532
 20
107.1725701694
 30
0.0
  0
SPLINE
  5
2CB
100
AcDbEntity
  8
0
100
AcDbSpline
 62
7
  6
BYLAYER
 70
0
 71
3
 72
9
 73
5
 74
0
 42
0.0000001
 43
0.0000001
 44
0.0000000001
 40
0.0
 40
0.0
 40
0.0
 40
0.0
 40
0.4620476085
 40
1.0
 40
1.0
 40
1.0
 40
1.0
 10
62.2196881843
 20
127.9216212037
 30
0.0
 10
62.2914863022
 20
127.8947304713
 30
0.0
 10
62.4307415413
 20
127.7954557114
 30
0.0
 10
62.5325198715
 20
127.6620819272
 30
0.0
 10
62.5771527139
 20
127.5847778629
 30
0.0
  0
SPLINE
  5
2CC
100
AcDbEntity
  8
0
100
AcDbSpline
 62
7
  6
BYLAYER
 70
0
 71
3
 72
11
 73
7
 74
0
 42
0.0000001
 43
0.0000001
 44
0.0000000001
 40
0.0
 40
0.0
 40
0.0
 40
0.0
 40
0.1864626887
 40
0.4149283877
 40
0.6926166073
 40
1.0
 40
1.0
 40
1.0
 40
1.0
 10
26.2219181598
 20
107.0859928444
 30
0.0
 10
26.2606998295
 20
107.1083808551
 30
0.0
 10
26.3275195005
 20
107.1923947057
 30
0.0
 10
26.350411475
 20
107.3616433607
 30
0.0
 10
26.3161560763
 20
107.5560192584
 30
0.0
 10
26.258867313
 20
107.6859597897
 30
0.0
 10
26.22195669
 20
107.7498889732
 30
0.0
  0
SPLINE
  5
2CD
100
AcDbEntity
  8
0
100
AcDbSpline
 62
7
  6
BYLAYER
 70
0
 71
3
 72
12
 73
8
 74
0
 42
0.0000001
 43
0.0000001
 44
0.0000000001
 40
0.0
 40
0.0
 40
0.0
 40
0.0
 40
0.4125189109
 40
0.7181027263
 40
0.8286837818
 40
0.9112348754
 40
1.0
 40
1.0
 40
1.0
 40
1.0
 10
183.1514916826
 20
189.3828643402
 30
0.0
 10
183.0462954017
 20
189.3221231248
 30
0.0
 10
182.8607976742
 20
189.2192279417
 30
0.0
 10
182.6433305232
 20
189.1120356815
 30
0.0
 10
182.5032626405
 20
189.0592692398
 30
0.0
 10
182.4283047735
 20
189.0386792896
 30
0.0
 10
182.363852724
 20
189.033211248
 30
0.0
 10
182.3483183343
 20
189.0542326487
 30
0.0
  0
SPLINE
  5
2CE
100
AcDbEntity
  8
0
100
AcDbSpline
 62
7
  6
BYLAYER
 70
0
 71
3
 72
11
 73
7
 74
0
 42
0.0000001
 43
0.0000001
 44
0.0000000001
 40
0.0
 40
0.0
 40
0.0
 40
0.0
 40
0.2563798981
 40
0.5361995749
 40
0.7971861817
 40
1.0
 40
1.0
 40
1.0
 40
1.0
 10
188.4089087611
 20
193.1656295535
 30
0.0
 10
187.9831123273
 20
192.8112926516
 30
0.0
 10
187.0747783476
 20
192.0916614419
 30
0.0
 10
185.6927171371
 20
191.0632121437
 30
0.0
 10
184.3743485852
 20
190.1447440738
 30
0.0
 10
183.5309826656
 20
189.6019856188
 30
0.0
 10
183.1514916826
 20
189.3828643402
 30
0.0
  0
SPLINE
  5
2CF
100
AcDbEntity
  8
0
100
AcDbSpline
 62
7
  6
BYLAYER
 70
0
 71
3
 72
12
 73
8
 74
0
 42
0.0000001
 43
0.0000001
 44
0.0000000001
 40
0.0
 40
0.0
 40
0.0
 40
0.0
 40
0.3589225512
 40
0.6517075089
 40
0.8676300516
 40
0.9444740348
 40
1.0
 40
1.0
 40
1.0
 40
1.0
 10
189.7551590032
 20
193.6130166032
 30
0.0
 10
190.0226429274
 20
193.8356098837
 30
0.0
 10
190.5043214908
 20
194.2447952771
 30
0.0
 10
191.1276763791
 20
194.8095017025
 30
0.0
 10
191.5316048973
 20
195.209642157
 30
0.0
 10
191.7506452065
 20
195.4666446172
 30
0.0
 10
191.8254629426
 20
195.5716203966
 30
0.0
 10
191.8515272601
 20
195.6187243804
 30
0.0
  0
SPLINE
  5
2D0
100
AcDbEntity
  8
0
100
AcDbSpline
 62
7
  6
BYLAYER
 70
0
 71
3
 72
11
 73
7
 74
0
 42
0.0000001
 43
0.0000001
 44
0.0000000001
 40
0.0
 40
0.0
 40
0.0
 40
0.0
 40
0.1864626887
 40
0.4149283877
 40
0.6926166073
 40
1.0
 40
1.0
 40
1.0
 40
1.0
 10
26.2219001398
 20
108.2407120399
 30
0.0
 10
26.2606818095
 20
108.2631000506
 30
0.0
 10
26.3275014804
 20
108.3471139011
 30
0.0
 10
26.350393455
 20
108.5163625562
 30
0.0
 10
26.3161380563
 20
108.7107384539
 30
0.0
 10
26.258849293
 20
108.8406789852
 30
0.0
 10
26.2219386699
 20
108.9046081687
 30
0.0
  0
SPLINE
  5
2D1
100
AcDbEntity
  8
0
100
AcDbSpline
 62
7
  6
BYLAYER
 70
0
 71
3
 72
9
 73
5
 74
0
 42
0.0000001
 43
0.0000001
 44
0.0000000001
 40
0.0
 40
0.0
 40
0.0
 40
0.0
 40
0.230927712
 40
1.0
 40
1.0
 40
1.0
 40
1.0
 10
182.357331309
 20
186.7401683335
 30
0.0
 10
182.4099288239
 20
186.77053858
 30
0.0
 10
182.6370052109
 20
186.9032469819
 30
0.0
 10
182.8616112941
 20
187.0401531398
 30
0.0
 10
183.0333636454
 20
187.1469953361
 30
0.0
  0
SPLINE
  5
2D2
100
AcDbEntity
  8
0
100
AcDbSpline
 62
7
  6
BYLAYER
 70
0
 71
3
 72
11
 73
7
 74
0
 42
0.0000001
 43
0.0000001
 44
0.0000000001
 40
0.0
 40
0.0
 40
0.0
 40
0.0
 40
0.2458015771
 40
0.5176094777
 40
0.7803044537
 40
1.0
 40
1.0
 40
1.0
 40
1.0
 10
183.7887971639
 20
187.6296986377
 30
0.0
 10
184.4549009377
 20
188.0652930351
 30
0.0
 10
185.8365231104
 20
189.0147521291
 30
0.0
 10
187.8767093554
 20
190.5056406946
 30
0.0
 10
189.8071806787
 20
192.0016191639
 30
0.0
 10
191.0108774382
 20
192.9980426449
 30
0.0
 10
191.544034633
 20
193.4689710614
 30
0.0
  0
SPLINE
  5
2D3
100
AcDbEntity
  8
0
100
AcDbSpline
 62
7
  6
BYLAYER
 70
0
 71
3
 72
11
 73
7
 74
0
 42
0.0000001
 43
0.0000001
 44
0.0000000001
 40
0.0
 40
0.0
 40
0.0
 40
0.0
 40
0.3495117593
 40
0.6355333459
 40
0.8532818059
 40
1.0
 40
1.0
 40
1.0
 40
1.0
 10
191.6292930566
 20
193.5445798442
 30
0.0
 10
191.7839289134
 20
193.6822759991
 30
0.0
 10
192.0623043876
 20
193.9357438932
 30
0.0
 10
192.4251706525
 20
194.2882206885
 30
0.0
 10
192.6867408364
 20
194.5707766762
 30
0.0
 10
192.8208663216
 20
194.7417315347
 30
0.0
 10
192.8640154658
 20
194.8171831826
 30
0.0
  0
SPLINE
  5
2D4
100
AcDbEntity
  8
0
100
AcDbSpline
 62
7
  6
BYLAYER
 70
0
 71
3
 72
9
 73
5
 74
0
 42
0.0000001
 43
0.0000001
 44
0.0000000001
 40
0.0
 40
0.0
 40
0.0
 40
0.0
 40
0.6302877102
 40
1.0
 40
1.0
 40
1.0
 40
1.0
 10
192.8640154658
 20
194.8171831826
 30
0.0
 10
192.8813076865
 20
194.8474207823
 30
0.0
 10
192.9078716835
 20
194.8948202932
 30
0.0
 10
192.9094594607
 20
194.9578083461
 30
0.0
 10
192.8972399026
 20
194.974183851
 30
0.0
  0
SPLINE
  5
2D5
100
AcDbEntity
  8
0
100
AcDbSpline
 62
7
  6
BYLAYER
 70
0
 71
3
 72
11
 73
7
 74
0
 42
0.0000001
 43
0.0000001
 44
0.0000000001
 40
0.0
 40
0.0
 40
0.0
 40
0.0
 40
0.1467537967
 40
0.3642920148
 40
0.6501783558
 40
1.0
 40
1.0
 40
1.0
 40
1.0
 10
192.5888128569
 20
194.6240405727
 30
0.0
 10
192.5515725082
 20
194.5567390298
 30
0.0
 10
192.4345275966
 20
194.4042717227
 30
0.0
 10
192.205270842
 20
194.1525341413
 30
0.0
 10
191.8861855196
 20
193.8386905366
 30
0.0
 10
191.6410642188
 20
193.6130340162
 30
0.0
 10
191.5047606851
 20
193.4904002631
 30
0.0
  0
SPLINE
  5
2D6
100
AcDbEntity
  8
0
100
AcDbSpline
 62
7
  6
BYLAYER
 70
0
 71
3
 72
13
 73
9
 74
0
 42
0.0000001
 43
0.0000001
 44
0.0000000001
 40
0.0
 40
0.0
 40
0.0
 40
0.0
 40
0.1037787901
 40
0.2253043861
 40
0.4993926716
 40
0.7737949835
 40
0.8957081633
 40
1.0
 40
1.0
 40
1.0
 40
1.0
 10
191.4501560389
 20
193.4414214189
 30
0.0
 10
191.178526236
 20
193.198505191
 30
0.0
 10
190.5780224577
 20
192.6832079556
 30
0.0
 10
189.2187775914
 20
191.5751631903
 30
0.0
 10
187.3505892094
 20
190.1442913241
 30
0.0
 10
185.4377341712
 20
188.7713749162
 30
0.0
 10
183.9792951231
 20
187.7899280725
 30
0.0
 10
183.3093049836
 20
187.36300804
 30
0.0
 10
182.9965362974
 20
187.1725271117
 30
0.0
  0
SPLINE
  5
2D7
100
AcDbEntity
  8
0
100
AcDbSpline
 62
7
  6
BYLAYER
 70
0
 71
3
 72
14
 73
10
 74
0
 42
0.0000001
 43
0.0000001
 44
0.0000000001
 40
0.0
 40
0.0
 40
0.0
 40
0.0
 40
0.4124970467
 40
0.5793282712
 40
0.718523503
 40
0.8293218316
 40
0.9116402714
 40
0.9666237615
 40
1.0
 40
1.0
 40
1.0
 40
1.0
 10
182.8101311736
 20
187.0601493149
 30
0.0
 10
182.6208789324
 20
186.9472785469
 30
0.0
 10
182.3528091804
 20
186.7923534302
 30
0.0
 10
182.0125905709
 20
186.6145341427
 30
0.0
 10
181.8113027029
 20
186.5191124048
 30
0.0
 10
181.6472117768
 20
186.451262961
 30
0.0
 10
181.5195349769
 20
186.4134088499
 30
0.0
 10
181.4300780596
 20
186.39834507
 30
0.0
 10
181.3795719964
 20
186.4147945246
 30
0.0
 10
181.3689903314
 20
186.4291444088
 30
0.0
  0
SPLINE
  5
2D8
100
AcDbEntity
  8
0
100
AcDbSpline
 62
7
  6
BYLAYER
 70
0
 71
3
 72
11
 73
7
 74
0
 42
0.0000001
 43
0.0000001
 44
0.0000000001
 40
0.0
 40
0.0
 40
0.0
 40
0.0
 40
0.1864638345
 40
0.4149288486
 40
0.6926159001
 40
1.0
 40
1.0
 40
1.0
 40
1.0
 10
61.0021773994
 20
129.648706981
 30
0.0
 10
61.0409555266
 20
129.6710979127
 30
0.0
 10
61.1471186197
 20
129.6869586986
 30
0.0
 10
61.3051325944
 20
129.6221652457
 30
0.0
 10
61.4563351197
 20
129.4953195061
 30
0.0
 10
61.5402213744
 20
129.3807425053
 30
0.0
 10
61.5771305306
 20
129.3168158622
 30
0.0
  0
SPLINE
  5
2D9
100
AcDbEntity
  8
0
100
AcDbSpline
 62
7
  6
BYLAYER
 70
0
 71
3
 72
9
 73
5
 74
0
 42
0.0000001
 43
0.0000001
 44
0.0000000001
 40
0.0
 40
0.0
 40
0.0
 40
0.0
 40
0.4606816194
 40
1.0
 40
1.0
 40
1.0
 40
1.0
 10
180.7469845636
 20
190.1762363822
 30
0.0
 10
180.968083248
 20
190.3471846459
 30
0.0
 10
181.3896265844
 20
190.7930165975
 30
0.0
 10
181.7193985378
 20
191.3046872592
 30
0.0
 10
181.8786879078
 20
191.5904777403
 30
0.0
  0
SPLINE
  5
2DA
100
AcDbEntity
  8
0
100
AcDbSpline
 62
7
  6
BYLAYER
 70
0
 71
3
 72
19
 73
15
 74
0
 42
0.0000001
 43
0.0000001
 44
0.0000000001
 40
0.0
 40
0.0
 40
0.0
 40
0.0
 40
0.0453968237
 40
0.094087232
 40
0.1481661155
 40
0.2086205026
 40
0.3468675426
 40
0.5000045179
 40
0.6531404245
 40
0.7913846063
 40
0.8518372421
 40
0.9059144657
 40
0.9546036406
 40
1.0
 40
1.0
 40
1.0
 40
1.0
 10
62.9646716715
 20
126.2496496008
 30
0.0
 10
63.0421286695
 20
126.2943739215
 30
0.0
 10
63.187069499
 20
126.4164694471
 30
0.0
 10
63.3416500531
 20
126.6687525531
 30
0.0
 10
63.4334149725
 20
126.9800922814
 30
0.0
 10
63.4726892926
 20
127.4792778119
 30
0.0
 10
63.3490287786
 20
128.1721898467
 30
0.0
 10
62.9931173218
 20
128.9796852926
 30
0.0
 10
62.4717471828
 20
129.6916439064
 30
0.0
 10
61.9334919548
 20
130.1451697114
 30
0.0
 10
61.4815486674
 20
130.3607244068
 30
0.0
 10
61.1660422876
 20
130.4369031622
 30
0.0
 10
60.8702752328
 20
130.4291521041
 30
0.0
 10
60.6920757465
 20
130.3646627624
 30
0.0
 10
60.6146195408
 20
130.3199388992
 30
0.0
  0
SPLINE
  5
2DB
100
AcDbEntity
  8
0
100
AcDbSpline
 62
7
  6
BYLAYER
 70
0
 71
3
 72
10
 73
6
 74
0
 42
0.0000001
 43
0.0000001
 44
0.0000000001
 40
0.0
 40
0.0
 40
0.0
 40
0.0
 40
0.3452326072
 40
0.6288962809
 40
1.0
 40
1.0
 40
1.0
 40
1.0
 10
181.0878117007
 20
186.2207274441
 30
0.0
 10
181.1037754225
 20
186.1991973292
 30
0.0
 10
181.1617979125
 20
186.191243141
 30
0.0
 10
181.23580799
 20
186.2029443309
 30
0.0
 10
181.285755233
 20
186.2161468186
 30
0.0
 10
181.313289717
 20
186.2246286744
 30
0.0
  0
SPLINE
  5
2DC
100
AcDbEntity
  8
0
100
AcDbSpline
 62
7
  6
BYLAYER
 70
0
 71
3
 72
10
 73
6
 74
0
 42
0.0000001
 43
0.0000001
 44
0.0000000001
 40
0.0
 40
0.0
 40
0.0
 40
0.0
 40
0.1705677411
 40
0.3953522104
 40
1.0
 40
1.0
 40
1.0
 40
1.0
 10
181.313289717
 20
186.2246286744
 30
0.0
 10
181.3766455023
 20
186.2441450973
 30
0.0
 10
181.5200558597
 20
186.3002166969
 30
0.0
 10
181.8717954392
 20
186.4657009799
 30
0.0
 10
182.1538159838
 20
186.6226568767
 30
0.0
 10
182.357331309
 20
186.7401683335
 30
0.0
  0
SPLINE
  5
2DD
100
AcDbEntity
  8
0
100
AcDbSpline
 62
7
  6
BYLAYER
 70
0
 71
3
 72
9
 73
5
 74
0
 42
0.0000001
 43
0.0000001
 44
0.0000000001
 40
0.0
 40
0.0
 40
0.0
 40
0.0
 40
0.5377695757
 40
1.0
 40
1.0
 40
1.0
 40
1.0
 10
61.5771305306
 20
129.3168158622
 30
0.0
 10
61.6216468198
 20
129.2397136681
 30
0.0
 10
61.6861625217
 20
129.0852616173
 30
0.0
 10
61.702691832
 20
128.9154827758
 30
0.0
 10
61.6903168239
 20
128.8399653053
 30
0.0
  0
SPLINE
  5
2DE
100
AcDbEntity
  8
0
100
AcDbSpline
 62
7
  6
BYLAYER
 70
0
 71
3
 72
20
 73
16
 74
0
 42
0.0000001
 43
0.0000001
 44
0.0000000001
 40
0.0
 40
0.0
 40
0.0
 40
0.0
 40
0.0090470854
 40
0.0171039707
 40
0.0278135611
 40
0.0412229031
 40
0.0573111837
 40
0.0972875135
 40
0.1471372096
 40
0.2059760725
 40
0.3462431278
 40
0.5078890497
 40
0.6790749132
 40
0.8472124871
 40
1.0
 40
1.0
 40
1.0
 40
1.0
 10
180.6316862676
 20
187.4238145328
 30
0.0
 10
180.6515333865
 20
187.3968992432
 30
0.0
 10
180.7306354483
 20
187.3972730075
 30
0.0
 10
180.8254307136
 20
187.4196832021
 30
0.0
 10
180.9401391703
 20
187.4583573387
 30
0.0
 10
181.0766195016
 20
187.5155113662
 30
0.0
 10
181.3093683945
 20
187.6249435092
 30
0.0
 10
181.6547195988
 20
187.809333817
 30
0.0
 10
182.1298033966
 20
188.0857876683
 30
0.0
 10
182.9126176627
 20
188.569663871
 30
0.0
 10
184.0252141854
 20
189.3052414349
 30
0.0
 10
185.4585044896
 20
190.3073780185
 30
0.0
 10
186.9523233484
 20
191.4019961469
 30
0.0
 10
188.3964323495
 20
192.5082912568
 30
0.0
 10
189.3210486819
 20
193.2517610968
 30
0.0
 10
189.7551590032
 20
193.6130166032
 30
0.0
  0
SPLINE
  5
2DF
100
AcDbEntity
  8
0
100
AcDbSpline
 62
7
  6
BYLAYER
 70
0
 71
3
 72
11
 73
7
 74
0
 42
0.0000001
 43
0.0000001
 44
0.0000000001
 40
0.0
 40
0.0
 40
0.0
 40
0.0
 40
0.3073860114
 40
0.5850439075
 40
0.8135208808
 40
1.0
 40
1.0
 40
1.0
 40
1.0
 10
62.5771527139
 20
127.5847778629
 30
0.0
 10
62.6140638335
 20
127.5208478194
 30
0.0
 10
62.6713525042
 20
127.3909133375
 30
0.0
 10
62.7056094762
 20
127.1965428391
 30
0.0
 10
62.6827258767
 20
127.0272892909
 30
0.0
 10
62.6158969405
 20
126.943275338
 30
0.0
 10
62.5771138128
 20
126.920881519
 30
0.0
  0
SPLINE
  5
2E0
100
AcDbEntity
  8
0
100
AcDbSpline
 62
7
  6
BYLAYER
 70
0
 71
3
 72
11
 73
7
 74
0
 42
0.0000001
 43
0.0000001
 44
0.0000000001
 40
0.0
 40
0.0
 40
0.0
 40
0.0
 40
0.3073860114
 40
0.5850439075
 40
0.8135208808
 40
1.0
 40
1.0
 40
1.0
 40
1.0
 10
62.5771346939
 20
128.7394970584
 30
0.0
 10
62.6140458134
 20
128.6755670149
 30
0.0
 10
62.6713344842
 20
128.545632533
 30
0.0
 10
62.7055914562
 20
128.3512620346
 30
0.0
 10
62.6827078567
 20
128.1820084864
 30
0.0
 10
62.6158789204
 20
128.0979945335
 30
0.0
 10
62.5770957928
 20
128.0756007145
 30
0.0
  0
SPLINE
  5
2E1
100
AcDbEntity
  8
0
100
AcDbSpline
 62
7
  6
BYLAYER
 70
0
 71
3
 72
11
 73
7
 74
0
 42
0.0000001
 43
0.0000001
 44
0.0000000001
 40
0.0
 40
0.0
 40
0.0
 40
0.0
 40
0.3073867212
 40
0.5850434504
 40
0.8135197351
 40
1.0
 40
1.0
 40
1.0
 40
1.0
 10
26.2219386699
 20
108.9046081687
 30
0.0
 10
26.1850290169
 20
108.9685356721
 30
0.0
 10
26.1011479542
 20
109.0831095687
 30
0.0
 10
25.9499508917
 20
109.209953972
 30
0.0
 10
25.7919368666
 20
109.274757121
 30
0.0
 10
25.6857690538
 20
109.2588883624
 30
0.0
 10
25.6469851678
 20
109.2364990722
 30
0.0
  0
ELLIPSE
  5
2E2
100
AcDbEntity
  8
0
100
AcDbEllipse
 62
7
  6
BYLAYER
 10
178.5348935995
 20
202.0077143735
 30
0.0
 11
6.1634913097
 21
2.5913688245
 31
0.0
 40
0.1656156149
 41
-2.0533841459
 42
0.0404824626
  0
ELLIPSE
  5
2E3
100
AcDbEntity
  8
0
100
AcDbEllipse
 62
7
  6
BYLAYER
 10
167.9837796612
 20
216.2423911834
 30
0.0
 11
-23.3527236741
 21
40.4469262314
 31
0.0
 40
0.0803525362
 41
-2.1274627728
 42
-2.0486144856
  0
ENDSEC
  0
SECTION
  2
OBJECTS
  0
DICTIONARY
  5
C
100
AcDbDictionary
280
0
281
1
  3
ACAD_GROUP
350
D
  3
ACAD_MLINESTYLE
350
17
  3
ACAD_LAYOUT
350
1A
  3
ACAD_PLOTSETTINGS
350
19
  3
ACAD_PLOTSTYLENAME
350
E
  0
DICTIONARY
  5
D
102
{ACAD_REACTORS
330
C
102
}
100
AcDbDictionary
280
0
281
1
  0
ACDBDICTIONARYWDFLT
  5
E
102
{ACAD_REACTORS
330
C
102
}
100
AcDbDictionary
281
1
  3
Normal
350
F
100
AcDbDictionaryWithDefault
340
F
  0
DICTIONARY
  5
17
102
{ACAD_REACTORS
330
C
102
}
100
AcDbDictionary
280
0
281
1
  3
Standard
350
18
  0
DICTIONARY
  5
19
102
{ACAD_REACTORS
330
C
102
}
100
AcDbDictionary
281
1
  0
DICTIONARY
  5
1A
102
{ACAD_REACTORS
330
C
102
}
100
AcDbDictionary
281
1
  3
Model
350
2E4
  3
Layout1
350
2E5
  0
ACDBPLACEHOLDER
  5
F
102
{ACAD_REACTORS
330
E
102
}
  0
MLINESTYLE
  5
18
102
{ACAD_REACTORS
330
17
102
}
100
AcDbMlineStyle
  2
STANDARD
 70
0
  3

 62
256
 51
90.0
 52
90.0
 71
2
 49
0.5
 62
256
  6
BYLAYER
 49
-0.5
 62
256
  6
BYLAYER
  0
LAYOUT
  5
2E4
102
{ACAD_REACTORS
330
1A
102
}
100
AcDbPlotSettings
  1

  2
none_device
  4

  6

 40
0.0
 41
0.0
 42
0.0
 43
0.0
 44
210.0
 45
297.0
 46
0.0
 47
0.0
 48
0.0
 49
0.0
140
0.0
141
0.0
142
1.0
143
1.0
 70
1024
 72
1
 73
0
 74
0
  7

 75
0
147
1.0
148
0.0
149
0.0
100
AcDbLayout
  1
Model
 70
0
 71
0
 10
0.0
 20
0.0
 11
210.0
 21
297.0
 12
0.0
 22
0.0
 32
0.0
 14
0.0
 24
0.0
 34
0.0
 15
0.0
 25
0.0
 35
0.0
146
0.0
 13
0.0
 23
0.0
 33
0.0
 16
1.0
 26
0.0
 36
0.0
 17
0.0
 27
1.0
 37
0.0
 76
0
330
210
345
0
346
0
  0
LAYOUT
  5
2E5
102
{ACAD_REACTORS
330
1A
102
}
100
AcDbPlotSettings
  1

  2
none_device
  4

  6

 40
0.0
 41
0.0
 42
0.0
 43
0.0
 44
210.0
 45
297.0
 46
0.0
 47
0.0
 48
0.0
 49
0.0
140
0.0
141
0.0
142
1.0
143
1.0
 70
0
 72
1
 73
0
 74
0
  7

 75
0
147
1.0
148
0.0
149
0.0
100
AcDbLayout
  1
Layout1
 70
0
 71
1
 10
0.0
 20
0.0
 11
210.0
 21
297.0
 12
0.0
 22
0.0
 32
0.0
 14
0.0
 24
0.0
 34
0.0
 15
0.0
 25
0.0
 35
0.0
146
0.0
 13
0.0
 23
0.0
 33
0.0
 16
1.0
 26
0.0
 36
0.0
 17
0.0
 27
1.0
 37
0.0
 76
0
330
211
345
0
346
0
  0
ENDSEC
  0
EOF
