999
DXF file: Y:\001_SCHNEIDER_PARIS\78_2020_429_Grey Project M580\TRAVAIL LUCAS SANTANA G2P3\CAD3D\2D Views\BMXEHC0200_2D-Views\BMXEHC0200_2D-REAR.dxf
999
Pro/ENGINEER 2018260 by Parametric Technology Corporation
  0
SECTION
  2
HEADER
  9
$ACADVER
  1
AC1027
  9
$DWGCODEPAGE
  3
ANSI_1252
  9
$EXTMAX
 10
558.8
 20
431.8
 30
0.0
  9
$EXTMIN
 10
0.0
 20
0.0
 30
0.0
  9
$LIMMIN
 10
0.0
 20
0.0
  9
$LIMMAX
 10
558.8
 20
431.8
  9
$VIEWCTR
 10
279.4
 20
215.9
  9
$VIEWSIZE
 40
431.8
  9
$CLAYER
  8
0
  9
$LTSCALE
 40
30.734
  9
$CELTYPE
  6
BYLAYER
  9
$DIMSCALE
 40
1.0
  9
$DIMASZ
 40
3.5
  9
$DIMEXO
 40
1.0
  9
$DIMDLI
 40
21.2344
  9
$DIMEXE
 40
3.0
  9
$DIMCEN
 40
5.0292
  9
$DIMLFAC
 40
1.0
  9
$DIMBLK
  1
_FILLED
  9
$DIMALT
 70
0
  9
$DIMALTF
 40
0.0393700787
  9
$DIMTXT
 40
4.0
  9
$DIMTOL
 70
1
  9
$DIMLIM
 70
0
  9
$DIMTFAC
 40
1.0
  9
$DIMTP
 40
0.0001
  9
$DIMTM
 40
0.0001
  9
$DIMGAP
 40
0.625
  9
$DIMDSEP
 70
46
  9
$AUNITS
 70
0
  9
$PDMODE
 70
0
  9
$PDSIZE
 40
0.01
  9
$HANDSEED
  5
40F
  9
$TILEMODE
 70
1
  9
$MEASUREMENT
 70
1
  9
$INSUNITS
 70
4
  0
ENDSEC
  0
SECTION
  2
CLASSES
  0
CLASS
  1
ACDBDICTIONARYWDFLT
  2
AcDbDictionaryWithDefault
  3
AutoCAD 2000
 90
0
 91
1
280
0
281
0
  0
CLASS
  1
ACDBPLACEHOLDER
  2
AcDbPlaceHolder
  3
AutoCAD 2000
 90
0
 91
1
280
0
281
0
  0
CLASS
  1
LAYOUT
  2
AcDbLayout
  3
AutoCAD 2000
 90
0
 91
0
280
0
281
0
  0
ENDSEC
  0
SECTION
  2
TABLES
  0
TABLE
  2
VPORT
  5
8
100
AcDbSymbolTable
 70
2
  0
VPORT
  5
1F4
100
AcDbSymbolTableRecord
100
AcDbViewportTableRecord
  2
*ACTIVE
 70
0
 10
0.0
 20
0.0
 11
1.0
 21
1.0
 12
279.4
 22
215.9
 13
0.0
 23
0.0
 14
1.0
 24
1.0
 15
0.0
 25
0.0
 16
0.0
 26
0.0
 36
1.0
 17
0.0
 27
0.0
 37
0.0
 40
431.8
 41
1.2941176471
 42
50.0
 43
0.0
 44
0.0
 50
0.0
 51
0.0
 71
0
 72
100
 73
1
 74
1
 75
0
 76
0
 77
0
 78
0
  0
ENDTAB
  0
TABLE
  2
LTYPE
  5
5
100
AcDbSymbolTable
 70
6
  0
LTYPE
  5
14
100
AcDbSymbolTableRecord
100
AcDbLinetypeTableRecord
  2
BYBLOCK
 70
0
  3

 72
65
 73
0
 40
0.0
  0
LTYPE
  5
15
100
AcDbSymbolTableRecord
100
AcDbLinetypeTableRecord
  2
BYLAYER
 70
0
  3

 72
65
 73
0
 40
0.0
  0
LTYPE
  5
16
100
AcDbSymbolTableRecord
100
AcDbLinetypeTableRecord
  2
CONTINUOUS
 70
64
  3
Solid line
 72
65
 73
0
 40
0.0
  0
LTYPE
  5
1F5
100
AcDbSymbolTableRecord
100
AcDbLinetypeTableRecord
  2
CENTER
 70
64
  3
____ _ ____ _ ____ _ ____ _ ____ _ ____ _ ____
 72
65
 73
4
 40
0.6
 49
0.375
 74
0
 49
-0.075
 74
0
 49
0.075
 74
0
 49
-0.075
 74
0
  0
LTYPE
  5
1F6
100
AcDbSymbolTableRecord
100
AcDbLinetypeTableRecord
  2
HIDDEN
 70
64
  3
- - - - - - - - - - - - - - - - - - - -
 72
65
 73
2
 40
0.2
 49
0.1
 74
0
 49
-0.1
 74
0
  0
LTYPE
  5
1F7
100
AcDbSymbolTableRecord
100
AcDbLinetypeTableRecord
  2
PHANTOM
 70
64
  3
_____ _ _ _____ _ _ _____ _ _ _____
 72
65
 73
6
 40
0.8
 49
0.45
 74
0
 49
-0.05
 74
0
 49
0.1
 74
0
 49
-0.05
 74
0
 49
0.1
 74
0
 49
-0.05
 74
0
  0
LTYPE
  5
1F8
100
AcDbSymbolTableRecord
100
AcDbLinetypeTableRecord
  2
DOT
 70
64
  3
. . . . . . . . . . . . . . . . . . . .
 72
65
 73
2
 40
0.2
 49
0.1
 74
0
 49
-0.1
 74
0
  0
LTYPE
  5
1F9
100
AcDbSymbolTableRecord
100
AcDbLinetypeTableRecord
  2
DASHED
 70
64
  3
- - - - - - - - - - - - - - - - - - - -
 72
65
 73
2
 40
0.2
 49
0.1
 74
0
 49
-0.1
 74
0
  0
ENDTAB
  0
TABLE
  2
LAYER
  5
2
100
AcDbSymbolTable
 70
36
  0
LAYER
  5
10
100
AcDbSymbolTableRecord
100
AcDbLayerTableRecord
  2
0
 70
0
 62
7
  6
CONTINUOUS
370
-3
390
F
  0
LAYER
  5
1FA
100
AcDbSymbolTableRecord
100
AcDbLayerTableRecord
  2
DEFAULT_1
 70
0
 62
7
  6
CENTER
370
-3
390
F
  0
LAYER
  5
1FB
100
AcDbSymbolTableRecord
100
AcDbLayerTableRecord
  2
DEFAULT_2
 70
0
 62
8
  6
HIDDEN
370
-3
390
F
  0
LAYER
  5
1FC
100
AcDbSymbolTableRecord
100
AcDbLayerTableRecord
  2
DEFAULT_3
 70
0
 62
7
  6
PHANTOM
370
-3
390
F
  0
LAYER
  5
1FD
100
AcDbSymbolTableRecord
100
AcDbLayerTableRecord
  2
01_ALL_DTM_PLN
 70
0
 62
7
  6
CONTINUOUS
370
-3
390
F
  0
LAYER
  5
1FE
100
AcDbSymbolTableRecord
100
AcDbLayerTableRecord
  2
01__ASM_ALL_DTM_PLN
 70
0
 62
7
  6
CONTINUOUS
370
-3
390
F
  0
LAYER
  5
1FF
100
AcDbSymbolTableRecord
100
AcDbLayerTableRecord
  2
01__ASM_DEF_DTM_PLN
 70
0
 62
7
  6
CONTINUOUS
370
-3
390
F
  0
LAYER
  5
200
100
AcDbSymbolTableRecord
100
AcDbLayerTableRecord
  2
01___PRT_ALL_DTM_PLN
 70
0
 62
7
  6
CONTINUOUS
370
-3
390
F
  0
LAYER
  5
201
100
AcDbSymbolTableRecord
100
AcDbLayerTableRecord
  2
01___PRT_DEF_DTM_PLN
 70
0
 62
7
  6
CONTINUOUS
370
-3
390
F
  0
LAYER
  5
202
100
AcDbSymbolTableRecord
100
AcDbLayerTableRecord
  2
02_ALL_AXES
 70
0
 62
7
  6
CONTINUOUS
370
-3
390
F
  0
LAYER
  5
203
100
AcDbSymbolTableRecord
100
AcDbLayerTableRecord
  2
02__ASM_ALL_AXES
 70
0
 62
7
  6
CONTINUOUS
370
-3
390
F
  0
LAYER
  5
204
100
AcDbSymbolTableRecord
100
AcDbLayerTableRecord
  2
02___PRT_ALL_AXES
 70
0
 62
7
  6
CONTINUOUS
370
-3
390
F
  0
LAYER
  5
205
100
AcDbSymbolTableRecord
100
AcDbLayerTableRecord
  2
03_ALL_CURVES
 70
0
 62
7
  6
CONTINUOUS
370
-3
390
F
  0
LAYER
  5
206
100
AcDbSymbolTableRecord
100
AcDbLayerTableRecord
  2
03__ASM_ALL_CURVES
 70
0
 62
7
  6
CONTINUOUS
370
-3
390
F
  0
LAYER
  5
207
100
AcDbSymbolTableRecord
100
AcDbLayerTableRecord
  2
03___PRT_ALL_CURVES
 70
0
 62
7
  6
CONTINUOUS
370
-3
390
F
  0
LAYER
  5
208
100
AcDbSymbolTableRecord
100
AcDbLayerTableRecord
  2
04_ALL_DTM_PNT
 70
0
 62
7
  6
CONTINUOUS
370
-3
390
F
  0
LAYER
  5
209
100
AcDbSymbolTableRecord
100
AcDbLayerTableRecord
  2
04__ASM_ALL_DTM_PNT
 70
0
 62
7
  6
CONTINUOUS
370
-3
390
F
  0
LAYER
  5
20A
100
AcDbSymbolTableRecord
100
AcDbLayerTableRecord
  2
04___PRT_ALL_DTM_PNT
 70
0
 62
7
  6
CONTINUOUS
370
-3
390
F
  0
LAYER
  5
20B
100
AcDbSymbolTableRecord
100
AcDbLayerTableRecord
  2
05_ALL_DTM_CSYS
 70
0
 62
7
  6
CONTINUOUS
370
-3
390
F
  0
LAYER
  5
20C
100
AcDbSymbolTableRecord
100
AcDbLayerTableRecord
  2
05__ASM_ALL_DTM_CSYS
 70
0
 62
7
  6
CONTINUOUS
370
-3
390
F
  0
LAYER
  5
20D
100
AcDbSymbolTableRecord
100
AcDbLayerTableRecord
  2
05__ASM_DEF_DTM_CSYS
 70
0
 62
7
  6
CONTINUOUS
370
-3
390
F
  0
LAYER
  5
20E
100
AcDbSymbolTableRecord
100
AcDbLayerTableRecord
  2
05___PRT_ALL_DTM_CSYS
 70
0
 62
7
  6
CONTINUOUS
370
-3
390
F
  0
LAYER
  5
20F
100
AcDbSymbolTableRecord
100
AcDbLayerTableRecord
  2
05___PRT_DEF_DTM_CSYS
 70
0
 62
7
  6
CONTINUOUS
370
-3
390
F
  0
LAYER
  5
210
100
AcDbSymbolTableRecord
100
AcDbLayerTableRecord
  2
06_ALL_SURFS
 70
0
 62
7
  6
CONTINUOUS
370
-3
390
F
  0
LAYER
  5
211
100
AcDbSymbolTableRecord
100
AcDbLayerTableRecord
  2
06__ASM_ALL_SURFS
 70
0
 62
7
  6
CONTINUOUS
370
-3
390
F
  0
LAYER
  5
212
100
AcDbSymbolTableRecord
100
AcDbLayerTableRecord
  2
06___PRT_ALL_SURFS
 70
0
 62
7
  6
CONTINUOUS
370
-3
390
F
  0
LAYER
  5
213
100
AcDbSymbolTableRecord
100
AcDbLayerTableRecord
  2
07__ASM_ALL_SKELETONS
 70
0
 62
7
  6
CONTINUOUS
370
-3
390
F
  0
ENDTAB
  0
TABLE
  2
STYLE
  5
3
100
AcDbSymbolTable
 70
1
  0
STYLE
  5
11
100
AcDbSymbolTableRecord
100
AcDbTextStyleTableRecord
  2
STANDARD
 70
0
 40
0.0
 41
0.6
 50
0.0
 71
0
 42
0.2
  3
txt
  4

  0
STYLE
  5
214
100
AcDbSymbolTableRecord
100
AcDbTextStyleTableRecord
  2
TEXTSTYLE_1
 70
0
 40
0.0
 41
0.8
 50
0.0
 71
0
 42
0.2
  3
gdt
  4

  0
ENDTAB
  0
TABLE
  2
VIEW
  5
6
100
AcDbSymbolTable
 70
0
  0
ENDTAB
  0
TABLE
  2
UCS
  5
7
100
AcDbSymbolTable
 70
0
  0
ENDTAB
  0
TABLE
  2
APPID
  5
9
100
AcDbSymbolTable
 70
1
  0
APPID
  5
215
100
AcDbSymbolTableRecord
100
AcDbRegAppTableRecord
  2
ACAD
 70
0
  0
ENDTAB
  0
TABLE
  2
BLOCK_RECORD
  5
1
100
AcDbSymbolTable
 70
0
  0
BLOCK_RECORD
  5
216
100
AcDbSymbolTableRecord
100
AcDbBlockTableRecord
  2
*Model_Space
  0
BLOCK_RECORD
  5
217
100
AcDbSymbolTableRecord
100
AcDbBlockTableRecord
  2
*Paper_Space
  0
BLOCK_RECORD
  5
218
100
AcDbSymbolTableRecord
100
AcDbBlockTableRecord
  2
_FILLED
  0
ENDTAB
  0
TABLE
  2
DIMSTYLE
  5
A
100
AcDbSymbolTable
 70
1
100
AcDbDimStyleTable
 71
0
  0
DIMSTYLE
105
219
100
AcDbSymbolTableRecord
100
AcDbDimStyleTableRecord
  2
STANDARD
 70
0
  3

  4

 40
1.0
 41
3.5
 42
1.0
 43
0.38
 44
3.0
 45
0.0
 46
0.0
 47
0.0001
 48
0.0001
140
4.0
141
0.09
142
0.0
143
25.4
144
1.0
145
0.0
146
1.0
147
0.625
 71
1.0
 72
0.0
 73
0
 74
0
 75
0
 76
0
 77
1
 78
8
 79
2
170
0
171
3
172
0
173
0
174
0
175
0
176
0
177
0
178
0
270
2
179
4
271
4
272
4
273
2
274
2
275
0
280
0
281
0
282
0
283
1
284
8
285
0
286
0
287
3
288
0
340
11
278
46
341
218
342
218
343
218
344
218
  0
ENDTAB
  0
ENDSEC
  0
SECTION
  2
BLOCKS
  0
BLOCK
  5
20
100
AcDbEntity
  8
0
100
AcDbBlockBegin
  2
*Model_Space
 70
0
 10
0.0
 20
0.0
 30
0.0
  3
*Model_Space
  1

  0
ENDBLK
  5
21
100
AcDbEntity
  8
0
100
AcDbBlockEnd
  0
BLOCK
  5
1C
100
AcDbEntity
  8
0
100
AcDbBlockBegin
  2
*Paper_Space
 70
0
 10
0.0
 20
0.0
 30
0.0
  3
*Paper_Space
  1

  0
ENDBLK
  5
1D
100
AcDbEntity
  8
0
100
AcDbBlockEnd
  0
BLOCK
  5
21A
100
AcDbEntity
  8
0
100
AcDbBlockBegin
  2
_FILLED
 70
64
 10
0.0
 20
0.0
  3
_FILLED
  1

  0
SOLID
  5
21B
100
AcDbEntity
  8
0
  6
BYBLOCK
 62
0
100
AcDbTrace
 10
0.0
 20
0.0
 11
-1.0
 21
0.2857142857
 12
-1.0
 22
-0.2857142857
 13
-1.0
 23
-0.2857142857
  0
ENDBLK
  5
21C
100
AcDbEntity
  8
0
  6
BYBLOCK
 62
0
100
AcDbBlockEnd
  0
ENDSEC
  0
SECTION
  2
ENTITIES
  0
LINE
  5
21D
100
AcDbEntity
  8
0
100
AcDbLine
 62
7
  6
CONTINUOUS
 10
278.9233049665
 20
158.7549574792
 11
310.9233049665
 21
158.7549574792
  0
LINE
  5
21E
100
AcDbEntity
  8
0
100
AcDbLine
 62
7
  6
CONTINUOUS
 10
310.9233049665
 20
158.9207679672
 11
278.9233049665
 21
158.9207679672
  0
LINE
  5
21F
100
AcDbEntity
  8
0
100
AcDbLine
 62
7
  6
CONTINUOUS
 10
284.6879220593
 20
258.9207679672
 11
290.9233049665
 21
262.5207679672
  0
LINE
  5
220
100
AcDbEntity
  8
0
100
AcDbLine
 62
7
  6
CONTINUOUS
 10
305.5663711841
 20
160.7777017496
 11
302.4802387489
 21
160.7777017496
  0
LINE
  5
221
100
AcDbEntity
  8
0
100
AcDbLine
 62
7
  6
CONTINUOUS
 10
287.0163711841
 20
160.7777017496
 11
284.3302387489
 21
160.7777017496
  0
LINE
  5
222
100
AcDbEntity
  8
0
100
AcDbLine
 62
7
  6
CONTINUOUS
 10
305.4733049665
 20
160.8707679672
 11
302.5733049665
 21
160.8707679672
  0
LINE
  5
223
100
AcDbEntity
  8
0
100
AcDbLine
 62
7
  6
CONTINUOUS
 10
286.9233049665
 20
160.8707679672
 11
284.4233049665
 21
160.8707679672
  0
LINE
  5
224
100
AcDbEntity
  8
0
100
AcDbLine
 62
7
  6
CONTINUOUS
 10
278.9233049665
 20
161.3207679672
 11
283.667143368
 21
161.3207679672
  0
LINE
  5
225
100
AcDbEntity
  8
0
100
AcDbLine
 62
7
  6
CONTINUOUS
 10
306.179466565
 20
161.3207679672
 11
310.9233049665
 21
161.3207679672
  0
LINE
  5
226
100
AcDbEntity
  8
0
100
AcDbLine
 62
7
  6
CONTINUOUS
 10
283.3983729854
 20
163.3207679672
 11
284.304610525
 21
163.3207679672
  0
LINE
  5
227
100
AcDbEntity
  8
0
100
AcDbLine
 62
7
  6
CONTINUOUS
 10
287.041999408
 20
163.3207679672
 11
302.454610525
 21
163.3207679672
  0
LINE
  5
228
100
AcDbEntity
  8
0
100
AcDbLine
 62
7
  6
CONTINUOUS
 10
305.591999408
 20
163.3207679672
 11
306.4482369477
 21
163.3207679672
  0
LINE
  5
229
100
AcDbEntity
  8
0
100
AcDbLine
 62
7
  6
CONTINUOUS
 10
280.7825085289
 20
258.9207601258
 11
280.2749482141
 21
258.4207679672
  0
LINE
  5
22A
100
AcDbEntity
  8
0
100
AcDbLine
 62
7
  6
CONTINUOUS
 10
283.4009643723
 20
164.6593225466
 11
283.9233049665
 21
164.7114252662
  0
LINE
  5
22B
100
AcDbEntity
  8
0
100
AcDbLine
 62
7
  6
CONTINUOUS
 10
284.1733049665
 20
164.3207679672
 11
278.9233049665
 21
164.3207679672
  0
LINE
  5
22C
100
AcDbEntity
  8
0
100
AcDbLine
 62
7
  6
CONTINUOUS
 10
305.6733049665
 20
164.3207679672
 11
310.9233049665
 21
164.3207679672
  0
LINE
  5
22D
100
AcDbEntity
  8
0
100
AcDbLine
 62
7
  6
CONTINUOUS
 10
308.9347503871
 20
164.6593225466
 11
306.4456455608
 21
164.6593225466
  0
LINE
  5
22E
100
AcDbEntity
  8
0
100
AcDbLine
 62
7
  6
CONTINUOUS
 10
283.4009643722
 20
164.6593225466
 11
280.9118595459
 21
164.6593225466
  0
LINE
  5
22F
100
AcDbEntity
  8
0
100
AcDbLine
 62
7
  6
CONTINUOUS
 10
283.9233049665
 20
164.7114252662
 11
284.304610525
 21
164.7114252662
  0
LINE
  5
230
100
AcDbEntity
  8
0
100
AcDbLine
 62
7
  6
CONTINUOUS
 10
287.041999408
 20
164.7114252662
 11
302.454610525
 21
164.7114252662
  0
LINE
  5
231
100
AcDbEntity
  8
0
100
AcDbLine
 62
7
  6
CONTINUOUS
 10
305.591999408
 20
164.7114252662
 11
305.9233049665
 21
164.7114252662
  0
LINE
  5
232
100
AcDbEntity
  8
0
100
AcDbLine
 62
7
  6
CONTINUOUS
 10
288.0233049665
 20
164.7490702968
 11
289.9233049665
 21
164.7490702968
  0
LINE
  5
233
100
AcDbEntity
  8
0
100
AcDbLine
 62
7
  6
CONTINUOUS
 10
299.9233049665
 20
164.7490702968
 11
301.4733049665
 21
164.7490702968
  0
LINE
  5
234
100
AcDbEntity
  8
0
100
AcDbLine
 62
7
  6
CONTINUOUS
 10
281.0233049665
 20
164.7707679672
 11
288.0233049665
 21
164.7707679672
  0
LINE
  5
235
100
AcDbEntity
  8
0
100
AcDbLine
 62
7
  6
CONTINUOUS
 10
301.4733049665
 20
164.7707679672
 11
308.8233049665
 21
164.7707679672
  0
LINE
  5
236
100
AcDbEntity
  8
0
100
AcDbLine
 62
7
  6
CONTINUOUS
 10
289.9233049665
 20
165.3107679672
 11
286.4233049665
 21
165.3107679672
  0
LINE
  5
237
100
AcDbEntity
  8
0
100
AcDbLine
 62
7
  6
CONTINUOUS
 10
280.5706321674
 20
165.5207679672
 11
309.2759777656
 21
165.5207679672
  0
LINE
  5
238
100
AcDbEntity
  8
0
100
AcDbLine
 62
7
  6
CONTINUOUS
 10
305.9233049665
 20
164.7114252662
 11
306.4456455608
 21
164.6593225466
  0
LINE
  5
239
100
AcDbEntity
  8
0
100
AcDbLine
 62
7
  6
CONTINUOUS
 10
287.041999408
 20
164.7114252662
 11
286.9233049665
 21
164.7707679672
  0
LINE
  5
23A
100
AcDbEntity
  8
0
100
AcDbLine
 62
7
  6
CONTINUOUS
 10
286.9233049665
 20
254.646691717
 11
287.041999408
 21
254.706034418
  0
LINE
  5
23B
100
AcDbEntity
  8
0
100
AcDbLine
 62
7
  6
CONTINUOUS
 10
307.316444761
 20
168.8389077617
 11
308.666999408
 21
168.8894624087
  0
LINE
  5
23C
100
AcDbEntity
  8
0
100
AcDbLine
 62
7
  6
CONTINUOUS
 10
282.530165172
 20
170.0026281727
 11
281.179610525
 21
169.9520735257
  0
LINE
  5
23D
100
AcDbEntity
  8
0
100
AcDbLine
 62
7
  6
CONTINUOUS
 10
280.6798037727
 20
168.5707679672
 11
284.1233049665
 21
168.5707679672
  0
LINE
  5
23E
100
AcDbEntity
  8
0
100
AcDbLine
 62
7
  6
CONTINUOUS
 10
305.7233049665
 20
168.5707679672
 11
309.1668057536
 21
168.5707679672
  0
LINE
  5
23F
100
AcDbEntity
  8
0
100
AcDbLine
 62
7
  6
CONTINUOUS
 10
283.6233049665
 20
168.6707679672
 11
293.4233049665
 21
168.6707679672
  0
LINE
  5
240
100
AcDbEntity
  8
0
100
AcDbLine
 62
7
  6
CONTINUOUS
 10
296.4233049665
 20
168.6707679672
 11
306.2233049665
 21
168.6707679672
  0
LINE
  5
241
100
AcDbEntity
  8
0
100
AcDbLine
 62
7
  6
CONTINUOUS
 10
281.0233049665
 20
168.7707679672
 11
282.5983049665
 21
168.7707679672
  0
LINE
  5
242
100
AcDbEntity
  8
0
100
AcDbLine
 62
7
  6
CONTINUOUS
 10
307.2483049665
 20
168.7707679672
 11
308.8233049665
 21
168.7707679672
  0
LINE
  5
243
100
AcDbEntity
  8
0
100
AcDbLine
 62
7
  6
CONTINUOUS
 10
280.9639622655
 20
168.8894624087
 11
281.179610525
 21
168.8894624087
  0
LINE
  5
244
100
AcDbEntity
  8
0
100
AcDbLine
 62
7
  6
CONTINUOUS
 10
308.666999408
 20
168.8894624087
 11
308.8826476675
 21
168.8894624087
  0
LINE
  5
245
100
AcDbEntity
  8
0
100
AcDbLine
 62
7
  6
CONTINUOUS
 10
308.8826476675
 20
169.9520735257
 11
308.666999408
 21
169.9520735257
  0
LINE
  5
246
100
AcDbEntity
  8
0
100
AcDbLine
 62
7
  6
CONTINUOUS
 10
281.179610525
 20
169.9520735257
 11
280.9639622655
 21
169.9520735257
  0
LINE
  5
247
100
AcDbEntity
  8
0
100
AcDbLine
 62
7
  6
CONTINUOUS
 10
308.8233049665
 20
170.0707679672
 11
307.2483049665
 21
170.0707679672
  0
LINE
  5
248
100
AcDbEntity
  8
0
100
AcDbLine
 62
7
  6
CONTINUOUS
 10
281.0233049665
 20
170.0707679672
 11
282.5983049665
 21
170.0707679672
  0
LINE
  5
249
100
AcDbEntity
  8
0
100
AcDbLine
 62
7
  6
CONTINUOUS
 10
286.4233049665
 20
170.1607679672
 11
283.9233049665
 21
170.1607679672
  0
LINE
  5
24A
100
AcDbEntity
  8
0
100
AcDbLine
 62
7
  6
CONTINUOUS
 10
283.6233049665
 20
170.1707679672
 11
293.4233049665
 21
170.1707679672
  0
LINE
  5
24B
100
AcDbEntity
  8
0
100
AcDbLine
 62
7
  6
CONTINUOUS
 10
296.4233049665
 20
170.1707679672
 11
306.2233049665
 21
170.1707679672
  0
LINE
  5
24C
100
AcDbEntity
  8
0
100
AcDbLine
 62
7
  6
CONTINUOUS
 10
280.6257911146
 20
170.2707679672
 11
284.1233049665
 21
170.2707679672
  0
LINE
  5
24D
100
AcDbEntity
  8
0
100
AcDbLine
 62
7
  6
CONTINUOUS
 10
305.7233049665
 20
170.2707679672
 11
309.220819083
 21
170.2707679672
  0
LINE
  5
24E
100
AcDbEntity
  8
0
100
AcDbLine
 62
7
  6
CONTINUOUS
 10
282.530165172
 20
168.8389077617
 11
281.179610525
 21
168.8894624087
  0
LINE
  5
24F
100
AcDbEntity
  8
0
100
AcDbLine
 62
7
  6
CONTINUOUS
 10
307.316444761
 20
170.0026281727
 11
308.666999408
 21
169.9520735257
  0
LINE
  5
250
100
AcDbEntity
  8
0
100
AcDbLine
 62
7
  6
CONTINUOUS
 10
283.3733049665
 20
170.2707679672
 11
283.6233049665
 21
170.2207679672
  0
LINE
  5
251
100
AcDbEntity
  8
0
100
AcDbLine
 62
7
  6
CONTINUOUS
 10
283.8733580468
 20
170.1707573512
 11
283.9233049665
 21
170.1607679672
  0
LINE
  5
252
100
AcDbEntity
  8
0
100
AcDbLine
 62
7
  6
CONTINUOUS
 10
286.9233049665
 20
160.8707679672
 11
287.0163711841
 21
160.7777017496
  0
LINE
  5
253
100
AcDbEntity
  8
0
100
AcDbLine
 62
7
  6
CONTINUOUS
 10
286.9233049665
 20
256.9707679672
 11
287.041999408
 21
257.0894624087
  0
LINE
  5
254
100
AcDbEntity
  8
0
100
AcDbLine
 62
7
  6
CONTINUOUS
 10
282.530165172
 20
250.5026281727
 11
282.5983049665
 21
250.5707679672
  0
LINE
  5
255
100
AcDbEntity
  8
0
100
AcDbLine
 62
7
  6
CONTINUOUS
 10
310.9233049665
 20
172.5346948243
 11
308.9287375247
 21
172.5346948243
  0
LINE
  5
256
100
AcDbEntity
  8
0
100
AcDbLine
 62
7
  6
CONTINUOUS
 10
280.9178724084
 20
172.5346948243
 11
278.9233049665
 21
172.5346948243
  0
LINE
  5
257
100
AcDbEntity
  8
0
100
AcDbLine
 62
7
  6
CONTINUOUS
 10
280.6363377416
 20
173.3207679672
 11
309.2102721914
 21
173.3207679672
  0
LINE
  5
258
100
AcDbEntity
  8
0
100
AcDbLine
 62
7
  6
CONTINUOUS
 10
286.4233049665
 20
173.6607679672
 11
283.9233049665
 21
173.6607679672
  0
LINE
  5
259
100
AcDbEntity
  8
0
100
AcDbLine
 62
7
  6
CONTINUOUS
 10
280.9595988334
 20
174.1207679672
 11
278.9233049665
 21
174.1207679672
  0
LINE
  5
25A
100
AcDbEntity
  8
0
100
AcDbLine
 62
7
  6
CONTINUOUS
 10
308.8870111014
 20
174.1207679672
 11
310.9233049665
 21
174.1207679672
  0
LINE
  5
25B
100
AcDbEntity
  8
0
100
AcDbLine
 62
7
  6
CONTINUOUS
 10
308.8233049665
 20
174.2869836556
 11
308.7610048535
 21
174.2869836556
  0
LINE
  5
25C
100
AcDbEntity
  8
0
100
AcDbLine
 62
7
  6
CONTINUOUS
 10
281.0233049665
 20
174.2869836556
 11
281.0856050795
 21
174.2869836556
  0
LINE
  5
25D
100
AcDbEntity
  8
0
100
AcDbLine
 62
7
  6
CONTINUOUS
 10
281.1146654091
 20
174.3515673958
 11
289.9233049665
 21
174.3515673958
  0
LINE
  5
25E
100
AcDbEntity
  8
0
100
AcDbLine
 62
7
  6
CONTINUOUS
 10
299.9233049665
 20
174.3515673958
 11
308.731944524
 21
174.3515673958
  0
LINE
  5
25F
100
AcDbEntity
  8
0
100
AcDbLine
 62
7
  6
CONTINUOUS
 10
289.9233049665
 20
174.3829865127
 11
299.9233049665
 21
174.3829865127
  0
LINE
  5
260
100
AcDbEntity
  8
0
100
AcDbLine
 62
7
  6
CONTINUOUS
 10
308.8826476675
 20
174.4056780971
 11
280.9639622655
 21
174.4056780971
  0
LINE
  5
261
100
AcDbEntity
  8
0
100
AcDbLine
 62
7
  6
CONTINUOUS
 10
282.9233049665
 20
173.8607679672
 11
283.9233049665
 21
173.6607679672
  0
LINE
  5
262
100
AcDbEntity
  8
0
100
AcDbLine
 62
7
  6
CONTINUOUS
 10
305.591999408
 20
164.7114252662
 11
305.4733049665
 21
164.7707679672
  0
LINE
  5
263
100
AcDbEntity
  8
0
100
AcDbLine
 62
7
  6
CONTINUOUS
 10
282.5983049665
 20
168.7707679672
 11
282.530165172
 21
168.8389077617
  0
LINE
  5
264
100
AcDbEntity
  8
0
100
AcDbLine
 62
7
  6
CONTINUOUS
 10
305.5733049665
 20
254.646691717
 11
305.691999408
 21
254.706034418
  0
LINE
  5
265
100
AcDbEntity
  8
0
100
AcDbLine
 62
7
  6
CONTINUOUS
 10
282.9233049665
 20
174.2607679672
 11
283.3773021094
 21
174.3515673958
  0
LINE
  5
266
100
AcDbEntity
  8
0
100
AcDbLine
 62
7
  6
CONTINUOUS
 10
280.9233049665
 20
250.7226270321
 11
280.7880385158
 21
250.4520735257
  0
LINE
  5
267
100
AcDbEntity
  8
0
100
AcDbLine
 62
7
  6
CONTINUOUS
 10
282.8390273003
 20
242.886490301
 11
282.8233049665
 21
242.8707679672
  0
LINE
  5
268
100
AcDbEntity
  8
0
100
AcDbLine
 62
7
  6
CONTINUOUS
 10
280.9639622655
 20
168.8894624087
 11
281.0233049665
 21
168.7707679672
  0
LINE
  5
269
100
AcDbEntity
  8
0
100
AcDbLine
 62
7
  6
CONTINUOUS
 10
280.9639622655
 20
174.4056780971
 11
281.0233049665
 21
174.2869836556
  0
LINE
  5
26A
100
AcDbEntity
  8
0
100
AcDbLine
 62
7
  6
CONTINUOUS
 10
280.8473812167
 20
245.6545522789
 11
280.7880385158
 21
245.5358578374
  0
LINE
  5
26B
100
AcDbEntity
  8
0
100
AcDbLine
 62
7
  6
CONTINUOUS
 10
305.5733049665
 20
256.9707679672
 11
305.691999408
 21
257.0894624087
  0
LINE
  5
26C
100
AcDbEntity
  8
0
100
AcDbLine
 62
7
  6
CONTINUOUS
 10
305.4733049665
 20
160.8707679672
 11
305.5663711841
 21
160.7777017496
  0
LINE
  5
26D
100
AcDbEntity
  8
0
100
AcDbLine
 62
7
  6
CONTINUOUS
 10
293.4524994017
 20
256.7374512998
 11
293.3980075135
 21
256.6309017825
  0
LINE
  5
26E
100
AcDbEntity
  8
0
100
AcDbLine
 62
7
  6
CONTINUOUS
 10
308.9347503871
 20
164.6593225466
 11
308.8233049665
 21
164.7707679672
  0
LINE
  5
26F
100
AcDbEntity
  8
0
100
AcDbLine
 62
7
  6
CONTINUOUS
 10
296.4415078372
 20
258.5219900928
 11
296.4533049665
 21
258.5457679672
  0
LINE
  5
270
100
AcDbEntity
  8
0
100
AcDbLine
 62
7
  6
CONTINUOUS
 10
308.9233049665
 20
254.5707679672
 11
309.0585714173
 21
254.706034418
  0
LINE
  5
271
100
AcDbEntity
  8
0
100
AcDbLine
 62
7
  6
CONTINUOUS
 10
307.316444761
 20
249.3389077617
 11
307.2483049665
 21
249.2707679672
  0
LINE
  5
272
100
AcDbEntity
  8
0
100
AcDbLine
 62
7
  6
CONTINUOUS
 10
307.2483049665
 20
170.0707679672
 11
307.316444761
 21
170.0026281727
  0
LINE
  5
273
100
AcDbEntity
  8
0
100
AcDbLine
 62
7
  6
CONTINUOUS
 10
278.9233049665
 20
158.7549574792
 11
278.9233049665
 21
258.9207679672
  0
LINE
  5
274
100
AcDbEntity
  8
0
100
AcDbLine
 62
7
  6
CONTINUOUS
 10
280.2749482141
 20
258.4207679672
 11
280.2749482141
 21
246.5707679672
  0
LINE
  5
275
100
AcDbEntity
  8
0
100
AcDbLine
 62
7
  6
CONTINUOUS
 10
280.7813787431
 20
207.1033142316
 11
280.7813787431
 21
242.9126941907
  0
LINE
  5
276
100
AcDbEntity
  8
0
100
AcDbLine
 62
7
  6
CONTINUOUS
 10
280.7825135485
 20
258.9207651776
 11
280.7825056155
 21
246.5707679672
  0
LINE
  5
277
100
AcDbEntity
  8
0
100
AcDbLine
 62
7
  6
CONTINUOUS
 10
280.7880385158
 20
258.9207679672
 11
280.7880385158
 21
254.706034418
  0
LINE
  5
278
100
AcDbEntity
  8
0
100
AcDbLine
 62
7
  6
CONTINUOUS
 10
280.7880385158
 20
246.5707679672
 11
280.7880385158
 21
245.5358578374
  0
LINE
  5
279
100
AcDbEntity
  8
0
100
AcDbLine
 62
7
  6
CONTINUOUS
 10
280.8233049665
 20
207.1102957259
 11
280.8233049665
 21
242.8707679672
  0
LINE
  5
27A
100
AcDbEntity
  8
0
100
AcDbLine
 62
7
  6
CONTINUOUS
 10
280.8473812167
 20
249.2707679672
 11
280.8473812167
 21
249.0707679672
  0
LINE
  5
27B
100
AcDbEntity
  8
0
100
AcDbLine
 62
7
  6
CONTINUOUS
 10
280.8473812167
 20
246.0207679672
 11
280.8473812167
 21
245.6545522789
  0
LINE
  5
27C
100
AcDbEntity
  8
0
100
AcDbLine
 62
7
  6
CONTINUOUS
 10
280.9233049665
 20
254.5707679672
 11
280.9233049665
 21
253.8207679672
  0
LINE
  5
27D
100
AcDbEntity
  8
0
100
AcDbLine
 62
7
  6
CONTINUOUS
 10
284.3302387489
 20
160.7777017496
 11
284.304610525
 21
163.3207679672
  0
LINE
  5
27E
100
AcDbEntity
  8
0
100
AcDbLine
 62
7
  6
CONTINUOUS
 10
280.9639622655
 20
174.4056780971
 11
280.9639622655
 21
174.1207679672
  0
LINE
  5
27F
100
AcDbEntity
  8
0
100
AcDbLine
 62
7
  6
CONTINUOUS
 10
280.9639622655
 20
169.9520735257
 11
280.9639622655
 21
168.8894624087
  0
LINE
  5
280
100
AcDbEntity
  8
0
100
AcDbLine
 62
7
  6
CONTINUOUS
 10
280.9851083654
 20
250.7226270321
 11
280.9851083654
 21
250.7707679672
  0
LINE
  5
281
100
AcDbEntity
  8
0
100
AcDbLine
 62
7
  6
CONTINUOUS
 10
281.0172740343
 20
254.5707679672
 11
281.0172740343
 21
253.8207679672
  0
LINE
  5
282
100
AcDbEntity
  8
0
100
AcDbLine
 62
7
  6
CONTINUOUS
 10
281.0172740343
 20
250.7707679672
 11
281.0172740343
 21
250.7226270321
  0
LINE
  5
283
100
AcDbEntity
  8
0
100
AcDbLine
 62
7
  6
CONTINUOUS
 10
281.0233049665
 20
174.2869836556
 11
281.0233049665
 21
173.3207679672
  0
LINE
  5
284
100
AcDbEntity
  8
0
100
AcDbLine
 62
7
  6
CONTINUOUS
 10
281.0233049665
 20
170.2707679672
 11
281.0233049665
 21
170.0707679672
  0
LINE
  5
285
100
AcDbEntity
  8
0
100
AcDbLine
 62
7
  6
CONTINUOUS
 10
281.0233049665
 20
164.7707679672
 11
281.0233049665
 21
165.5207679672
  0
LINE
  5
286
100
AcDbEntity
  8
0
100
AcDbLine
 62
7
  6
CONTINUOUS
 10
281.0233049665
 20
168.5707679672
 11
281.0233049665
 21
168.7707679672
  0
LINE
  5
287
100
AcDbEntity
  8
0
100
AcDbLine
 62
7
  6
CONTINUOUS
 10
281.0856050795
 20
249.2707679672
 11
281.0856050795
 21
249.0707679672
  0
LINE
  5
288
100
AcDbEntity
  8
0
100
AcDbLine
 62
7
  6
CONTINUOUS
 10
281.0856050795
 20
246.0207679672
 11
281.0856050795
 21
245.6545522789
  0
LINE
  5
289
100
AcDbEntity
  8
0
100
AcDbLine
 62
7
  6
CONTINUOUS
 10
281.0856050795
 20
174.2869836556
 11
281.0856050795
 21
173.3207679672
  0
LINE
  5
28A
100
AcDbEntity
  8
0
100
AcDbLine
 62
7
  6
CONTINUOUS
 10
281.0856050795
 20
170.2707679672
 11
281.0856050795
 21
170.0707679672
  0
LINE
  5
28B
100
AcDbEntity
  8
0
100
AcDbLine
 62
7
  6
CONTINUOUS
 10
281.0856050795
 20
168.7707679672
 11
281.0856050795
 21
168.5707679672
  0
LINE
  5
28C
100
AcDbEntity
  8
0
100
AcDbLine
 62
7
  6
CONTINUOUS
 10
281.0856050795
 20
165.5207679672
 11
281.0856050795
 21
164.7707679672
  0
LINE
  5
28D
100
AcDbEntity
  8
0
100
AcDbLine
 62
7
  6
CONTINUOUS
 10
281.179610525
 20
250.4520735257
 11
281.179610525
 21
249.3894624087
  0
LINE
  5
28E
100
AcDbEntity
  8
0
100
AcDbLine
 62
7
  6
CONTINUOUS
 10
281.179610525
 20
168.8894624087
 11
281.179610525
 21
169.9520735257
  0
LINE
  5
28F
100
AcDbEntity
  8
0
100
AcDbLine
 62
7
  6
CONTINUOUS
 10
281.2733049665
 20
250.7707679672
 11
281.2733049665
 21
250.5707679672
  0
LINE
  5
290
100
AcDbEntity
  8
0
100
AcDbLine
 62
7
  6
CONTINUOUS
 10
281.2733049665
 20
249.2707679672
 11
281.2733049665
 21
249.0707679672
  0
LINE
  5
291
100
AcDbEntity
  8
0
100
AcDbLine
 62
7
  6
CONTINUOUS
 10
282.1183049665
 20
254.5707679672
 11
282.1183049665
 21
253.8207679672
  0
LINE
  5
292
100
AcDbEntity
  8
0
100
AcDbLine
 62
7
  6
CONTINUOUS
 10
282.1183049665
 20
250.7707679672
 11
282.1183049665
 21
250.5707679672
  0
LINE
  5
293
100
AcDbEntity
  8
0
100
AcDbLine
 62
7
  6
CONTINUOUS
 10
282.1183049665
 20
249.2707679672
 11
282.1183049665
 21
249.0707679672
  0
LINE
  5
294
100
AcDbEntity
  8
0
100
AcDbLine
 62
7
  6
CONTINUOUS
 10
282.1183049665
 20
246.0207679672
 11
282.1183049665
 21
245.5847320192
  0
LINE
  5
295
100
AcDbEntity
  8
0
100
AcDbLine
 62
7
  6
CONTINUOUS
 10
282.530165172
 20
250.5026281727
 11
282.530165172
 21
249.3389077617
  0
LINE
  5
296
100
AcDbEntity
  8
0
100
AcDbLine
 62
7
  6
CONTINUOUS
 10
282.530165172
 20
168.8389077617
 11
282.530165172
 21
170.0026281727
  0
LINE
  5
297
100
AcDbEntity
  8
0
100
AcDbLine
 62
7
  6
CONTINUOUS
 10
282.5983049665
 20
250.5707679672
 11
282.5983049665
 21
249.2707679672
  0
LINE
  5
298
100
AcDbEntity
  8
0
100
AcDbLine
 62
7
  6
CONTINUOUS
 10
282.5983049665
 20
168.7707679672
 11
282.5983049665
 21
170.0707679672
  0
LINE
  5
299
100
AcDbEntity
  8
0
100
AcDbLine
 62
7
  6
CONTINUOUS
 10
282.8233049665
 20
207.1102957259
 11
282.8233049665
 21
242.8707679672
  0
LINE
  5
29A
100
AcDbEntity
  8
0
100
AcDbLine
 62
7
  6
CONTINUOUS
 10
282.8390273003
 20
207.1076776655
 11
282.8390273003
 21
242.886490301
  0
LINE
  5
29B
100
AcDbEntity
  8
0
100
AcDbLine
 62
7
  6
CONTINUOUS
 10
282.9233049665
 20
174.2607679672
 11
282.9233049665
 21
173.8607679672
  0
LINE
  5
29C
100
AcDbEntity
  8
0
100
AcDbLine
 62
7
  6
CONTINUOUS
 10
282.9589105516
 20
249.0707679672
 11
282.9589105516
 21
246.0207679672
  0
LINE
  5
29D
100
AcDbEntity
  8
0
100
AcDbLine
 62
7
  6
CONTINUOUS
 10
282.9589105516
 20
168.5707679672
 11
282.9589105516
 21
165.5207679672
  0
LINE
  5
29E
100
AcDbEntity
  8
0
100
AcDbLine
 62
7
  6
CONTINUOUS
 10
282.9589105516
 20
170.2707679672
 11
282.9589105516
 21
173.3207679672
  0
LINE
  5
29F
100
AcDbEntity
  8
0
100
AcDbLine
 62
7
  6
CONTINUOUS
 10
282.9589105516
 20
250.7707679672
 11
282.9589105516
 21
253.8207679672
  0
LINE
  5
2A0
100
AcDbEntity
  8
0
100
AcDbLine
 62
7
  6
CONTINUOUS
 10
283.3983729854
 20
163.3207679672
 11
283.3983729854
 21
161.3207679672
  0
LINE
  5
2A1
100
AcDbEntity
  8
0
100
AcDbLine
 62
7
  6
CONTINUOUS
 10
283.6233049665
 20
168.5707679672
 11
283.6233049665
 21
168.6707679672
  0
LINE
  5
2A2
100
AcDbEntity
  8
0
100
AcDbLine
 62
7
  6
CONTINUOUS
 10
283.6233049665
 20
170.1707679672
 11
283.6233049665
 21
170.2707679672
  0
LINE
  5
2A3
100
AcDbEntity
  8
0
100
AcDbLine
 62
7
  6
CONTINUOUS
 10
283.6233049665
 20
249.0707679672
 11
283.6233049665
 21
249.1707679672
  0
LINE
  5
2A4
100
AcDbEntity
  8
0
100
AcDbLine
 62
7
  6
CONTINUOUS
 10
283.6233049665
 20
250.6707679672
 11
283.6233049665
 21
250.7707679672
  0
LINE
  5
2A5
100
AcDbEntity
  8
0
100
AcDbLine
 62
7
  6
CONTINUOUS
 10
283.6483729854
 20
163.3207679672
 11
283.6483729854
 21
164.3207679672
  0
LINE
  5
2A6
100
AcDbEntity
  8
0
100
AcDbLine
 62
7
  6
CONTINUOUS
 10
283.87336017
 20
249.1707679672
 11
283.87336017
 21
249.0707679672
  0
LINE
  5
2A7
100
AcDbEntity
  8
0
100
AcDbLine
 62
7
  6
CONTINUOUS
 10
283.87336017
 20
168.6707679672
 11
283.87336017
 21
168.5707679672
  0
LINE
  5
2A8
100
AcDbEntity
  8
0
100
AcDbLine
 62
7
  6
CONTINUOUS
 10
283.87336017
 20
170.1707679672
 11
283.87336017
 21
170.2707679672
  0
LINE
  5
2A9
100
AcDbEntity
  8
0
100
AcDbLine
 62
7
  6
CONTINUOUS
 10
283.87336017
 20
250.6707679672
 11
283.87336017
 21
250.7707679672
  0
LINE
  5
2AA
100
AcDbEntity
  8
0
100
AcDbLine
 62
7
  6
CONTINUOUS
 10
283.9233049665
 20
174.3515673958
 11
283.9233049665
 21
173.6607679672
  0
LINE
  5
2AB
100
AcDbEntity
  8
0
100
AcDbLine
 62
7
  6
CONTINUOUS
 10
283.9233049665
 20
170.1707679672
 11
283.9233049665
 21
170.1607679672
  0
LINE
  5
2AC
100
AcDbEntity
  8
0
100
AcDbLine
 62
7
  6
CONTINUOUS
 10
283.9233049665
 20
164.7114252662
 11
283.9233049665
 21
164.3207679672
  0
LINE
  5
2AD
100
AcDbEntity
  8
0
100
AcDbLine
 62
7
  6
CONTINUOUS
 10
284.1233049665
 20
250.7707679672
 11
284.1233049665
 21
250.6707679672
  0
LINE
  5
2AE
100
AcDbEntity
  8
0
100
AcDbLine
 62
7
  6
CONTINUOUS
 10
284.1233049665
 20
249.1707679672
 11
284.1233049665
 21
249.0707679672
  0
LINE
  5
2AF
100
AcDbEntity
  8
0
100
AcDbLine
 62
7
  6
CONTINUOUS
 10
284.1233049665
 20
170.2707679672
 11
284.1233049665
 21
170.1707679672
  0
LINE
  5
2B0
100
AcDbEntity
  8
0
100
AcDbLine
 62
7
  6
CONTINUOUS
 10
284.1233049665
 20
168.6707679672
 11
284.1233049665
 21
168.5707679672
  0
LINE
  5
2B1
100
AcDbEntity
  8
0
100
AcDbLine
 62
7
  6
CONTINUOUS
 10
284.1733049665
 20
163.3207679672
 11
284.1733049665
 21
164.3207679672
  0
LINE
  5
2B2
100
AcDbEntity
  8
0
100
AcDbLine
 62
7
  6
CONTINUOUS
 10
284.304610525
 20
164.7114252662
 11
284.304610525
 21
163.3207679672
  0
LINE
  5
2B3
100
AcDbEntity
  8
0
100
AcDbLine
 62
7
  6
CONTINUOUS
 10
284.304610525
 20
254.706034418
 11
284.304610525
 21
257.0894624087
  0
LINE
  5
2B4
100
AcDbEntity
  8
0
100
AcDbLine
 62
7
  6
CONTINUOUS
 10
284.4075826327
 20
207.1076776655
 11
284.4075826327
 21
242.886490301
  0
LINE
  5
2B5
100
AcDbEntity
  8
0
100
AcDbLine
 62
7
  6
CONTINUOUS
 10
284.4233049665
 20
164.7707679672
 11
284.4233049665
 21
160.8707679672
  0
LINE
  5
2B6
100
AcDbEntity
  8
0
100
AcDbLine
 62
7
  6
CONTINUOUS
 10
284.4233049665
 20
165.5207679672
 11
284.4233049665
 21
168.6707679672
  0
LINE
  5
2B7
100
AcDbEntity
  8
0
100
AcDbLine
 62
7
  6
CONTINUOUS
 10
284.4233049665
 20
170.1707679672
 11
284.4233049665
 21
173.3207679672
  0
LINE
  5
2B8
100
AcDbEntity
  8
0
100
AcDbLine
 62
7
  6
CONTINUOUS
 10
284.4233049665
 20
207.1102957259
 11
284.4233049665
 21
242.8707679672
  0
LINE
  5
2B9
100
AcDbEntity
  8
0
100
AcDbLine
 62
7
  6
CONTINUOUS
 10
284.4233049665
 20
246.0207679672
 11
284.4233049665
 21
249.1707679672
  0
LINE
  5
2BA
100
AcDbEntity
  8
0
100
AcDbLine
 62
7
  6
CONTINUOUS
 10
284.4233049665
 20
250.6707679672
 11
284.4233049665
 21
253.8207679672
  0
LINE
  5
2BB
100
AcDbEntity
  8
0
100
AcDbLine
 62
7
  6
CONTINUOUS
 10
284.4233049665
 20
254.646691717
 11
284.4233049665
 21
256.9707679672
  0
LINE
  5
2BC
100
AcDbEntity
  8
0
100
AcDbLine
 62
7
  6
CONTINUOUS
 10
280.9118595459
 20
164.6593225466
 11
280.9178724084
 21
172.5346948243
  0
LINE
  5
2BD
100
AcDbEntity
  8
0
100
AcDbLine
 62
7
  6
CONTINUOUS
 10
283.3983729854
 20
164.3207679672
 11
283.4009643723
 21
164.6593225466
  0
LINE
  5
2BE
100
AcDbEntity
  8
0
100
AcDbLine
 62
7
  6
CONTINUOUS
 10
296.1483049665
 20
259.6074331187
 11
296.9233049665
 21
262.142343898
  0
LINE
  5
2BF
100
AcDbEntity
  8
0
100
AcDbLine
 62
7
  6
CONTINUOUS
 10
308.9152311899
 20
242.9126941907
 11
308.8733049665
 21
242.8707679672
  0
LINE
  5
2C0
100
AcDbEntity
  8
0
100
AcDbLine
 62
7
  6
CONTINUOUS
 10
285.8101120755
 20
253.8207679672
 11
285.8101120755
 21
250.6707679672
  0
LINE
  5
2C1
100
AcDbEntity
  8
0
100
AcDbLine
 62
7
  6
CONTINUOUS
 10
285.8101120755
 20
249.1707679672
 11
285.8101120755
 21
246.0207679672
  0
LINE
  5
2C2
100
AcDbEntity
  8
0
100
AcDbLine
 62
7
  6
CONTINUOUS
 10
285.8101120755
 20
173.3207679672
 11
285.8101120755
 21
170.1707679672
  0
LINE
  5
2C3
100
AcDbEntity
  8
0
100
AcDbLine
 62
7
  6
CONTINUOUS
 10
285.8101120755
 20
168.6707679672
 11
285.8101120755
 21
165.5207679672
  0
LINE
  5
2C4
100
AcDbEntity
  8
0
100
AcDbLine
 62
7
  6
CONTINUOUS
 10
285.8233049665
 20
173.6607679672
 11
285.8233049665
 21
173.3207679672
  0
LINE
  5
2C5
100
AcDbEntity
  8
0
100
AcDbLine
 62
7
  6
CONTINUOUS
 10
285.8233049665
 20
170.1707679672
 11
285.8233049665
 21
168.6707679672
  0
LINE
  5
2C6
100
AcDbEntity
  8
0
100
AcDbLine
 62
7
  6
CONTINUOUS
 10
285.8233049665
 20
165.5207679672
 11
285.8233049665
 21
164.7707679672
  0
LINE
  5
2C7
100
AcDbEntity
  8
0
100
AcDbLine
 62
7
  6
CONTINUOUS
 10
286.3058512309
 20
242.9126941907
 11
286.3058512309
 21
244.8207679672
  0
LINE
  5
2C8
100
AcDbEntity
  8
0
100
AcDbLine
 62
7
  6
CONTINUOUS
 10
286.3128327252
 20
242.8707679672
 11
286.3128327252
 21
207.1102957259
  0
LINE
  5
2C9
100
AcDbEntity
  8
0
100
AcDbLine
 62
7
  6
CONTINUOUS
 10
286.3233049665
 20
244.8207679672
 11
286.3233049665
 21
242.8707679672
  0
LINE
  5
2CA
100
AcDbEntity
  8
0
100
AcDbLine
 62
7
  6
CONTINUOUS
 10
286.4233049665
 20
174.3515673958
 11
286.4233049665
 21
173.3207679672
  0
LINE
  5
2CB
100
AcDbEntity
  8
0
100
AcDbLine
 62
7
  6
CONTINUOUS
 10
286.4233049665
 20
170.1707679672
 11
286.4233049665
 21
168.6707679672
  0
LINE
  5
2CC
100
AcDbEntity
  8
0
100
AcDbLine
 62
7
  6
CONTINUOUS
 10
286.4233049665
 20
165.5207679672
 11
286.4233049665
 21
165.3107679672
  0
LINE
  5
2CD
100
AcDbEntity
  8
0
100
AcDbLine
 62
7
  6
CONTINUOUS
 10
286.4233049665
 20
207.1207679672
 11
286.4233049665
 21
242.8707679672
  0
LINE
  5
2CE
100
AcDbEntity
  8
0
100
AcDbLine
 62
7
  6
CONTINUOUS
 10
286.9233049665
 20
256.9707679672
 11
286.9233049665
 21
254.646691717
  0
LINE
  5
2CF
100
AcDbEntity
  8
0
100
AcDbLine
 62
7
  6
CONTINUOUS
 10
286.9233049665
 20
239.2889350418
 11
286.9233049665
 21
212.2426008926
  0
LINE
  5
2D0
100
AcDbEntity
  8
0
100
AcDbLine
 62
7
  6
CONTINUOUS
 10
286.9233049665
 20
164.7707679672
 11
286.9233049665
 21
160.8707679672
  0
LINE
  5
2D1
100
AcDbEntity
  8
0
100
AcDbLine
 62
7
  6
CONTINUOUS
 10
287.041999408
 20
257.0894624087
 11
287.041999408
 21
254.706034418
  0
LINE
  5
2D2
100
AcDbEntity
  8
0
100
AcDbLine
 62
7
  6
CONTINUOUS
 10
287.041999408
 20
164.7114252662
 11
287.041999408
 21
163.3207679672
  0
LINE
  5
2D3
100
AcDbEntity
  8
0
100
AcDbLine
 62
7
  6
CONTINUOUS
 10
287.7533049665
 20
238.8280545385
 11
287.7533049665
 21
212.7034813958
  0
LINE
  5
2D4
100
AcDbEntity
  8
0
100
AcDbLine
 62
7
  6
CONTINUOUS
 10
288.0233049665
 20
164.7707679672
 11
288.0233049665
 21
164.7490702968
  0
LINE
  5
2D5
100
AcDbEntity
  8
0
100
AcDbLine
 62
7
  6
CONTINUOUS
 10
287.041999408
 20
163.3207679672
 11
287.0163711841
 21
160.7777017496
  0
LINE
  5
2D6
100
AcDbEntity
  8
0
100
AcDbLine
 62
7
  6
CONTINUOUS
 10
283.667143368
 20
161.3207679672
 11
283.7308299068
 21
163.3207679672
  0
LINE
  5
2D7
100
AcDbEntity
  8
0
100
AcDbLine
 62
7
  6
CONTINUOUS
 10
302.8137177847
 20
242.1707679672
 11
303.1522412738
 21
242.7571078499
  0
LINE
  5
2D8
100
AcDbEntity
  8
0
100
AcDbLine
 62
7
  6
CONTINUOUS
 10
289.6033049665
 20
212.8907679672
 11
289.6033049665
 21
238.6407679672
  0
LINE
  5
2D9
100
AcDbEntity
  8
0
100
AcDbLine
 62
7
  6
CONTINUOUS
 10
289.9233049665
 20
254.6946894899
 11
289.9233049665
 21
253.8207679672
  0
LINE
  5
2DA
100
AcDbEntity
  8
0
100
AcDbLine
 62
7
  6
CONTINUOUS
 10
289.9233049665
 20
250.6707679672
 11
289.9233049665
 21
249.1707679672
  0
LINE
  5
2DB
100
AcDbEntity
  8
0
100
AcDbLine
 62
7
  6
CONTINUOUS
 10
289.9233049665
 20
246.0207679672
 11
289.9233049665
 21
245.5585494218
  0
LINE
  5
2DC
100
AcDbEntity
  8
0
100
AcDbLine
 62
7
  6
CONTINUOUS
 10
289.9233049665
 20
164.7227701944
 11
289.9233049665
 21
165.5207679672
  0
LINE
  5
2DD
100
AcDbEntity
  8
0
100
AcDbLine
 62
7
  6
CONTINUOUS
 10
289.9233049665
 20
168.6707679672
 11
289.9233049665
 21
170.1707679672
  0
LINE
  5
2DE
100
AcDbEntity
  8
0
100
AcDbLine
 62
7
  6
CONTINUOUS
 10
289.9233049665
 20
173.3207679672
 11
289.9233049665
 21
174.3829865127
  0
LINE
  5
2DF
100
AcDbEntity
  8
0
100
AcDbLine
 62
7
  6
CONTINUOUS
 10
290.7713878954
 20
253.8207679672
 11
290.7713878954
 21
250.6707679672
  0
LINE
  5
2E0
100
AcDbEntity
  8
0
100
AcDbLine
 62
7
  6
CONTINUOUS
 10
290.7713878954
 20
249.1707679672
 11
290.7713878954
 21
246.0207679672
  0
LINE
  5
2E1
100
AcDbEntity
  8
0
100
AcDbLine
 62
7
  6
CONTINUOUS
 10
290.7713878954
 20
173.3207679672
 11
290.7713878954
 21
170.1707679672
  0
LINE
  5
2E2
100
AcDbEntity
  8
0
100
AcDbLine
 62
7
  6
CONTINUOUS
 10
290.7713878954
 20
168.6707679672
 11
290.7713878954
 21
165.5207679672
  0
LINE
  5
2E3
100
AcDbEntity
  8
0
100
AcDbLine
 62
7
  6
CONTINUOUS
 10
291.2033049665
 20
238.6407679672
 11
291.2033049665
 21
212.8907679672
  0
LINE
  5
2E4
100
AcDbEntity
  8
0
100
AcDbLine
 62
7
  6
CONTINUOUS
 10
308.8293358988
 20
250.7226270321
 11
308.7610048535
 21
250.5707679672
  0
LINE
  5
2E5
100
AcDbEntity
  8
0
100
AcDbLine
 62
7
  6
CONTINUOUS
 10
308.9992287163
 20
249.2707679672
 11
309.0585714173
 21
249.3894624087
  0
LINE
  5
2E6
100
AcDbEntity
  8
0
100
AcDbLine
 62
7
  6
CONTINUOUS
 10
308.9152311899
 20
207.1033142316
 11
280.7813787431
 21
207.1033142316
  0
LINE
  5
2E7
100
AcDbEntity
  8
0
100
AcDbLine
 62
7
  6
CONTINUOUS
 10
284.4075826327
 20
207.1076776655
 11
282.8390273003
 21
207.1076776655
  0
LINE
  5
2E8
100
AcDbEntity
  8
0
100
AcDbLine
 62
7
  6
CONTINUOUS
 10
286.3128327252
 20
207.1102957259
 11
284.4233049665
 21
207.1102957259
  0
LINE
  5
2E9
100
AcDbEntity
  8
0
100
AcDbLine
 62
7
  6
CONTINUOUS
 10
282.8233049665
 20
207.1102957259
 11
280.8233049665
 21
207.1102957259
  0
LINE
  5
2EA
100
AcDbEntity
  8
0
100
AcDbLine
 62
7
  6
CONTINUOUS
 10
286.3233049665
 20
207.1207679672
 11
303.3733049665
 21
207.1207679672
  0
LINE
  5
2EB
100
AcDbEntity
  8
0
100
AcDbLine
 62
7
  6
CONTINUOUS
 10
282.8390273003
 20
207.1076776655
 11
282.8233049665
 21
207.1102957259
  0
LINE
  5
2EC
100
AcDbEntity
  8
0
100
AcDbLine
 62
7
  6
CONTINUOUS
 10
308.8826476675
 20
169.9520735257
 11
308.8233049665
 21
170.0707679672
  0
LINE
  5
2ED
100
AcDbEntity
  8
0
100
AcDbLine
 62
7
  6
CONTINUOUS
 10
286.3128327252
 20
242.8707679672
 11
286.3058512309
 21
242.9126941907
  0
LINE
  5
2EE
100
AcDbEntity
  8
0
100
AcDbLine
 62
7
  6
CONTINUOUS
 10
292.9233049665
 20
262.142343898
 11
292.9233049665
 21
262.5207679672
  0
LINE
  5
2EF
100
AcDbEntity
  8
0
100
AcDbLine
 62
7
  6
CONTINUOUS
 10
293.0533049665
 20
211.7924541416
 11
293.0533049665
 21
239.7390817929
  0
LINE
  5
2F0
100
AcDbEntity
  8
0
100
AcDbLine
 62
7
  6
CONTINUOUS
 10
293.3933049665
 20
258.6907679672
 11
293.3933049665
 21
258.5457679672
  0
LINE
  5
2F1
100
AcDbEntity
  8
0
100
AcDbLine
 62
7
  6
CONTINUOUS
 10
293.4233049665
 20
168.6707679672
 11
293.4233049665
 21
170.1707679672
  0
LINE
  5
2F2
100
AcDbEntity
  8
0
100
AcDbLine
 62
7
  6
CONTINUOUS
 10
293.4233049665
 20
249.1707679672
 11
293.4233049665
 21
250.6707679672
  0
LINE
  5
2F3
100
AcDbEntity
  8
0
100
AcDbLine
 62
7
  6
CONTINUOUS
 10
293.9233049665
 20
208.1007679672
 11
293.9233049665
 21
242.8707679672
  0
LINE
  5
2F4
100
AcDbEntity
  8
0
100
AcDbLine
 62
7
  6
CONTINUOUS
 10
293.9233049665
 20
254.706034418
 11
293.9233049665
 21
255.5927956014
  0
LINE
  5
2F5
100
AcDbEntity
  8
0
100
AcDbLine
 62
7
  6
CONTINUOUS
 10
308.7610048535
 20
245.6545522789
 11
308.729588281
 21
245.5847320192
  0
LINE
  5
2F6
100
AcDbEntity
  8
0
100
AcDbLine
 62
7
  6
CONTINUOUS
 10
284.4233049665
 20
207.1102957259
 11
284.4075826327
 21
207.1076776655
  0
LINE
  5
2F7
100
AcDbEntity
  8
0
100
AcDbLine
 62
7
  6
CONTINUOUS
 10
286.4233049665
 20
207.9107679672
 11
286.3233049665
 21
207.9107679672
  0
LINE
  5
2F8
100
AcDbEntity
  8
0
100
AcDbLine
 62
7
  6
CONTINUOUS
 10
293.9233049665
 20
208.1007679672
 11
286.4233049665
 21
208.1007679672
  0
LINE
  5
2F9
100
AcDbEntity
  8
0
100
AcDbLine
 62
7
  6
CONTINUOUS
 10
286.4233049665
 20
208.7107679672
 11
286.3233049665
 21
208.7107679672
  0
LINE
  5
2FA
100
AcDbEntity
  8
0
100
AcDbLine
 62
7
  6
CONTINUOUS
 10
293.9233049665
 20
210.7607679672
 11
296.9233049665
 21
210.7607679672
  0
LINE
  5
2FB
100
AcDbEntity
  8
0
100
AcDbLine
 62
7
  6
CONTINUOUS
 10
296.9233049665
 20
211.0707679672
 11
293.9233049665
 21
211.0707679672
  0
LINE
  5
2FC
100
AcDbEntity
  8
0
100
AcDbLine
 62
7
  6
CONTINUOUS
 10
291.6574306854
 20
209.592907151
 11
288.2574306855
 21
210.5039344052
  0
LINE
  5
2FD
100
AcDbEntity
  8
0
100
AcDbLine
 62
7
  6
CONTINUOUS
 10
288.4574268737
 20
211.7858518609
 11
291.8574268738
 21
210.8748246065
  0
LINE
  5
2FE
100
AcDbEntity
  8
0
100
AcDbLine
 62
7
  6
CONTINUOUS
 10
308.7610048535
 20
174.2869836556
 11
308.731944524
 21
174.3515673958
  0
LINE
  5
2FF
100
AcDbEntity
  8
0
100
AcDbLine
 62
7
  6
CONTINUOUS
 10
295.9233049665
 20
255.5927956014
 11
295.9233049665
 21
254.706034418
  0
LINE
  5
300
100
AcDbEntity
  8
0
100
AcDbLine
 62
7
  6
CONTINUOUS
 10
296.4233049665
 20
250.6707679672
 11
296.4233049665
 21
249.1707679672
  0
LINE
  5
301
100
AcDbEntity
  8
0
100
AcDbLine
 62
7
  6
CONTINUOUS
 10
296.4233049665
 20
170.1707679672
 11
296.4233049665
 21
168.6707679672
  0
LINE
  5
302
100
AcDbEntity
  8
0
100
AcDbLine
 62
7
  6
CONTINUOUS
 10
296.4533049665
 20
258.5457679672
 11
296.4533049665
 21
258.6907679672
  0
LINE
  5
303
100
AcDbEntity
  8
0
100
AcDbLine
 62
7
  6
CONTINUOUS
 10
296.9233049665
 20
240.4707679672
 11
296.9233049665
 21
211.0707679672
  0
LINE
  5
304
100
AcDbEntity
  8
0
100
AcDbLine
 62
7
  6
CONTINUOUS
 10
296.9233049665
 20
210.7607679672
 11
296.9233049665
 21
207.1207679672
  0
LINE
  5
305
100
AcDbEntity
  8
0
100
AcDbLine
 62
7
  6
CONTINUOUS
 10
296.9233049665
 20
262.142343898
 11
296.9233049665
 21
262.5207679672
  0
LINE
  5
306
100
AcDbEntity
  8
0
100
AcDbLine
 62
7
  6
CONTINUOUS
 10
297.8233049665
 20
207.1207679672
 11
297.8233049665
 21
241.3207679672
  0
LINE
  5
307
100
AcDbEntity
  8
0
100
AcDbLine
 62
7
  6
CONTINUOUS
 10
303.3907587021
 20
242.9126941907
 11
303.3837772079
 21
242.8707679672
  0
LINE
  5
308
100
AcDbEntity
  8
0
100
AcDbLine
 62
7
  6
CONTINUOUS
 10
281.0856050795
 20
174.2869836556
 11
281.1146654091
 21
174.3515673958
  0
LINE
  5
309
100
AcDbEntity
  8
0
100
AcDbLine
 62
7
  6
CONTINUOUS
 10
291.2033049665
 20
212.8907679672
 11
289.6033049665
 21
212.8907679672
  0
LINE
  5
30A
100
AcDbEntity
  8
0
100
AcDbLine
 62
7
  6
CONTINUOUS
 10
286.4233049665
 20
213.1207679672
 11
286.3233049665
 21
213.1207679672
  0
LINE
  5
30B
100
AcDbEntity
  8
0
100
AcDbLine
 62
7
  6
CONTINUOUS
 10
286.4233049665
 20
213.4507679672
 11
286.3233049665
 21
213.4507679672
  0
LINE
  5
30C
100
AcDbEntity
  8
0
100
AcDbLine
 62
7
  6
CONTINUOUS
 10
286.4233049665
 20
213.9507679672
 11
286.3233049665
 21
213.9507679672
  0
LINE
  5
30D
100
AcDbEntity
  8
0
100
AcDbLine
 62
7
  6
CONTINUOUS
 10
286.4233049665
 20
214.7207679672
 11
286.3233049665
 21
214.7207679672
  0
LINE
  5
30E
100
AcDbEntity
  8
0
100
AcDbLine
 62
7
  6
CONTINUOUS
 10
281.0856050795
 20
245.6545522789
 11
281.117021652
 21
245.5847320192
  0
LINE
  5
30F
100
AcDbEntity
  8
0
100
AcDbLine
 62
7
  6
CONTINUOUS
 10
281.0172740343
 20
250.7226270321
 11
281.0856050795
 21
250.5707679672
  0
LINE
  5
310
100
AcDbEntity
  8
0
100
AcDbLine
 62
7
  6
CONTINUOUS
 10
302.4802387489
 20
160.7777017496
 11
302.454610525
 21
163.3207679672
  0
LINE
  5
311
100
AcDbEntity
  8
0
100
AcDbLine
 62
7
  6
CONTINUOUS
 10
299.0752220376
 20
253.8207679672
 11
299.0752220376
 21
250.6707679672
  0
LINE
  5
312
100
AcDbEntity
  8
0
100
AcDbLine
 62
7
  6
CONTINUOUS
 10
299.0752220376
 20
249.1707679672
 11
299.0752220376
 21
246.0207679672
  0
LINE
  5
313
100
AcDbEntity
  8
0
100
AcDbLine
 62
7
  6
CONTINUOUS
 10
299.0752220376
 20
173.3207679672
 11
299.0752220376
 21
170.1707679672
  0
LINE
  5
314
100
AcDbEntity
  8
0
100
AcDbLine
 62
7
  6
CONTINUOUS
 10
299.0752220376
 20
168.6707679672
 11
299.0752220376
 21
165.5207679672
  0
LINE
  5
315
100
AcDbEntity
  8
0
100
AcDbLine
 62
7
  6
CONTINUOUS
 10
299.9233049665
 20
254.6946894899
 11
299.9233049665
 21
253.8207679672
  0
LINE
  5
316
100
AcDbEntity
  8
0
100
AcDbLine
 62
7
  6
CONTINUOUS
 10
299.9233049665
 20
250.6707679672
 11
299.9233049665
 21
249.1707679672
  0
LINE
  5
317
100
AcDbEntity
  8
0
100
AcDbLine
 62
7
  6
CONTINUOUS
 10
299.9233049665
 20
246.0207679672
 11
299.9233049665
 21
245.5585494218
  0
LINE
  5
318
100
AcDbEntity
  8
0
100
AcDbLine
 62
7
  6
CONTINUOUS
 10
299.9233049665
 20
164.7227701944
 11
299.9233049665
 21
165.5207679672
  0
LINE
  5
319
100
AcDbEntity
  8
0
100
AcDbLine
 62
7
  6
CONTINUOUS
 10
299.9233049665
 20
168.6707679672
 11
299.9233049665
 21
170.1707679672
  0
LINE
  5
31A
100
AcDbEntity
  8
0
100
AcDbLine
 62
7
  6
CONTINUOUS
 10
299.9233049665
 20
173.3207679672
 11
299.9233049665
 21
174.3829865127
  0
LINE
  5
31B
100
AcDbEntity
  8
0
100
AcDbLine
 62
7
  6
CONTINUOUS
 10
300.6233049665
 20
242.7032471622
 11
300.6233049665
 21
242.8707679672
  0
LINE
  5
31C
100
AcDbEntity
  8
0
100
AcDbLine
 62
7
  6
CONTINUOUS
 10
301.4733049665
 20
164.7490702968
 11
301.4733049665
 21
164.7707679672
  0
LINE
  5
31D
100
AcDbEntity
  8
0
100
AcDbLine
 62
7
  6
CONTINUOUS
 10
301.6233049665
 20
242.8707679672
 11
301.6233049665
 21
242.734734943
  0
LINE
  5
31E
100
AcDbEntity
  8
0
100
AcDbLine
 62
7
  6
CONTINUOUS
 10
302.454610525
 20
164.7114252662
 11
302.454610525
 21
163.3207679672
  0
LINE
  5
31F
100
AcDbEntity
  8
0
100
AcDbLine
 62
7
  6
CONTINUOUS
 10
302.454610525
 20
254.706034418
 11
302.454610525
 21
257.0894624087
  0
LINE
  5
320
100
AcDbEntity
  8
0
100
AcDbLine
 62
7
  6
CONTINUOUS
 10
302.5733049665
 20
160.8707679672
 11
302.5733049665
 21
164.7707679672
  0
LINE
  5
321
100
AcDbEntity
  8
0
100
AcDbLine
 62
7
  6
CONTINUOUS
 10
302.5733049665
 20
254.646691717
 11
302.5733049665
 21
256.9707679672
  0
LINE
  5
322
100
AcDbEntity
  8
0
100
AcDbLine
 62
7
  6
CONTINUOUS
 10
281.0233049665
 20
170.0707679672
 11
280.9639622655
 21
169.9520735257
  0
LINE
  5
323
100
AcDbEntity
  8
0
100
AcDbLine
 62
7
  6
CONTINUOUS
 10
286.4233049665
 20
215.2207679672
 11
286.3233049665
 21
215.2207679672
  0
LINE
  5
324
100
AcDbEntity
  8
0
100
AcDbLine
 62
7
  6
CONTINUOUS
 10
286.4233049665
 20
216.6207679672
 11
286.3233049665
 21
216.6207679672
  0
LINE
  5
325
100
AcDbEntity
  8
0
100
AcDbLine
 62
7
  6
CONTINUOUS
 10
286.4233049665
 20
217.4207679672
 11
286.3233049665
 21
217.4207679672
  0
LINE
  5
326
100
AcDbEntity
  8
0
100
AcDbLine
 62
7
  6
CONTINUOUS
 10
280.7880385158
 20
249.3894624087
 11
280.8473812167
 21
249.2707679672
  0
LINE
  5
327
100
AcDbEntity
  8
0
100
AcDbLine
 62
7
  6
CONTINUOUS
 10
306.1157800263
 20
163.3207679672
 11
306.179466565
 21
161.3207679672
  0
LINE
  5
328
100
AcDbEntity
  8
0
100
AcDbLine
 62
7
  6
CONTINUOUS
 10
306.4456455608
 20
164.6593225466
 11
306.4482369477
 21
164.3207679672
  0
LINE
  5
329
100
AcDbEntity
  8
0
100
AcDbLine
 62
7
  6
CONTINUOUS
 10
302.8137177847
 20
241.5469485706
 11
302.8137177847
 21
242.1707679672
  0
LINE
  5
32A
100
AcDbEntity
  8
0
100
AcDbLine
 62
7
  6
CONTINUOUS
 10
303.1522412738
 20
242.7571078499
 11
303.1522412738
 21
241.54183166
  0
LINE
  5
32B
100
AcDbEntity
  8
0
100
AcDbLine
 62
7
  6
CONTINUOUS
 10
303.1733049665
 20
241.5207679672
 11
303.1733049665
 21
242.793591236
  0
LINE
  5
32C
100
AcDbEntity
  8
0
100
AcDbLine
 62
7
  6
CONTINUOUS
 10
303.3733049665
 20
244.8207679672
 11
303.3733049665
 21
242.8707679672
  0
LINE
  5
32D
100
AcDbEntity
  8
0
100
AcDbLine
 62
7
  6
CONTINUOUS
 10
303.3837772079
 20
207.1102957259
 11
303.3837772079
 21
242.8707679672
  0
LINE
  5
32E
100
AcDbEntity
  8
0
100
AcDbLine
 62
7
  6
CONTINUOUS
 10
303.3907587021
 20
244.8207679672
 11
303.3907587021
 21
242.9126941907
  0
LINE
  5
32F
100
AcDbEntity
  8
0
100
AcDbLine
 62
7
  6
CONTINUOUS
 10
304.0364978575
 20
253.8207679672
 11
304.0364978575
 21
250.6707679672
  0
LINE
  5
330
100
AcDbEntity
  8
0
100
AcDbLine
 62
7
  6
CONTINUOUS
 10
304.0364978575
 20
249.1707679672
 11
304.0364978575
 21
246.0207679672
  0
LINE
  5
331
100
AcDbEntity
  8
0
100
AcDbLine
 62
7
  6
CONTINUOUS
 10
304.0364978575
 20
173.3207679672
 11
304.0364978575
 21
170.1707679672
  0
LINE
  5
332
100
AcDbEntity
  8
0
100
AcDbLine
 62
7
  6
CONTINUOUS
 10
304.0364978575
 20
168.6707679672
 11
304.0364978575
 21
165.5207679672
  0
LINE
  5
333
100
AcDbEntity
  8
0
100
AcDbLine
 62
7
  6
CONTINUOUS
 10
305.2733049665
 20
207.1102957259
 11
305.2733049665
 21
242.8707679672
  0
LINE
  5
334
100
AcDbEntity
  8
0
100
AcDbLine
 62
7
  6
CONTINUOUS
 10
305.2890273003
 20
207.1076776655
 11
305.2890273003
 21
242.886490301
  0
LINE
  5
335
100
AcDbEntity
  8
0
100
AcDbLine
 62
7
  6
CONTINUOUS
 10
305.4233049665
 20
253.8207679672
 11
305.4233049665
 21
250.6707679672
  0
LINE
  5
336
100
AcDbEntity
  8
0
100
AcDbLine
 62
7
  6
CONTINUOUS
 10
305.4233049665
 20
249.1707679672
 11
305.4233049665
 21
246.0207679672
  0
LINE
  5
337
100
AcDbEntity
  8
0
100
AcDbLine
 62
7
  6
CONTINUOUS
 10
305.4233049665
 20
173.3207679672
 11
305.4233049665
 21
170.1707679672
  0
LINE
  5
338
100
AcDbEntity
  8
0
100
AcDbLine
 62
7
  6
CONTINUOUS
 10
305.4233049665
 20
168.6707679672
 11
305.4233049665
 21
165.5207679672
  0
LINE
  5
339
100
AcDbEntity
  8
0
100
AcDbLine
 62
7
  6
CONTINUOUS
 10
305.4733049665
 20
164.7707679672
 11
305.4733049665
 21
160.8707679672
  0
LINE
  5
33A
100
AcDbEntity
  8
0
100
AcDbLine
 62
7
  6
CONTINUOUS
 10
305.5733049665
 20
256.9707679672
 11
305.5733049665
 21
254.646691717
  0
LINE
  5
33B
100
AcDbEntity
  8
0
100
AcDbLine
 62
7
  6
CONTINUOUS
 10
305.591999408
 20
163.3207679672
 11
305.591999408
 21
164.7114252662
  0
LINE
  5
33C
100
AcDbEntity
  8
0
100
AcDbLine
 62
7
  6
CONTINUOUS
 10
305.6733049665
 20
164.3207679672
 11
305.6733049665
 21
163.3207679672
  0
LINE
  5
33D
100
AcDbEntity
  8
0
100
AcDbLine
 62
7
  6
CONTINUOUS
 10
305.691999408
 20
257.0894624087
 11
305.691999408
 21
254.706034418
  0
LINE
  5
33E
100
AcDbEntity
  8
0
100
AcDbLine
 62
7
  6
CONTINUOUS
 10
305.7233049665
 20
168.5707679672
 11
305.7233049665
 21
168.6707679672
  0
LINE
  5
33F
100
AcDbEntity
  8
0
100
AcDbLine
 62
7
  6
CONTINUOUS
 10
305.7233049665
 20
170.1707679672
 11
305.7233049665
 21
170.2707679672
  0
LINE
  5
340
100
AcDbEntity
  8
0
100
AcDbLine
 62
7
  6
CONTINUOUS
 10
305.7233049665
 20
249.0707679672
 11
305.7233049665
 21
249.1707679672
  0
LINE
  5
341
100
AcDbEntity
  8
0
100
AcDbLine
 62
7
  6
CONTINUOUS
 10
305.7233049665
 20
250.6707679672
 11
305.7233049665
 21
250.7707679672
  0
LINE
  5
342
100
AcDbEntity
  8
0
100
AcDbLine
 62
7
  6
CONTINUOUS
 10
305.9233049665
 20
164.7114252662
 11
305.9233049665
 21
164.3207679672
  0
LINE
  5
343
100
AcDbEntity
  8
0
100
AcDbLine
 62
7
  6
CONTINUOUS
 10
305.9732497631
 20
250.7707679672
 11
305.9732497631
 21
250.6707679672
  0
LINE
  5
344
100
AcDbEntity
  8
0
100
AcDbLine
 62
7
  6
CONTINUOUS
 10
305.9732497631
 20
170.2707679672
 11
305.9732497631
 21
170.1707679672
  0
LINE
  5
345
100
AcDbEntity
  8
0
100
AcDbLine
 62
7
  6
CONTINUOUS
 10
305.9732497631
 20
168.5707679672
 11
305.9732497631
 21
168.6707679672
  0
LINE
  5
346
100
AcDbEntity
  8
0
100
AcDbLine
 62
7
  6
CONTINUOUS
 10
305.9732497631
 20
249.0707679672
 11
305.9732497631
 21
249.1707679672
  0
LINE
  5
347
100
AcDbEntity
  8
0
100
AcDbLine
 62
7
  6
CONTINUOUS
 10
306.1982369477
 20
164.3207679672
 11
306.1982369477
 21
163.3207679672
  0
LINE
  5
348
100
AcDbEntity
  8
0
100
AcDbLine
 62
7
  6
CONTINUOUS
 10
306.2233049665
 20
250.7707679672
 11
306.2233049665
 21
250.6707679672
  0
LINE
  5
349
100
AcDbEntity
  8
0
100
AcDbLine
 62
7
  6
CONTINUOUS
 10
306.2233049665
 20
249.1707679672
 11
306.2233049665
 21
249.0707679672
  0
LINE
  5
34A
100
AcDbEntity
  8
0
100
AcDbLine
 62
7
  6
CONTINUOUS
 10
306.2233049665
 20
170.2707679672
 11
306.2233049665
 21
170.1707679672
  0
LINE
  5
34B
100
AcDbEntity
  8
0
100
AcDbLine
 62
7
  6
CONTINUOUS
 10
306.2233049665
 20
168.6707679672
 11
306.2233049665
 21
168.5707679672
  0
LINE
  5
34C
100
AcDbEntity
  8
0
100
AcDbLine
 62
7
  6
CONTINUOUS
 10
303.1522412738
 20
242.7571078499
 11
303.1525520779
 21
242.7927224758
  0
LINE
  5
34D
100
AcDbEntity
  8
0
100
AcDbLine
 62
7
  6
CONTINUOUS
 10
305.591999408
 20
163.3207679672
 11
305.5663711841
 21
160.7777017496
  0
LINE
  5
34E
100
AcDbEntity
  8
0
100
AcDbLine
 62
7
  6
CONTINUOUS
 10
286.4233049665
 20
220.1207679672
 11
286.3233049665
 21
220.1207679672
  0
LINE
  5
34F
100
AcDbEntity
  8
0
100
AcDbLine
 62
7
  6
CONTINUOUS
 10
286.4233049665
 20
220.9207679672
 11
286.3233049665
 21
220.9207679672
  0
LINE
  5
350
100
AcDbEntity
  8
0
100
AcDbLine
 62
7
  6
CONTINUOUS
 10
308.9287375247
 20
172.5346948243
 11
308.9347503871
 21
164.6593225466
  0
LINE
  5
351
100
AcDbEntity
  8
0
100
AcDbLine
 62
7
  6
CONTINUOUS
 10
306.4482369477
 20
161.3207679672
 11
306.4482369477
 21
163.3207679672
  0
LINE
  5
352
100
AcDbEntity
  8
0
100
AcDbLine
 62
7
  6
CONTINUOUS
 10
306.8575826327
 20
207.1076776655
 11
306.8575826327
 21
242.886490301
  0
LINE
  5
353
100
AcDbEntity
  8
0
100
AcDbLine
 62
7
  6
CONTINUOUS
 10
306.8733049665
 20
207.1102957259
 11
306.8733049665
 21
242.8707679672
  0
LINE
  5
354
100
AcDbEntity
  8
0
100
AcDbLine
 62
7
  6
CONTINUOUS
 10
306.8876993814
 20
253.8207679672
 11
306.8876993814
 21
250.7707679672
  0
LINE
  5
355
100
AcDbEntity
  8
0
100
AcDbLine
 62
7
  6
CONTINUOUS
 10
306.8876993814
 20
249.0707679672
 11
306.8876993814
 21
246.0207679672
  0
LINE
  5
356
100
AcDbEntity
  8
0
100
AcDbLine
 62
7
  6
CONTINUOUS
 10
306.8876993814
 20
173.3207679672
 11
306.8876993814
 21
170.2707679672
  0
LINE
  5
357
100
AcDbEntity
  8
0
100
AcDbLine
 62
7
  6
CONTINUOUS
 10
306.8876993814
 20
168.5707679672
 11
306.8876993814
 21
165.5207679672
  0
LINE
  5
358
100
AcDbEntity
  8
0
100
AcDbLine
 62
7
  6
CONTINUOUS
 10
307.2483049665
 20
250.5707679672
 11
307.2483049665
 21
249.2707679672
  0
LINE
  5
359
100
AcDbEntity
  8
0
100
AcDbLine
 62
7
  6
CONTINUOUS
 10
307.2483049665
 20
168.7707679672
 11
307.2483049665
 21
170.0707679672
  0
LINE
  5
35A
100
AcDbEntity
  8
0
100
AcDbLine
 62
7
  6
CONTINUOUS
 10
307.316444761
 20
250.5026281727
 11
307.316444761
 21
249.3389077617
  0
LINE
  5
35B
100
AcDbEntity
  8
0
100
AcDbLine
 62
7
  6
CONTINUOUS
 10
307.316444761
 20
170.0026281727
 11
307.316444761
 21
168.8389077617
  0
LINE
  5
35C
100
AcDbEntity
  8
0
100
AcDbLine
 62
7
  6
CONTINUOUS
 10
307.6183049665
 20
245.5847320192
 11
307.6183049665
 21
246.0207679672
  0
LINE
  5
35D
100
AcDbEntity
  8
0
100
AcDbLine
 62
7
  6
CONTINUOUS
 10
307.6183049665
 20
249.0707679672
 11
307.6183049665
 21
249.2707679672
  0
LINE
  5
35E
100
AcDbEntity
  8
0
100
AcDbLine
 62
7
  6
CONTINUOUS
 10
307.6183049665
 20
250.5707679672
 11
307.6183049665
 21
250.7707679672
  0
LINE
  5
35F
100
AcDbEntity
  8
0
100
AcDbLine
 62
7
  6
CONTINUOUS
 10
307.6183049665
 20
253.8207679672
 11
307.6183049665
 21
254.5707679672
  0
LINE
  5
360
100
AcDbEntity
  8
0
100
AcDbLine
 62
7
  6
CONTINUOUS
 10
308.5733049665
 20
250.7707679672
 11
308.5733049665
 21
250.5707679672
  0
LINE
  5
361
100
AcDbEntity
  8
0
100
AcDbLine
 62
7
  6
CONTINUOUS
 10
308.5733049665
 20
249.2707679672
 11
308.5733049665
 21
249.0707679672
  0
LINE
  5
362
100
AcDbEntity
  8
0
100
AcDbLine
 62
7
  6
CONTINUOUS
 10
308.666999408
 20
250.4520735257
 11
308.666999408
 21
249.3894624087
  0
LINE
  5
363
100
AcDbEntity
  8
0
100
AcDbLine
 62
7
  6
CONTINUOUS
 10
308.666999408
 20
169.9520735257
 11
308.666999408
 21
168.8894624087
  0
LINE
  5
364
100
AcDbEntity
  8
0
100
AcDbLine
 62
7
  6
CONTINUOUS
 10
308.7610048535
 20
164.7707679672
 11
308.7610048535
 21
165.5207679672
  0
LINE
  5
365
100
AcDbEntity
  8
0
100
AcDbLine
 62
7
  6
CONTINUOUS
 10
308.7610048535
 20
168.5707679672
 11
308.7610048535
 21
168.7707679672
  0
LINE
  5
366
100
AcDbEntity
  8
0
100
AcDbLine
 62
7
  6
CONTINUOUS
 10
308.7610048535
 20
170.0707679672
 11
308.7610048535
 21
170.2707679672
  0
LINE
  5
367
100
AcDbEntity
  8
0
100
AcDbLine
 62
7
  6
CONTINUOUS
 10
308.7610048535
 20
173.3207679672
 11
308.7610048535
 21
174.2869836556
  0
LINE
  5
368
100
AcDbEntity
  8
0
100
AcDbLine
 62
7
  6
CONTINUOUS
 10
308.7610048535
 20
245.6545522789
 11
308.7610048535
 21
246.0207679672
  0
LINE
  5
369
100
AcDbEntity
  8
0
100
AcDbLine
 62
7
  6
CONTINUOUS
 10
308.7610048535
 20
249.0707679672
 11
308.7610048535
 21
249.2707679672
  0
LINE
  5
36A
100
AcDbEntity
  8
0
100
AcDbLine
 62
7
  6
CONTINUOUS
 10
308.8233049665
 20
164.7707679672
 11
308.8233049665
 21
165.5207679672
  0
LINE
  5
36B
100
AcDbEntity
  8
0
100
AcDbLine
 62
7
  6
CONTINUOUS
 10
308.8233049665
 20
168.5707679672
 11
308.8233049665
 21
168.7707679672
  0
LINE
  5
36C
100
AcDbEntity
  8
0
100
AcDbLine
 62
7
  6
CONTINUOUS
 10
308.8233049665
 20
170.0707679672
 11
308.8233049665
 21
170.2707679672
  0
LINE
  5
36D
100
AcDbEntity
  8
0
100
AcDbLine
 62
7
  6
CONTINUOUS
 10
308.8233049665
 20
173.3207679672
 11
308.8233049665
 21
174.2869836556
  0
LINE
  5
36E
100
AcDbEntity
  8
0
100
AcDbLine
 62
7
  6
CONTINUOUS
 10
308.8293358988
 20
250.7226270321
 11
308.8293358988
 21
250.7707679672
  0
LINE
  5
36F
100
AcDbEntity
  8
0
100
AcDbLine
 62
7
  6
CONTINUOUS
 10
308.8293358988
 20
253.8139043756
 11
308.8293358988
 21
254.5707679672
  0
LINE
  5
370
100
AcDbEntity
  8
0
100
AcDbLine
 62
7
  6
CONTINUOUS
 10
308.8615015676
 20
250.7707679672
 11
308.8615015676
 21
250.7226270321
  0
LINE
  5
371
100
AcDbEntity
  8
0
100
AcDbLine
 62
7
  6
CONTINUOUS
 10
308.8733049665
 20
207.1102957259
 11
308.8733049665
 21
242.8707679672
  0
LINE
  5
372
100
AcDbEntity
  8
0
100
AcDbLine
 62
7
  6
CONTINUOUS
 10
308.8826476675
 20
174.4056780971
 11
308.8826476675
 21
174.1207679672
  0
LINE
  5
373
100
AcDbEntity
  8
0
100
AcDbLine
 62
7
  6
CONTINUOUS
 10
308.8826476675
 20
168.8894624087
 11
308.8826476675
 21
169.9520735257
  0
LINE
  5
374
100
AcDbEntity
  8
0
100
AcDbLine
 62
7
  6
CONTINUOUS
 10
308.9152311899
 20
242.9126941907
 11
308.9152311899
 21
207.1033142316
  0
LINE
  5
375
100
AcDbEntity
  8
0
100
AcDbLine
 62
7
  6
CONTINUOUS
 10
308.9233049665
 20
253.8207705623
 11
308.9233049665
 21
254.5707679672
  0
LINE
  5
376
100
AcDbEntity
  8
0
100
AcDbLine
 62
7
  6
CONTINUOUS
 10
308.9992287163
 20
245.6545522789
 11
308.9992287163
 21
246.0207679672
  0
LINE
  5
377
100
AcDbEntity
  8
0
100
AcDbLine
 62
7
  6
CONTINUOUS
 10
308.9992287163
 20
249.0707679672
 11
308.9992287163
 21
249.2707679672
  0
LINE
  5
378
100
AcDbEntity
  8
0
100
AcDbLine
 62
7
  6
CONTINUOUS
 10
309.0585714173
 20
246.5707679672
 11
309.0585714173
 21
245.5358578374
  0
LINE
  5
379
100
AcDbEntity
  8
0
100
AcDbLine
 62
7
  6
CONTINUOUS
 10
309.0641041735
 20
258.9207651775
 11
309.0641043175
 21
246.5707679672
  0
LINE
  5
37A
100
AcDbEntity
  8
0
100
AcDbLine
 62
7
  6
CONTINUOUS
 10
309.571661719
 20
258.4207679672
 11
309.571661719
 21
246.5707679672
  0
LINE
  5
37B
100
AcDbEntity
  8
0
100
AcDbLine
 62
7
  6
CONTINUOUS
 10
286.4233049665
 20
223.6207679672
 11
286.3233049665
 21
223.6207679672
  0
LINE
  5
37C
100
AcDbEntity
  8
0
100
AcDbLine
 62
7
  6
CONTINUOUS
 10
286.4233049665
 20
224.4207679672
 11
286.3233049665
 21
224.4207679672
  0
LINE
  5
37D
100
AcDbEntity
  8
0
100
AcDbLine
 62
7
  6
CONTINUOUS
 10
280.7813787431
 20
242.9126941907
 11
280.8233049665
 21
242.8707679672
  0
LINE
  5
37E
100
AcDbEntity
  8
0
100
AcDbLine
 62
7
  6
CONTINUOUS
 10
292.9233049665
 20
262.142343898
 11
293.6983049665
 21
259.6074331187
  0
LINE
  5
37F
100
AcDbEntity
  8
0
100
AcDbLine
 62
7
  6
CONTINUOUS
 10
310.9233049665
 20
158.7549574792
 11
310.9233049665
 21
258.9207679672
  0
LINE
  5
380
100
AcDbEntity
  8
0
100
AcDbLine
 62
7
  6
CONTINUOUS
 10
286.4233049665
 20
227.1207679672
 11
286.3233049665
 21
227.1207679672
  0
LINE
  5
381
100
AcDbEntity
  8
0
100
AcDbLine
 62
7
  6
CONTINUOUS
 10
286.4233049665
 20
227.9207679672
 11
286.3233049665
 21
227.9207679672
  0
LINE
  5
382
100
AcDbEntity
  8
0
100
AcDbLine
 62
7
  6
CONTINUOUS
 10
284.4075826327
 20
242.886490301
 11
284.4233049665
 21
242.8707679672
  0
LINE
  5
383
100
AcDbEntity
  8
0
100
AcDbLine
 62
7
  6
CONTINUOUS
 10
282.530165172
 20
170.0026281727
 11
282.5983049665
 21
170.0707679672
  0
LINE
  5
384
100
AcDbEntity
  8
0
100
AcDbLine
 62
7
  6
CONTINUOUS
 10
286.4233049665
 20
230.6207679672
 11
286.3233049665
 21
230.6207679672
  0
LINE
  5
385
100
AcDbEntity
  8
0
100
AcDbLine
 62
7
  6
CONTINUOUS
 10
286.4233049665
 20
231.4207679672
 11
286.3233049665
 21
231.4207679672
  0
LINE
  5
386
100
AcDbEntity
  8
0
100
AcDbLine
 62
7
  6
CONTINUOUS
 10
282.5983049665
 20
249.2707679672
 11
282.530165172
 21
249.3389077617
  0
LINE
  5
387
100
AcDbEntity
  8
0
100
AcDbLine
 62
7
  6
CONTINUOUS
 10
280.7880385158
 20
254.706034418
 11
280.9233049665
 21
254.5707679672
  0
LINE
  5
388
100
AcDbEntity
  8
0
100
AcDbLine
 62
7
  6
CONTINUOUS
 10
293.3933049665
 20
258.5457679672
 11
293.4051020337
 21
258.5219899851
  0
LINE
  5
389
100
AcDbEntity
  8
0
100
AcDbLine
 62
7
  6
CONTINUOUS
 10
280.9118595459
 20
164.6593225466
 11
281.0233049665
 21
164.7707679672
  0
LINE
  5
38A
100
AcDbEntity
  8
0
100
AcDbLine
 62
7
  6
CONTINUOUS
 10
286.4233049665
 20
234.1207679672
 11
286.3233049665
 21
234.1207679672
  0
LINE
  5
38B
100
AcDbEntity
  8
0
100
AcDbLine
 62
7
  6
CONTINUOUS
 10
286.4233049665
 20
234.9207679672
 11
286.3233049665
 21
234.9207679672
  0
LINE
  5
38C
100
AcDbEntity
  8
0
100
AcDbLine
 62
7
  6
CONTINUOUS
 10
286.4233049665
 20
236.3107679672
 11
286.3233049665
 21
236.3107679672
  0
LINE
  5
38D
100
AcDbEntity
  8
0
100
AcDbLine
 62
7
  6
CONTINUOUS
 10
284.4233049665
 20
256.9707679672
 11
284.304610525
 21
257.0894624087
  0
LINE
  5
38E
100
AcDbEntity
  8
0
100
AcDbLine
 62
7
  6
CONTINUOUS
 10
296.4486024196
 20
256.6309017825
 11
296.3941105314
 21
256.7374512998
  0
LINE
  5
38F
100
AcDbEntity
  8
0
100
AcDbLine
 62
7
  6
CONTINUOUS
 10
308.8233049665
 20
174.2869836556
 11
308.8826476675
 21
174.4056780971
  0
LINE
  5
390
100
AcDbEntity
  8
0
100
AcDbLine
 62
7
  6
CONTINUOUS
 10
284.4233049665
 20
160.8707679672
 11
284.3302387489
 21
160.7777017496
  0
LINE
  5
391
100
AcDbEntity
  8
0
100
AcDbLine
 62
7
  6
CONTINUOUS
 10
286.4233049665
 20
236.8107679672
 11
286.3233049665
 21
236.8107679672
  0
LINE
  5
392
100
AcDbEntity
  8
0
100
AcDbLine
 62
7
  6
CONTINUOUS
 10
286.4233049665
 20
237.5807679672
 11
286.3233049665
 21
237.5807679672
  0
LINE
  5
393
100
AcDbEntity
  8
0
100
AcDbLine
 62
7
  6
CONTINUOUS
 10
286.4233049665
 20
238.0807679672
 11
286.3233049665
 21
238.0807679672
  0
LINE
  5
394
100
AcDbEntity
  8
0
100
AcDbLine
 62
7
  6
CONTINUOUS
 10
286.4233049665
 20
238.4207679672
 11
286.3233049665
 21
238.4207679672
  0
LINE
  5
395
100
AcDbEntity
  8
0
100
AcDbLine
 62
7
  6
CONTINUOUS
 10
289.6033049665
 20
238.6407679672
 11
291.2033049665
 21
238.6407679672
  0
LINE
  5
396
100
AcDbEntity
  8
0
100
AcDbLine
 62
7
  6
CONTINUOUS
 10
303.1733049665
 20
241.5207679672
 11
303.1522412738
 21
241.54183166
  0
LINE
  5
397
100
AcDbEntity
  8
0
100
AcDbLine
 62
7
  6
CONTINUOUS
 10
309.0585714173
 20
245.5358578374
 11
308.9992287163
 21
245.6545522789
  0
LINE
  5
398
100
AcDbEntity
  8
0
100
AcDbLine
 62
7
  6
CONTINUOUS
 10
308.8233049665
 20
168.7707679672
 11
308.8826476675
 21
168.8894624087
  0
LINE
  5
399
100
AcDbEntity
  8
0
100
AcDbLine
 62
7
  6
CONTINUOUS
 10
291.8574268737
 20
240.6567113279
 11
288.4574268736
 21
239.7456840736
  0
LINE
  5
39A
100
AcDbEntity
  8
0
100
AcDbLine
 62
7
  6
CONTINUOUS
 10
288.2574306854
 20
241.0276015292
 11
291.6574306855
 21
241.9386287835
  0
LINE
  5
39B
100
AcDbEntity
  8
0
100
AcDbLine
 62
7
  6
CONTINUOUS
 10
303.1733049665
 20
242.793591236
 11
303.1525520779
 21
242.7927224758
  0
LINE
  5
39C
100
AcDbEntity
  8
0
100
AcDbLine
 62
7
  6
CONTINUOUS
 10
293.9233049665
 20
240.4707679672
 11
296.9233049665
 21
240.4707679672
  0
LINE
  5
39D
100
AcDbEntity
  8
0
100
AcDbLine
 62
7
  6
CONTINUOUS
 10
297.8233049665
 20
241.3207679672
 11
293.9233049665
 21
241.3207679672
  0
LINE
  5
39E
100
AcDbEntity
  8
0
100
AcDbLine
 62
7
  6
CONTINUOUS
 10
286.4233049665
 20
241.3207679672
 11
286.3233049665
 21
241.3207679672
  0
LINE
  5
39F
100
AcDbEntity
  8
0
100
AcDbLine
 62
7
  6
CONTINUOUS
 10
303.1733049665
 20
241.5207679672
 11
293.9233049665
 21
241.5207679672
  0
LINE
  5
3A0
100
AcDbEntity
  8
0
100
AcDbLine
 62
7
  6
CONTINUOUS
 10
293.9233049665
 20
241.5469485706
 11
302.8137177847
 21
241.5469485706
  0
LINE
  5
3A1
100
AcDbEntity
  8
0
100
AcDbLine
 62
7
  6
CONTINUOUS
 10
293.9233049665
 20
242.1707679672
 11
302.8137177847
 21
242.1707679672
  0
LINE
  5
3A2
100
AcDbEntity
  8
0
100
AcDbLine
 62
7
  6
CONTINUOUS
 10
308.8733049665
 20
242.8707679672
 11
306.8733049665
 21
242.8707679672
  0
LINE
  5
3A3
100
AcDbEntity
  8
0
100
AcDbLine
 62
7
  6
CONTINUOUS
 10
305.2733049665
 20
242.8707679672
 11
303.3837772079
 21
242.8707679672
  0
LINE
  5
3A4
100
AcDbEntity
  8
0
100
AcDbLine
 62
7
  6
CONTINUOUS
 10
286.3128327252
 20
242.8707679672
 11
284.4233049665
 21
242.8707679672
  0
LINE
  5
3A5
100
AcDbEntity
  8
0
100
AcDbLine
 62
7
  6
CONTINUOUS
 10
280.8233049665
 20
242.8707679672
 11
282.8233049665
 21
242.8707679672
  0
LINE
  5
3A6
100
AcDbEntity
  8
0
100
AcDbLine
 62
7
  6
CONTINUOUS
 10
286.3233049665
 20
242.8707679672
 11
303.3733049665
 21
242.8707679672
  0
LINE
  5
3A7
100
AcDbEntity
  8
0
100
AcDbLine
 62
7
  6
CONTINUOUS
 10
306.8575826327
 20
242.886490301
 11
305.2890273003
 21
242.886490301
  0
LINE
  5
3A8
100
AcDbEntity
  8
0
100
AcDbLine
 62
7
  6
CONTINUOUS
 10
284.4075826327
 20
242.886490301
 11
282.8390273003
 21
242.886490301
  0
LINE
  5
3A9
100
AcDbEntity
  8
0
100
AcDbLine
 62
7
  6
CONTINUOUS
 10
280.7813787431
 20
242.9126941907
 11
286.3058512309
 21
242.9126941907
  0
LINE
  5
3AA
100
AcDbEntity
  8
0
100
AcDbLine
 62
7
  6
CONTINUOUS
 10
303.3907587021
 20
242.9126941907
 11
308.9152311899
 21
242.9126941907
  0
LINE
  5
3AB
100
AcDbEntity
  8
0
100
AcDbLine
 62
7
  6
CONTINUOUS
 10
302.8137177847
 20
241.5469485706
 11
303.1522412738
 21
241.54183166
  0
LINE
  5
3AC
100
AcDbEntity
  8
0
100
AcDbLine
 62
7
  6
CONTINUOUS
 10
284.4233049665
 20
164.7707679672
 11
284.304610525
 21
164.7114252662
  0
LINE
  5
3AD
100
AcDbEntity
  8
0
100
AcDbLine
 62
7
  6
CONTINUOUS
 10
286.3058512309
 20
244.8207679672
 11
303.3907587021
 21
244.8207679672
  0
LINE
  5
3AE
100
AcDbEntity
  8
0
100
AcDbLine
 62
7
  6
CONTINUOUS
 10
280.7880385158
 20
245.5358578374
 11
309.0585714173
 21
245.5358578374
  0
LINE
  5
3AF
100
AcDbEntity
  8
0
100
AcDbLine
 62
7
  6
CONTINUOUS
 10
299.9233049665
 20
245.5585494218
 11
289.9233049665
 21
245.5585494218
  0
LINE
  5
3B0
100
AcDbEntity
  8
0
100
AcDbLine
 62
7
  6
CONTINUOUS
 10
308.729588281
 20
245.5847320192
 11
299.9233049665
 21
245.5847320192
  0
LINE
  5
3B1
100
AcDbEntity
  8
0
100
AcDbLine
 62
7
  6
CONTINUOUS
 10
289.9233049665
 20
245.5847320192
 11
281.117021652
 21
245.5847320192
  0
LINE
  5
3B2
100
AcDbEntity
  8
0
100
AcDbLine
 62
7
  6
CONTINUOUS
 10
308.9992287163
 20
245.6545522789
 11
308.7610048535
 21
245.6545522789
  0
LINE
  5
3B3
100
AcDbEntity
  8
0
100
AcDbLine
 62
7
  6
CONTINUOUS
 10
280.8473812167
 20
245.6545522789
 11
281.0856050795
 21
245.6545522789
  0
LINE
  5
3B4
100
AcDbEntity
  8
0
100
AcDbLine
 62
7
  6
CONTINUOUS
 10
280.5706321674
 20
246.0207679672
 11
309.2759777656
 21
246.0207679672
  0
LINE
  5
3B5
100
AcDbEntity
  8
0
100
AcDbLine
 62
7
  6
CONTINUOUS
 10
278.9233049665
 20
246.5707679672
 11
280.7825056155
 21
246.5707679672
  0
LINE
  5
3B6
100
AcDbEntity
  8
0
100
AcDbLine
 62
7
  6
CONTINUOUS
 10
309.0641043175
 20
246.5707679672
 11
310.9233049665
 21
246.5707679672
  0
LINE
  5
3B7
100
AcDbEntity
  8
0
100
AcDbLine
 62
7
  6
CONTINUOUS
 10
284.4233049665
 20
254.646691717
 11
284.304610525
 21
254.706034418
  0
LINE
  5
3B8
100
AcDbEntity
  8
0
100
AcDbLine
 62
7
  6
CONTINUOUS
 10
307.316444761
 20
168.8389077617
 11
307.2483049665
 21
168.7707679672
  0
LINE
  5
3B9
100
AcDbEntity
  8
0
100
AcDbLine
 62
7
  6
CONTINUOUS
 10
307.316444761
 20
249.3389077617
 11
308.666999408
 21
249.3894624087
  0
LINE
  5
3BA
100
AcDbEntity
  8
0
100
AcDbLine
 62
7
  6
CONTINUOUS
 10
282.530165172
 20
250.5026281727
 11
281.179610525
 21
250.4520735257
  0
LINE
  5
3BB
100
AcDbEntity
  8
0
100
AcDbLine
 62
7
  6
CONTINUOUS
 10
280.6798037727
 20
249.0707679672
 11
284.1233049665
 21
249.0707679672
  0
LINE
  5
3BC
100
AcDbEntity
  8
0
100
AcDbLine
 62
7
  6
CONTINUOUS
 10
305.7233049665
 20
249.0707679672
 11
309.1668057536
 21
249.0707679672
  0
LINE
  5
3BD
100
AcDbEntity
  8
0
100
AcDbLine
 62
7
  6
CONTINUOUS
 10
283.6233049665
 20
249.1707679672
 11
293.4233049665
 21
249.1707679672
  0
LINE
  5
3BE
100
AcDbEntity
  8
0
100
AcDbLine
 62
7
  6
CONTINUOUS
 10
296.4233049665
 20
249.1707679672
 11
306.2233049665
 21
249.1707679672
  0
LINE
  5
3BF
100
AcDbEntity
  8
0
100
AcDbLine
 62
7
  6
CONTINUOUS
 10
280.8473812167
 20
249.2707679672
 11
282.5983049665
 21
249.2707679672
  0
LINE
  5
3C0
100
AcDbEntity
  8
0
100
AcDbLine
 62
7
  6
CONTINUOUS
 10
307.2483049665
 20
249.2707679672
 11
308.9992287163
 21
249.2707679672
  0
LINE
  5
3C1
100
AcDbEntity
  8
0
100
AcDbLine
 62
7
  6
CONTINUOUS
 10
309.0585714173
 20
249.3894624087
 11
308.666999408
 21
249.3894624087
  0
LINE
  5
3C2
100
AcDbEntity
  8
0
100
AcDbLine
 62
7
  6
CONTINUOUS
 10
281.179610525
 20
249.3894624087
 11
280.7880385158
 21
249.3894624087
  0
LINE
  5
3C3
100
AcDbEntity
  8
0
100
AcDbLine
 62
7
  6
CONTINUOUS
 10
280.7880385158
 20
250.4520735257
 11
281.179610525
 21
250.4520735257
  0
LINE
  5
3C4
100
AcDbEntity
  8
0
100
AcDbLine
 62
7
  6
CONTINUOUS
 10
308.666999408
 20
250.4520735257
 11
309.0585714173
 21
250.4520735257
  0
LINE
  5
3C5
100
AcDbEntity
  8
0
100
AcDbLine
 62
7
  6
CONTINUOUS
 10
308.7610048535
 20
250.5707679672
 11
307.2483049665
 21
250.5707679672
  0
LINE
  5
3C6
100
AcDbEntity
  8
0
100
AcDbLine
 62
7
  6
CONTINUOUS
 10
282.5983049665
 20
250.5707679672
 11
281.0856050795
 21
250.5707679672
  0
LINE
  5
3C7
100
AcDbEntity
  8
0
100
AcDbLine
 62
7
  6
CONTINUOUS
 10
283.6233049665
 20
250.6707679672
 11
293.4233049665
 21
250.6707679672
  0
LINE
  5
3C8
100
AcDbEntity
  8
0
100
AcDbLine
 62
7
  6
CONTINUOUS
 10
296.4233049665
 20
250.6707679672
 11
306.2233049665
 21
250.6707679672
  0
LINE
  5
3C9
100
AcDbEntity
  8
0
100
AcDbLine
 62
7
  6
CONTINUOUS
 10
308.8615015676
 20
250.7226270321
 11
308.8293358988
 21
250.7226270321
  0
LINE
  5
3CA
100
AcDbEntity
  8
0
100
AcDbLine
 62
7
  6
CONTINUOUS
 10
280.9851083654
 20
250.7226270321
 11
281.0172740343
 21
250.7226270321
  0
LINE
  5
3CB
100
AcDbEntity
  8
0
100
AcDbLine
 62
7
  6
CONTINUOUS
 10
280.6257911146
 20
250.7707679672
 11
284.1233049665
 21
250.7707679672
  0
LINE
  5
3CC
100
AcDbEntity
  8
0
100
AcDbLine
 62
7
  6
CONTINUOUS
 10
305.7233049665
 20
250.7707679672
 11
309.220819083
 21
250.7707679672
  0
LINE
  5
3CD
100
AcDbEntity
  8
0
100
AcDbLine
 62
7
  6
CONTINUOUS
 10
282.530165172
 20
249.3389077617
 11
281.179610525
 21
249.3894624087
  0
LINE
  5
3CE
100
AcDbEntity
  8
0
100
AcDbLine
 62
7
  6
CONTINUOUS
 10
307.316444761
 20
250.5026281727
 11
308.666999408
 21
250.4520735257
  0
LINE
  5
3CF
100
AcDbEntity
  8
0
100
AcDbLine
 62
7
  6
CONTINUOUS
 10
307.2483049665
 20
250.5707679672
 11
307.316444761
 21
250.5026281727
  0
LINE
  5
3D0
100
AcDbEntity
  8
0
100
AcDbLine
 62
7
  6
CONTINUOUS
 10
302.5733049665
 20
256.9707679672
 11
302.454610525
 21
257.0894624087
  0
LINE
  5
3D1
100
AcDbEntity
  8
0
100
AcDbLine
 62
7
  6
CONTINUOUS
 10
302.5733049665
 20
160.8707679672
 11
302.4802387489
 21
160.7777017496
  0
LINE
  5
3D2
100
AcDbEntity
  8
0
100
AcDbLine
 62
7
  6
CONTINUOUS
 10
280.6363377416
 20
253.8207679672
 11
309.2102721914
 21
253.8207679672
  0
LINE
  5
3D3
100
AcDbEntity
  8
0
100
AcDbLine
 62
7
  6
CONTINUOUS
 10
302.5733049665
 20
254.646691717
 11
302.454610525
 21
254.706034418
  0
LINE
  5
3D4
100
AcDbEntity
  8
0
100
AcDbLine
 62
7
  6
CONTINUOUS
 10
302.5733049665
 20
164.7707679672
 11
302.454610525
 21
164.7114252662
  0
LINE
  5
3D5
100
AcDbEntity
  8
0
100
AcDbLine
 62
7
  6
CONTINUOUS
 10
280.9233049665
 20
254.5707679672
 11
289.9233049665
 21
254.5707679672
  0
LINE
  5
3D6
100
AcDbEntity
  8
0
100
AcDbLine
 62
7
  6
CONTINUOUS
 10
299.9233049665
 20
254.5707679672
 11
308.9233049665
 21
254.5707679672
  0
LINE
  5
3D7
100
AcDbEntity
  8
0
100
AcDbLine
 62
7
  6
CONTINUOUS
 10
286.9233049665
 20
254.646691717
 11
284.4233049665
 21
254.646691717
  0
LINE
  5
3D8
100
AcDbEntity
  8
0
100
AcDbLine
 62
7
  6
CONTINUOUS
 10
302.5733049665
 20
254.646691717
 11
305.5733049665
 21
254.646691717
  0
LINE
  5
3D9
100
AcDbEntity
  8
0
100
AcDbLine
 62
7
  6
CONTINUOUS
 10
309.0585714173
 20
254.706034418
 11
305.691999408
 21
254.706034418
  0
LINE
  5
3DA
100
AcDbEntity
  8
0
100
AcDbLine
 62
7
  6
CONTINUOUS
 10
302.454610525
 20
254.706034418
 11
295.9233049665
 21
254.706034418
  0
LINE
  5
3DB
100
AcDbEntity
  8
0
100
AcDbLine
 62
7
  6
CONTINUOUS
 10
293.9233049665
 20
254.706034418
 11
287.041999408
 21
254.706034418
  0
LINE
  5
3DC
100
AcDbEntity
  8
0
100
AcDbLine
 62
7
  6
CONTINUOUS
 10
284.304610525
 20
254.706034418
 11
280.7880385158
 21
254.706034418
  0
LINE
  5
3DD
100
AcDbEntity
  8
0
100
AcDbLine
 62
7
  6
CONTINUOUS
 10
284.4233049665
 20
256.9707679672
 11
286.9233049665
 21
256.9707679672
  0
LINE
  5
3DE
100
AcDbEntity
  8
0
100
AcDbLine
 62
7
  6
CONTINUOUS
 10
302.5733049665
 20
256.9707679672
 11
305.5733049665
 21
256.9707679672
  0
LINE
  5
3DF
100
AcDbEntity
  8
0
100
AcDbLine
 62
7
  6
CONTINUOUS
 10
284.304610525
 20
257.0894624087
 11
287.041999408
 21
257.0894624087
  0
LINE
  5
3E0
100
AcDbEntity
  8
0
100
AcDbLine
 62
7
  6
CONTINUOUS
 10
302.454610525
 20
257.0894624087
 11
305.691999408
 21
257.0894624087
  0
LINE
  5
3E1
100
AcDbEntity
  8
0
100
AcDbLine
 62
7
  6
CONTINUOUS
 10
298.9233049665
 20
262.5207679672
 11
305.1586878738
 21
258.9207679672
  0
LINE
  5
3E2
100
AcDbEntity
  8
0
100
AcDbLine
 62
7
  6
CONTINUOUS
 10
309.0640963846
 20
258.9207651776
 11
309.571661719
 21
258.4207679672
  0
LINE
  5
3E3
100
AcDbEntity
  8
0
100
AcDbLine
 62
7
  6
CONTINUOUS
 10
278.9233049665
 20
258.4207679672
 11
280.2749482141
 21
258.4207679672
  0
LINE
  5
3E4
100
AcDbEntity
  8
0
100
AcDbLine
 62
7
  6
CONTINUOUS
 10
309.571661719
 20
258.4207679672
 11
310.9233049665
 21
258.4207679672
  0
LINE
  5
3E5
100
AcDbEntity
  8
0
100
AcDbLine
 62
7
  6
CONTINUOUS
 10
310.9233049665
 20
258.9207679672
 11
309.0641014041
 21
258.9207679672
  0
LINE
  5
3E6
100
AcDbEntity
  8
0
100
AcDbLine
 62
7
  6
CONTINUOUS
 10
309.0585714173
 20
258.9207679672
 11
305.1586878738
 21
258.9207679672
  0
LINE
  5
3E7
100
AcDbEntity
  8
0
100
AcDbLine
 62
7
  6
CONTINUOUS
 10
284.6879220593
 20
258.9207679672
 11
280.7880385158
 21
258.9207679672
  0
LINE
  5
3E8
100
AcDbEntity
  8
0
100
AcDbLine
 62
7
  6
CONTINUOUS
 10
280.7825085289
 20
258.9207679672
 11
278.9233049665
 21
258.9207679672
  0
LINE
  5
3E9
100
AcDbEntity
  8
0
100
AcDbLine
 62
7
  6
CONTINUOUS
 10
290.9233049665
 20
262.5207679672
 11
292.9233049665
 21
262.5207679672
  0
LINE
  5
3EA
100
AcDbEntity
  8
0
100
AcDbLine
 62
7
  6
CONTINUOUS
 10
296.9233049665
 20
262.5207679672
 11
298.9233049665
 21
262.5207679672
  0
ARC
  5
3EB
100
AcDbEntity
  8
0
100
AcDbCircle
 62
7
  6
CONTINUOUS
 10
292.1233049665
 20
240.1999622961
 40
1.8
100
AcDbArc
 50
0.0
 51
104.9999999931
  0
ARC
  5
3EC
100
AcDbEntity
  8
0
100
AcDbCircle
 62
7
  6
CONTINUOUS
 10
288.7233049665
 20
239.2889350418
 40
1.8
100
AcDbArc
 50
104.999999999
 51
180.0
  0
ARC
  5
3ED
100
AcDbEntity
  8
0
100
AcDbCircle
 62
7
  6
CONTINUOUS
 10
288.7233049665
 20
212.2426008926
 40
1.8
100
AcDbArc
 50
180.0
 51
255.0000000057
  0
ARC
  5
3EE
100
AcDbEntity
  8
0
100
AcDbCircle
 62
7
  6
CONTINUOUS
 10
292.1233049665
 20
211.3315736383
 40
1.8
100
AcDbArc
 50
255.0000000023
 51
360.0
  0
ARC
  5
3EF
100
AcDbEntity
  8
0
100
AcDbCircle
 62
7
  6
CONTINUOUS
 10
292.1033049665
 20
211.7924541416
 40
0.95
100
AcDbArc
 50
255.0000000111
 51
360.0
  0
ARC
  5
3F0
100
AcDbEntity
  8
0
100
AcDbCircle
 62
7
  6
CONTINUOUS
 10
288.7033049665
 20
212.7034813958
 40
0.95
100
AcDbArc
 50
180.0
 51
255.0
  0
ARC
  5
3F1
100
AcDbEntity
  8
0
100
AcDbCircle
 62
7
  6
CONTINUOUS
 10
288.7033049665
 20
238.8280545386
 40
0.95
100
AcDbArc
 50
105.0000000047
 51
180.0000000055
  0
ARC
  5
3F2
100
AcDbEntity
  8
0
100
AcDbCircle
 62
7
  6
CONTINUOUS
 10
292.1033049665
 20
239.7390817929
 40
0.95
100
AcDbArc
 50
0.0
 51
104.9999999993
  0
CIRCLE
  5
3F3
100
AcDbEntity
  8
0
100
AcDbCircle
 62
7
  6
CONTINUOUS
 10
291.9233049665
 20
169.4207679672
 40
0.6
  0
CIRCLE
  5
3F4
100
AcDbEntity
  8
0
100
AcDbCircle
 62
7
  6
CONTINUOUS
 10
291.9233049665
 20
249.9207679672
 40
0.6
  0
CIRCLE
  5
3F5
100
AcDbEntity
  8
0
100
AcDbCircle
 62
7
  6
CONTINUOUS
 10
291.9233049665
 20
169.4207679672
 40
0.5037624701
  0
CIRCLE
  5
3F6
100
AcDbEntity
  8
0
100
AcDbCircle
 62
7
  6
CONTINUOUS
 10
291.9233049665
 20
249.9207679672
 40
0.5037624701
  0
CIRCLE
  5
3F7
100
AcDbEntity
  8
0
100
AcDbCircle
 62
7
  6
CONTINUOUS
 10
294.9233049665
 20
199.9207679672
 40
5.0
  0
ARC
  5
3F8
100
AcDbEntity
  8
0
100
AcDbCircle
 62
7
  6
CONTINUOUS
 10
294.9233049665
 20
257.6707679672
 40
3.75
100
AcDbArc
 50
63.680379925
 51
116.3186009386
  0
CIRCLE
  5
3F9
100
AcDbEntity
  8
0
100
AcDbCircle
 62
7
  6
CONTINUOUS
 10
294.9233049665
 20
180.9707679672
 40
3.0
  0
CIRCLE
  5
3FA
100
AcDbEntity
  8
0
100
AcDbCircle
 62
7
  6
CONTINUOUS
 10
294.9233049665
 20
257.6707679672
 40
1.75
  0
ARC
  5
3FB
100
AcDbEntity
  8
0
100
AcDbCircle
 62
7
  6
CONTINUOUS
 10
294.9233049665
 20
258.6907679672
 40
1.53
100
AcDbArc
 50
0.0
 51
36.8074385379
  0
ARC
  5
3FC
100
AcDbEntity
  8
0
100
AcDbCircle
 62
7
  6
CONTINUOUS
 10
294.9233049665
 20
258.6907679672
 40
1.53
100
AcDbArc
 50
143.1925614619
 51
180.0000000001
  0
ARC
  5
3FD
100
AcDbEntity
  8
0
100
AcDbCircle
 62
7
  6
CONTINUOUS
 10
294.9233049665
 20
256.7507679672
 40
1.53
100
AcDbArc
 50
184.493379843
 51
355.5066201569
  0
CIRCLE
  5
3FE
100
AcDbEntity
  8
0
100
AcDbCircle
 62
7
  6
CONTINUOUS
 10
294.9233049665
 20
257.6707679672
 40
1.45
  0
CIRCLE
  5
3FF
100
AcDbEntity
  8
0
100
AcDbCircle
 62
7
  6
CONTINUOUS
 10
294.9233049665
 20
257.6707679672
 40
0.6
  0
CIRCLE
  5
400
100
AcDbEntity
  8
0
100
AcDbCircle
 62
7
  6
CONTINUOUS
 10
297.9233049665
 20
169.4207679672
 40
0.6
  0
CIRCLE
  5
401
100
AcDbEntity
  8
0
100
AcDbCircle
 62
7
  6
CONTINUOUS
 10
297.9233049665
 20
249.9207679672
 40
0.6
  0
CIRCLE
  5
402
100
AcDbEntity
  8
0
100
AcDbCircle
 62
7
  6
CONTINUOUS
 10
297.9233049665
 20
169.4207679672
 40
0.5037624701
  0
CIRCLE
  5
403
100
AcDbEntity
  8
0
100
AcDbCircle
 62
7
  6
CONTINUOUS
 10
297.9233049665
 20
249.9207679672
 40
0.5037624701
  0
CIRCLE
  5
404
100
AcDbEntity
  8
0
100
AcDbCircle
 62
7
  6
CONTINUOUS
 10
294.9233049665
 20
257.6707679672
 40
0.4
  0
ARC
  5
405
100
AcDbEntity
  8
0
100
AcDbCircle
 62
7
  6
CONTINUOUS
 10
294.9233049665
 20
439.6207679672
 40
197.0
100
AcDbArc
 50
269.7091080949
 51
272.3941033587
  0
ARC
  5
406
100
AcDbEntity
  8
0
100
AcDbCircle
 62
7
  6
CONTINUOUS
 10
294.9233049665
 20
439.6207679672
 40
197.0
100
AcDbArc
 50
267.4971872563
 51
267.5270773182
  0
ARC
  5
407
100
AcDbEntity
  8
0
100
AcDbCircle
 62
7
  6
CONTINUOUS
 10
294.9233049665
 20
439.6207679672
 40
197.0
100
AcDbArc
 50
272.4001444467
 51
272.4592356655
  0
ARC
  5
408
100
AcDbEntity
  8
0
100
AcDbCircle
 62
7
  6
CONTINUOUS
 10
294.9233049665
 20
437.7707679672
 40
195.0
100
AcDbArc
 50
269.7061094119
 51
271.6751230451
  0
ELLIPSE
  5
409
100
AcDbEntity
  8
0
100
AcDbEllipse
 62
7
  6
CONTINUOUS
 10
279.3619494087
 20
242.7707679672
 30
0.0
 11
0.0
 21
96.4
 31
0.0
 40
0.0174550649
 41
-1.4559008619
 42
-1.4480779759
  0
ELLIPSE
  5
40A
100
AcDbEntity
  8
0
100
AcDbEllipse
 62
7
  6
CONTINUOUS
 10
310.4846605243
 20
242.7707679672
 30
0.0
 11
0.0
 21
96.4
 31
0.0
 40
0.0174550649
 41
1.4480779759
 42
1.4559008619
  0
ELLIPSE
  5
40B
100
AcDbEntity
  8
0
100
AcDbEllipse
 62
7
  6
CONTINUOUS
 10
280.9595988316
 20
166.1207679672
 30
0.0
 11
0.0
 21
8.0
 31
0.0
 40
0.0087268678
 41
-0.0000000331
 42
0.6405940421
  0
ELLIPSE
  5
40C
100
AcDbEntity
  8
0
100
AcDbEllipse
 62
7
  6
CONTINUOUS
 10
308.8870111014
 20
166.1207679672
 30
0.0
 11
-0.0
 21
8.0
 31
0.0
 40
0.0087268678
 41
-0.6405940421
 42
-0.0
  0
ENDSEC
  0
SECTION
  2
OBJECTS
  0
DICTIONARY
  5
C
100
AcDbDictionary
280
0
281
1
  3
ACAD_GROUP
350
D
  3
ACAD_MLINESTYLE
350
17
  3
ACAD_LAYOUT
350
1A
  3
ACAD_PLOTSETTINGS
350
19
  3
ACAD_PLOTSTYLENAME
350
E
  0
DICTIONARY
  5
D
102
{ACAD_REACTORS
330
C
102
}
100
AcDbDictionary
280
0
281
1
  0
ACDBDICTIONARYWDFLT
  5
E
102
{ACAD_REACTORS
330
C
102
}
100
AcDbDictionary
281
1
  3
Normal
350
F
100
AcDbDictionaryWithDefault
340
F
  0
DICTIONARY
  5
17
102
{ACAD_REACTORS
330
C
102
}
100
AcDbDictionary
280
0
281
1
  3
Standard
350
18
  0
DICTIONARY
  5
19
102
{ACAD_REACTORS
330
C
102
}
100
AcDbDictionary
281
1
  0
DICTIONARY
  5
1A
102
{ACAD_REACTORS
330
C
102
}
100
AcDbDictionary
281
1
  3
Model
350
40D
  3
Layout1
350
40E
  0
ACDBPLACEHOLDER
  5
F
102
{ACAD_REACTORS
330
E
102
}
  0
MLINESTYLE
  5
18
102
{ACAD_REACTORS
330
17
102
}
100
AcDbMlineStyle
  2
STANDARD
 70
0
  3

 62
256
 51
90.0
 52
90.0
 71
2
 49
0.5
 62
256
  6
BYLAYER
 49
-0.5
 62
256
  6
BYLAYER
  0
LAYOUT
  5
40D
102
{ACAD_REACTORS
330
1A
102
}
100
AcDbPlotSettings
  1

  2
none_device
  4
ANSI_C_(22.00_x_17.00_Inches)
  6

 40
0.0
 41
0.0
 42
0.0
 43
0.0
 44
558.8
 45
431.8
 46
0.0
 47
0.0
 48
0.0
 49
0.0
140
0.0
141
0.0
142
1.0
143
1.0
 70
1024
 72
1
 73
0
 74
0
  7

 75
0
147
1.0
148
0.0
149
0.0
100
AcDbLayout
  1
Model
 70
0
 71
0
 10
0.0
 20
0.0
 11
558.8
 21
431.8
 12
0.0
 22
0.0
 32
0.0
 14
0.0
 24
0.0
 34
0.0
 15
0.0
 25
0.0
 35
0.0
146
0.0
 13
0.0
 23
0.0
 33
0.0
 16
1.0
 26
0.0
 36
0.0
 17
0.0
 27
1.0
 37
0.0
 76
0
330
216
345
0
346
0
  0
LAYOUT
  5
40E
102
{ACAD_REACTORS
330
1A
102
}
100
AcDbPlotSettings
  1

  2
none_device
  4
ANSI_C_(22.00_x_17.00_Inches)
  6

 40
0.0
 41
0.0
 42
0.0
 43
0.0
 44
558.8
 45
431.8
 46
0.0
 47
0.0
 48
0.0
 49
0.0
140
0.0
141
0.0
142
1.0
143
1.0
 70
0
 72
1
 73
0
 74
0
  7

 75
0
147
1.0
148
0.0
149
0.0
100
AcDbLayout
  1
Layout1
 70
0
 71
1
 10
0.0
 20
0.0
 11
558.8
 21
431.8
 12
0.0
 22
0.0
 32
0.0
 14
0.0
 24
0.0
 34
0.0
 15
0.0
 25
0.0
 35
0.0
146
0.0
 13
0.0
 23
0.0
 33
0.0
 16
1.0
 26
0.0
 36
0.0
 17
0.0
 27
1.0
 37
0.0
 76
0
330
217
345
0
346
0
  0
ENDSEC
  0
EOF
