999
DXF file: C:\Users\sesa63760\Dev\_Creo\CAD\MCADID0001041_3D-CAD\drw0001_6.dxf
999
Pro/ENGINEER 2019471 by Parametric Technology Corporation
  0
SECTION
  2
HEADER
  9
$ACADVER
  1
AC1024
  9
$DWGCODEPAGE
  3
ANSI_1252
  9
$EXTMAX
 10
464.5857667699
 20
657.0570130032
 30
0.0
  9
$EXTMIN
 10
0.0
 20
0.0
 30
0.0
  9
$LIMMIN
 10
0.0
 20
0.0
  9
$LIMMAX
 10
464.5857667699
 20
657.0570130032
  9
$VIEWCTR
 10
232.292883385
 20
328.5285065016
  9
$VIEWSIZE
 40
657.0570130032
  9
$CLAYER
  8
0
  9
$LTSCALE
 40
42.8303830698
  9
$CELTYPE
  6
BYLAYER
  9
$DIMSCALE
 40
1.0
  9
$DIMASZ
 40
5.5307829377
  9
$DIMEXO
 40
1.0
  9
$DIMDLI
 40
29.5919010301
  9
$DIMEXE
 40
1.0
  9
$DIMCEN
 40
7.0086081387
  9
$DIMLFAC
 40
1.0
  9
$DIMBLK
  1
_FILLED
  9
$DIMALT
 70
0
  9
$DIMALTF
 40
0.0393700787
  9
$DIMTXT
 40
7.7430961128
  9
$DIMTOL
 70
1
  9
$DIMLIM
 70
0
  9
$DIMTFAC
 40
1.0
  9
$DIMTP
 40
0.01
  9
$DIMTM
 40
0.01
  9
$DIMGAP
 40
0.625
  9
$DIMDSEP
 70
46
  9
$AUNITS
 70
0
  9
$PDMODE
 70
3
  9
$PDSIZE
 40
0.3125
  9
$HANDSEED
  5
2EF
  9
$TILEMODE
 70
1
  9
$MEASUREMENT
 70
1
  9
$INSUNITS
 70
4
  0
ENDSEC
  0
SECTION
  2
CLASSES
  0
CLASS
  1
ACDBDICTIONARYWDFLT
  2
AcDbDictionaryWithDefault
  3
AutoCAD 2000
 90
0
 91
1
280
0
281
0
  0
CLASS
  1
ACDBPLACEHOLDER
  2
AcDbPlaceHolder
  3
AutoCAD 2000
 90
0
 91
1
280
0
281
0
  0
CLASS
  1
LAYOUT
  2
AcDbLayout
  3
AutoCAD 2000
 90
0
 91
0
280
0
281
0
  0
ENDSEC
  0
SECTION
  2
TABLES
  0
TABLE
  2
VPORT
  5
8
100
AcDbSymbolTable
 70
2
  0
VPORT
  5
1F4
100
AcDbSymbolTableRecord
100
AcDbViewportTableRecord
  2
*ACTIVE
 70
0
 10
0.0
 20
0.0
 11
1.0
 21
1.0
 12
232.292883385
 22
328.5285065016
 13
0.0
 23
0.0
 14
1.0
 24
1.0
 15
0.0
 25
0.0
 16
0.0
 26
0.0
 36
1.0
 17
0.0
 27
0.0
 37
0.0
 40
657.0570130032
 41
0.7070707071
 42
50.0
 43
0.0
 44
0.0
 50
0.0
 51
0.0
 71
0
 72
100
 73
1
 74
1
 75
0
 76
0
 77
0
 78
0
  0
ENDTAB
  0
TABLE
  2
LTYPE
  5
5
100
AcDbSymbolTable
 70
6
  0
LTYPE
  5
14
100
AcDbSymbolTableRecord
100
AcDbLinetypeTableRecord
  2
BYBLOCK
 70
0
  3

 72
65
 73
0
 40
0.0
  0
LTYPE
  5
15
100
AcDbSymbolTableRecord
100
AcDbLinetypeTableRecord
  2
BYLAYER
 70
0
  3

 72
65
 73
0
 40
0.0
  0
LTYPE
  5
16
100
AcDbSymbolTableRecord
100
AcDbLinetypeTableRecord
  2
CONTINUOUS
 70
64
  3
Solid line
 72
65
 73
0
 40
0.0
  0
LTYPE
  5
1F5
100
AcDbSymbolTableRecord
100
AcDbLinetypeTableRecord
  2
CENTER
 70
64
  3
____ _ ____ _ ____ _ ____ _ ____ _ ____ _ ____
 72
65
 73
4
 40
0.6
 49
0.375
 74
0
 49
-0.075
 74
0
 49
0.075
 74
0
 49
-0.075
 74
0
  0
LTYPE
  5
1F6
100
AcDbSymbolTableRecord
100
AcDbLinetypeTableRecord
  2
HIDDEN
 70
64
  3
- - - - - - - - - - - - - - - - - - - -
 72
65
 73
2
 40
0.2
 49
0.1
 74
0
 49
-0.1
 74
0
  0
LTYPE
  5
1F7
100
AcDbSymbolTableRecord
100
AcDbLinetypeTableRecord
  2
PHANTOM
 70
64
  3
_____ _ _ _____ _ _ _____ _ _ _____
 72
65
 73
6
 40
0.8
 49
0.45
 74
0
 49
-0.05
 74
0
 49
0.1
 74
0
 49
-0.05
 74
0
 49
0.1
 74
0
 49
-0.05
 74
0
  0
LTYPE
  5
1F8
100
AcDbSymbolTableRecord
100
AcDbLinetypeTableRecord
  2
DOT
 70
64
  3
. . . . . . . . . . . . . . . . . . . .
 72
65
 73
2
 40
0.2
 49
0.1
 74
0
 49
-0.1
 74
0
  0
LTYPE
  5
1F9
100
AcDbSymbolTableRecord
100
AcDbLinetypeTableRecord
  2
DASHED
 70
64
  3
- - - - - - - - - - - - - - - - - - - -
 72
65
 73
2
 40
0.2
 49
0.1
 74
0
 49
-0.1
 74
0
  0
ENDTAB
  0
TABLE
  2
LAYER
  5
2
100
AcDbSymbolTable
 70
36
  0
LAYER
  5
10
100
AcDbSymbolTableRecord
100
AcDbLayerTableRecord
  2
0
 70
0
 62
7
  6
CONTINUOUS
370
-3
390
F
  0
LAYER
  5
1FA
100
AcDbSymbolTableRecord
100
AcDbLayerTableRecord
  2
DEFAULT_1
 70
0
 62
7
  6
CENTER
370
-3
390
F
  0
LAYER
  5
1FB
100
AcDbSymbolTableRecord
100
AcDbLayerTableRecord
  2
DEFAULT_2
 70
0
 62
8
  6
HIDDEN
370
-3
390
F
  0
LAYER
  5
1FC
100
AcDbSymbolTableRecord
100
AcDbLayerTableRecord
  2
DEFAULT_3
 70
0
 62
7
  6
PHANTOM
370
-3
390
F
  0
LAYER
  5
1FD
100
AcDbSymbolTableRecord
100
AcDbLayerTableRecord
  2
00_COMPONENTS
 70
0
 62
7
  6
CONTINUOUS
370
-3
390
F
  0
LAYER
  5
1FE
100
AcDbSymbolTableRecord
100
AcDbLayerTableRecord
  2
01_1_DEFAULT_DATUMS
 70
0
 62
7
  6
CONTINUOUS
370
-3
390
F
  0
LAYER
  5
1FF
100
AcDbSymbolTableRecord
100
AcDbLayerTableRecord
  2
01_PLANES
 70
0
 62
7
  6
CONTINUOUS
370
-3
390
F
  0
LAYER
  5
200
100
AcDbSymbolTableRecord
100
AcDbLayerTableRecord
  2
02_COORD_SYS
 70
0
 62
7
  6
CONTINUOUS
370
-3
390
F
  0
LAYER
  5
201
100
AcDbSymbolTableRecord
100
AcDbLayerTableRecord
  2
03_AXES
 70
0
 62
7
  6
CONTINUOUS
370
-3
390
F
  0
LAYER
  5
202
100
AcDbSymbolTableRecord
100
AcDbLayerTableRecord
  2
04_POINTS
 70
0
 62
7
  6
CONTINUOUS
370
-3
390
F
  0
LAYER
  5
203
100
AcDbSymbolTableRecord
100
AcDbLayerTableRecord
  2
05_CURVES
 70
0
 62
7
  6
CONTINUOUS
370
-3
390
F
  0
LAYER
  5
204
100
AcDbSymbolTableRecord
100
AcDbLayerTableRecord
  2
06_SURFS
 70
0
 62
7
  6
CONTINUOUS
370
-3
390
F
  0
LAYER
  5
205
100
AcDbSymbolTableRecord
100
AcDbLayerTableRecord
  2
07_COSMETICS
 70
0
 62
7
  6
CONTINUOUS
370
-3
390
F
  0
LAYER
  5
206
100
AcDbSymbolTableRecord
100
AcDbLayerTableRecord
  2
10_NOTES
 70
0
 62
7
  6
CONTINUOUS
370
-3
390
F
  0
LAYER
  5
207
100
AcDbSymbolTableRecord
100
AcDbLayerTableRecord
  2
11_NOTES_PUB
 70
0
 62
7
  6
CONTINUOUS
370
-3
390
F
  0
LAYER
  5
208
100
AcDbSymbolTableRecord
100
AcDbLayerTableRecord
  2
13_REF_GTOL
 70
0
 62
7
  6
CONTINUOUS
370
-3
390
F
  0
LAYER
  5
209
100
AcDbSymbolTableRecord
100
AcDbLayerTableRecord
  2
16_MISC
 70
0
 62
7
  6
CONTINUOUS
370
-3
390
F
  0
LAYER
  5
20A
100
AcDbSymbolTableRecord
100
AcDbLayerTableRecord
  2
17_NO_PRINT
 70
0
 62
7
  6
CONTINUOUS
370
-3
390
F
  0
LAYER
  5
20B
100
AcDbSymbolTableRecord
100
AcDbLayerTableRecord
  2
18_DATUM_CAMS_JOINTS
 70
0
 62
7
  6
CONTINUOUS
370
-3
390
F
  0
LAYER
  5
20C
100
AcDbSymbolTableRecord
100
AcDbLayerTableRecord
  2
19_DATUM_FUNCTIONAL
 70
0
 62
7
  6
CONTINUOUS
370
-3
390
F
  0
LAYER
  5
20D
100
AcDbSymbolTableRecord
100
AcDbLayerTableRecord
  2
20_DATUM_KINEMATIC_SCHEME
 70
0
 62
7
  6
CONTINUOUS
370
-3
390
F
  0
ENDTAB
  0
TABLE
  2
STYLE
  5
3
100
AcDbSymbolTable
 70
1
  0
STYLE
  5
11
100
AcDbSymbolTableRecord
100
AcDbTextStyleTableRecord
  2
STANDARD
 70
0
 40
0.0
 41
0.8
 50
0.0
 71
0
 42
0.2
  3
txt
  4

  0
STYLE
  5
20E
100
AcDbSymbolTableRecord
100
AcDbTextStyleTableRecord
  2
TEXTSTYLE_1
 70
0
 40
0.0
 41
0.8
 50
0.0
 71
0
 42
0.2
  3
gdt
  4

  0
ENDTAB
  0
TABLE
  2
VIEW
  5
6
100
AcDbSymbolTable
 70
0
  0
ENDTAB
  0
TABLE
  2
UCS
  5
7
100
AcDbSymbolTable
 70
0
  0
ENDTAB
  0
TABLE
  2
APPID
  5
9
100
AcDbSymbolTable
 70
1
  0
APPID
  5
20F
100
AcDbSymbolTableRecord
100
AcDbRegAppTableRecord
  2
ACAD
 70
0
  0
ENDTAB
  0
TABLE
  2
BLOCK_RECORD
  5
1
100
AcDbSymbolTable
 70
0
  0
BLOCK_RECORD
  5
210
100
AcDbSymbolTableRecord
100
AcDbBlockTableRecord
  2
*Model_Space
  0
BLOCK_RECORD
  5
211
100
AcDbSymbolTableRecord
100
AcDbBlockTableRecord
  2
*Paper_Space
  0
BLOCK_RECORD
  5
212
100
AcDbSymbolTableRecord
100
AcDbBlockTableRecord
  2
_FILLED
  0
ENDTAB
  0
TABLE
  2
DIMSTYLE
  5
A
100
AcDbSymbolTable
 70
1
100
AcDbDimStyleTable
 71
0
  0
DIMSTYLE
105
213
100
AcDbSymbolTableRecord
100
AcDbDimStyleTableRecord
  2
STANDARD
 70
0
  3

  4

 40
1.0
 41
5.5307829377
 42
1.0
 43
0.38
 44
1.0
 45
0.0
 46
0.0
 47
0.01
 48
0.01
140
7.7430961128
141
0.09
142
0.0
143
25.4
144
1.0
145
0.0
146
1.0
147
0.625
 71
1
 72
0
 73
0
 74
0
 75
0
 76
0
 77
1
 78
8
 79
2
170
0
171
1
172
0
173
0
174
0
175
0
176
0
177
0
178
0
270
2
179
2
271
2
272
2
273
2
274
2
275
0
280
0
281
0
282
0
283
1
284
8
285
0
286
0
287
3
288
0
340
11
278
46
341
212
342
212
343
212
344
212
  0
ENDTAB
  0
ENDSEC
  0
SECTION
  2
BLOCKS
  0
BLOCK
  5
20
100
AcDbEntity
  8
0
100
AcDbBlockBegin
  2
*Model_Space
 70
0
 10
0.0
 20
0.0
 30
0.0
  3
*Model_Space
  1

  0
ENDBLK
  5
21
100
AcDbEntity
  8
0
100
AcDbBlockEnd
  0
BLOCK
  5
1C
100
AcDbEntity
  8
0
100
AcDbBlockBegin
  2
*Paper_Space
 70
0
 10
0.0
 20
0.0
 30
0.0
  3
*Paper_Space
  1

  0
ENDBLK
  5
1D
100
AcDbEntity
  8
0
100
AcDbBlockEnd
  0
BLOCK
  5
214
100
AcDbEntity
  8
0
100
AcDbBlockBegin
  2
_FILLED
 70
64
 10
0.0
 20
0.0
  3
_FILLED
  1

  0
SOLID
  5
215
100
AcDbEntity
  8
0
  6
BYBLOCK
 62
0
100
AcDbTrace
 10
0.0
 20
0.0
 11
-1.0
 21
0.25
 12
-1.0
 22
-0.25
 13
-1.0
 23
-0.25
  0
ENDBLK
  5
216
100
AcDbEntity
  8
0
  6
BYBLOCK
 62
0
100
AcDbBlockEnd
  0
ENDSEC
  0
SECTION
  2
ENTITIES
  0
LINE
  5
217
100
AcDbEntity
  8
0
100
AcDbLine
 62
7
  6
CONTINUOUS
 10
241.6890401353
 20
61.4603613566
 11
239.1890401353
 21
61.4583208868
  0
LINE
  5
218
100
AcDbEntity
  8
0
100
AcDbLine
 62
7
  6
CONTINUOUS
 10
239.1890401353
 20
54.2856161294
 11
127.6446669318
 21
54.2856161294
  0
LINE
  5
219
100
AcDbEntity
  8
0
100
AcDbLine
 62
7
  6
CONTINUOUS
 10
240.6890401353
 20
59.3713968738
 11
239.1890401353
 21
59.3713968738
  0
LINE
  5
21A
100
AcDbEntity
  8
0
100
AcDbLine
 62
7
  6
CONTINUOUS
 10
250.1890401353
 20
108.3752042049
 11
243.6890401353
 21
108.3752042049
  0
LINE
  5
21B
100
AcDbEntity
  8
0
100
AcDbLine
 62
7
  6
CONTINUOUS
 10
250.1890401353
 20
110.374290515
 11
243.6890401353
 21
110.374290515
  0
LINE
  5
21C
100
AcDbEntity
  8
0
100
AcDbLine
 62
7
  6
CONTINUOUS
 10
350.1890401353
 20
114.8713968738
 11
352.6890401353
 21
114.8713968738
  0
LINE
  5
21D
100
AcDbEntity
  8
0
100
AcDbLine
 62
7
  6
CONTINUOUS
 10
243.6890401353
 20
123.3715490239
 11
250.1890401353
 21
123.3715490239
  0
LINE
  5
21E
100
AcDbEntity
  8
0
100
AcDbLine
 62
7
  6
CONTINUOUS
 10
241.6890401353
 20
123.8713968738
 11
243.6890401353
 21
123.8713968738
  0
LINE
  5
21F
100
AcDbEntity
  8
0
100
AcDbLine
 62
7
  6
CONTINUOUS
 10
239.1890401353
 20
124.3716070327
 11
250.1890401353
 21
124.3713968738
  0
LINE
  5
220
100
AcDbEntity
  8
0
100
AcDbLine
 62
7
  6
CONTINUOUS
 10
243.6890401353
 20
124.3896149585
 11
250.1890401353
 21
124.3896149585
  0
LINE
  5
221
100
AcDbEntity
  8
0
100
AcDbLine
 62
7
  6
CONTINUOUS
 10
250.1890401353
 20
126.3898381547
 11
243.6890401353
 21
126.3898381547
  0
LINE
  5
222
100
AcDbEntity
  8
0
100
AcDbLine
 62
7
  6
CONTINUOUS
 10
250.1890401353
 20
129.3713968738
 11
345.6890401353
 21
129.3713968738
  0
LINE
  5
223
100
AcDbEntity
  8
0
100
AcDbLine
 62
7
  6
CONTINUOUS
 10
350.1890401353
 20
137.8713968738
 11
345.6890401353
 21
137.8713968738
  0
LINE
  5
224
100
AcDbEntity
  8
0
100
AcDbLine
 62
7
  6
CONTINUOUS
 10
143.1890401353
 20
175.2856161294
 11
239.1890401353
 21
175.2856161294
  0
LINE
  5
225
100
AcDbEntity
  8
0
100
AcDbLine
 62
7
  6
CONTINUOUS
 10
143.6890401353
 20
175.3713968738
 11
243.6890401353
 21
175.3713968738
  0
LINE
  5
226
100
AcDbEntity
  8
0
100
AcDbLine
 62
7
  6
CONTINUOUS
 10
228.4390401353
 20
184.1384826468
 11
151.9390401353
 21
184.1384826468
  0
LINE
  5
227
100
AcDbEntity
  8
0
100
AcDbLine
 62
7
  6
CONTINUOUS
 10
151.9390401353
 20
189.1428451876
 11
228.4390401353
 21
189.1428451876
  0
LINE
  5
228
100
AcDbEntity
  8
0
100
AcDbLine
 62
7
  6
CONTINUOUS
 10
228.4390401353
 20
194.1384826468
 11
151.9390401353
 21
194.1384826468
  0
LINE
  5
229
100
AcDbEntity
  8
0
100
AcDbLine
 62
7
  6
CONTINUOUS
 10
151.9390401353
 20
199.1428451876
 11
228.4390401353
 21
199.1428451876
  0
LINE
  5
22A
100
AcDbEntity
  8
0
100
AcDbLine
 62
7
  6
CONTINUOUS
 10
228.4390401353
 20
204.1384826468
 11
151.9390401353
 21
204.1384826468
  0
LINE
  5
22B
100
AcDbEntity
  8
0
100
AcDbLine
 62
7
  6
CONTINUOUS
 10
151.9390401353
 20
209.1428451876
 11
228.4390401353
 21
209.1428451876
  0
LINE
  5
22C
100
AcDbEntity
  8
0
100
AcDbLine
 62
7
  6
CONTINUOUS
 10
119.9390401353
 20
602.7713968738
 11
119.9390401353
 21
543.8713968738
  0
LINE
  5
22D
100
AcDbEntity
  8
0
100
AcDbLine
 62
7
  6
CONTINUOUS
 10
121.2620308907
 20
449.0913968738
 11
121.2620308907
 21
543.8713968738
  0
LINE
  5
22E
100
AcDbEntity
  8
0
100
AcDbLine
 62
7
  6
CONTINUOUS
 10
127.1890401353
 20
423.8713968738
 11
127.1890401353
 21
543.8713968738
  0
LINE
  5
22F
100
AcDbEntity
  8
0
100
AcDbLine
 62
7
  6
CONTINUOUS
 10
127.6446669318
 20
54.2856161294
 11
127.6446669318
 21
423.8563900262
  0
LINE
  5
230
100
AcDbEntity
  8
0
100
AcDbLine
 62
7
  6
CONTINUOUS
 10
130.1890401353
 20
423.8563900262
 11
130.1890401353
 21
424.488433419
  0
LINE
  5
231
100
AcDbEntity
  8
0
100
AcDbLine
 62
7
  6
CONTINUOUS
 10
228.4390401353
 20
214.1384826468
 11
151.9390401353
 21
214.1384826468
  0
LINE
  5
232
100
AcDbEntity
  8
0
100
AcDbLine
 62
7
  6
CONTINUOUS
 10
151.9390401353
 20
219.1428451876
 11
228.4390401353
 21
219.1428451876
  0
LINE
  5
233
100
AcDbEntity
  8
0
100
AcDbLine
 62
7
  6
CONTINUOUS
 10
228.4390401353
 20
224.1384826468
 11
151.9390401353
 21
224.1384826468
  0
LINE
  5
234
100
AcDbEntity
  8
0
100
AcDbLine
 62
7
  6
CONTINUOUS
 10
151.9390401353
 20
229.1428451876
 11
228.4390401353
 21
229.1428451876
  0
LINE
  5
235
100
AcDbEntity
  8
0
100
AcDbLine
 62
7
  6
CONTINUOUS
 10
143.1890401353
 20
423.8563900262
 11
143.1890401353
 21
175.2856161294
  0
LINE
  5
236
100
AcDbEntity
  8
0
100
AcDbLine
 62
7
  6
CONTINUOUS
 10
143.6890401353
 20
424.488433419
 11
143.6890401353
 21
175.3713968738
  0
LINE
  5
237
100
AcDbEntity
  8
0
100
AcDbLine
 62
7
  6
CONTINUOUS
 10
155.6685129883
 20
175.2856161294
 11
155.6685129883
 21
175.3713968738
  0
LINE
  5
238
100
AcDbEntity
  8
0
100
AcDbLine
 62
7
  6
CONTINUOUS
 10
228.4390401353
 20
234.1384826468
 11
151.9390401353
 21
234.1384826468
  0
LINE
  5
239
100
AcDbEntity
  8
0
100
AcDbLine
 62
7
  6
CONTINUOUS
 10
151.9390401353
 20
239.1428451876
 11
228.4390401353
 21
239.1428451876
  0
LINE
  5
23A
100
AcDbEntity
  8
0
100
AcDbLine
 62
7
  6
CONTINUOUS
 10
228.4390401353
 20
244.1384826468
 11
151.9390401353
 21
244.1384826468
  0
LINE
  5
23B
100
AcDbEntity
  8
0
100
AcDbLine
 62
7
  6
CONTINUOUS
 10
151.9390401353
 20
249.1428451876
 11
228.4390401353
 21
249.1428451876
  0
LINE
  5
23C
100
AcDbEntity
  8
0
100
AcDbLine
 62
7
  6
CONTINUOUS
 10
228.4390401353
 20
254.1384826468
 11
151.9390401353
 21
254.1384826468
  0
LINE
  5
23D
100
AcDbEntity
  8
0
100
AcDbLine
 62
7
  6
CONTINUOUS
 10
151.9390401353
 20
259.1428451876
 11
228.4390401353
 21
259.1428451876
  0
LINE
  5
23E
100
AcDbEntity
  8
0
100
AcDbLine
 62
7
  6
CONTINUOUS
 10
228.4390401353
 20
264.1384826468
 11
151.9390401353
 21
264.1384826468
  0
LINE
  5
23F
100
AcDbEntity
  8
0
100
AcDbLine
 62
7
  6
CONTINUOUS
 10
151.9390401353
 20
269.1428451876
 11
228.4390401353
 21
269.1428451876
  0
LINE
  5
240
100
AcDbEntity
  8
0
100
AcDbLine
 62
7
  6
CONTINUOUS
 10
195.6890401353
 20
175.3713968738
 11
195.6890401353
 21
175.2856161294
  0
LINE
  5
241
100
AcDbEntity
  8
0
100
AcDbLine
 62
7
  6
CONTINUOUS
 10
228.4390401353
 20
274.1384826468
 11
151.9390401353
 21
274.1384826468
  0
LINE
  5
242
100
AcDbEntity
  8
0
100
AcDbLine
 62
7
  6
CONTINUOUS
 10
151.9390401353
 20
279.1428451876
 11
228.4390401353
 21
279.1428451876
  0
LINE
  5
243
100
AcDbEntity
  8
0
100
AcDbLine
 62
7
  6
CONTINUOUS
 10
228.4390401353
 20
284.1384826468
 11
151.9390401353
 21
284.1384826468
  0
LINE
  5
244
100
AcDbEntity
  8
0
100
AcDbLine
 62
7
  6
CONTINUOUS
 10
151.9390401353
 20
289.1428451876
 11
228.4390401353
 21
289.1428451876
  0
LINE
  5
245
100
AcDbEntity
  8
0
100
AcDbLine
 62
7
  6
CONTINUOUS
 10
143.6890401353
 20
368.52723015
 11
143.1890401353
 21
369.171060936
  0
LINE
  5
246
100
AcDbEntity
  8
0
100
AcDbLine
 62
7
  6
CONTINUOUS
 10
143.1890401353
 20
369.4557165373
 11
143.6890401353
 21
368.8118857513
  0
LINE
  5
247
100
AcDbEntity
  8
0
100
AcDbLine
 62
7
  6
CONTINUOUS
 10
228.4390401353
 20
294.1384826468
 11
151.9390401353
 21
294.1384826468
  0
LINE
  5
248
100
AcDbEntity
  8
0
100
AcDbLine
 62
7
  6
CONTINUOUS
 10
151.9390401353
 20
299.1428451876
 11
228.4390401353
 21
299.1428451876
  0
LINE
  5
249
100
AcDbEntity
  8
0
100
AcDbLine
 62
7
  6
CONTINUOUS
 10
228.4390401353
 20
304.1384826468
 11
151.9390401353
 21
304.1384826468
  0
LINE
  5
24A
100
AcDbEntity
  8
0
100
AcDbLine
 62
7
  6
CONTINUOUS
 10
151.9390401353
 20
309.1428451876
 11
228.4390401353
 21
309.1428451876
  0
LINE
  5
24B
100
AcDbEntity
  8
0
100
AcDbLine
 62
7
  6
CONTINUOUS
 10
143.6890401353
 20
382.7043632922
 11
143.1890401353
 21
383.204357284
  0
LINE
  5
24C
100
AcDbEntity
  8
0
100
AcDbLine
 62
7
  6
CONTINUOUS
 10
228.4390401353
 20
314.1384826468
 11
151.9390401353
 21
314.1384826468
  0
LINE
  5
24D
100
AcDbEntity
  8
0
100
AcDbLine
 62
7
  6
CONTINUOUS
 10
151.9390401353
 20
319.1428451876
 11
228.4390401353
 21
319.1428451876
  0
LINE
  5
24E
100
AcDbEntity
  8
0
100
AcDbLine
 62
7
  6
CONTINUOUS
 10
228.4390401353
 20
324.1384826468
 11
151.9390401353
 21
324.1384826468
  0
LINE
  5
24F
100
AcDbEntity
  8
0
100
AcDbLine
 62
7
  6
CONTINUOUS
 10
151.9390401353
 20
329.1428451876
 11
228.4390401353
 21
329.1428451876
  0
LINE
  5
250
100
AcDbEntity
  8
0
100
AcDbLine
 62
7
  6
CONTINUOUS
 10
239.1890401353
 20
175.2856161294
 11
239.1890401353
 21
54.2856161294
  0
LINE
  5
251
100
AcDbEntity
  8
0
100
AcDbLine
 62
7
  6
CONTINUOUS
 10
241.6890401353
 20
61.4603613566
 11
241.6890401353
 21
123.8713968738
  0
LINE
  5
252
100
AcDbEntity
  8
0
100
AcDbLine
 62
7
  6
CONTINUOUS
 10
243.6890401353
 20
62.3713968738
 11
243.6890401353
 21
175.3713968738
  0
LINE
  5
253
100
AcDbEntity
  8
0
100
AcDbLine
 62
7
  6
CONTINUOUS
 10
250.1890401353
 20
543.8713968738
 11
250.1890401353
 21
123.372816845
  0
LINE
  5
254
100
AcDbEntity
  8
0
100
AcDbLine
 62
7
  6
CONTINUOUS
 10
250.1890401353
 20
108.3752042049
 11
250.1890401353
 21
123.3715490239
  0
LINE
  5
255
100
AcDbEntity
  8
0
100
AcDbLine
 62
7
  6
CONTINUOUS
 10
228.4390401353
 20
334.1384826468
 11
151.9390401353
 21
334.1384826468
  0
LINE
  5
256
100
AcDbEntity
  8
0
100
AcDbLine
 62
7
  6
CONTINUOUS
 10
151.9390401353
 20
339.1428451876
 11
228.4390401353
 21
339.1428451876
  0
LINE
  5
257
100
AcDbEntity
  8
0
100
AcDbLine
 62
7
  6
CONTINUOUS
 10
228.4390401353
 20
344.1384826468
 11
151.9390401353
 21
344.1384826468
  0
LINE
  5
258
100
AcDbEntity
  8
0
100
AcDbLine
 62
7
  6
CONTINUOUS
 10
151.9390401353
 20
349.1428451876
 11
228.4390401353
 21
349.1428451876
  0
LINE
  5
259
100
AcDbEntity
  8
0
100
AcDbLine
 62
7
  6
CONTINUOUS
 10
262.1390401353
 20
543.8713968738
 11
262.1390401353
 21
602.7713968738
  0
LINE
  5
25A
100
AcDbEntity
  8
0
100
AcDbLine
 62
7
  6
CONTINUOUS
 10
228.4390401353
 20
354.1384826468
 11
151.9390401353
 21
354.1384826468
  0
LINE
  5
25B
100
AcDbEntity
  8
0
100
AcDbLine
 62
7
  6
CONTINUOUS
 10
151.9390401353
 20
359.1428451876
 11
228.4390401353
 21
359.1428451876
  0
LINE
  5
25C
100
AcDbEntity
  8
0
100
AcDbLine
 62
7
  6
CONTINUOUS
 10
228.4390401353
 20
364.1384826468
 11
151.9390401353
 21
364.1384826468
  0
LINE
  5
25D
100
AcDbEntity
  8
0
100
AcDbLine
 62
7
  6
CONTINUOUS
 10
151.9390401353
 20
369.1428451876
 11
228.4390401353
 21
369.1428451876
  0
LINE
  5
25E
100
AcDbEntity
  8
0
100
AcDbLine
 62
7
  6
CONTINUOUS
 10
228.4390401353
 20
374.1384826468
 11
151.9390401353
 21
374.1384826468
  0
LINE
  5
25F
100
AcDbEntity
  8
0
100
AcDbLine
 62
7
  6
CONTINUOUS
 10
151.9390401353
 20
379.1428451876
 11
228.4390401353
 21
379.1428451876
  0
LINE
  5
260
100
AcDbEntity
  8
0
100
AcDbLine
 62
7
  6
CONTINUOUS
 10
228.4390401353
 20
384.1384826468
 11
151.9390401353
 21
384.1384826468
  0
LINE
  5
261
100
AcDbEntity
  8
0
100
AcDbLine
 62
7
  6
CONTINUOUS
 10
151.9390401353
 20
389.1428451876
 11
228.4390401353
 21
389.1428451876
  0
LINE
  5
262
100
AcDbEntity
  8
0
100
AcDbLine
 62
7
  6
CONTINUOUS
 10
143.6890401353
 20
389.1367156023
 11
143.1890401353
 21
389.1629343027
  0
LINE
  5
263
100
AcDbEntity
  8
0
100
AcDbLine
 62
7
  6
CONTINUOUS
 10
143.1890401353
 20
389.0602987075
 11
143.6890401353
 21
389.0340191663
  0
LINE
  5
264
100
AcDbEntity
  8
0
100
AcDbLine
 62
7
  6
CONTINUOUS
 10
228.4390401353
 20
394.1384826468
 11
151.9390401353
 21
394.1384826468
  0
LINE
  5
265
100
AcDbEntity
  8
0
100
AcDbLine
 62
7
  6
CONTINUOUS
 10
151.9390401353
 20
399.1428451876
 11
228.4390401353
 21
399.1428451876
  0
LINE
  5
266
100
AcDbEntity
  8
0
100
AcDbLine
 62
7
  6
CONTINUOUS
 10
228.4390401353
 20
404.1384826468
 11
151.9390401353
 21
404.1384826468
  0
LINE
  5
267
100
AcDbEntity
  8
0
100
AcDbLine
 62
7
  6
CONTINUOUS
 10
151.9390401353
 20
409.1428451876
 11
228.4390401353
 21
409.1428451876
  0
LINE
  5
268
100
AcDbEntity
  8
0
100
AcDbLine
 62
7
  6
CONTINUOUS
 10
228.4390401353
 20
414.1384826468
 11
151.9390401353
 21
414.1384826468
  0
LINE
  5
269
100
AcDbEntity
  8
0
100
AcDbLine
 62
7
  6
CONTINUOUS
 10
151.9390401353
 20
419.1428451876
 11
228.4390401353
 21
419.1428451876
  0
LINE
  5
26A
100
AcDbEntity
  8
0
100
AcDbLine
 62
7
  6
CONTINUOUS
 10
127.6446669318
 20
423.8563900262
 11
143.1890401353
 21
423.8563900262
  0
LINE
  5
26B
100
AcDbEntity
  8
0
100
AcDbLine
 62
7
  6
CONTINUOUS
 10
127.1890401353
 20
423.8713968738
 11
127.6446669318
 21
423.8713968738
  0
LINE
  5
26C
100
AcDbEntity
  8
0
100
AcDbLine
 62
7
  6
CONTINUOUS
 10
228.4390401353
 20
424.1384826468
 11
151.9390401353
 21
424.1384826468
  0
LINE
  5
26D
100
AcDbEntity
  8
0
100
AcDbLine
 62
7
  6
CONTINUOUS
 10
127.1890401353
 20
424.488433419
 11
143.6890401353
 21
424.488433419
  0
LINE
  5
26E
100
AcDbEntity
  8
0
100
AcDbLine
 62
7
  6
CONTINUOUS
 10
151.9390401353
 20
429.1428451876
 11
228.4390401353
 21
429.1428451876
  0
LINE
  5
26F
100
AcDbEntity
  8
0
100
AcDbLine
 62
7
  6
CONTINUOUS
 10
345.6890401353
 20
583.3713968738
 11
345.6890401353
 21
552.6611035062
  0
LINE
  5
270
100
AcDbEntity
  8
0
100
AcDbLine
 62
7
  6
CONTINUOUS
 10
345.6890401353
 20
137.8713968738
 11
345.6890401353
 21
129.3713968738
  0
LINE
  5
271
100
AcDbEntity
  8
0
100
AcDbLine
 62
7
  6
CONTINUOUS
 10
350.1890401353
 20
588.3713968738
 11
350.1890401353
 21
552.6611035062
  0
LINE
  5
272
100
AcDbEntity
  8
0
100
AcDbLine
 62
7
  6
CONTINUOUS
 10
350.1890401353
 20
137.8713968738
 11
350.1890401353
 21
114.8713968738
  0
LINE
  5
273
100
AcDbEntity
  8
0
100
AcDbLine
 62
7
  6
CONTINUOUS
 10
352.6890401353
 20
114.8713968738
 11
352.6890401353
 21
588.3713968738
  0
LINE
  5
274
100
AcDbEntity
  8
0
100
AcDbLine
 62
7
  6
CONTINUOUS
 10
228.4390401353
 20
434.1384826468
 11
151.9390401353
 21
434.1384826468
  0
LINE
  5
275
100
AcDbEntity
  8
0
100
AcDbLine
 62
7
  6
CONTINUOUS
 10
151.9390401353
 20
439.1428451876
 11
228.4390401353
 21
439.1428451876
  0
LINE
  5
276
100
AcDbEntity
  8
0
100
AcDbLine
 62
7
  6
CONTINUOUS
 10
121.675650265
 20
442.3207609102
 11
127.1890401353
 21
442.3207609102
  0
LINE
  5
277
100
AcDbEntity
  8
0
100
AcDbLine
 62
7
  6
CONTINUOUS
 10
228.4390401353
 20
444.1384826468
 11
151.9390401353
 21
444.1384826468
  0
LINE
  5
278
100
AcDbEntity
  8
0
100
AcDbLine
 62
7
  6
CONTINUOUS
 10
127.1890401353
 20
449.0913968738
 11
121.2620308907
 21
449.0913968738
  0
LINE
  5
279
100
AcDbEntity
  8
0
100
AcDbLine
 62
7
  6
CONTINUOUS
 10
151.9390401353
 20
449.1428451876
 11
228.4390401353
 21
449.1428451876
  0
LINE
  5
27A
100
AcDbEntity
  8
0
100
AcDbLine
 62
7
  6
CONTINUOUS
 10
228.4390401353
 20
454.1384826468
 11
151.9390401353
 21
454.1384826468
  0
LINE
  5
27B
100
AcDbEntity
  8
0
100
AcDbLine
 62
7
  6
CONTINUOUS
 10
151.9390401353
 20
459.1428451876
 11
228.4390401353
 21
459.1428451876
  0
LINE
  5
27C
100
AcDbEntity
  8
0
100
AcDbLine
 62
7
  6
CONTINUOUS
 10
228.4390401353
 20
464.1384826468
 11
151.9390401353
 21
464.1384826468
  0
LINE
  5
27D
100
AcDbEntity
  8
0
100
AcDbLine
 62
7
  6
CONTINUOUS
 10
151.9390401353
 20
469.1428451876
 11
228.4390401353
 21
469.1428451876
  0
LINE
  5
27E
100
AcDbEntity
  8
0
100
AcDbLine
 62
7
  6
CONTINUOUS
 10
228.4390401353
 20
474.1384826468
 11
151.9390401353
 21
474.1384826468
  0
LINE
  5
27F
100
AcDbEntity
  8
0
100
AcDbLine
 62
7
  6
CONTINUOUS
 10
151.9390401353
 20
479.1428451876
 11
228.4390401353
 21
479.1428451876
  0
LINE
  5
280
100
AcDbEntity
  8
0
100
AcDbLine
 62
7
  6
CONTINUOUS
 10
228.4390401353
 20
484.1384826468
 11
151.9390401353
 21
484.1384826468
  0
LINE
  5
281
100
AcDbEntity
  8
0
100
AcDbLine
 62
7
  6
CONTINUOUS
 10
151.9390401353
 20
489.1428451876
 11
228.4390401353
 21
489.1428451876
  0
LINE
  5
282
100
AcDbEntity
  8
0
100
AcDbLine
 62
7
  6
CONTINUOUS
 10
340.1826357606
 20
500.0332781477
 11
267.1947410139
 21
499.590991978
  0
LINE
  5
283
100
AcDbEntity
  8
0
100
AcDbLine
 62
7
  6
CONTINUOUS
 10
340.182635761
 20
510.0332781477
 11
267.1947410167
 21
509.590991978
  0
LINE
  5
284
100
AcDbEntity
  8
0
100
AcDbLine
 62
7
  6
CONTINUOUS
 10
228.4390401353
 20
494.1384826468
 11
151.9390401353
 21
494.1384826468
  0
LINE
  5
285
100
AcDbEntity
  8
0
100
AcDbLine
 62
7
  6
CONTINUOUS
 10
151.9390401353
 20
499.1428451876
 11
228.4390401353
 21
499.1428451876
  0
LINE
  5
286
100
AcDbEntity
  8
0
100
AcDbLine
 62
7
  6
CONTINUOUS
 10
228.4390401353
 20
504.1384826468
 11
151.9390401353
 21
504.1384826468
  0
LINE
  5
287
100
AcDbEntity
  8
0
100
AcDbLine
 62
7
  6
CONTINUOUS
 10
151.9390401353
 20
509.1428451876
 11
228.4390401353
 21
509.1428451876
  0
LINE
  5
288
100
AcDbEntity
  8
0
100
AcDbLine
 62
7
  6
CONTINUOUS
 10
267.1937928411
 20
507.1518075152
 11
340.1816108151
 21
506.7095218108
  0
LINE
  5
289
100
AcDbEntity
  8
0
100
AcDbLine
 62
7
  6
CONTINUOUS
 10
340.1887936749
 20
526.7094782847
 11
267.1888341045
 21
526.6537426668
  0
LINE
  5
28A
100
AcDbEntity
  8
0
100
AcDbLine
 62
7
  6
CONTINUOUS
 10
228.4390401353
 20
514.1384826468
 11
151.9390401353
 21
514.1384826468
  0
LINE
  5
28B
100
AcDbEntity
  8
0
100
AcDbLine
 62
7
  6
CONTINUOUS
 10
151.9390401353
 20
519.1428451876
 11
228.4390401353
 21
519.1428451876
  0
LINE
  5
28C
100
AcDbEntity
  8
0
100
AcDbLine
 62
7
  6
CONTINUOUS
 10
228.4390401353
 20
524.1384826468
 11
151.9390401353
 21
524.1384826468
  0
LINE
  5
28D
100
AcDbEntity
  8
0
100
AcDbLine
 62
7
  6
CONTINUOUS
 10
151.9390401353
 20
529.1428451876
 11
228.4390401353
 21
529.1428451876
  0
LINE
  5
28E
100
AcDbEntity
  8
0
100
AcDbLine
 62
7
  6
CONTINUOUS
 10
267.1888341045
 20
520.0890510808
 11
340.1887936749
 21
520.0333154629
  0
LINE
  5
28F
100
AcDbEntity
  8
0
100
AcDbLine
 62
7
  6
CONTINUOUS
 10
267.1937928419
 20
517.1518075152
 11
340.181610818
 21
516.7095218108
  0
LINE
  5
290
100
AcDbEntity
  8
0
100
AcDbLine
 62
7
  6
CONTINUOUS
 10
228.4390401353
 20
534.1384826468
 11
151.9390401353
 21
534.1384826468
  0
LINE
  5
291
100
AcDbEntity
  8
0
100
AcDbLine
 62
7
  6
CONTINUOUS
 10
151.9390401353
 20
539.1428451876
 11
228.4390401353
 21
539.1428451876
  0
LINE
  5
292
100
AcDbEntity
  8
0
100
AcDbLine
 62
7
  6
CONTINUOUS
 10
119.9390401353
 20
543.8713968738
 11
262.1390401353
 21
543.8713968738
  0
LINE
  5
293
100
AcDbEntity
  8
0
100
AcDbLine
 62
7
  6
CONTINUOUS
 10
350.1890401353
 20
552.6611035062
 11
345.6890401353
 21
552.6611035062
  0
LINE
  5
294
100
AcDbEntity
  8
0
100
AcDbLine
 62
7
  6
CONTINUOUS
 10
262.1390401353
 20
564.477719934
 11
345.6890401353
 21
564.477719934
  0
LINE
  5
295
100
AcDbEntity
  8
0
100
AcDbLine
 62
7
  6
CONTINUOUS
 10
345.6890401353
 20
566.5797945621
 11
262.1390401353
 21
566.5797945621
  0
LINE
  5
296
100
AcDbEntity
  8
0
100
AcDbLine
 62
7
  6
CONTINUOUS
 10
262.1390401353
 20
567.0734070656
 11
345.6890401353
 21
567.0734070656
  0
LINE
  5
297
100
AcDbEntity
  8
0
100
AcDbLine
 62
7
  6
CONTINUOUS
 10
345.6890401353
 20
573.0651842741
 11
262.1390401353
 21
573.0651842741
  0
LINE
  5
298
100
AcDbEntity
  8
0
100
AcDbLine
 62
7
  6
CONTINUOUS
 10
119.9390401353
 20
577.5013968738
 11
262.1390401353
 21
577.5013968738
  0
LINE
  5
299
100
AcDbEntity
  8
0
100
AcDbLine
 62
7
  6
CONTINUOUS
 10
262.1390401353
 20
581.3713968738
 11
345.6890401353
 21
581.3713968738
  0
LINE
  5
29A
100
AcDbEntity
  8
0
100
AcDbLine
 62
7
  6
CONTINUOUS
 10
345.6890401353
 20
583.3713968738
 11
262.1390401353
 21
583.3713968738
  0
LINE
  5
29B
100
AcDbEntity
  8
0
100
AcDbLine
 62
7
  6
CONTINUOUS
 10
350.1890401353
 20
588.3713968738
 11
352.6890401353
 21
588.3713968738
  0
LINE
  5
29C
100
AcDbEntity
  8
0
100
AcDbLine
 62
7
  6
CONTINUOUS
 10
119.9390401353
 20
602.7713968738
 11
262.1390401353
 21
602.7713968738
  0
ARC
  5
29D
100
AcDbEntity
  8
0
100
AcDbCircle
 62
7
  6
CONTINUOUS
 10
267.1922428678
 20
503.3714842631
 40
3.7793727577
100
AcDbArc
 50
89.9765081148
 51
270.0378609967
  0
ARC
  5
29E
100
AcDbEntity
  8
0
100
AcDbCircle
 62
7
  6
CONTINUOUS
 10
267.1922428679
 20
513.3714842631
 40
3.7793727577
100
AcDbArc
 50
89.9765081022
 51
270.037861038
  0
ARC
  5
29F
100
AcDbEntity
  8
0
100
AcDbCircle
 62
7
  6
CONTINUOUS
 10
340.1903646206
 20
523.3713121202
 40
3.3369404374
100
AcDbArc
 50
269.8713791604
 51
90.1455098924
  0
ARC
  5
2A0
100
AcDbEntity
  8
0
100
AcDbCircle
 62
7
  6
CONTINUOUS
 10
340.1903646208
 20
503.3713121201
 40
3.3369404372
100
AcDbArc
 50
269.867337995
 51
90.1502466938
  0
ARC
  5
2A1
100
AcDbEntity
  8
0
100
AcDbCircle
 62
7
  6
CONTINUOUS
 10
340.1903646205
 20
513.3713121203
 40
3.3369404374
100
AcDbArc
 50
269.8673380069
 51
90.1502466405
  0
ARC
  5
2A2
100
AcDbEntity
  8
0
100
AcDbCircle
 62
7
  6
CONTINUOUS
 10
267.192244847
 20
523.3714827192
 40
3.2812570623
100
AcDbArc
 50
89.9608210789
 51
270.0560571208
  0
ARC
  5
2A3
100
AcDbEntity
  8
0
100
AcDbCircle
 62
7
  6
CONTINUOUS
 10
240.6890401353
 20
62.3713968738
 40
3.0
100
AcDbArc
 50
270.0
 51
360.0
  0
SPLINE
  5
2A4
100
AcDbEntity
  8
0
100
AcDbSpline
 62
7
  6
CONTINUOUS
 70
0
 71
3
 72
18
 73
14
 74
0
 42
0.0000001
 43
0.0000001
 44
0.0000000001
 40
0.0
 40
0.0
 40
0.0
 40
0.0
 40
0.1940964809
 40
0.3807710374
 40
0.5527723278
 40
0.7035931624
 40
0.8274916508
 40
0.8778592056
 40
0.9198570091
 40
0.9531271966
 40
0.977434282
 40
0.9927490562
 40
1.0
 40
1.0
 40
1.0
 40
1.0
 10
121.2620308907
 20
449.0913968738
 30
0.0
 10
121.2620308907
 20
448.650753389
 30
0.0
 10
121.2676295247
 20
447.7863028163
 30
0.0
 10
121.2924164929
 20
446.5315980219
 30
0.0
 10
121.3320397755
 20
445.3755294784
 30
0.0
 10
121.3840323128
 20
444.3627242471
 30
0.0
 10
121.4379627351
 20
443.6264007425
 30
0.0
 10
121.486870264
 20
443.1381013911
 30
0.0
 10
121.5225882725
 20
442.8545119035
 30
0.0
 10
121.5571164503
 20
442.6326035788
 30
0.0
 10
121.5950602191
 20
442.4675388856
 30
0.0
 10
121.6235659839
 20
442.3724371919
 30
0.0
 10
121.6591889611
 20
442.3207609102
 30
0.0
 10
121.675650265
 20
442.3207609102
 30
0.0
  0
SPLINE
  5
2A5
100
AcDbEntity
  8
0
100
AcDbSpline
 62
7
  6
CONTINUOUS
 70
0
 71
3
 72
20
 73
16
 74
0
 42
0.0000001
 43
0.0000001
 44
0.0000000001
 40
0.0
 40
0.0
 40
0.0
 40
0.0
 40
0.066449581
 40
0.1408622038
 40
0.224798848
 40
0.3202913435
 40
0.4257743661
 40
0.5291751364
 40
0.6223134441
 40
0.7042328867
 40
0.7770803983
 40
0.8422719038
 40
0.9006492819
 40
0.9528181004
 40
1.0
 40
1.0
 40
1.0
 40
1.0
 10
151.9390401353
 20
534.1384826468
 30
0.0
 10
151.7699072983
 20
534.1384704159
 30
0.0
 10
151.4101772548
 20
534.1784978848
 30
0.0
 10
150.8665319658
 20
534.3742890019
 30
0.0
 10
150.3291076885
 20
534.7476017599
 30
0.0
 10
149.8700676785
 20
535.3235278558
 30
0.0
 10
149.5919926047
 20
536.0608007104
 30
0.0
 10
149.5472460119
 20
536.8393054892
 30
0.0
 10
149.7025103617
 20
537.5393135728
 30
0.0
 10
149.992588507
 20
538.1068130411
 30
0.0
 10
150.3611521105
 20
538.5348205064
 30
0.0
 10
150.7659113547
 20
538.8346861286
 30
0.0
 10
151.1744934929
 20
539.0236526039
 30
0.0
 10
151.5656324777
 20
539.1225888022
 30
0.0
 10
151.8189489558
 20
539.1428420242
 30
0.0
 10
151.9390401353
 20
539.1428451877
 30
0.0
  0
SPLINE
  5
2A6
100
AcDbEntity
  8
0
100
AcDbSpline
 62
7
  6
CONTINUOUS
 70
0
 71
3
 72
21
 73
17
 74
0
 42
0.0000001
 43
0.0000001
 44
0.0000000001
 40
0.0
 40
0.0
 40
0.0
 40
0.0
 40
0.0622035462
 40
0.1311653201
 40
0.2086972051
 40
0.2961574318
 40
0.3893364722
 40
0.4812211202
 40
0.5687911804
 40
0.6511268744
 40
0.7264419628
 40
0.7930199499
 40
0.8528146258
 40
0.9069738043
 40
0.955691273
 40
1.0
 40
1.0
 40
1.0
 40
1.0
 10
228.4390401353
 20
539.1428451876
 30
0.0
 10
228.5974331392
 20
539.1428549586
 30
0.0
 10
228.9324384217
 20
539.1074248669
 30
0.0
 10
229.4400453688
 20
538.935196808
 30
0.0
 10
229.9466584527
 20
538.6093866998
 30
0.0
 10
230.3912786103
 20
538.1135955738
 30
0.0
 10
230.6988104837
 20
537.4814574681
 30
0.0
 10
230.8283105634
 20
536.7914543043
 30
0.0
 10
230.7836601649
 20
536.1194634273
 30
0.0
 10
230.5899365095
 20
535.5192544941
 30
0.0
 10
230.287459965
 20
535.0287446565
 30
0.0
 10
229.9243191425
 20
534.6600384417
 30
0.0
 10
229.5392772575
 20
534.4035553936
 30
0.0
 10
229.1556471021
 20
534.2414653692
 30
0.0
 10
228.7891004989
 20
534.1560368787
 30
0.0
 10
228.5518663777
 20
534.1384862622
 30
0.0
 10
228.4390401353
 20
534.1384826468
 30
0.0
  0
SPLINE
  5
2A7
100
AcDbEntity
  8
0
100
AcDbSpline
 62
7
  6
CONTINUOUS
 70
0
 71
3
 72
20
 73
16
 74
0
 42
0.0000001
 43
0.0000001
 44
0.0000000001
 40
0.0
 40
0.0
 40
0.0
 40
0.0
 40
0.066449581
 40
0.1408622038
 40
0.224798848
 40
0.3202913435
 40
0.4257743661
 40
0.5291751364
 40
0.6223134441
 40
0.7042328867
 40
0.7770803983
 40
0.8422719038
 40
0.9006492819
 40
0.9528181004
 40
1.0
 40
1.0
 40
1.0
 40
1.0
 10
151.9390401353
 20
524.1384826468
 30
0.0
 10
151.7699072983
 20
524.1384704159
 30
0.0
 10
151.4101772548
 20
524.1784978848
 30
0.0
 10
150.8665319658
 20
524.3742890019
 30
0.0
 10
150.3291076885
 20
524.7476017599
 30
0.0
 10
149.8700676785
 20
525.3235278558
 30
0.0
 10
149.5919926047
 20
526.0608007104
 30
0.0
 10
149.5472460119
 20
526.8393054892
 30
0.0
 10
149.7025103617
 20
527.5393135728
 30
0.0
 10
149.992588507
 20
528.1068130411
 30
0.0
 10
150.3611521105
 20
528.5348205064
 30
0.0
 10
150.7659113547
 20
528.8346861286
 30
0.0
 10
151.1744934929
 20
529.0236526039
 30
0.0
 10
151.5656324777
 20
529.1225888022
 30
0.0
 10
151.8189489558
 20
529.1428420242
 30
0.0
 10
151.9390401353
 20
529.1428451877
 30
0.0
  0
SPLINE
  5
2A8
100
AcDbEntity
  8
0
100
AcDbSpline
 62
7
  6
CONTINUOUS
 70
0
 71
3
 72
21
 73
17
 74
0
 42
0.0000001
 43
0.0000001
 44
0.0000000001
 40
0.0
 40
0.0
 40
0.0
 40
0.0
 40
0.0622035462
 40
0.1311653201
 40
0.2086972051
 40
0.2961574318
 40
0.3893364722
 40
0.4812211202
 40
0.5687911804
 40
0.6511268744
 40
0.7264419628
 40
0.7930199499
 40
0.8528146258
 40
0.9069738043
 40
0.955691273
 40
1.0
 40
1.0
 40
1.0
 40
1.0
 10
228.4390401353
 20
529.1428451876
 30
0.0
 10
228.5974331392
 20
529.1428549586
 30
0.0
 10
228.9324384217
 20
529.1074248669
 30
0.0
 10
229.4400453688
 20
528.935196808
 30
0.0
 10
229.9466584527
 20
528.6093866998
 30
0.0
 10
230.3912786103
 20
528.1135955738
 30
0.0
 10
230.6988104837
 20
527.4814574681
 30
0.0
 10
230.8283105634
 20
526.7914543043
 30
0.0
 10
230.7836601649
 20
526.1194634273
 30
0.0
 10
230.5899365095
 20
525.5192544941
 30
0.0
 10
230.287459965
 20
525.0287446565
 30
0.0
 10
229.9243191425
 20
524.6600384417
 30
0.0
 10
229.5392772575
 20
524.4035553936
 30
0.0
 10
229.1556471021
 20
524.2414653692
 30
0.0
 10
228.7891004989
 20
524.1560368787
 30
0.0
 10
228.5518663777
 20
524.1384862622
 30
0.0
 10
228.4390401353
 20
524.1384826468
 30
0.0
  0
SPLINE
  5
2A9
100
AcDbEntity
  8
0
100
AcDbSpline
 62
7
  6
CONTINUOUS
 70
0
 71
3
 72
20
 73
16
 74
0
 42
0.0000001
 43
0.0000001
 44
0.0000000001
 40
0.0
 40
0.0
 40
0.0
 40
0.0
 40
0.066449581
 40
0.1408622038
 40
0.224798848
 40
0.3202913435
 40
0.4257743661
 40
0.5291751364
 40
0.6223134441
 40
0.7042328867
 40
0.7770803983
 40
0.8422719038
 40
0.9006492819
 40
0.9528181004
 40
1.0
 40
1.0
 40
1.0
 40
1.0
 10
151.9390401353
 20
514.1384826468
 30
0.0
 10
151.7699072983
 20
514.1384704159
 30
0.0
 10
151.4101772548
 20
514.1784978848
 30
0.0
 10
150.8665319658
 20
514.3742890019
 30
0.0
 10
150.3291076885
 20
514.7476017599
 30
0.0
 10
149.8700676785
 20
515.3235278558
 30
0.0
 10
149.5919926047
 20
516.0608007104
 30
0.0
 10
149.5472460119
 20
516.8393054892
 30
0.0
 10
149.7025103617
 20
517.5393135728
 30
0.0
 10
149.992588507
 20
518.1068130411
 30
0.0
 10
150.3611521105
 20
518.5348205064
 30
0.0
 10
150.7659113547
 20
518.8346861286
 30
0.0
 10
151.1744934929
 20
519.0236526039
 30
0.0
 10
151.5656324777
 20
519.1225888022
 30
0.0
 10
151.8189489558
 20
519.1428420242
 30
0.0
 10
151.9390401353
 20
519.1428451877
 30
0.0
  0
SPLINE
  5
2AA
100
AcDbEntity
  8
0
100
AcDbSpline
 62
7
  6
CONTINUOUS
 70
0
 71
3
 72
21
 73
17
 74
0
 42
0.0000001
 43
0.0000001
 44
0.0000000001
 40
0.0
 40
0.0
 40
0.0
 40
0.0
 40
0.0622035462
 40
0.1311653201
 40
0.2086972051
 40
0.2961574318
 40
0.3893364722
 40
0.4812211202
 40
0.5687911804
 40
0.6511268744
 40
0.7264419628
 40
0.7930199499
 40
0.8528146258
 40
0.9069738043
 40
0.955691273
 40
1.0
 40
1.0
 40
1.0
 40
1.0
 10
228.4390401353
 20
519.1428451876
 30
0.0
 10
228.5974331392
 20
519.1428549586
 30
0.0
 10
228.9324384217
 20
519.1074248669
 30
0.0
 10
229.4400453688
 20
518.935196808
 30
0.0
 10
229.9466584527
 20
518.6093866998
 30
0.0
 10
230.3912786103
 20
518.1135955738
 30
0.0
 10
230.6988104837
 20
517.4814574681
 30
0.0
 10
230.8283105634
 20
516.7914543043
 30
0.0
 10
230.7836601649
 20
516.1194634273
 30
0.0
 10
230.5899365095
 20
515.5192544941
 30
0.0
 10
230.287459965
 20
515.0287446565
 30
0.0
 10
229.9243191425
 20
514.6600384417
 30
0.0
 10
229.5392772575
 20
514.4035553936
 30
0.0
 10
229.1556471021
 20
514.2414653692
 30
0.0
 10
228.7891004989
 20
514.1560368787
 30
0.0
 10
228.5518663777
 20
514.1384862622
 30
0.0
 10
228.4390401353
 20
514.1384826468
 30
0.0
  0
SPLINE
  5
2AB
100
AcDbEntity
  8
0
100
AcDbSpline
 62
7
  6
CONTINUOUS
 70
0
 71
3
 72
20
 73
16
 74
0
 42
0.0000001
 43
0.0000001
 44
0.0000000001
 40
0.0
 40
0.0
 40
0.0
 40
0.0
 40
0.066449581
 40
0.1408622038
 40
0.224798848
 40
0.3202913435
 40
0.4257743661
 40
0.5291751364
 40
0.6223134441
 40
0.7042328867
 40
0.7770803983
 40
0.8422719038
 40
0.9006492819
 40
0.9528181004
 40
1.0
 40
1.0
 40
1.0
 40
1.0
 10
151.9390401353
 20
504.1384826468
 30
0.0
 10
151.7699072983
 20
504.1384704159
 30
0.0
 10
151.4101772548
 20
504.1784978848
 30
0.0
 10
150.8665319658
 20
504.3742890019
 30
0.0
 10
150.3291076885
 20
504.7476017599
 30
0.0
 10
149.8700676785
 20
505.3235278558
 30
0.0
 10
149.5919926047
 20
506.0608007104
 30
0.0
 10
149.5472460119
 20
506.8393054892
 30
0.0
 10
149.7025103617
 20
507.5393135728
 30
0.0
 10
149.992588507
 20
508.1068130411
 30
0.0
 10
150.3611521105
 20
508.5348205064
 30
0.0
 10
150.7659113547
 20
508.8346861286
 30
0.0
 10
151.1744934929
 20
509.0236526039
 30
0.0
 10
151.5656324777
 20
509.1225888022
 30
0.0
 10
151.8189489558
 20
509.1428420242
 30
0.0
 10
151.9390401353
 20
509.1428451877
 30
0.0
  0
SPLINE
  5
2AC
100
AcDbEntity
  8
0
100
AcDbSpline
 62
7
  6
CONTINUOUS
 70
0
 71
3
 72
21
 73
17
 74
0
 42
0.0000001
 43
0.0000001
 44
0.0000000001
 40
0.0
 40
0.0
 40
0.0
 40
0.0
 40
0.0622035462
 40
0.1311653201
 40
0.2086972051
 40
0.2961574318
 40
0.3893364722
 40
0.4812211202
 40
0.5687911804
 40
0.6511268744
 40
0.7264419628
 40
0.7930199499
 40
0.8528146258
 40
0.9069738043
 40
0.955691273
 40
1.0
 40
1.0
 40
1.0
 40
1.0
 10
228.4390401353
 20
509.1428451876
 30
0.0
 10
228.5974331392
 20
509.1428549586
 30
0.0
 10
228.9324384217
 20
509.1074248669
 30
0.0
 10
229.4400453688
 20
508.935196808
 30
0.0
 10
229.9466584527
 20
508.6093866998
 30
0.0
 10
230.3912786103
 20
508.1135955738
 30
0.0
 10
230.6988104837
 20
507.4814574681
 30
0.0
 10
230.8283105634
 20
506.7914543043
 30
0.0
 10
230.7836601649
 20
506.1194634273
 30
0.0
 10
230.5899365095
 20
505.5192544941
 30
0.0
 10
230.287459965
 20
505.0287446565
 30
0.0
 10
229.9243191425
 20
504.6600384417
 30
0.0
 10
229.5392772575
 20
504.4035553936
 30
0.0
 10
229.1556471021
 20
504.2414653692
 30
0.0
 10
228.7891004989
 20
504.1560368787
 30
0.0
 10
228.5518663777
 20
504.1384862622
 30
0.0
 10
228.4390401353
 20
504.1384826468
 30
0.0
  0
SPLINE
  5
2AD
100
AcDbEntity
  8
0
100
AcDbSpline
 62
7
  6
CONTINUOUS
 70
0
 71
3
 72
20
 73
16
 74
0
 42
0.0000001
 43
0.0000001
 44
0.0000000001
 40
0.0
 40
0.0
 40
0.0
 40
0.0
 40
0.066449581
 40
0.1408622038
 40
0.224798848
 40
0.3202913435
 40
0.4257743661
 40
0.5291751364
 40
0.6223134441
 40
0.7042328867
 40
0.7770803983
 40
0.8422719038
 40
0.9006492819
 40
0.9528181004
 40
1.0
 40
1.0
 40
1.0
 40
1.0
 10
151.9390401353
 20
494.1384826468
 30
0.0
 10
151.7699072983
 20
494.1384704159
 30
0.0
 10
151.4101772548
 20
494.1784978848
 30
0.0
 10
150.8665319658
 20
494.3742890019
 30
0.0
 10
150.3291076885
 20
494.7476017599
 30
0.0
 10
149.8700676785
 20
495.3235278558
 30
0.0
 10
149.5919926047
 20
496.0608007104
 30
0.0
 10
149.5472460119
 20
496.8393054892
 30
0.0
 10
149.7025103617
 20
497.5393135728
 30
0.0
 10
149.992588507
 20
498.1068130411
 30
0.0
 10
150.3611521105
 20
498.5348205064
 30
0.0
 10
150.7659113547
 20
498.8346861286
 30
0.0
 10
151.1744934929
 20
499.0236526039
 30
0.0
 10
151.5656324777
 20
499.1225888022
 30
0.0
 10
151.8189489558
 20
499.1428420242
 30
0.0
 10
151.9390401353
 20
499.1428451877
 30
0.0
  0
SPLINE
  5
2AE
100
AcDbEntity
  8
0
100
AcDbSpline
 62
7
  6
CONTINUOUS
 70
0
 71
3
 72
21
 73
17
 74
0
 42
0.0000001
 43
0.0000001
 44
0.0000000001
 40
0.0
 40
0.0
 40
0.0
 40
0.0
 40
0.0622035462
 40
0.1311653201
 40
0.2086972051
 40
0.2961574318
 40
0.3893364722
 40
0.4812211202
 40
0.5687911804
 40
0.6511268744
 40
0.7264419628
 40
0.7930199499
 40
0.8528146258
 40
0.9069738043
 40
0.955691273
 40
1.0
 40
1.0
 40
1.0
 40
1.0
 10
228.4390401353
 20
499.1428451876
 30
0.0
 10
228.5974331392
 20
499.1428549586
 30
0.0
 10
228.9324384217
 20
499.1074248669
 30
0.0
 10
229.4400453688
 20
498.935196808
 30
0.0
 10
229.9466584527
 20
498.6093866998
 30
0.0
 10
230.3912786103
 20
498.1135955738
 30
0.0
 10
230.6988104837
 20
497.4814574681
 30
0.0
 10
230.8283105634
 20
496.7914543043
 30
0.0
 10
230.7836601649
 20
496.1194634273
 30
0.0
 10
230.5899365095
 20
495.5192544941
 30
0.0
 10
230.287459965
 20
495.0287446565
 30
0.0
 10
229.9243191425
 20
494.6600384417
 30
0.0
 10
229.5392772575
 20
494.4035553936
 30
0.0
 10
229.1556471021
 20
494.2414653692
 30
0.0
 10
228.7891004989
 20
494.1560368787
 30
0.0
 10
228.5518663777
 20
494.1384862622
 30
0.0
 10
228.4390401353
 20
494.1384826468
 30
0.0
  0
SPLINE
  5
2AF
100
AcDbEntity
  8
0
100
AcDbSpline
 62
7
  6
CONTINUOUS
 70
0
 71
3
 72
20
 73
16
 74
0
 42
0.0000001
 43
0.0000001
 44
0.0000000001
 40
0.0
 40
0.0
 40
0.0
 40
0.0
 40
0.066449581
 40
0.1408622038
 40
0.224798848
 40
0.3202913435
 40
0.4257743661
 40
0.5291751364
 40
0.6223134441
 40
0.7042328867
 40
0.7770803983
 40
0.8422719038
 40
0.9006492819
 40
0.9528181004
 40
1.0
 40
1.0
 40
1.0
 40
1.0
 10
151.9390401353
 20
484.1384826468
 30
0.0
 10
151.7699072983
 20
484.1384704159
 30
0.0
 10
151.4101772548
 20
484.1784978848
 30
0.0
 10
150.8665319658
 20
484.3742890019
 30
0.0
 10
150.3291076885
 20
484.7476017599
 30
0.0
 10
149.8700676785
 20
485.3235278558
 30
0.0
 10
149.5919926047
 20
486.0608007104
 30
0.0
 10
149.5472460119
 20
486.8393054892
 30
0.0
 10
149.7025103617
 20
487.5393135728
 30
0.0
 10
149.992588507
 20
488.1068130411
 30
0.0
 10
150.3611521105
 20
488.5348205064
 30
0.0
 10
150.7659113547
 20
488.8346861286
 30
0.0
 10
151.1744934929
 20
489.0236526039
 30
0.0
 10
151.5656324777
 20
489.1225888022
 30
0.0
 10
151.8189489558
 20
489.1428420242
 30
0.0
 10
151.9390401353
 20
489.1428451877
 30
0.0
  0
SPLINE
  5
2B0
100
AcDbEntity
  8
0
100
AcDbSpline
 62
7
  6
CONTINUOUS
 70
0
 71
3
 72
21
 73
17
 74
0
 42
0.0000001
 43
0.0000001
 44
0.0000000001
 40
0.0
 40
0.0
 40
0.0
 40
0.0
 40
0.0622035462
 40
0.1311653201
 40
0.2086972051
 40
0.2961574318
 40
0.3893364722
 40
0.4812211202
 40
0.5687911804
 40
0.6511268744
 40
0.7264419628
 40
0.7930199499
 40
0.8528146258
 40
0.9069738043
 40
0.955691273
 40
1.0
 40
1.0
 40
1.0
 40
1.0
 10
228.4390401353
 20
489.1428451876
 30
0.0
 10
228.5974331392
 20
489.1428549586
 30
0.0
 10
228.9324384217
 20
489.1074248669
 30
0.0
 10
229.4400453688
 20
488.935196808
 30
0.0
 10
229.9466584527
 20
488.6093866998
 30
0.0
 10
230.3912786103
 20
488.1135955738
 30
0.0
 10
230.6988104837
 20
487.4814574681
 30
0.0
 10
230.8283105634
 20
486.7914543043
 30
0.0
 10
230.7836601649
 20
486.1194634273
 30
0.0
 10
230.5899365095
 20
485.5192544941
 30
0.0
 10
230.287459965
 20
485.0287446565
 30
0.0
 10
229.9243191425
 20
484.6600384417
 30
0.0
 10
229.5392772575
 20
484.4035553936
 30
0.0
 10
229.1556471021
 20
484.2414653692
 30
0.0
 10
228.7891004989
 20
484.1560368787
 30
0.0
 10
228.5518663777
 20
484.1384862622
 30
0.0
 10
228.4390401353
 20
484.1384826468
 30
0.0
  0
SPLINE
  5
2B1
100
AcDbEntity
  8
0
100
AcDbSpline
 62
7
  6
CONTINUOUS
 70
0
 71
3
 72
20
 73
16
 74
0
 42
0.0000001
 43
0.0000001
 44
0.0000000001
 40
0.0
 40
0.0
 40
0.0
 40
0.0
 40
0.066449581
 40
0.1408622038
 40
0.224798848
 40
0.3202913435
 40
0.4257743661
 40
0.5291751364
 40
0.6223134441
 40
0.7042328867
 40
0.7770803983
 40
0.8422719038
 40
0.9006492819
 40
0.9528181004
 40
1.0
 40
1.0
 40
1.0
 40
1.0
 10
151.9390401353
 20
474.1384826468
 30
0.0
 10
151.7699072983
 20
474.1384704159
 30
0.0
 10
151.4101772548
 20
474.1784978848
 30
0.0
 10
150.8665319658
 20
474.3742890019
 30
0.0
 10
150.3291076885
 20
474.7476017599
 30
0.0
 10
149.8700676785
 20
475.3235278558
 30
0.0
 10
149.5919926047
 20
476.0608007104
 30
0.0
 10
149.5472460119
 20
476.8393054892
 30
0.0
 10
149.7025103617
 20
477.5393135728
 30
0.0
 10
149.992588507
 20
478.1068130411
 30
0.0
 10
150.3611521105
 20
478.5348205064
 30
0.0
 10
150.7659113547
 20
478.8346861286
 30
0.0
 10
151.1744934929
 20
479.0236526039
 30
0.0
 10
151.5656324777
 20
479.1225888022
 30
0.0
 10
151.8189489558
 20
479.1428420242
 30
0.0
 10
151.9390401353
 20
479.1428451877
 30
0.0
  0
SPLINE
  5
2B2
100
AcDbEntity
  8
0
100
AcDbSpline
 62
7
  6
CONTINUOUS
 70
0
 71
3
 72
21
 73
17
 74
0
 42
0.0000001
 43
0.0000001
 44
0.0000000001
 40
0.0
 40
0.0
 40
0.0
 40
0.0
 40
0.0622035462
 40
0.1311653201
 40
0.2086972051
 40
0.2961574318
 40
0.3893364722
 40
0.4812211202
 40
0.5687911804
 40
0.6511268744
 40
0.7264419628
 40
0.7930199499
 40
0.8528146258
 40
0.9069738043
 40
0.955691273
 40
1.0
 40
1.0
 40
1.0
 40
1.0
 10
228.4390401353
 20
479.1428451876
 30
0.0
 10
228.5974331392
 20
479.1428549586
 30
0.0
 10
228.9324384217
 20
479.1074248669
 30
0.0
 10
229.4400453688
 20
478.935196808
 30
0.0
 10
229.9466584527
 20
478.6093866998
 30
0.0
 10
230.3912786103
 20
478.1135955738
 30
0.0
 10
230.6988104837
 20
477.4814574681
 30
0.0
 10
230.8283105634
 20
476.7914543043
 30
0.0
 10
230.7836601649
 20
476.1194634273
 30
0.0
 10
230.5899365095
 20
475.5192544941
 30
0.0
 10
230.287459965
 20
475.0287446565
 30
0.0
 10
229.9243191425
 20
474.6600384417
 30
0.0
 10
229.5392772575
 20
474.4035553936
 30
0.0
 10
229.1556471021
 20
474.2414653692
 30
0.0
 10
228.7891004989
 20
474.1560368787
 30
0.0
 10
228.5518663777
 20
474.1384862622
 30
0.0
 10
228.4390401353
 20
474.1384826468
 30
0.0
  0
SPLINE
  5
2B3
100
AcDbEntity
  8
0
100
AcDbSpline
 62
7
  6
CONTINUOUS
 70
0
 71
3
 72
20
 73
16
 74
0
 42
0.0000001
 43
0.0000001
 44
0.0000000001
 40
0.0
 40
0.0
 40
0.0
 40
0.0
 40
0.066449581
 40
0.1408622038
 40
0.224798848
 40
0.3202913435
 40
0.4257743661
 40
0.5291751364
 40
0.6223134441
 40
0.7042328867
 40
0.7770803983
 40
0.8422719038
 40
0.9006492819
 40
0.9528181004
 40
1.0
 40
1.0
 40
1.0
 40
1.0
 10
151.9390401353
 20
464.1384826468
 30
0.0
 10
151.7699072983
 20
464.1384704159
 30
0.0
 10
151.4101772548
 20
464.1784978848
 30
0.0
 10
150.8665319658
 20
464.3742890019
 30
0.0
 10
150.3291076885
 20
464.7476017599
 30
0.0
 10
149.8700676785
 20
465.3235278558
 30
0.0
 10
149.5919926047
 20
466.0608007104
 30
0.0
 10
149.5472460119
 20
466.8393054892
 30
0.0
 10
149.7025103617
 20
467.5393135728
 30
0.0
 10
149.992588507
 20
468.1068130411
 30
0.0
 10
150.3611521105
 20
468.5348205064
 30
0.0
 10
150.7659113547
 20
468.8346861286
 30
0.0
 10
151.1744934929
 20
469.0236526039
 30
0.0
 10
151.5656324777
 20
469.1225888022
 30
0.0
 10
151.8189489558
 20
469.1428420242
 30
0.0
 10
151.9390401353
 20
469.1428451877
 30
0.0
  0
SPLINE
  5
2B4
100
AcDbEntity
  8
0
100
AcDbSpline
 62
7
  6
CONTINUOUS
 70
0
 71
3
 72
21
 73
17
 74
0
 42
0.0000001
 43
0.0000001
 44
0.0000000001
 40
0.0
 40
0.0
 40
0.0
 40
0.0
 40
0.0622035462
 40
0.1311653201
 40
0.2086972051
 40
0.2961574318
 40
0.3893364722
 40
0.4812211202
 40
0.5687911804
 40
0.6511268744
 40
0.7264419628
 40
0.7930199499
 40
0.8528146258
 40
0.9069738043
 40
0.955691273
 40
1.0
 40
1.0
 40
1.0
 40
1.0
 10
228.4390401353
 20
469.1428451876
 30
0.0
 10
228.5974331392
 20
469.1428549586
 30
0.0
 10
228.9324384217
 20
469.1074248669
 30
0.0
 10
229.4400453688
 20
468.935196808
 30
0.0
 10
229.9466584527
 20
468.6093866998
 30
0.0
 10
230.3912786103
 20
468.1135955738
 30
0.0
 10
230.6988104837
 20
467.4814574681
 30
0.0
 10
230.8283105634
 20
466.7914543043
 30
0.0
 10
230.7836601649
 20
466.1194634273
 30
0.0
 10
230.5899365095
 20
465.5192544941
 30
0.0
 10
230.287459965
 20
465.0287446565
 30
0.0
 10
229.9243191425
 20
464.6600384417
 30
0.0
 10
229.5392772575
 20
464.4035553936
 30
0.0
 10
229.1556471021
 20
464.2414653692
 30
0.0
 10
228.7891004989
 20
464.1560368787
 30
0.0
 10
228.5518663777
 20
464.1384862622
 30
0.0
 10
228.4390401353
 20
464.1384826468
 30
0.0
  0
SPLINE
  5
2B5
100
AcDbEntity
  8
0
100
AcDbSpline
 62
7
  6
CONTINUOUS
 70
0
 71
3
 72
20
 73
16
 74
0
 42
0.0000001
 43
0.0000001
 44
0.0000000001
 40
0.0
 40
0.0
 40
0.0
 40
0.0
 40
0.066449581
 40
0.1408622038
 40
0.224798848
 40
0.3202913435
 40
0.4257743661
 40
0.5291751364
 40
0.6223134441
 40
0.7042328867
 40
0.7770803983
 40
0.8422719038
 40
0.9006492819
 40
0.9528181004
 40
1.0
 40
1.0
 40
1.0
 40
1.0
 10
151.9390401353
 20
454.1384826468
 30
0.0
 10
151.7699072983
 20
454.1384704159
 30
0.0
 10
151.4101772548
 20
454.1784978848
 30
0.0
 10
150.8665319658
 20
454.3742890019
 30
0.0
 10
150.3291076885
 20
454.7476017599
 30
0.0
 10
149.8700676785
 20
455.3235278558
 30
0.0
 10
149.5919926047
 20
456.0608007104
 30
0.0
 10
149.5472460119
 20
456.8393054892
 30
0.0
 10
149.7025103617
 20
457.5393135728
 30
0.0
 10
149.992588507
 20
458.1068130411
 30
0.0
 10
150.3611521105
 20
458.5348205064
 30
0.0
 10
150.7659113547
 20
458.8346861286
 30
0.0
 10
151.1744934929
 20
459.0236526039
 30
0.0
 10
151.5656324777
 20
459.1225888022
 30
0.0
 10
151.8189489558
 20
459.1428420242
 30
0.0
 10
151.9390401353
 20
459.1428451877
 30
0.0
  0
SPLINE
  5
2B6
100
AcDbEntity
  8
0
100
AcDbSpline
 62
7
  6
CONTINUOUS
 70
0
 71
3
 72
21
 73
17
 74
0
 42
0.0000001
 43
0.0000001
 44
0.0000000001
 40
0.0
 40
0.0
 40
0.0
 40
0.0
 40
0.0622035462
 40
0.1311653201
 40
0.2086972051
 40
0.2961574318
 40
0.3893364722
 40
0.4812211202
 40
0.5687911804
 40
0.6511268744
 40
0.7264419628
 40
0.7930199499
 40
0.8528146258
 40
0.9069738043
 40
0.955691273
 40
1.0
 40
1.0
 40
1.0
 40
1.0
 10
228.4390401353
 20
459.1428451876
 30
0.0
 10
228.5974331392
 20
459.1428549586
 30
0.0
 10
228.9324384217
 20
459.1074248669
 30
0.0
 10
229.4400453688
 20
458.935196808
 30
0.0
 10
229.9466584527
 20
458.6093866998
 30
0.0
 10
230.3912786103
 20
458.1135955738
 30
0.0
 10
230.6988104837
 20
457.4814574681
 30
0.0
 10
230.8283105634
 20
456.7914543043
 30
0.0
 10
230.7836601649
 20
456.1194634273
 30
0.0
 10
230.5899365095
 20
455.5192544941
 30
0.0
 10
230.287459965
 20
455.0287446565
 30
0.0
 10
229.9243191425
 20
454.6600384417
 30
0.0
 10
229.5392772575
 20
454.4035553936
 30
0.0
 10
229.1556471021
 20
454.2414653692
 30
0.0
 10
228.7891004989
 20
454.1560368787
 30
0.0
 10
228.5518663777
 20
454.1384862622
 30
0.0
 10
228.4390401353
 20
454.1384826468
 30
0.0
  0
SPLINE
  5
2B7
100
AcDbEntity
  8
0
100
AcDbSpline
 62
7
  6
CONTINUOUS
 70
0
 71
3
 72
20
 73
16
 74
0
 42
0.0000001
 43
0.0000001
 44
0.0000000001
 40
0.0
 40
0.0
 40
0.0
 40
0.0
 40
0.066449581
 40
0.1408622038
 40
0.224798848
 40
0.3202913435
 40
0.4257743661
 40
0.5291751364
 40
0.6223134441
 40
0.7042328867
 40
0.7770803983
 40
0.8422719038
 40
0.9006492819
 40
0.9528181004
 40
1.0
 40
1.0
 40
1.0
 40
1.0
 10
151.9390401353
 20
444.1384826468
 30
0.0
 10
151.7699072983
 20
444.1384704159
 30
0.0
 10
151.4101772548
 20
444.1784978848
 30
0.0
 10
150.8665319658
 20
444.3742890019
 30
0.0
 10
150.3291076885
 20
444.7476017599
 30
0.0
 10
149.8700676785
 20
445.3235278558
 30
0.0
 10
149.5919926047
 20
446.0608007104
 30
0.0
 10
149.5472460119
 20
446.8393054892
 30
0.0
 10
149.7025103617
 20
447.5393135728
 30
0.0
 10
149.992588507
 20
448.1068130411
 30
0.0
 10
150.3611521105
 20
448.5348205064
 30
0.0
 10
150.7659113547
 20
448.8346861286
 30
0.0
 10
151.1744934929
 20
449.0236526039
 30
0.0
 10
151.5656324777
 20
449.1225888022
 30
0.0
 10
151.8189489558
 20
449.1428420242
 30
0.0
 10
151.9390401353
 20
449.1428451877
 30
0.0
  0
SPLINE
  5
2B8
100
AcDbEntity
  8
0
100
AcDbSpline
 62
7
  6
CONTINUOUS
 70
0
 71
3
 72
21
 73
17
 74
0
 42
0.0000001
 43
0.0000001
 44
0.0000000001
 40
0.0
 40
0.0
 40
0.0
 40
0.0
 40
0.0622035462
 40
0.1311653201
 40
0.2086972051
 40
0.2961574318
 40
0.3893364722
 40
0.4812211202
 40
0.5687911804
 40
0.6511268744
 40
0.7264419628
 40
0.7930199499
 40
0.8528146258
 40
0.9069738043
 40
0.955691273
 40
1.0
 40
1.0
 40
1.0
 40
1.0
 10
228.4390401353
 20
449.1428451876
 30
0.0
 10
228.5974331392
 20
449.1428549586
 30
0.0
 10
228.9324384217
 20
449.1074248669
 30
0.0
 10
229.4400453688
 20
448.935196808
 30
0.0
 10
229.9466584527
 20
448.6093866998
 30
0.0
 10
230.3912786103
 20
448.1135955738
 30
0.0
 10
230.6988104837
 20
447.4814574681
 30
0.0
 10
230.8283105634
 20
446.7914543043
 30
0.0
 10
230.7836601649
 20
446.1194634273
 30
0.0
 10
230.5899365095
 20
445.5192544941
 30
0.0
 10
230.287459965
 20
445.0287446565
 30
0.0
 10
229.9243191425
 20
444.6600384417
 30
0.0
 10
229.5392772575
 20
444.4035553936
 30
0.0
 10
229.1556471021
 20
444.2414653692
 30
0.0
 10
228.7891004989
 20
444.1560368787
 30
0.0
 10
228.5518663777
 20
444.1384862622
 30
0.0
 10
228.4390401353
 20
444.1384826468
 30
0.0
  0
SPLINE
  5
2B9
100
AcDbEntity
  8
0
100
AcDbSpline
 62
7
  6
CONTINUOUS
 70
0
 71
3
 72
20
 73
16
 74
0
 42
0.0000001
 43
0.0000001
 44
0.0000000001
 40
0.0
 40
0.0
 40
0.0
 40
0.0
 40
0.066449581
 40
0.1408622038
 40
0.224798848
 40
0.3202913435
 40
0.4257743661
 40
0.5291751364
 40
0.6223134441
 40
0.7042328867
 40
0.7770803983
 40
0.8422719038
 40
0.9006492819
 40
0.9528181004
 40
1.0
 40
1.0
 40
1.0
 40
1.0
 10
151.9390401353
 20
434.1384826468
 30
0.0
 10
151.7699072983
 20
434.1384704159
 30
0.0
 10
151.4101772548
 20
434.1784978848
 30
0.0
 10
150.8665319658
 20
434.3742890019
 30
0.0
 10
150.3291076885
 20
434.7476017599
 30
0.0
 10
149.8700676785
 20
435.3235278558
 30
0.0
 10
149.5919926047
 20
436.0608007104
 30
0.0
 10
149.5472460119
 20
436.8393054892
 30
0.0
 10
149.7025103617
 20
437.5393135728
 30
0.0
 10
149.992588507
 20
438.1068130411
 30
0.0
 10
150.3611521105
 20
438.5348205064
 30
0.0
 10
150.7659113547
 20
438.8346861286
 30
0.0
 10
151.1744934929
 20
439.0236526039
 30
0.0
 10
151.5656324777
 20
439.1225888022
 30
0.0
 10
151.8189489558
 20
439.1428420242
 30
0.0
 10
151.9390401353
 20
439.1428451877
 30
0.0
  0
SPLINE
  5
2BA
100
AcDbEntity
  8
0
100
AcDbSpline
 62
7
  6
CONTINUOUS
 70
0
 71
3
 72
21
 73
17
 74
0
 42
0.0000001
 43
0.0000001
 44
0.0000000001
 40
0.0
 40
0.0
 40
0.0
 40
0.0
 40
0.0622035462
 40
0.1311653201
 40
0.2086972051
 40
0.2961574318
 40
0.3893364722
 40
0.4812211202
 40
0.5687911804
 40
0.6511268744
 40
0.7264419628
 40
0.7930199499
 40
0.8528146258
 40
0.9069738043
 40
0.955691273
 40
1.0
 40
1.0
 40
1.0
 40
1.0
 10
228.4390401353
 20
439.1428451876
 30
0.0
 10
228.5974331392
 20
439.1428549586
 30
0.0
 10
228.9324384217
 20
439.1074248669
 30
0.0
 10
229.4400453688
 20
438.935196808
 30
0.0
 10
229.9466584527
 20
438.6093866998
 30
0.0
 10
230.3912786103
 20
438.1135955738
 30
0.0
 10
230.6988104837
 20
437.4814574681
 30
0.0
 10
230.8283105634
 20
436.7914543043
 30
0.0
 10
230.7836601649
 20
436.1194634273
 30
0.0
 10
230.5899365095
 20
435.5192544941
 30
0.0
 10
230.287459965
 20
435.0287446565
 30
0.0
 10
229.9243191425
 20
434.6600384417
 30
0.0
 10
229.5392772575
 20
434.4035553936
 30
0.0
 10
229.1556471021
 20
434.2414653692
 30
0.0
 10
228.7891004989
 20
434.1560368787
 30
0.0
 10
228.5518663777
 20
434.1384862622
 30
0.0
 10
228.4390401353
 20
434.1384826468
 30
0.0
  0
SPLINE
  5
2BB
100
AcDbEntity
  8
0
100
AcDbSpline
 62
7
  6
CONTINUOUS
 70
0
 71
3
 72
20
 73
16
 74
0
 42
0.0000001
 43
0.0000001
 44
0.0000000001
 40
0.0
 40
0.0
 40
0.0
 40
0.0
 40
0.066449581
 40
0.1408622038
 40
0.224798848
 40
0.3202913435
 40
0.4257743661
 40
0.5291751364
 40
0.6223134441
 40
0.7042328867
 40
0.7770803983
 40
0.8422719038
 40
0.9006492819
 40
0.9528181004
 40
1.0
 40
1.0
 40
1.0
 40
1.0
 10
151.9390401353
 20
424.1384826468
 30
0.0
 10
151.7699072983
 20
424.1384704159
 30
0.0
 10
151.4101772548
 20
424.1784978848
 30
0.0
 10
150.8665319658
 20
424.3742890019
 30
0.0
 10
150.3291076885
 20
424.7476017599
 30
0.0
 10
149.8700676785
 20
425.3235278558
 30
0.0
 10
149.5919926047
 20
426.0608007104
 30
0.0
 10
149.5472460119
 20
426.8393054892
 30
0.0
 10
149.7025103617
 20
427.5393135728
 30
0.0
 10
149.992588507
 20
428.1068130411
 30
0.0
 10
150.3611521105
 20
428.5348205064
 30
0.0
 10
150.7659113547
 20
428.8346861286
 30
0.0
 10
151.1744934929
 20
429.0236526039
 30
0.0
 10
151.5656324777
 20
429.1225888022
 30
0.0
 10
151.8189489558
 20
429.1428420242
 30
0.0
 10
151.9390401353
 20
429.1428451877
 30
0.0
  0
SPLINE
  5
2BC
100
AcDbEntity
  8
0
100
AcDbSpline
 62
7
  6
CONTINUOUS
 70
0
 71
3
 72
21
 73
17
 74
0
 42
0.0000001
 43
0.0000001
 44
0.0000000001
 40
0.0
 40
0.0
 40
0.0
 40
0.0
 40
0.0622035462
 40
0.1311653201
 40
0.2086972051
 40
0.2961574318
 40
0.3893364722
 40
0.4812211202
 40
0.5687911804
 40
0.6511268744
 40
0.7264419628
 40
0.7930199499
 40
0.8528146258
 40
0.9069738043
 40
0.955691273
 40
1.0
 40
1.0
 40
1.0
 40
1.0
 10
228.4390401353
 20
429.1428451876
 30
0.0
 10
228.5974331392
 20
429.1428549586
 30
0.0
 10
228.9324384217
 20
429.1074248669
 30
0.0
 10
229.4400453688
 20
428.935196808
 30
0.0
 10
229.9466584527
 20
428.6093866998
 30
0.0
 10
230.3912786103
 20
428.1135955738
 30
0.0
 10
230.6988104837
 20
427.4814574681
 30
0.0
 10
230.8283105634
 20
426.7914543043
 30
0.0
 10
230.7836601649
 20
426.1194634273
 30
0.0
 10
230.5899365095
 20
425.5192544941
 30
0.0
 10
230.287459965
 20
425.0287446565
 30
0.0
 10
229.9243191425
 20
424.6600384417
 30
0.0
 10
229.5392772575
 20
424.4035553936
 30
0.0
 10
229.1556471021
 20
424.2414653692
 30
0.0
 10
228.7891004989
 20
424.1560368787
 30
0.0
 10
228.5518663777
 20
424.1384862622
 30
0.0
 10
228.4390401353
 20
424.1384826468
 30
0.0
  0
SPLINE
  5
2BD
100
AcDbEntity
  8
0
100
AcDbSpline
 62
7
  6
CONTINUOUS
 70
0
 71
3
 72
20
 73
16
 74
0
 42
0.0000001
 43
0.0000001
 44
0.0000000001
 40
0.0
 40
0.0
 40
0.0
 40
0.0
 40
0.066449581
 40
0.1408622038
 40
0.224798848
 40
0.3202913435
 40
0.4257743661
 40
0.5291751364
 40
0.6223134441
 40
0.7042328867
 40
0.7770803983
 40
0.8422719038
 40
0.9006492819
 40
0.9528181004
 40
1.0
 40
1.0
 40
1.0
 40
1.0
 10
151.9390401353
 20
414.1384826468
 30
0.0
 10
151.7699072983
 20
414.1384704159
 30
0.0
 10
151.4101772548
 20
414.1784978848
 30
0.0
 10
150.8665319658
 20
414.3742890019
 30
0.0
 10
150.3291076885
 20
414.7476017599
 30
0.0
 10
149.8700676785
 20
415.3235278558
 30
0.0
 10
149.5919926047
 20
416.0608007104
 30
0.0
 10
149.5472460119
 20
416.8393054892
 30
0.0
 10
149.7025103617
 20
417.5393135728
 30
0.0
 10
149.992588507
 20
418.1068130411
 30
0.0
 10
150.3611521105
 20
418.5348205064
 30
0.0
 10
150.7659113547
 20
418.8346861286
 30
0.0
 10
151.1744934929
 20
419.0236526039
 30
0.0
 10
151.5656324777
 20
419.1225888022
 30
0.0
 10
151.8189489558
 20
419.1428420242
 30
0.0
 10
151.9390401353
 20
419.1428451877
 30
0.0
  0
SPLINE
  5
2BE
100
AcDbEntity
  8
0
100
AcDbSpline
 62
7
  6
CONTINUOUS
 70
0
 71
3
 72
21
 73
17
 74
0
 42
0.0000001
 43
0.0000001
 44
0.0000000001
 40
0.0
 40
0.0
 40
0.0
 40
0.0
 40
0.0622035462
 40
0.1311653201
 40
0.2086972051
 40
0.2961574318
 40
0.3893364722
 40
0.4812211202
 40
0.5687911804
 40
0.6511268744
 40
0.7264419628
 40
0.7930199499
 40
0.8528146258
 40
0.9069738043
 40
0.955691273
 40
1.0
 40
1.0
 40
1.0
 40
1.0
 10
228.4390401353
 20
419.1428451876
 30
0.0
 10
228.5974331392
 20
419.1428549586
 30
0.0
 10
228.9324384217
 20
419.1074248669
 30
0.0
 10
229.4400453688
 20
418.935196808
 30
0.0
 10
229.9466584527
 20
418.6093866998
 30
0.0
 10
230.3912786103
 20
418.1135955738
 30
0.0
 10
230.6988104837
 20
417.4814574681
 30
0.0
 10
230.8283105634
 20
416.7914543043
 30
0.0
 10
230.7836601649
 20
416.1194634273
 30
0.0
 10
230.5899365095
 20
415.5192544941
 30
0.0
 10
230.287459965
 20
415.0287446565
 30
0.0
 10
229.9243191425
 20
414.6600384417
 30
0.0
 10
229.5392772575
 20
414.4035553936
 30
0.0
 10
229.1556471021
 20
414.2414653692
 30
0.0
 10
228.7891004989
 20
414.1560368787
 30
0.0
 10
228.5518663777
 20
414.1384862622
 30
0.0
 10
228.4390401353
 20
414.1384826468
 30
0.0
  0
SPLINE
  5
2BF
100
AcDbEntity
  8
0
100
AcDbSpline
 62
7
  6
CONTINUOUS
 70
0
 71
3
 72
20
 73
16
 74
0
 42
0.0000001
 43
0.0000001
 44
0.0000000001
 40
0.0
 40
0.0
 40
0.0
 40
0.0
 40
0.066449581
 40
0.1408622038
 40
0.224798848
 40
0.3202913435
 40
0.4257743661
 40
0.5291751364
 40
0.6223134441
 40
0.7042328867
 40
0.7770803983
 40
0.8422719038
 40
0.9006492819
 40
0.9528181004
 40
1.0
 40
1.0
 40
1.0
 40
1.0
 10
151.9390401353
 20
404.1384826468
 30
0.0
 10
151.7699072983
 20
404.1384704159
 30
0.0
 10
151.4101772548
 20
404.1784978848
 30
0.0
 10
150.8665319658
 20
404.3742890019
 30
0.0
 10
150.3291076885
 20
404.7476017599
 30
0.0
 10
149.8700676785
 20
405.3235278558
 30
0.0
 10
149.5919926047
 20
406.0608007104
 30
0.0
 10
149.5472460119
 20
406.8393054892
 30
0.0
 10
149.7025103617
 20
407.5393135728
 30
0.0
 10
149.992588507
 20
408.1068130411
 30
0.0
 10
150.3611521105
 20
408.5348205064
 30
0.0
 10
150.7659113547
 20
408.8346861286
 30
0.0
 10
151.1744934929
 20
409.0236526039
 30
0.0
 10
151.5656324777
 20
409.1225888022
 30
0.0
 10
151.8189489558
 20
409.1428420242
 30
0.0
 10
151.9390401353
 20
409.1428451877
 30
0.0
  0
SPLINE
  5
2C0
100
AcDbEntity
  8
0
100
AcDbSpline
 62
7
  6
CONTINUOUS
 70
0
 71
3
 72
21
 73
17
 74
0
 42
0.0000001
 43
0.0000001
 44
0.0000000001
 40
0.0
 40
0.0
 40
0.0
 40
0.0
 40
0.0622035462
 40
0.1311653201
 40
0.2086972051
 40
0.2961574318
 40
0.3893364722
 40
0.4812211202
 40
0.5687911804
 40
0.6511268744
 40
0.7264419628
 40
0.7930199499
 40
0.8528146258
 40
0.9069738043
 40
0.955691273
 40
1.0
 40
1.0
 40
1.0
 40
1.0
 10
228.4390401353
 20
409.1428451876
 30
0.0
 10
228.5974331392
 20
409.1428549586
 30
0.0
 10
228.9324384217
 20
409.1074248669
 30
0.0
 10
229.4400453688
 20
408.935196808
 30
0.0
 10
229.9466584527
 20
408.6093866998
 30
0.0
 10
230.3912786103
 20
408.1135955738
 30
0.0
 10
230.6988104837
 20
407.4814574681
 30
0.0
 10
230.8283105634
 20
406.7914543043
 30
0.0
 10
230.7836601649
 20
406.1194634273
 30
0.0
 10
230.5899365095
 20
405.5192544941
 30
0.0
 10
230.287459965
 20
405.0287446565
 30
0.0
 10
229.9243191425
 20
404.6600384417
 30
0.0
 10
229.5392772575
 20
404.4035553936
 30
0.0
 10
229.1556471021
 20
404.2414653692
 30
0.0
 10
228.7891004989
 20
404.1560368787
 30
0.0
 10
228.5518663777
 20
404.1384862622
 30
0.0
 10
228.4390401353
 20
404.1384826468
 30
0.0
  0
SPLINE
  5
2C1
100
AcDbEntity
  8
0
100
AcDbSpline
 62
7
  6
CONTINUOUS
 70
0
 71
3
 72
20
 73
16
 74
0
 42
0.0000001
 43
0.0000001
 44
0.0000000001
 40
0.0
 40
0.0
 40
0.0
 40
0.0
 40
0.066449581
 40
0.1408622038
 40
0.224798848
 40
0.3202913435
 40
0.4257743661
 40
0.5291751364
 40
0.6223134441
 40
0.7042328867
 40
0.7770803983
 40
0.8422719038
 40
0.9006492819
 40
0.9528181004
 40
1.0
 40
1.0
 40
1.0
 40
1.0
 10
151.9390401353
 20
394.1384826468
 30
0.0
 10
151.7699072983
 20
394.1384704159
 30
0.0
 10
151.4101772548
 20
394.1784978848
 30
0.0
 10
150.8665319658
 20
394.3742890019
 30
0.0
 10
150.3291076885
 20
394.7476017599
 30
0.0
 10
149.8700676785
 20
395.3235278558
 30
0.0
 10
149.5919926047
 20
396.0608007104
 30
0.0
 10
149.5472460119
 20
396.8393054892
 30
0.0
 10
149.7025103617
 20
397.5393135728
 30
0.0
 10
149.992588507
 20
398.1068130411
 30
0.0
 10
150.3611521105
 20
398.5348205064
 30
0.0
 10
150.7659113547
 20
398.8346861286
 30
0.0
 10
151.1744934929
 20
399.0236526039
 30
0.0
 10
151.5656324777
 20
399.1225888022
 30
0.0
 10
151.8189489558
 20
399.1428420242
 30
0.0
 10
151.9390401353
 20
399.1428451877
 30
0.0
  0
SPLINE
  5
2C2
100
AcDbEntity
  8
0
100
AcDbSpline
 62
7
  6
CONTINUOUS
 70
0
 71
3
 72
21
 73
17
 74
0
 42
0.0000001
 43
0.0000001
 44
0.0000000001
 40
0.0
 40
0.0
 40
0.0
 40
0.0
 40
0.0622035462
 40
0.1311653201
 40
0.2086972051
 40
0.2961574318
 40
0.3893364722
 40
0.4812211202
 40
0.5687911804
 40
0.6511268744
 40
0.7264419628
 40
0.7930199499
 40
0.8528146258
 40
0.9069738043
 40
0.955691273
 40
1.0
 40
1.0
 40
1.0
 40
1.0
 10
228.4390401353
 20
399.1428451876
 30
0.0
 10
228.5974331392
 20
399.1428549586
 30
0.0
 10
228.9324384217
 20
399.1074248669
 30
0.0
 10
229.4400453688
 20
398.935196808
 30
0.0
 10
229.9466584527
 20
398.6093866998
 30
0.0
 10
230.3912786103
 20
398.1135955738
 30
0.0
 10
230.6988104837
 20
397.4814574681
 30
0.0
 10
230.8283105634
 20
396.7914543043
 30
0.0
 10
230.7836601649
 20
396.1194634273
 30
0.0
 10
230.5899365095
 20
395.5192544941
 30
0.0
 10
230.287459965
 20
395.0287446565
 30
0.0
 10
229.9243191425
 20
394.6600384417
 30
0.0
 10
229.5392772575
 20
394.4035553936
 30
0.0
 10
229.1556471021
 20
394.2414653692
 30
0.0
 10
228.7891004989
 20
394.1560368787
 30
0.0
 10
228.5518663777
 20
394.1384862622
 30
0.0
 10
228.4390401353
 20
394.1384826468
 30
0.0
  0
SPLINE
  5
2C3
100
AcDbEntity
  8
0
100
AcDbSpline
 62
7
  6
CONTINUOUS
 70
0
 71
3
 72
20
 73
16
 74
0
 42
0.0000001
 43
0.0000001
 44
0.0000000001
 40
0.0
 40
0.0
 40
0.0
 40
0.0
 40
0.066449581
 40
0.1408622038
 40
0.224798848
 40
0.3202913435
 40
0.4257743661
 40
0.5291751364
 40
0.6223134441
 40
0.7042328867
 40
0.7770803983
 40
0.8422719038
 40
0.9006492819
 40
0.9528181004
 40
1.0
 40
1.0
 40
1.0
 40
1.0
 10
151.9390401353
 20
384.1384826468
 30
0.0
 10
151.7699072983
 20
384.1384704159
 30
0.0
 10
151.4101772548
 20
384.1784978848
 30
0.0
 10
150.8665319658
 20
384.3742890019
 30
0.0
 10
150.3291076885
 20
384.7476017599
 30
0.0
 10
149.8700676785
 20
385.3235278558
 30
0.0
 10
149.5919926047
 20
386.0608007104
 30
0.0
 10
149.5472460119
 20
386.8393054892
 30
0.0
 10
149.7025103617
 20
387.5393135728
 30
0.0
 10
149.992588507
 20
388.1068130411
 30
0.0
 10
150.3611521105
 20
388.5348205064
 30
0.0
 10
150.7659113547
 20
388.8346861286
 30
0.0
 10
151.1744934929
 20
389.0236526039
 30
0.0
 10
151.5656324777
 20
389.1225888022
 30
0.0
 10
151.8189489558
 20
389.1428420242
 30
0.0
 10
151.9390401353
 20
389.1428451877
 30
0.0
  0
SPLINE
  5
2C4
100
AcDbEntity
  8
0
100
AcDbSpline
 62
7
  6
CONTINUOUS
 70
0
 71
3
 72
21
 73
17
 74
0
 42
0.0000001
 43
0.0000001
 44
0.0000000001
 40
0.0
 40
0.0
 40
0.0
 40
0.0
 40
0.0622035462
 40
0.1311653201
 40
0.2086972051
 40
0.2961574318
 40
0.3893364722
 40
0.4812211202
 40
0.5687911804
 40
0.6511268744
 40
0.7264419628
 40
0.7930199499
 40
0.8528146258
 40
0.9069738043
 40
0.955691273
 40
1.0
 40
1.0
 40
1.0
 40
1.0
 10
228.4390401353
 20
389.1428451876
 30
0.0
 10
228.5974331392
 20
389.1428549586
 30
0.0
 10
228.9324384217
 20
389.1074248669
 30
0.0
 10
229.4400453688
 20
388.935196808
 30
0.0
 10
229.9466584527
 20
388.6093866998
 30
0.0
 10
230.3912786103
 20
388.1135955738
 30
0.0
 10
230.6988104837
 20
387.4814574681
 30
0.0
 10
230.8283105634
 20
386.7914543043
 30
0.0
 10
230.7836601649
 20
386.1194634273
 30
0.0
 10
230.5899365095
 20
385.5192544941
 30
0.0
 10
230.287459965
 20
385.0287446565
 30
0.0
 10
229.9243191425
 20
384.6600384417
 30
0.0
 10
229.5392772575
 20
384.4035553936
 30
0.0
 10
229.1556471021
 20
384.2414653692
 30
0.0
 10
228.7891004989
 20
384.1560368787
 30
0.0
 10
228.5518663777
 20
384.1384862622
 30
0.0
 10
228.4390401353
 20
384.1384826468
 30
0.0
  0
SPLINE
  5
2C5
100
AcDbEntity
  8
0
100
AcDbSpline
 62
7
  6
CONTINUOUS
 70
0
 71
3
 72
20
 73
16
 74
0
 42
0.0000001
 43
0.0000001
 44
0.0000000001
 40
0.0
 40
0.0
 40
0.0
 40
0.0
 40
0.066449581
 40
0.1408622038
 40
0.224798848
 40
0.3202913435
 40
0.4257743661
 40
0.5291751364
 40
0.6223134441
 40
0.7042328867
 40
0.7770803983
 40
0.8422719038
 40
0.9006492819
 40
0.9528181004
 40
1.0
 40
1.0
 40
1.0
 40
1.0
 10
151.9390401353
 20
374.1384826468
 30
0.0
 10
151.7699072983
 20
374.1384704159
 30
0.0
 10
151.4101772548
 20
374.1784978848
 30
0.0
 10
150.8665319658
 20
374.3742890019
 30
0.0
 10
150.3291076885
 20
374.7476017599
 30
0.0
 10
149.8700676785
 20
375.3235278558
 30
0.0
 10
149.5919926047
 20
376.0608007104
 30
0.0
 10
149.5472460119
 20
376.8393054892
 30
0.0
 10
149.7025103617
 20
377.5393135728
 30
0.0
 10
149.992588507
 20
378.1068130411
 30
0.0
 10
150.3611521105
 20
378.5348205064
 30
0.0
 10
150.7659113547
 20
378.8346861286
 30
0.0
 10
151.1744934929
 20
379.0236526039
 30
0.0
 10
151.5656324777
 20
379.1225888022
 30
0.0
 10
151.8189489558
 20
379.1428420242
 30
0.0
 10
151.9390401353
 20
379.1428451877
 30
0.0
  0
SPLINE
  5
2C6
100
AcDbEntity
  8
0
100
AcDbSpline
 62
7
  6
CONTINUOUS
 70
0
 71
3
 72
21
 73
17
 74
0
 42
0.0000001
 43
0.0000001
 44
0.0000000001
 40
0.0
 40
0.0
 40
0.0
 40
0.0
 40
0.0622035462
 40
0.1311653201
 40
0.2086972051
 40
0.2961574318
 40
0.3893364722
 40
0.4812211202
 40
0.5687911804
 40
0.6511268744
 40
0.7264419628
 40
0.7930199499
 40
0.8528146258
 40
0.9069738043
 40
0.955691273
 40
1.0
 40
1.0
 40
1.0
 40
1.0
 10
228.4390401353
 20
379.1428451876
 30
0.0
 10
228.5974331392
 20
379.1428549586
 30
0.0
 10
228.9324384217
 20
379.1074248669
 30
0.0
 10
229.4400453688
 20
378.935196808
 30
0.0
 10
229.9466584527
 20
378.6093866998
 30
0.0
 10
230.3912786103
 20
378.1135955738
 30
0.0
 10
230.6988104837
 20
377.4814574681
 30
0.0
 10
230.8283105634
 20
376.7914543043
 30
0.0
 10
230.7836601649
 20
376.1194634273
 30
0.0
 10
230.5899365095
 20
375.5192544941
 30
0.0
 10
230.287459965
 20
375.0287446565
 30
0.0
 10
229.9243191425
 20
374.6600384417
 30
0.0
 10
229.5392772575
 20
374.4035553936
 30
0.0
 10
229.1556471021
 20
374.2414653692
 30
0.0
 10
228.7891004989
 20
374.1560368787
 30
0.0
 10
228.5518663777
 20
374.1384862622
 30
0.0
 10
228.4390401353
 20
374.1384826468
 30
0.0
  0
SPLINE
  5
2C7
100
AcDbEntity
  8
0
100
AcDbSpline
 62
7
  6
CONTINUOUS
 70
0
 71
3
 72
20
 73
16
 74
0
 42
0.0000001
 43
0.0000001
 44
0.0000000001
 40
0.0
 40
0.0
 40
0.0
 40
0.0
 40
0.066449581
 40
0.1408622038
 40
0.224798848
 40
0.3202913435
 40
0.4257743661
 40
0.5291751364
 40
0.6223134441
 40
0.7042328867
 40
0.7770803983
 40
0.8422719038
 40
0.9006492819
 40
0.9528181004
 40
1.0
 40
1.0
 40
1.0
 40
1.0
 10
151.9390401353
 20
364.1384826468
 30
0.0
 10
151.7699072983
 20
364.1384704159
 30
0.0
 10
151.4101772548
 20
364.1784978848
 30
0.0
 10
150.8665319658
 20
364.3742890019
 30
0.0
 10
150.3291076885
 20
364.7476017599
 30
0.0
 10
149.8700676785
 20
365.3235278558
 30
0.0
 10
149.5919926047
 20
366.0608007104
 30
0.0
 10
149.5472460119
 20
366.8393054892
 30
0.0
 10
149.7025103617
 20
367.5393135728
 30
0.0
 10
149.992588507
 20
368.1068130411
 30
0.0
 10
150.3611521105
 20
368.5348205064
 30
0.0
 10
150.7659113547
 20
368.8346861286
 30
0.0
 10
151.1744934929
 20
369.0236526039
 30
0.0
 10
151.5656324777
 20
369.1225888022
 30
0.0
 10
151.8189489558
 20
369.1428420242
 30
0.0
 10
151.9390401353
 20
369.1428451877
 30
0.0
  0
SPLINE
  5
2C8
100
AcDbEntity
  8
0
100
AcDbSpline
 62
7
  6
CONTINUOUS
 70
0
 71
3
 72
21
 73
17
 74
0
 42
0.0000001
 43
0.0000001
 44
0.0000000001
 40
0.0
 40
0.0
 40
0.0
 40
0.0
 40
0.0622035462
 40
0.1311653201
 40
0.2086972051
 40
0.2961574318
 40
0.3893364722
 40
0.4812211202
 40
0.5687911804
 40
0.6511268744
 40
0.7264419628
 40
0.7930199499
 40
0.8528146258
 40
0.9069738043
 40
0.955691273
 40
1.0
 40
1.0
 40
1.0
 40
1.0
 10
228.4390401353
 20
369.1428451876
 30
0.0
 10
228.5974331392
 20
369.1428549586
 30
0.0
 10
228.9324384217
 20
369.1074248669
 30
0.0
 10
229.4400453688
 20
368.935196808
 30
0.0
 10
229.9466584527
 20
368.6093866998
 30
0.0
 10
230.3912786103
 20
368.1135955738
 30
0.0
 10
230.6988104837
 20
367.4814574681
 30
0.0
 10
230.8283105634
 20
366.7914543043
 30
0.0
 10
230.7836601649
 20
366.1194634273
 30
0.0
 10
230.5899365095
 20
365.5192544941
 30
0.0
 10
230.287459965
 20
365.0287446565
 30
0.0
 10
229.9243191425
 20
364.6600384417
 30
0.0
 10
229.5392772575
 20
364.4035553936
 30
0.0
 10
229.1556471021
 20
364.2414653692
 30
0.0
 10
228.7891004989
 20
364.1560368787
 30
0.0
 10
228.5518663777
 20
364.1384862622
 30
0.0
 10
228.4390401353
 20
364.1384826468
 30
0.0
  0
SPLINE
  5
2C9
100
AcDbEntity
  8
0
100
AcDbSpline
 62
7
  6
CONTINUOUS
 70
0
 71
3
 72
20
 73
16
 74
0
 42
0.0000001
 43
0.0000001
 44
0.0000000001
 40
0.0
 40
0.0
 40
0.0
 40
0.0
 40
0.066449581
 40
0.1408622038
 40
0.224798848
 40
0.3202913435
 40
0.4257743661
 40
0.5291751364
 40
0.6223134441
 40
0.7042328867
 40
0.7770803983
 40
0.8422719038
 40
0.9006492819
 40
0.9528181004
 40
1.0
 40
1.0
 40
1.0
 40
1.0
 10
151.9390401353
 20
354.1384826468
 30
0.0
 10
151.7699072983
 20
354.1384704159
 30
0.0
 10
151.4101772548
 20
354.1784978848
 30
0.0
 10
150.8665319658
 20
354.3742890019
 30
0.0
 10
150.3291076885
 20
354.7476017599
 30
0.0
 10
149.8700676785
 20
355.3235278558
 30
0.0
 10
149.5919926047
 20
356.0608007104
 30
0.0
 10
149.5472460119
 20
356.8393054892
 30
0.0
 10
149.7025103617
 20
357.5393135728
 30
0.0
 10
149.992588507
 20
358.1068130411
 30
0.0
 10
150.3611521105
 20
358.5348205064
 30
0.0
 10
150.7659113547
 20
358.8346861286
 30
0.0
 10
151.1744934929
 20
359.0236526039
 30
0.0
 10
151.5656324777
 20
359.1225888022
 30
0.0
 10
151.8189489558
 20
359.1428420242
 30
0.0
 10
151.9390401353
 20
359.1428451877
 30
0.0
  0
SPLINE
  5
2CA
100
AcDbEntity
  8
0
100
AcDbSpline
 62
7
  6
CONTINUOUS
 70
0
 71
3
 72
21
 73
17
 74
0
 42
0.0000001
 43
0.0000001
 44
0.0000000001
 40
0.0
 40
0.0
 40
0.0
 40
0.0
 40
0.0622035462
 40
0.1311653201
 40
0.2086972051
 40
0.2961574318
 40
0.3893364722
 40
0.4812211202
 40
0.5687911804
 40
0.6511268744
 40
0.7264419628
 40
0.7930199499
 40
0.8528146258
 40
0.9069738043
 40
0.955691273
 40
1.0
 40
1.0
 40
1.0
 40
1.0
 10
228.4390401353
 20
359.1428451876
 30
0.0
 10
228.5974331392
 20
359.1428549586
 30
0.0
 10
228.9324384217
 20
359.1074248669
 30
0.0
 10
229.4400453688
 20
358.935196808
 30
0.0
 10
229.9466584527
 20
358.6093866998
 30
0.0
 10
230.3912786103
 20
358.1135955738
 30
0.0
 10
230.6988104837
 20
357.4814574681
 30
0.0
 10
230.8283105634
 20
356.7914543043
 30
0.0
 10
230.7836601649
 20
356.1194634273
 30
0.0
 10
230.5899365095
 20
355.5192544941
 30
0.0
 10
230.287459965
 20
355.0287446565
 30
0.0
 10
229.9243191425
 20
354.6600384417
 30
0.0
 10
229.5392772575
 20
354.4035553936
 30
0.0
 10
229.1556471021
 20
354.2414653692
 30
0.0
 10
228.7891004989
 20
354.1560368787
 30
0.0
 10
228.5518663777
 20
354.1384862622
 30
0.0
 10
228.4390401353
 20
354.1384826468
 30
0.0
  0
SPLINE
  5
2CB
100
AcDbEntity
  8
0
100
AcDbSpline
 62
7
  6
CONTINUOUS
 70
0
 71
3
 72
20
 73
16
 74
0
 42
0.0000001
 43
0.0000001
 44
0.0000000001
 40
0.0
 40
0.0
 40
0.0
 40
0.0
 40
0.066449581
 40
0.1408622038
 40
0.224798848
 40
0.3202913435
 40
0.4257743661
 40
0.5291751364
 40
0.6223134441
 40
0.7042328867
 40
0.7770803983
 40
0.8422719038
 40
0.9006492819
 40
0.9528181004
 40
1.0
 40
1.0
 40
1.0
 40
1.0
 10
151.9390401353
 20
344.1384826468
 30
0.0
 10
151.7699072983
 20
344.1384704159
 30
0.0
 10
151.4101772548
 20
344.1784978848
 30
0.0
 10
150.8665319658
 20
344.3742890019
 30
0.0
 10
150.3291076885
 20
344.7476017599
 30
0.0
 10
149.8700676785
 20
345.3235278558
 30
0.0
 10
149.5919926047
 20
346.0608007104
 30
0.0
 10
149.5472460119
 20
346.8393054892
 30
0.0
 10
149.7025103617
 20
347.5393135728
 30
0.0
 10
149.992588507
 20
348.1068130411
 30
0.0
 10
150.3611521105
 20
348.5348205064
 30
0.0
 10
150.7659113547
 20
348.8346861286
 30
0.0
 10
151.1744934929
 20
349.0236526039
 30
0.0
 10
151.5656324777
 20
349.1225888022
 30
0.0
 10
151.8189489558
 20
349.1428420242
 30
0.0
 10
151.9390401353
 20
349.1428451877
 30
0.0
  0
SPLINE
  5
2CC
100
AcDbEntity
  8
0
100
AcDbSpline
 62
7
  6
CONTINUOUS
 70
0
 71
3
 72
21
 73
17
 74
0
 42
0.0000001
 43
0.0000001
 44
0.0000000001
 40
0.0
 40
0.0
 40
0.0
 40
0.0
 40
0.0622035462
 40
0.1311653201
 40
0.2086972051
 40
0.2961574318
 40
0.3893364722
 40
0.4812211202
 40
0.5687911804
 40
0.6511268744
 40
0.7264419628
 40
0.7930199499
 40
0.8528146258
 40
0.9069738043
 40
0.955691273
 40
1.0
 40
1.0
 40
1.0
 40
1.0
 10
228.4390401353
 20
349.1428451876
 30
0.0
 10
228.5974331392
 20
349.1428549586
 30
0.0
 10
228.9324384217
 20
349.1074248669
 30
0.0
 10
229.4400453688
 20
348.935196808
 30
0.0
 10
229.9466584527
 20
348.6093866998
 30
0.0
 10
230.3912786103
 20
348.1135955738
 30
0.0
 10
230.6988104837
 20
347.4814574681
 30
0.0
 10
230.8283105634
 20
346.7914543043
 30
0.0
 10
230.7836601649
 20
346.1194634273
 30
0.0
 10
230.5899365095
 20
345.5192544941
 30
0.0
 10
230.287459965
 20
345.0287446565
 30
0.0
 10
229.9243191425
 20
344.6600384417
 30
0.0
 10
229.5392772575
 20
344.4035553936
 30
0.0
 10
229.1556471021
 20
344.2414653692
 30
0.0
 10
228.7891004989
 20
344.1560368787
 30
0.0
 10
228.5518663777
 20
344.1384862622
 30
0.0
 10
228.4390401353
 20
344.1384826468
 30
0.0
  0
SPLINE
  5
2CD
100
AcDbEntity
  8
0
100
AcDbSpline
 62
7
  6
CONTINUOUS
 70
0
 71
3
 72
20
 73
16
 74
0
 42
0.0000001
 43
0.0000001
 44
0.0000000001
 40
0.0
 40
0.0
 40
0.0
 40
0.0
 40
0.066449581
 40
0.1408622038
 40
0.224798848
 40
0.3202913435
 40
0.4257743661
 40
0.5291751364
 40
0.6223134441
 40
0.7042328867
 40
0.7770803983
 40
0.8422719038
 40
0.9006492819
 40
0.9528181004
 40
1.0
 40
1.0
 40
1.0
 40
1.0
 10
151.9390401353
 20
334.1384826468
 30
0.0
 10
151.7699072983
 20
334.1384704159
 30
0.0
 10
151.4101772548
 20
334.1784978848
 30
0.0
 10
150.8665319658
 20
334.3742890019
 30
0.0
 10
150.3291076885
 20
334.7476017599
 30
0.0
 10
149.8700676785
 20
335.3235278558
 30
0.0
 10
149.5919926047
 20
336.0608007104
 30
0.0
 10
149.5472460119
 20
336.8393054892
 30
0.0
 10
149.7025103617
 20
337.5393135728
 30
0.0
 10
149.992588507
 20
338.1068130411
 30
0.0
 10
150.3611521105
 20
338.5348205064
 30
0.0
 10
150.7659113547
 20
338.8346861286
 30
0.0
 10
151.1744934929
 20
339.0236526039
 30
0.0
 10
151.5656324777
 20
339.1225888022
 30
0.0
 10
151.8189489558
 20
339.1428420242
 30
0.0
 10
151.9390401353
 20
339.1428451877
 30
0.0
  0
SPLINE
  5
2CE
100
AcDbEntity
  8
0
100
AcDbSpline
 62
7
  6
CONTINUOUS
 70
0
 71
3
 72
21
 73
17
 74
0
 42
0.0000001
 43
0.0000001
 44
0.0000000001
 40
0.0
 40
0.0
 40
0.0
 40
0.0
 40
0.0622035462
 40
0.1311653201
 40
0.2086972051
 40
0.2961574318
 40
0.3893364722
 40
0.4812211202
 40
0.5687911804
 40
0.6511268744
 40
0.7264419628
 40
0.7930199499
 40
0.8528146258
 40
0.9069738043
 40
0.955691273
 40
1.0
 40
1.0
 40
1.0
 40
1.0
 10
228.4390401353
 20
339.1428451876
 30
0.0
 10
228.5974331392
 20
339.1428549586
 30
0.0
 10
228.9324384217
 20
339.1074248669
 30
0.0
 10
229.4400453688
 20
338.935196808
 30
0.0
 10
229.9466584527
 20
338.6093866998
 30
0.0
 10
230.3912786103
 20
338.1135955738
 30
0.0
 10
230.6988104837
 20
337.4814574681
 30
0.0
 10
230.8283105634
 20
336.7914543043
 30
0.0
 10
230.7836601649
 20
336.1194634273
 30
0.0
 10
230.5899365095
 20
335.5192544941
 30
0.0
 10
230.287459965
 20
335.0287446565
 30
0.0
 10
229.9243191425
 20
334.6600384417
 30
0.0
 10
229.5392772575
 20
334.4035553936
 30
0.0
 10
229.1556471021
 20
334.2414653692
 30
0.0
 10
228.7891004989
 20
334.1560368787
 30
0.0
 10
228.5518663777
 20
334.1384862622
 30
0.0
 10
228.4390401353
 20
334.1384826468
 30
0.0
  0
SPLINE
  5
2CF
100
AcDbEntity
  8
0
100
AcDbSpline
 62
7
  6
CONTINUOUS
 70
0
 71
3
 72
20
 73
16
 74
0
 42
0.0000001
 43
0.0000001
 44
0.0000000001
 40
0.0
 40
0.0
 40
0.0
 40
0.0
 40
0.066449581
 40
0.1408622038
 40
0.224798848
 40
0.3202913435
 40
0.4257743661
 40
0.5291751364
 40
0.6223134441
 40
0.7042328867
 40
0.7770803983
 40
0.8422719038
 40
0.9006492819
 40
0.9528181004
 40
1.0
 40
1.0
 40
1.0
 40
1.0
 10
151.9390401353
 20
324.1384826468
 30
0.0
 10
151.7699072983
 20
324.1384704159
 30
0.0
 10
151.4101772548
 20
324.1784978848
 30
0.0
 10
150.8665319658
 20
324.3742890019
 30
0.0
 10
150.3291076885
 20
324.7476017599
 30
0.0
 10
149.8700676785
 20
325.3235278558
 30
0.0
 10
149.5919926047
 20
326.0608007104
 30
0.0
 10
149.5472460119
 20
326.8393054892
 30
0.0
 10
149.7025103617
 20
327.5393135728
 30
0.0
 10
149.992588507
 20
328.1068130411
 30
0.0
 10
150.3611521105
 20
328.5348205064
 30
0.0
 10
150.7659113547
 20
328.8346861286
 30
0.0
 10
151.1744934929
 20
329.0236526039
 30
0.0
 10
151.5656324777
 20
329.1225888022
 30
0.0
 10
151.8189489558
 20
329.1428420242
 30
0.0
 10
151.9390401353
 20
329.1428451877
 30
0.0
  0
SPLINE
  5
2D0
100
AcDbEntity
  8
0
100
AcDbSpline
 62
7
  6
CONTINUOUS
 70
0
 71
3
 72
21
 73
17
 74
0
 42
0.0000001
 43
0.0000001
 44
0.0000000001
 40
0.0
 40
0.0
 40
0.0
 40
0.0
 40
0.0622035462
 40
0.1311653201
 40
0.2086972051
 40
0.2961574318
 40
0.3893364722
 40
0.4812211202
 40
0.5687911804
 40
0.6511268744
 40
0.7264419628
 40
0.7930199499
 40
0.8528146258
 40
0.9069738043
 40
0.955691273
 40
1.0
 40
1.0
 40
1.0
 40
1.0
 10
228.4390401353
 20
329.1428451876
 30
0.0
 10
228.5974331392
 20
329.1428549586
 30
0.0
 10
228.9324384217
 20
329.1074248669
 30
0.0
 10
229.4400453688
 20
328.935196808
 30
0.0
 10
229.9466584527
 20
328.6093866998
 30
0.0
 10
230.3912786103
 20
328.1135955738
 30
0.0
 10
230.6988104837
 20
327.4814574681
 30
0.0
 10
230.8283105634
 20
326.7914543043
 30
0.0
 10
230.7836601649
 20
326.1194634273
 30
0.0
 10
230.5899365095
 20
325.5192544941
 30
0.0
 10
230.287459965
 20
325.0287446565
 30
0.0
 10
229.9243191425
 20
324.6600384417
 30
0.0
 10
229.5392772575
 20
324.4035553936
 30
0.0
 10
229.1556471021
 20
324.2414653692
 30
0.0
 10
228.7891004989
 20
324.1560368787
 30
0.0
 10
228.5518663777
 20
324.1384862622
 30
0.0
 10
228.4390401353
 20
324.1384826468
 30
0.0
  0
SPLINE
  5
2D1
100
AcDbEntity
  8
0
100
AcDbSpline
 62
7
  6
CONTINUOUS
 70
0
 71
3
 72
20
 73
16
 74
0
 42
0.0000001
 43
0.0000001
 44
0.0000000001
 40
0.0
 40
0.0
 40
0.0
 40
0.0
 40
0.066449581
 40
0.1408622038
 40
0.224798848
 40
0.3202913435
 40
0.4257743661
 40
0.5291751364
 40
0.6223134441
 40
0.7042328867
 40
0.7770803983
 40
0.8422719038
 40
0.9006492819
 40
0.9528181004
 40
1.0
 40
1.0
 40
1.0
 40
1.0
 10
151.9390401353
 20
314.1384826468
 30
0.0
 10
151.7699072983
 20
314.1384704159
 30
0.0
 10
151.4101772548
 20
314.1784978848
 30
0.0
 10
150.8665319658
 20
314.3742890019
 30
0.0
 10
150.3291076885
 20
314.7476017599
 30
0.0
 10
149.8700676785
 20
315.3235278558
 30
0.0
 10
149.5919926047
 20
316.0608007104
 30
0.0
 10
149.5472460119
 20
316.8393054892
 30
0.0
 10
149.7025103617
 20
317.5393135728
 30
0.0
 10
149.992588507
 20
318.1068130411
 30
0.0
 10
150.3611521105
 20
318.5348205064
 30
0.0
 10
150.7659113547
 20
318.8346861286
 30
0.0
 10
151.1744934929
 20
319.0236526039
 30
0.0
 10
151.5656324777
 20
319.1225888022
 30
0.0
 10
151.8189489558
 20
319.1428420242
 30
0.0
 10
151.9390401353
 20
319.1428451877
 30
0.0
  0
SPLINE
  5
2D2
100
AcDbEntity
  8
0
100
AcDbSpline
 62
7
  6
CONTINUOUS
 70
0
 71
3
 72
21
 73
17
 74
0
 42
0.0000001
 43
0.0000001
 44
0.0000000001
 40
0.0
 40
0.0
 40
0.0
 40
0.0
 40
0.0622035462
 40
0.1311653201
 40
0.2086972051
 40
0.2961574318
 40
0.3893364722
 40
0.4812211202
 40
0.5687911804
 40
0.6511268744
 40
0.7264419628
 40
0.7930199499
 40
0.8528146258
 40
0.9069738043
 40
0.955691273
 40
1.0
 40
1.0
 40
1.0
 40
1.0
 10
228.4390401353
 20
319.1428451876
 30
0.0
 10
228.5974331392
 20
319.1428549586
 30
0.0
 10
228.9324384217
 20
319.1074248669
 30
0.0
 10
229.4400453688
 20
318.935196808
 30
0.0
 10
229.9466584527
 20
318.6093866998
 30
0.0
 10
230.3912786103
 20
318.1135955738
 30
0.0
 10
230.6988104837
 20
317.4814574681
 30
0.0
 10
230.8283105634
 20
316.7914543043
 30
0.0
 10
230.7836601649
 20
316.1194634273
 30
0.0
 10
230.5899365095
 20
315.5192544941
 30
0.0
 10
230.287459965
 20
315.0287446565
 30
0.0
 10
229.9243191425
 20
314.6600384417
 30
0.0
 10
229.5392772575
 20
314.4035553936
 30
0.0
 10
229.1556471021
 20
314.2414653692
 30
0.0
 10
228.7891004989
 20
314.1560368787
 30
0.0
 10
228.5518663777
 20
314.1384862622
 30
0.0
 10
228.4390401353
 20
314.1384826468
 30
0.0
  0
SPLINE
  5
2D3
100
AcDbEntity
  8
0
100
AcDbSpline
 62
7
  6
CONTINUOUS
 70
0
 71
3
 72
20
 73
16
 74
0
 42
0.0000001
 43
0.0000001
 44
0.0000000001
 40
0.0
 40
0.0
 40
0.0
 40
0.0
 40
0.066449581
 40
0.1408622038
 40
0.224798848
 40
0.3202913435
 40
0.4257743661
 40
0.5291751364
 40
0.6223134441
 40
0.7042328867
 40
0.7770803983
 40
0.8422719038
 40
0.9006492819
 40
0.9528181004
 40
1.0
 40
1.0
 40
1.0
 40
1.0
 10
151.9390401353
 20
304.1384826468
 30
0.0
 10
151.7699072983
 20
304.1384704159
 30
0.0
 10
151.4101772548
 20
304.1784978848
 30
0.0
 10
150.8665319658
 20
304.3742890019
 30
0.0
 10
150.3291076885
 20
304.7476017599
 30
0.0
 10
149.8700676785
 20
305.3235278558
 30
0.0
 10
149.5919926047
 20
306.0608007104
 30
0.0
 10
149.5472460119
 20
306.8393054892
 30
0.0
 10
149.7025103617
 20
307.5393135728
 30
0.0
 10
149.992588507
 20
308.1068130411
 30
0.0
 10
150.3611521105
 20
308.5348205064
 30
0.0
 10
150.7659113547
 20
308.8346861286
 30
0.0
 10
151.1744934929
 20
309.0236526039
 30
0.0
 10
151.5656324777
 20
309.1225888022
 30
0.0
 10
151.8189489558
 20
309.1428420242
 30
0.0
 10
151.9390401353
 20
309.1428451877
 30
0.0
  0
SPLINE
  5
2D4
100
AcDbEntity
  8
0
100
AcDbSpline
 62
7
  6
CONTINUOUS
 70
0
 71
3
 72
21
 73
17
 74
0
 42
0.0000001
 43
0.0000001
 44
0.0000000001
 40
0.0
 40
0.0
 40
0.0
 40
0.0
 40
0.0622035462
 40
0.1311653201
 40
0.2086972051
 40
0.2961574318
 40
0.3893364722
 40
0.4812211202
 40
0.5687911804
 40
0.6511268744
 40
0.7264419628
 40
0.7930199499
 40
0.8528146258
 40
0.9069738043
 40
0.955691273
 40
1.0
 40
1.0
 40
1.0
 40
1.0
 10
228.4390401353
 20
309.1428451876
 30
0.0
 10
228.5974331392
 20
309.1428549586
 30
0.0
 10
228.9324384217
 20
309.1074248669
 30
0.0
 10
229.4400453688
 20
308.935196808
 30
0.0
 10
229.9466584527
 20
308.6093866998
 30
0.0
 10
230.3912786103
 20
308.1135955738
 30
0.0
 10
230.6988104837
 20
307.4814574681
 30
0.0
 10
230.8283105634
 20
306.7914543043
 30
0.0
 10
230.7836601649
 20
306.1194634273
 30
0.0
 10
230.5899365095
 20
305.5192544941
 30
0.0
 10
230.287459965
 20
305.0287446565
 30
0.0
 10
229.9243191425
 20
304.6600384417
 30
0.0
 10
229.5392772575
 20
304.4035553936
 30
0.0
 10
229.1556471021
 20
304.2414653692
 30
0.0
 10
228.7891004989
 20
304.1560368787
 30
0.0
 10
228.5518663777
 20
304.1384862622
 30
0.0
 10
228.4390401353
 20
304.1384826468
 30
0.0
  0
SPLINE
  5
2D5
100
AcDbEntity
  8
0
100
AcDbSpline
 62
7
  6
CONTINUOUS
 70
0
 71
3
 72
20
 73
16
 74
0
 42
0.0000001
 43
0.0000001
 44
0.0000000001
 40
0.0
 40
0.0
 40
0.0
 40
0.0
 40
0.066449581
 40
0.1408622038
 40
0.224798848
 40
0.3202913435
 40
0.4257743661
 40
0.5291751364
 40
0.6223134441
 40
0.7042328867
 40
0.7770803983
 40
0.8422719038
 40
0.9006492819
 40
0.9528181004
 40
1.0
 40
1.0
 40
1.0
 40
1.0
 10
151.9390401353
 20
294.1384826468
 30
0.0
 10
151.7699072983
 20
294.1384704159
 30
0.0
 10
151.4101772548
 20
294.1784978848
 30
0.0
 10
150.8665319658
 20
294.3742890019
 30
0.0
 10
150.3291076885
 20
294.7476017599
 30
0.0
 10
149.8700676785
 20
295.3235278558
 30
0.0
 10
149.5919926047
 20
296.0608007104
 30
0.0
 10
149.5472460119
 20
296.8393054892
 30
0.0
 10
149.7025103617
 20
297.5393135728
 30
0.0
 10
149.992588507
 20
298.1068130411
 30
0.0
 10
150.3611521105
 20
298.5348205064
 30
0.0
 10
150.7659113547
 20
298.8346861286
 30
0.0
 10
151.1744934929
 20
299.0236526039
 30
0.0
 10
151.5656324777
 20
299.1225888022
 30
0.0
 10
151.8189489558
 20
299.1428420242
 30
0.0
 10
151.9390401353
 20
299.1428451877
 30
0.0
  0
SPLINE
  5
2D6
100
AcDbEntity
  8
0
100
AcDbSpline
 62
7
  6
CONTINUOUS
 70
0
 71
3
 72
21
 73
17
 74
0
 42
0.0000001
 43
0.0000001
 44
0.0000000001
 40
0.0
 40
0.0
 40
0.0
 40
0.0
 40
0.0622035462
 40
0.1311653201
 40
0.2086972051
 40
0.2961574318
 40
0.3893364722
 40
0.4812211202
 40
0.5687911804
 40
0.6511268744
 40
0.7264419628
 40
0.7930199499
 40
0.8528146258
 40
0.9069738043
 40
0.955691273
 40
1.0
 40
1.0
 40
1.0
 40
1.0
 10
228.4390401353
 20
299.1428451876
 30
0.0
 10
228.5974331392
 20
299.1428549586
 30
0.0
 10
228.9324384217
 20
299.1074248669
 30
0.0
 10
229.4400453688
 20
298.935196808
 30
0.0
 10
229.9466584527
 20
298.6093866998
 30
0.0
 10
230.3912786103
 20
298.1135955738
 30
0.0
 10
230.6988104837
 20
297.4814574681
 30
0.0
 10
230.8283105634
 20
296.7914543043
 30
0.0
 10
230.7836601649
 20
296.1194634273
 30
0.0
 10
230.5899365095
 20
295.5192544941
 30
0.0
 10
230.287459965
 20
295.0287446565
 30
0.0
 10
229.9243191425
 20
294.6600384417
 30
0.0
 10
229.5392772575
 20
294.4035553936
 30
0.0
 10
229.1556471021
 20
294.2414653692
 30
0.0
 10
228.7891004989
 20
294.1560368787
 30
0.0
 10
228.5518663777
 20
294.1384862622
 30
0.0
 10
228.4390401353
 20
294.1384826468
 30
0.0
  0
SPLINE
  5
2D7
100
AcDbEntity
  8
0
100
AcDbSpline
 62
7
  6
CONTINUOUS
 70
0
 71
3
 72
20
 73
16
 74
0
 42
0.0000001
 43
0.0000001
 44
0.0000000001
 40
0.0
 40
0.0
 40
0.0
 40
0.0
 40
0.066449581
 40
0.1408622038
 40
0.224798848
 40
0.3202913435
 40
0.4257743661
 40
0.5291751364
 40
0.6223134441
 40
0.7042328867
 40
0.7770803983
 40
0.8422719038
 40
0.9006492819
 40
0.9528181004
 40
1.0
 40
1.0
 40
1.0
 40
1.0
 10
151.9390401353
 20
284.1384826468
 30
0.0
 10
151.7699072983
 20
284.1384704159
 30
0.0
 10
151.4101772548
 20
284.1784978848
 30
0.0
 10
150.8665319658
 20
284.3742890019
 30
0.0
 10
150.3291076885
 20
284.7476017599
 30
0.0
 10
149.8700676785
 20
285.3235278558
 30
0.0
 10
149.5919926047
 20
286.0608007104
 30
0.0
 10
149.5472460119
 20
286.8393054892
 30
0.0
 10
149.7025103617
 20
287.5393135728
 30
0.0
 10
149.992588507
 20
288.1068130411
 30
0.0
 10
150.3611521105
 20
288.5348205064
 30
0.0
 10
150.7659113547
 20
288.8346861286
 30
0.0
 10
151.1744934929
 20
289.0236526039
 30
0.0
 10
151.5656324777
 20
289.1225888022
 30
0.0
 10
151.8189489558
 20
289.1428420242
 30
0.0
 10
151.9390401353
 20
289.1428451877
 30
0.0
  0
SPLINE
  5
2D8
100
AcDbEntity
  8
0
100
AcDbSpline
 62
7
  6
CONTINUOUS
 70
0
 71
3
 72
21
 73
17
 74
0
 42
0.0000001
 43
0.0000001
 44
0.0000000001
 40
0.0
 40
0.0
 40
0.0
 40
0.0
 40
0.0622035462
 40
0.1311653201
 40
0.2086972051
 40
0.2961574318
 40
0.3893364722
 40
0.4812211202
 40
0.5687911804
 40
0.6511268744
 40
0.7264419628
 40
0.7930199499
 40
0.8528146258
 40
0.9069738043
 40
0.955691273
 40
1.0
 40
1.0
 40
1.0
 40
1.0
 10
228.4390401353
 20
289.1428451876
 30
0.0
 10
228.5974331392
 20
289.1428549586
 30
0.0
 10
228.9324384217
 20
289.1074248669
 30
0.0
 10
229.4400453688
 20
288.935196808
 30
0.0
 10
229.9466584527
 20
288.6093866998
 30
0.0
 10
230.3912786103
 20
288.1135955738
 30
0.0
 10
230.6988104837
 20
287.4814574681
 30
0.0
 10
230.8283105634
 20
286.7914543043
 30
0.0
 10
230.7836601649
 20
286.1194634273
 30
0.0
 10
230.5899365095
 20
285.5192544941
 30
0.0
 10
230.287459965
 20
285.0287446565
 30
0.0
 10
229.9243191425
 20
284.6600384417
 30
0.0
 10
229.5392772575
 20
284.4035553936
 30
0.0
 10
229.1556471021
 20
284.2414653692
 30
0.0
 10
228.7891004989
 20
284.1560368787
 30
0.0
 10
228.5518663777
 20
284.1384862622
 30
0.0
 10
228.4390401353
 20
284.1384826468
 30
0.0
  0
SPLINE
  5
2D9
100
AcDbEntity
  8
0
100
AcDbSpline
 62
7
  6
CONTINUOUS
 70
0
 71
3
 72
20
 73
16
 74
0
 42
0.0000001
 43
0.0000001
 44
0.0000000001
 40
0.0
 40
0.0
 40
0.0
 40
0.0
 40
0.066449581
 40
0.1408622038
 40
0.224798848
 40
0.3202913435
 40
0.4257743661
 40
0.5291751364
 40
0.6223134441
 40
0.7042328867
 40
0.7770803983
 40
0.8422719038
 40
0.9006492819
 40
0.9528181004
 40
1.0
 40
1.0
 40
1.0
 40
1.0
 10
151.9390401353
 20
274.1384826468
 30
0.0
 10
151.7699072983
 20
274.1384704159
 30
0.0
 10
151.4101772548
 20
274.1784978848
 30
0.0
 10
150.8665319658
 20
274.3742890019
 30
0.0
 10
150.3291076885
 20
274.7476017599
 30
0.0
 10
149.8700676785
 20
275.3235278558
 30
0.0
 10
149.5919926047
 20
276.0608007104
 30
0.0
 10
149.5472460119
 20
276.8393054892
 30
0.0
 10
149.7025103617
 20
277.5393135728
 30
0.0
 10
149.992588507
 20
278.1068130411
 30
0.0
 10
150.3611521105
 20
278.5348205064
 30
0.0
 10
150.7659113547
 20
278.8346861286
 30
0.0
 10
151.1744934929
 20
279.0236526039
 30
0.0
 10
151.5656324777
 20
279.1225888022
 30
0.0
 10
151.8189489558
 20
279.1428420242
 30
0.0
 10
151.9390401353
 20
279.1428451876
 30
0.0
  0
SPLINE
  5
2DA
100
AcDbEntity
  8
0
100
AcDbSpline
 62
7
  6
CONTINUOUS
 70
0
 71
3
 72
21
 73
17
 74
0
 42
0.0000001
 43
0.0000001
 44
0.0000000001
 40
0.0
 40
0.0
 40
0.0
 40
0.0
 40
0.0622035462
 40
0.1311653201
 40
0.2086972051
 40
0.2961574318
 40
0.3893364722
 40
0.4812211202
 40
0.5687911804
 40
0.6511268744
 40
0.7264419628
 40
0.7930199499
 40
0.8528146258
 40
0.9069738043
 40
0.955691273
 40
1.0
 40
1.0
 40
1.0
 40
1.0
 10
228.4390401353
 20
279.1428451876
 30
0.0
 10
228.5974331392
 20
279.1428549585
 30
0.0
 10
228.9324384217
 20
279.1074248669
 30
0.0
 10
229.4400453688
 20
278.935196808
 30
0.0
 10
229.9466584527
 20
278.6093866998
 30
0.0
 10
230.3912786103
 20
278.1135955738
 30
0.0
 10
230.6988104837
 20
277.4814574681
 30
0.0
 10
230.8283105634
 20
276.7914543043
 30
0.0
 10
230.7836601649
 20
276.1194634273
 30
0.0
 10
230.5899365095
 20
275.5192544941
 30
0.0
 10
230.287459965
 20
275.0287446565
 30
0.0
 10
229.9243191425
 20
274.6600384417
 30
0.0
 10
229.5392772575
 20
274.4035553936
 30
0.0
 10
229.1556471021
 20
274.2414653691
 30
0.0
 10
228.7891004989
 20
274.1560368787
 30
0.0
 10
228.5518663777
 20
274.1384862622
 30
0.0
 10
228.4390401353
 20
274.1384826468
 30
0.0
  0
SPLINE
  5
2DB
100
AcDbEntity
  8
0
100
AcDbSpline
 62
7
  6
CONTINUOUS
 70
0
 71
3
 72
20
 73
16
 74
0
 42
0.0000001
 43
0.0000001
 44
0.0000000001
 40
0.0
 40
0.0
 40
0.0
 40
0.0
 40
0.066449581
 40
0.1408622038
 40
0.224798848
 40
0.3202913435
 40
0.4257743661
 40
0.5291751364
 40
0.6223134441
 40
0.7042328867
 40
0.7770803983
 40
0.8422719038
 40
0.9006492819
 40
0.9528181004
 40
1.0
 40
1.0
 40
1.0
 40
1.0
 10
151.9390401353
 20
264.1384826468
 30
0.0
 10
151.7699072983
 20
264.1384704159
 30
0.0
 10
151.4101772548
 20
264.1784978848
 30
0.0
 10
150.8665319658
 20
264.3742890019
 30
0.0
 10
150.3291076885
 20
264.7476017599
 30
0.0
 10
149.8700676785
 20
265.3235278558
 30
0.0
 10
149.5919926047
 20
266.0608007104
 30
0.0
 10
149.5472460119
 20
266.8393054892
 30
0.0
 10
149.7025103617
 20
267.5393135728
 30
0.0
 10
149.992588507
 20
268.1068130411
 30
0.0
 10
150.3611521105
 20
268.5348205064
 30
0.0
 10
150.7659113547
 20
268.8346861286
 30
0.0
 10
151.1744934929
 20
269.0236526039
 30
0.0
 10
151.5656324777
 20
269.1225888022
 30
0.0
 10
151.8189489558
 20
269.1428420242
 30
0.0
 10
151.9390401353
 20
269.1428451876
 30
0.0
  0
SPLINE
  5
2DC
100
AcDbEntity
  8
0
100
AcDbSpline
 62
7
  6
CONTINUOUS
 70
0
 71
3
 72
21
 73
17
 74
0
 42
0.0000001
 43
0.0000001
 44
0.0000000001
 40
0.0
 40
0.0
 40
0.0
 40
0.0
 40
0.0622035462
 40
0.1311653201
 40
0.2086972051
 40
0.2961574318
 40
0.3893364722
 40
0.4812211202
 40
0.5687911804
 40
0.6511268744
 40
0.7264419628
 40
0.7930199499
 40
0.8528146258
 40
0.9069738043
 40
0.955691273
 40
1.0
 40
1.0
 40
1.0
 40
1.0
 10
228.4390401353
 20
269.1428451876
 30
0.0
 10
228.5974331392
 20
269.1428549585
 30
0.0
 10
228.9324384217
 20
269.1074248669
 30
0.0
 10
229.4400453688
 20
268.935196808
 30
0.0
 10
229.9466584527
 20
268.6093866998
 30
0.0
 10
230.3912786103
 20
268.1135955738
 30
0.0
 10
230.6988104837
 20
267.4814574681
 30
0.0
 10
230.8283105634
 20
266.7914543043
 30
0.0
 10
230.7836601649
 20
266.1194634273
 30
0.0
 10
230.5899365095
 20
265.5192544941
 30
0.0
 10
230.287459965
 20
265.0287446565
 30
0.0
 10
229.9243191425
 20
264.6600384417
 30
0.0
 10
229.5392772575
 20
264.4035553936
 30
0.0
 10
229.1556471021
 20
264.2414653691
 30
0.0
 10
228.7891004989
 20
264.1560368787
 30
0.0
 10
228.5518663777
 20
264.1384862622
 30
0.0
 10
228.4390401353
 20
264.1384826468
 30
0.0
  0
SPLINE
  5
2DD
100
AcDbEntity
  8
0
100
AcDbSpline
 62
7
  6
CONTINUOUS
 70
0
 71
3
 72
20
 73
16
 74
0
 42
0.0000001
 43
0.0000001
 44
0.0000000001
 40
0.0
 40
0.0
 40
0.0
 40
0.0
 40
0.066449581
 40
0.1408622038
 40
0.224798848
 40
0.3202913435
 40
0.4257743661
 40
0.5291751364
 40
0.6223134441
 40
0.7042328867
 40
0.7770803983
 40
0.8422719038
 40
0.9006492819
 40
0.9528181004
 40
1.0
 40
1.0
 40
1.0
 40
1.0
 10
151.9390401353
 20
254.1384826468
 30
0.0
 10
151.7699072983
 20
254.1384704159
 30
0.0
 10
151.4101772548
 20
254.1784978848
 30
0.0
 10
150.8665319658
 20
254.3742890019
 30
0.0
 10
150.3291076885
 20
254.7476017599
 30
0.0
 10
149.8700676785
 20
255.3235278558
 30
0.0
 10
149.5919926047
 20
256.0608007104
 30
0.0
 10
149.5472460119
 20
256.8393054892
 30
0.0
 10
149.7025103617
 20
257.5393135728
 30
0.0
 10
149.992588507
 20
258.1068130411
 30
0.0
 10
150.3611521105
 20
258.5348205064
 30
0.0
 10
150.7659113547
 20
258.8346861286
 30
0.0
 10
151.1744934929
 20
259.0236526039
 30
0.0
 10
151.5656324777
 20
259.1225888022
 30
0.0
 10
151.8189489558
 20
259.1428420242
 30
0.0
 10
151.9390401353
 20
259.1428451876
 30
0.0
  0
SPLINE
  5
2DE
100
AcDbEntity
  8
0
100
AcDbSpline
 62
7
  6
CONTINUOUS
 70
0
 71
3
 72
21
 73
17
 74
0
 42
0.0000001
 43
0.0000001
 44
0.0000000001
 40
0.0
 40
0.0
 40
0.0
 40
0.0
 40
0.0622035462
 40
0.1311653201
 40
0.2086972051
 40
0.2961574318
 40
0.3893364722
 40
0.4812211202
 40
0.5687911804
 40
0.6511268744
 40
0.7264419628
 40
0.7930199499
 40
0.8528146258
 40
0.9069738043
 40
0.955691273
 40
1.0
 40
1.0
 40
1.0
 40
1.0
 10
228.4390401353
 20
259.1428451876
 30
0.0
 10
228.5974331392
 20
259.1428549585
 30
0.0
 10
228.9324384217
 20
259.1074248669
 30
0.0
 10
229.4400453688
 20
258.935196808
 30
0.0
 10
229.9466584527
 20
258.6093866998
 30
0.0
 10
230.3912786103
 20
258.1135955738
 30
0.0
 10
230.6988104837
 20
257.4814574681
 30
0.0
 10
230.8283105634
 20
256.7914543043
 30
0.0
 10
230.7836601649
 20
256.1194634273
 30
0.0
 10
230.5899365095
 20
255.5192544941
 30
0.0
 10
230.287459965
 20
255.0287446565
 30
0.0
 10
229.9243191425
 20
254.6600384417
 30
0.0
 10
229.5392772575
 20
254.4035553936
 30
0.0
 10
229.1556471021
 20
254.2414653691
 30
0.0
 10
228.7891004989
 20
254.1560368787
 30
0.0
 10
228.5518663777
 20
254.1384862622
 30
0.0
 10
228.4390401353
 20
254.1384826468
 30
0.0
  0
SPLINE
  5
2DF
100
AcDbEntity
  8
0
100
AcDbSpline
 62
7
  6
CONTINUOUS
 70
0
 71
3
 72
20
 73
16
 74
0
 42
0.0000001
 43
0.0000001
 44
0.0000000001
 40
0.0
 40
0.0
 40
0.0
 40
0.0
 40
0.066449581
 40
0.1408622038
 40
0.224798848
 40
0.3202913435
 40
0.4257743661
 40
0.5291751364
 40
0.6223134441
 40
0.7042328867
 40
0.7770803983
 40
0.8422719038
 40
0.9006492819
 40
0.9528181004
 40
1.0
 40
1.0
 40
1.0
 40
1.0
 10
151.9390401353
 20
244.1384826468
 30
0.0
 10
151.7699072983
 20
244.1384704159
 30
0.0
 10
151.4101772548
 20
244.1784978848
 30
0.0
 10
150.8665319658
 20
244.3742890019
 30
0.0
 10
150.3291076885
 20
244.7476017599
 30
0.0
 10
149.8700676785
 20
245.3235278558
 30
0.0
 10
149.5919926047
 20
246.0608007104
 30
0.0
 10
149.5472460119
 20
246.8393054892
 30
0.0
 10
149.7025103617
 20
247.5393135728
 30
0.0
 10
149.992588507
 20
248.1068130411
 30
0.0
 10
150.3611521105
 20
248.5348205064
 30
0.0
 10
150.7659113547
 20
248.8346861286
 30
0.0
 10
151.1744934929
 20
249.0236526039
 30
0.0
 10
151.5656324777
 20
249.1225888022
 30
0.0
 10
151.8189489558
 20
249.1428420242
 30
0.0
 10
151.9390401353
 20
249.1428451876
 30
0.0
  0
SPLINE
  5
2E0
100
AcDbEntity
  8
0
100
AcDbSpline
 62
7
  6
CONTINUOUS
 70
0
 71
3
 72
21
 73
17
 74
0
 42
0.0000001
 43
0.0000001
 44
0.0000000001
 40
0.0
 40
0.0
 40
0.0
 40
0.0
 40
0.0622035462
 40
0.1311653201
 40
0.2086972051
 40
0.2961574318
 40
0.3893364722
 40
0.4812211202
 40
0.5687911804
 40
0.6511268744
 40
0.7264419628
 40
0.7930199499
 40
0.8528146258
 40
0.9069738043
 40
0.955691273
 40
1.0
 40
1.0
 40
1.0
 40
1.0
 10
228.4390401353
 20
249.1428451876
 30
0.0
 10
228.5974331392
 20
249.1428549585
 30
0.0
 10
228.9324384217
 20
249.1074248669
 30
0.0
 10
229.4400453688
 20
248.935196808
 30
0.0
 10
229.9466584527
 20
248.6093866998
 30
0.0
 10
230.3912786103
 20
248.1135955738
 30
0.0
 10
230.6988104837
 20
247.4814574681
 30
0.0
 10
230.8283105634
 20
246.7914543043
 30
0.0
 10
230.7836601649
 20
246.1194634273
 30
0.0
 10
230.5899365095
 20
245.5192544941
 30
0.0
 10
230.287459965
 20
245.0287446565
 30
0.0
 10
229.9243191425
 20
244.6600384417
 30
0.0
 10
229.5392772575
 20
244.4035553936
 30
0.0
 10
229.1556471021
 20
244.2414653691
 30
0.0
 10
228.7891004989
 20
244.1560368787
 30
0.0
 10
228.5518663777
 20
244.1384862622
 30
0.0
 10
228.4390401353
 20
244.1384826468
 30
0.0
  0
SPLINE
  5
2E1
100
AcDbEntity
  8
0
100
AcDbSpline
 62
7
  6
CONTINUOUS
 70
0
 71
3
 72
20
 73
16
 74
0
 42
0.0000001
 43
0.0000001
 44
0.0000000001
 40
0.0
 40
0.0
 40
0.0
 40
0.0
 40
0.066449581
 40
0.1408622038
 40
0.224798848
 40
0.3202913435
 40
0.4257743661
 40
0.5291751364
 40
0.6223134441
 40
0.7042328867
 40
0.7770803983
 40
0.8422719038
 40
0.9006492819
 40
0.9528181004
 40
1.0
 40
1.0
 40
1.0
 40
1.0
 10
151.9390401353
 20
234.1384826468
 30
0.0
 10
151.7699072983
 20
234.1384704159
 30
0.0
 10
151.4101772548
 20
234.1784978848
 30
0.0
 10
150.8665319658
 20
234.3742890019
 30
0.0
 10
150.3291076885
 20
234.7476017599
 30
0.0
 10
149.8700676785
 20
235.3235278558
 30
0.0
 10
149.5919926047
 20
236.0608007104
 30
0.0
 10
149.5472460119
 20
236.8393054892
 30
0.0
 10
149.7025103617
 20
237.5393135728
 30
0.0
 10
149.992588507
 20
238.1068130411
 30
0.0
 10
150.3611521105
 20
238.5348205064
 30
0.0
 10
150.7659113547
 20
238.8346861286
 30
0.0
 10
151.1744934929
 20
239.0236526039
 30
0.0
 10
151.5656324777
 20
239.1225888022
 30
0.0
 10
151.8189489558
 20
239.1428420242
 30
0.0
 10
151.9390401353
 20
239.1428451876
 30
0.0
  0
SPLINE
  5
2E2
100
AcDbEntity
  8
0
100
AcDbSpline
 62
7
  6
CONTINUOUS
 70
0
 71
3
 72
21
 73
17
 74
0
 42
0.0000001
 43
0.0000001
 44
0.0000000001
 40
0.0
 40
0.0
 40
0.0
 40
0.0
 40
0.0622035462
 40
0.1311653201
 40
0.2086972051
 40
0.2961574318
 40
0.3893364722
 40
0.4812211202
 40
0.5687911804
 40
0.6511268744
 40
0.7264419628
 40
0.7930199499
 40
0.8528146258
 40
0.9069738043
 40
0.955691273
 40
1.0
 40
1.0
 40
1.0
 40
1.0
 10
228.4390401353
 20
239.1428451876
 30
0.0
 10
228.5974331392
 20
239.1428549585
 30
0.0
 10
228.9324384217
 20
239.1074248669
 30
0.0
 10
229.4400453688
 20
238.935196808
 30
0.0
 10
229.9466584527
 20
238.6093866998
 30
0.0
 10
230.3912786103
 20
238.1135955738
 30
0.0
 10
230.6988104837
 20
237.4814574681
 30
0.0
 10
230.8283105634
 20
236.7914543043
 30
0.0
 10
230.7836601649
 20
236.1194634273
 30
0.0
 10
230.5899365095
 20
235.5192544941
 30
0.0
 10
230.287459965
 20
235.0287446565
 30
0.0
 10
229.9243191425
 20
234.6600384417
 30
0.0
 10
229.5392772575
 20
234.4035553936
 30
0.0
 10
229.1556471021
 20
234.2414653691
 30
0.0
 10
228.7891004989
 20
234.1560368787
 30
0.0
 10
228.5518663777
 20
234.1384862622
 30
0.0
 10
228.4390401353
 20
234.1384826468
 30
0.0
  0
SPLINE
  5
2E3
100
AcDbEntity
  8
0
100
AcDbSpline
 62
7
  6
CONTINUOUS
 70
0
 71
3
 72
20
 73
16
 74
0
 42
0.0000001
 43
0.0000001
 44
0.0000000001
 40
0.0
 40
0.0
 40
0.0
 40
0.0
 40
0.066449581
 40
0.1408622038
 40
0.224798848
 40
0.3202913435
 40
0.4257743661
 40
0.5291751364
 40
0.6223134441
 40
0.7042328867
 40
0.7770803983
 40
0.8422719038
 40
0.9006492819
 40
0.9528181004
 40
1.0
 40
1.0
 40
1.0
 40
1.0
 10
151.9390401353
 20
224.1384826468
 30
0.0
 10
151.7699072983
 20
224.1384704159
 30
0.0
 10
151.4101772548
 20
224.1784978848
 30
0.0
 10
150.8665319658
 20
224.3742890019
 30
0.0
 10
150.3291076885
 20
224.7476017599
 30
0.0
 10
149.8700676785
 20
225.3235278558
 30
0.0
 10
149.5919926047
 20
226.0608007104
 30
0.0
 10
149.5472460119
 20
226.8393054892
 30
0.0
 10
149.7025103617
 20
227.5393135728
 30
0.0
 10
149.992588507
 20
228.1068130411
 30
0.0
 10
150.3611521105
 20
228.5348205064
 30
0.0
 10
150.7659113547
 20
228.8346861286
 30
0.0
 10
151.1744934929
 20
229.0236526039
 30
0.0
 10
151.5656324777
 20
229.1225888022
 30
0.0
 10
151.8189489558
 20
229.1428420242
 30
0.0
 10
151.9390401353
 20
229.1428451876
 30
0.0
  0
SPLINE
  5
2E4
100
AcDbEntity
  8
0
100
AcDbSpline
 62
7
  6
CONTINUOUS
 70
0
 71
3
 72
21
 73
17
 74
0
 42
0.0000001
 43
0.0000001
 44
0.0000000001
 40
0.0
 40
0.0
 40
0.0
 40
0.0
 40
0.0622035462
 40
0.1311653201
 40
0.2086972051
 40
0.2961574318
 40
0.3893364722
 40
0.4812211202
 40
0.5687911804
 40
0.6511268744
 40
0.7264419628
 40
0.7930199499
 40
0.8528146258
 40
0.9069738043
 40
0.955691273
 40
1.0
 40
1.0
 40
1.0
 40
1.0
 10
228.4390401353
 20
229.1428451876
 30
0.0
 10
228.5974331392
 20
229.1428549585
 30
0.0
 10
228.9324384217
 20
229.1074248669
 30
0.0
 10
229.4400453688
 20
228.935196808
 30
0.0
 10
229.9466584527
 20
228.6093866998
 30
0.0
 10
230.3912786103
 20
228.1135955738
 30
0.0
 10
230.6988104837
 20
227.4814574681
 30
0.0
 10
230.8283105634
 20
226.7914543043
 30
0.0
 10
230.7836601649
 20
226.1194634273
 30
0.0
 10
230.5899365095
 20
225.5192544941
 30
0.0
 10
230.287459965
 20
225.0287446565
 30
0.0
 10
229.9243191425
 20
224.6600384417
 30
0.0
 10
229.5392772575
 20
224.4035553936
 30
0.0
 10
229.1556471021
 20
224.2414653691
 30
0.0
 10
228.7891004989
 20
224.1560368787
 30
0.0
 10
228.5518663777
 20
224.1384862622
 30
0.0
 10
228.4390401353
 20
224.1384826468
 30
0.0
  0
SPLINE
  5
2E5
100
AcDbEntity
  8
0
100
AcDbSpline
 62
7
  6
CONTINUOUS
 70
0
 71
3
 72
20
 73
16
 74
0
 42
0.0000001
 43
0.0000001
 44
0.0000000001
 40
0.0
 40
0.0
 40
0.0
 40
0.0
 40
0.066449581
 40
0.1408622038
 40
0.224798848
 40
0.3202913435
 40
0.4257743661
 40
0.5291751364
 40
0.6223134441
 40
0.7042328867
 40
0.7770803983
 40
0.8422719038
 40
0.9006492819
 40
0.9528181004
 40
1.0
 40
1.0
 40
1.0
 40
1.0
 10
151.9390401353
 20
214.1384826468
 30
0.0
 10
151.7699072983
 20
214.1384704159
 30
0.0
 10
151.4101772548
 20
214.1784978848
 30
0.0
 10
150.8665319658
 20
214.3742890019
 30
0.0
 10
150.3291076885
 20
214.7476017599
 30
0.0
 10
149.8700676785
 20
215.3235278558
 30
0.0
 10
149.5919926047
 20
216.0608007104
 30
0.0
 10
149.5472460119
 20
216.8393054892
 30
0.0
 10
149.7025103617
 20
217.5393135728
 30
0.0
 10
149.992588507
 20
218.1068130411
 30
0.0
 10
150.3611521105
 20
218.5348205064
 30
0.0
 10
150.7659113547
 20
218.8346861286
 30
0.0
 10
151.1744934929
 20
219.0236526039
 30
0.0
 10
151.5656324777
 20
219.1225888022
 30
0.0
 10
151.8189489558
 20
219.1428420242
 30
0.0
 10
151.9390401353
 20
219.1428451876
 30
0.0
  0
SPLINE
  5
2E6
100
AcDbEntity
  8
0
100
AcDbSpline
 62
7
  6
CONTINUOUS
 70
0
 71
3
 72
21
 73
17
 74
0
 42
0.0000001
 43
0.0000001
 44
0.0000000001
 40
0.0
 40
0.0
 40
0.0
 40
0.0
 40
0.0622035462
 40
0.1311653201
 40
0.2086972051
 40
0.2961574318
 40
0.3893364722
 40
0.4812211202
 40
0.5687911804
 40
0.6511268744
 40
0.7264419628
 40
0.7930199499
 40
0.8528146258
 40
0.9069738043
 40
0.955691273
 40
1.0
 40
1.0
 40
1.0
 40
1.0
 10
228.4390401353
 20
219.1428451876
 30
0.0
 10
228.5974331392
 20
219.1428549585
 30
0.0
 10
228.9324384217
 20
219.1074248669
 30
0.0
 10
229.4400453688
 20
218.935196808
 30
0.0
 10
229.9466584527
 20
218.6093866998
 30
0.0
 10
230.3912786103
 20
218.1135955738
 30
0.0
 10
230.6988104837
 20
217.4814574681
 30
0.0
 10
230.8283105634
 20
216.7914543043
 30
0.0
 10
230.7836601649
 20
216.1194634273
 30
0.0
 10
230.5899365095
 20
215.5192544941
 30
0.0
 10
230.287459965
 20
215.0287446565
 30
0.0
 10
229.9243191425
 20
214.6600384417
 30
0.0
 10
229.5392772575
 20
214.4035553936
 30
0.0
 10
229.1556471021
 20
214.2414653691
 30
0.0
 10
228.7891004989
 20
214.1560368787
 30
0.0
 10
228.5518663777
 20
214.1384862622
 30
0.0
 10
228.4390401353
 20
214.1384826468
 30
0.0
  0
SPLINE
  5
2E7
100
AcDbEntity
  8
0
100
AcDbSpline
 62
7
  6
CONTINUOUS
 70
0
 71
3
 72
20
 73
16
 74
0
 42
0.0000001
 43
0.0000001
 44
0.0000000001
 40
0.0
 40
0.0
 40
0.0
 40
0.0
 40
0.066449581
 40
0.1408622038
 40
0.224798848
 40
0.3202913435
 40
0.4257743661
 40
0.5291751364
 40
0.6223134441
 40
0.7042328867
 40
0.7770803983
 40
0.8422719038
 40
0.9006492819
 40
0.9528181004
 40
1.0
 40
1.0
 40
1.0
 40
1.0
 10
151.9390401353
 20
204.1384826468
 30
0.0
 10
151.7699072983
 20
204.1384704159
 30
0.0
 10
151.4101772548
 20
204.1784978848
 30
0.0
 10
150.8665319658
 20
204.3742890019
 30
0.0
 10
150.3291076885
 20
204.7476017599
 30
0.0
 10
149.8700676785
 20
205.3235278558
 30
0.0
 10
149.5919926047
 20
206.0608007104
 30
0.0
 10
149.5472460119
 20
206.8393054892
 30
0.0
 10
149.7025103617
 20
207.5393135728
 30
0.0
 10
149.992588507
 20
208.1068130411
 30
0.0
 10
150.3611521105
 20
208.5348205064
 30
0.0
 10
150.7659113547
 20
208.8346861286
 30
0.0
 10
151.1744934929
 20
209.0236526039
 30
0.0
 10
151.5656324777
 20
209.1225888022
 30
0.0
 10
151.8189489558
 20
209.1428420242
 30
0.0
 10
151.9390401353
 20
209.1428451876
 30
0.0
  0
SPLINE
  5
2E8
100
AcDbEntity
  8
0
100
AcDbSpline
 62
7
  6
CONTINUOUS
 70
0
 71
3
 72
21
 73
17
 74
0
 42
0.0000001
 43
0.0000001
 44
0.0000000001
 40
0.0
 40
0.0
 40
0.0
 40
0.0
 40
0.0622035462
 40
0.1311653201
 40
0.2086972051
 40
0.2961574318
 40
0.3893364722
 40
0.4812211202
 40
0.5687911804
 40
0.6511268744
 40
0.7264419628
 40
0.7930199499
 40
0.8528146258
 40
0.9069738043
 40
0.955691273
 40
1.0
 40
1.0
 40
1.0
 40
1.0
 10
228.4390401353
 20
209.1428451876
 30
0.0
 10
228.5974331392
 20
209.1428549585
 30
0.0
 10
228.9324384217
 20
209.1074248669
 30
0.0
 10
229.4400453688
 20
208.935196808
 30
0.0
 10
229.9466584527
 20
208.6093866998
 30
0.0
 10
230.3912786103
 20
208.1135955738
 30
0.0
 10
230.6988104837
 20
207.4814574681
 30
0.0
 10
230.8283105634
 20
206.7914543043
 30
0.0
 10
230.7836601649
 20
206.1194634273
 30
0.0
 10
230.5899365095
 20
205.5192544941
 30
0.0
 10
230.287459965
 20
205.0287446565
 30
0.0
 10
229.9243191425
 20
204.6600384417
 30
0.0
 10
229.5392772575
 20
204.4035553936
 30
0.0
 10
229.1556471021
 20
204.2414653691
 30
0.0
 10
228.7891004989
 20
204.1560368787
 30
0.0
 10
228.5518663777
 20
204.1384862622
 30
0.0
 10
228.4390401353
 20
204.1384826468
 30
0.0
  0
SPLINE
  5
2E9
100
AcDbEntity
  8
0
100
AcDbSpline
 62
7
  6
CONTINUOUS
 70
0
 71
3
 72
20
 73
16
 74
0
 42
0.0000001
 43
0.0000001
 44
0.0000000001
 40
0.0
 40
0.0
 40
0.0
 40
0.0
 40
0.066449581
 40
0.1408622038
 40
0.224798848
 40
0.3202913435
 40
0.4257743661
 40
0.5291751364
 40
0.6223134441
 40
0.7042328867
 40
0.7770803983
 40
0.8422719038
 40
0.9006492819
 40
0.9528181004
 40
1.0
 40
1.0
 40
1.0
 40
1.0
 10
151.9390401353
 20
194.1384826468
 30
0.0
 10
151.7699072983
 20
194.1384704159
 30
0.0
 10
151.4101772548
 20
194.1784978848
 30
0.0
 10
150.8665319658
 20
194.3742890019
 30
0.0
 10
150.3291076885
 20
194.7476017599
 30
0.0
 10
149.8700676785
 20
195.3235278558
 30
0.0
 10
149.5919926047
 20
196.0608007104
 30
0.0
 10
149.5472460119
 20
196.8393054892
 30
0.0
 10
149.7025103617
 20
197.5393135728
 30
0.0
 10
149.992588507
 20
198.1068130411
 30
0.0
 10
150.3611521105
 20
198.5348205064
 30
0.0
 10
150.7659113547
 20
198.8346861286
 30
0.0
 10
151.1744934929
 20
199.0236526039
 30
0.0
 10
151.5656324777
 20
199.1225888022
 30
0.0
 10
151.8189489558
 20
199.1428420242
 30
0.0
 10
151.9390401353
 20
199.1428451876
 30
0.0
  0
SPLINE
  5
2EA
100
AcDbEntity
  8
0
100
AcDbSpline
 62
7
  6
CONTINUOUS
 70
0
 71
3
 72
21
 73
17
 74
0
 42
0.0000001
 43
0.0000001
 44
0.0000000001
 40
0.0
 40
0.0
 40
0.0
 40
0.0
 40
0.0622035462
 40
0.1311653201
 40
0.2086972051
 40
0.2961574318
 40
0.3893364722
 40
0.4812211202
 40
0.5687911804
 40
0.6511268744
 40
0.7264419628
 40
0.7930199499
 40
0.8528146258
 40
0.9069738043
 40
0.955691273
 40
1.0
 40
1.0
 40
1.0
 40
1.0
 10
228.4390401353
 20
199.1428451876
 30
0.0
 10
228.5974331392
 20
199.1428549585
 30
0.0
 10
228.9324384217
 20
199.1074248669
 30
0.0
 10
229.4400453688
 20
198.935196808
 30
0.0
 10
229.9466584527
 20
198.6093866998
 30
0.0
 10
230.3912786103
 20
198.1135955738
 30
0.0
 10
230.6988104837
 20
197.4814574681
 30
0.0
 10
230.8283105634
 20
196.7914543043
 30
0.0
 10
230.7836601649
 20
196.1194634273
 30
0.0
 10
230.5899365095
 20
195.5192544941
 30
0.0
 10
230.287459965
 20
195.0287446565
 30
0.0
 10
229.9243191425
 20
194.6600384417
 30
0.0
 10
229.5392772575
 20
194.4035553936
 30
0.0
 10
229.1556471021
 20
194.2414653691
 30
0.0
 10
228.7891004989
 20
194.1560368787
 30
0.0
 10
228.5518663777
 20
194.1384862622
 30
0.0
 10
228.4390401353
 20
194.1384826468
 30
0.0
  0
SPLINE
  5
2EB
100
AcDbEntity
  8
0
100
AcDbSpline
 62
7
  6
CONTINUOUS
 70
0
 71
3
 72
20
 73
16
 74
0
 42
0.0000001
 43
0.0000001
 44
0.0000000001
 40
0.0
 40
0.0
 40
0.0
 40
0.0
 40
0.066449581
 40
0.1408622038
 40
0.224798848
 40
0.3202913435
 40
0.4257743661
 40
0.5291751364
 40
0.6223134441
 40
0.7042328867
 40
0.7770803983
 40
0.8422719038
 40
0.9006492819
 40
0.9528181004
 40
1.0
 40
1.0
 40
1.0
 40
1.0
 10
151.9390401353
 20
184.1384826468
 30
0.0
 10
151.7699072983
 20
184.1384704159
 30
0.0
 10
151.4101772548
 20
184.1784978848
 30
0.0
 10
150.8665319658
 20
184.3742890019
 30
0.0
 10
150.3291076885
 20
184.7476017599
 30
0.0
 10
149.8700676785
 20
185.3235278558
 30
0.0
 10
149.5919926047
 20
186.0608007104
 30
0.0
 10
149.5472460119
 20
186.8393054892
 30
0.0
 10
149.7025103617
 20
187.5393135728
 30
0.0
 10
149.992588507
 20
188.1068130411
 30
0.0
 10
150.3611521105
 20
188.5348205064
 30
0.0
 10
150.7659113547
 20
188.8346861286
 30
0.0
 10
151.1744934929
 20
189.0236526039
 30
0.0
 10
151.5656324777
 20
189.1225888022
 30
0.0
 10
151.8189489558
 20
189.1428420242
 30
0.0
 10
151.9390401353
 20
189.1428451876
 30
0.0
  0
SPLINE
  5
2EC
100
AcDbEntity
  8
0
100
AcDbSpline
 62
7
  6
CONTINUOUS
 70
0
 71
3
 72
21
 73
17
 74
0
 42
0.0000001
 43
0.0000001
 44
0.0000000001
 40
0.0
 40
0.0
 40
0.0
 40
0.0
 40
0.0622035462
 40
0.1311653201
 40
0.2086972051
 40
0.2961574318
 40
0.3893364722
 40
0.4812211202
 40
0.5687911804
 40
0.6511268744
 40
0.7264419628
 40
0.7930199499
 40
0.8528146258
 40
0.9069738043
 40
0.955691273
 40
1.0
 40
1.0
 40
1.0
 40
1.0
 10
228.4390401353
 20
189.1428451876
 30
0.0
 10
228.5974331392
 20
189.1428549585
 30
0.0
 10
228.9324384217
 20
189.1074248669
 30
0.0
 10
229.4400453688
 20
188.935196808
 30
0.0
 10
229.9466584527
 20
188.6093866998
 30
0.0
 10
230.3912786103
 20
188.1135955738
 30
0.0
 10
230.6988104837
 20
187.4814574681
 30
0.0
 10
230.8283105634
 20
186.7914543043
 30
0.0
 10
230.7836601649
 20
186.1194634273
 30
0.0
 10
230.5899365095
 20
185.5192544941
 30
0.0
 10
230.287459965
 20
185.0287446565
 30
0.0
 10
229.9243191425
 20
184.6600384417
 30
0.0
 10
229.5392772575
 20
184.4035553936
 30
0.0
 10
229.1556471021
 20
184.2414653691
 30
0.0
 10
228.7891004989
 20
184.1560368787
 30
0.0
 10
228.5518663777
 20
184.1384862622
 30
0.0
 10
228.4390401353
 20
184.1384826468
 30
0.0
  0
ENDSEC
  0
SECTION
  2
OBJECTS
  0
DICTIONARY
  5
C
100
AcDbDictionary
280
0
281
1
  3
ACAD_GROUP
350
D
  3
ACAD_MLINESTYLE
350
17
  3
ACAD_LAYOUT
350
1A
  3
ACAD_PLOTSETTINGS
350
19
  3
ACAD_PLOTSTYLENAME
350
E
  0
DICTIONARY
  5
D
102
{ACAD_REACTORS
330
C
102
}
100
AcDbDictionary
280
0
281
1
  0
ACDBDICTIONARYWDFLT
  5
E
102
{ACAD_REACTORS
330
C
102
}
100
AcDbDictionary
281
1
  3
Normal
350
F
100
AcDbDictionaryWithDefault
340
F
  0
DICTIONARY
  5
17
102
{ACAD_REACTORS
330
C
102
}
100
AcDbDictionary
280
0
281
1
  3
Standard
350
18
  0
DICTIONARY
  5
19
102
{ACAD_REACTORS
330
C
102
}
100
AcDbDictionary
281
1
  0
DICTIONARY
  5
1A
102
{ACAD_REACTORS
330
C
102
}
100
AcDbDictionary
281
1
  3
Model
350
2ED
  3
Layout1
350
2EE
  0
ACDBPLACEHOLDER
  5
F
102
{ACAD_REACTORS
330
E
102
}
  0
MLINESTYLE
  5
18
102
{ACAD_REACTORS
330
17
102
}
100
AcDbMlineStyle
  2
STANDARD
 70
0
  3

 62
256
 51
90.0
 52
90.0
 71
2
 49
0.5
 62
256
  6
BYLAYER
 49
-0.5
 62
256
  6
BYLAYER
  0
LAYOUT
  5
2ED
102
{ACAD_REACTORS
330
1A
102
}
100
AcDbPlotSettings
  1

  2
none_device
  4

  6

 40
0.0
 41
0.0
 42
0.0
 43
0.0
 44
210.0
 45
297.0
 46
0.0
 47
0.0
 48
0.0
 49
0.0
140
0.0
141
0.0
142
1.0
143
1.0
 70
1024
 72
1
 73
0
 74
0
  7

 75
0
147
1.0
148
0.0
149
0.0
100
AcDbLayout
  1
Model
 70
0
 71
0
 10
0.0
 20
0.0
 11
210.0
 21
297.0
 12
0.0
 22
0.0
 32
0.0
 14
0.0
 24
0.0
 34
0.0
 15
0.0
 25
0.0
 35
0.0
146
0.0
 13
0.0
 23
0.0
 33
0.0
 16
1.0
 26
0.0
 36
0.0
 17
0.0
 27
1.0
 37
0.0
 76
0
330
210
345
0
346
0
  0
LAYOUT
  5
2EE
102
{ACAD_REACTORS
330
1A
102
}
100
AcDbPlotSettings
  1

  2
none_device
  4

  6

 40
0.0
 41
0.0
 42
0.0
 43
0.0
 44
210.0
 45
297.0
 46
0.0
 47
0.0
 48
0.0
 49
0.0
140
0.0
141
0.0
142
1.0
143
1.0
 70
0
 72
1
 73
0
 74
0
  7

 75
0
147
1.0
148
0.0
149
0.0
100
AcDbLayout
  1
Layout1
 70
0
 71
1
 10
0.0
 20
0.0
 11
210.0
 21
297.0
 12
0.0
 22
0.0
 32
0.0
 14
0.0
 24
0.0
 34
0.0
 15
0.0
 25
0.0
 35
0.0
146
0.0
 13
0.0
 23
0.0
 33
0.0
 16
1.0
 26
0.0
 36
0.0
 17
0.0
 27
1.0
 37
0.0
 76
0
330
211
345
0
346
0
  0
ENDSEC
  0
EOF
