999
DXF file: C:\Users\sesa63760\Dev\_Creo\CAD\MCADID0003676_3D-CAD\drw0001_3.dxf
999
Pro/ENGINEER 2019471 by Parametric Technology Corporation
  0
SECTION
  2
HEADER
  9
$ACADVER
  1
AC1024
  9
$DWGCODEPAGE
  3
ANSI_1252
  9
$EXTMAX
 10
144.7352076564
 20
204.6969365427
 30
0.0
  9
$EXTMIN
 10
0.0
 20
0.0
 30
0.0
  9
$LIMMIN
 10
0.0
 20
0.0
  9
$LIMMAX
 10
144.7352076564
 20
204.6969365427
  9
$VIEWCTR
 10
72.3676038282
 20
102.3484682713
  9
$VIEWSIZE
 40
204.6969365427
  9
$CLAYER
  8
0
  9
$LTSCALE
 40
13.3432077154
  9
$CELTYPE
  6
BYLAYER
  9
$DIMSCALE
 40
1.0
  9
$DIMASZ
 40
1.7230381864
  9
$DIMEXO
 40
1.0
  9
$DIMDLI
 40
9.2189435124
  9
$DIMEXE
 40
1.0
  9
$DIMCEN
 40
2.1834339898
  9
$DIMLFAC
 40
1.0
  9
$DIMBLK
  1
_FILLED
  9
$DIMALT
 70
0
  9
$DIMALTF
 40
0.0393700787
  9
$DIMTXT
 40
2.4122534609
  9
$DIMTOL
 70
1
  9
$DIMLIM
 70
0
  9
$DIMTFAC
 40
1.0
  9
$DIMTP
 40
0.01
  9
$DIMTM
 40
0.01
  9
$DIMGAP
 40
0.625
  9
$DIMDSEP
 70
46
  9
$AUNITS
 70
0
  9
$PDMODE
 70
3
  9
$PDSIZE
 40
0.3125
  9
$HANDSEED
  5
359
  9
$TILEMODE
 70
1
  9
$MEASUREMENT
 70
1
  9
$INSUNITS
 70
4
  0
ENDSEC
  0
SECTION
  2
CLASSES
  0
CLASS
  1
ACDBDICTIONARYWDFLT
  2
AcDbDictionaryWithDefault
  3
AutoCAD 2000
 90
0
 91
1
280
0
281
0
  0
CLASS
  1
ACDBPLACEHOLDER
  2
AcDbPlaceHolder
  3
AutoCAD 2000
 90
0
 91
1
280
0
281
0
  0
CLASS
  1
LAYOUT
  2
AcDbLayout
  3
AutoCAD 2000
 90
0
 91
0
280
0
281
0
  0
ENDSEC
  0
SECTION
  2
TABLES
  0
TABLE
  2
VPORT
  5
8
100
AcDbSymbolTable
 70
2
  0
VPORT
  5
1F4
100
AcDbSymbolTableRecord
100
AcDbViewportTableRecord
  2
*ACTIVE
 70
0
 10
0.0
 20
0.0
 11
1.0
 21
1.0
 12
72.3676038282
 22
102.3484682713
 13
0.0
 23
0.0
 14
1.0
 24
1.0
 15
0.0
 25
0.0
 16
0.0
 26
0.0
 36
1.0
 17
0.0
 27
0.0
 37
0.0
 40
204.6969365427
 41
0.7070707071
 42
50.0
 43
0.0
 44
0.0
 50
0.0
 51
0.0
 71
0
 72
100
 73
1
 74
1
 75
0
 76
0
 77
0
 78
0
  0
ENDTAB
  0
TABLE
  2
LTYPE
  5
5
100
AcDbSymbolTable
 70
6
  0
LTYPE
  5
14
100
AcDbSymbolTableRecord
100
AcDbLinetypeTableRecord
  2
BYBLOCK
 70
0
  3

 72
65
 73
0
 40
0.0
  0
LTYPE
  5
15
100
AcDbSymbolTableRecord
100
AcDbLinetypeTableRecord
  2
BYLAYER
 70
0
  3

 72
65
 73
0
 40
0.0
  0
LTYPE
  5
16
100
AcDbSymbolTableRecord
100
AcDbLinetypeTableRecord
  2
CONTINUOUS
 70
64
  3
Solid line
 72
65
 73
0
 40
0.0
  0
LTYPE
  5
1F5
100
AcDbSymbolTableRecord
100
AcDbLinetypeTableRecord
  2
CENTER
 70
64
  3
____ _ ____ _ ____ _ ____ _ ____ _ ____ _ ____
 72
65
 73
4
 40
0.6
 49
0.375
 74
0
 49
-0.075
 74
0
 49
0.075
 74
0
 49
-0.075
 74
0
  0
LTYPE
  5
1F6
100
AcDbSymbolTableRecord
100
AcDbLinetypeTableRecord
  2
HIDDEN
 70
64
  3
- - - - - - - - - - - - - - - - - - - -
 72
65
 73
2
 40
0.2
 49
0.1
 74
0
 49
-0.1
 74
0
  0
LTYPE
  5
1F7
100
AcDbSymbolTableRecord
100
AcDbLinetypeTableRecord
  2
PHANTOM
 70
64
  3
_____ _ _ _____ _ _ _____ _ _ _____
 72
65
 73
6
 40
0.8
 49
0.45
 74
0
 49
-0.05
 74
0
 49
0.1
 74
0
 49
-0.05
 74
0
 49
0.1
 74
0
 49
-0.05
 74
0
  0
LTYPE
  5
1F8
100
AcDbSymbolTableRecord
100
AcDbLinetypeTableRecord
  2
DOT
 70
64
  3
. . . . . . . . . . . . . . . . . . . .
 72
65
 73
2
 40
0.2
 49
0.1
 74
0
 49
-0.1
 74
0
  0
LTYPE
  5
1F9
100
AcDbSymbolTableRecord
100
AcDbLinetypeTableRecord
  2
DASHED
 70
64
  3
- - - - - - - - - - - - - - - - - - - -
 72
65
 73
2
 40
0.2
 49
0.1
 74
0
 49
-0.1
 74
0
  0
ENDTAB
  0
TABLE
  2
LAYER
  5
2
100
AcDbSymbolTable
 70
36
  0
LAYER
  5
10
100
AcDbSymbolTableRecord
100
AcDbLayerTableRecord
  2
0
 70
0
 62
7
  6
CONTINUOUS
370
-3
390
F
  0
LAYER
  5
1FA
100
AcDbSymbolTableRecord
100
AcDbLayerTableRecord
  2
DEFAULT_1
 70
0
 62
7
  6
CENTER
370
-3
390
F
  0
LAYER
  5
1FB
100
AcDbSymbolTableRecord
100
AcDbLayerTableRecord
  2
DEFAULT_2
 70
0
 62
7
  6
HIDDEN
370
-3
390
F
  0
LAYER
  5
1FC
100
AcDbSymbolTableRecord
100
AcDbLayerTableRecord
  2
DEFAULT_3
 70
0
 62
7
  6
PHANTOM
370
-3
390
F
  0
LAYER
  5
1FD
100
AcDbSymbolTableRecord
100
AcDbLayerTableRecord
  2
00_COMPONENTS
 70
0
 62
7
  6
CONTINUOUS
370
-3
390
F
  0
LAYER
  5
1FE
100
AcDbSymbolTableRecord
100
AcDbLayerTableRecord
  2
01_1_DEFAULT_DATUMS
 70
0
 62
7
  6
CONTINUOUS
370
-3
390
F
  0
LAYER
  5
1FF
100
AcDbSymbolTableRecord
100
AcDbLayerTableRecord
  2
01_PLANES
 70
0
 62
7
  6
CONTINUOUS
370
-3
390
F
  0
LAYER
  5
200
100
AcDbSymbolTableRecord
100
AcDbLayerTableRecord
  2
02_COORD_SYS
 70
0
 62
7
  6
CONTINUOUS
370
-3
390
F
  0
LAYER
  5
201
100
AcDbSymbolTableRecord
100
AcDbLayerTableRecord
  2
03_AXES
 70
0
 62
7
  6
CONTINUOUS
370
-3
390
F
  0
LAYER
  5
202
100
AcDbSymbolTableRecord
100
AcDbLayerTableRecord
  2
04_POINTS
 70
0
 62
7
  6
CONTINUOUS
370
-3
390
F
  0
LAYER
  5
203
100
AcDbSymbolTableRecord
100
AcDbLayerTableRecord
  2
05_CURVES
 70
0
 62
7
  6
CONTINUOUS
370
-3
390
F
  0
LAYER
  5
204
100
AcDbSymbolTableRecord
100
AcDbLayerTableRecord
  2
06_SURFS
 70
0
 62
7
  6
CONTINUOUS
370
-3
390
F
  0
LAYER
  5
205
100
AcDbSymbolTableRecord
100
AcDbLayerTableRecord
  2
07_COSMETICS
 70
0
 62
7
  6
CONTINUOUS
370
-3
390
F
  0
LAYER
  5
206
100
AcDbSymbolTableRecord
100
AcDbLayerTableRecord
  2
10_NOTES
 70
0
 62
7
  6
CONTINUOUS
370
-3
390
F
  0
LAYER
  5
207
100
AcDbSymbolTableRecord
100
AcDbLayerTableRecord
  2
11_NOTES_PUB
 70
0
 62
7
  6
CONTINUOUS
370
-3
390
F
  0
LAYER
  5
208
100
AcDbSymbolTableRecord
100
AcDbLayerTableRecord
  2
13_REF_GTOL
 70
0
 62
7
  6
CONTINUOUS
370
-3
390
F
  0
LAYER
  5
209
100
AcDbSymbolTableRecord
100
AcDbLayerTableRecord
  2
16_MISC
 70
0
 62
7
  6
CONTINUOUS
370
-3
390
F
  0
LAYER
  5
20A
100
AcDbSymbolTableRecord
100
AcDbLayerTableRecord
  2
17_NO_PRINT
 70
0
 62
7
  6
CONTINUOUS
370
-3
390
F
  0
LAYER
  5
20B
100
AcDbSymbolTableRecord
100
AcDbLayerTableRecord
  2
18_DATUM_CAMS_JOINTS
 70
0
 62
7
  6
CONTINUOUS
370
-3
390
F
  0
LAYER
  5
20C
100
AcDbSymbolTableRecord
100
AcDbLayerTableRecord
  2
19_DATUM_FUNCTIONAL
 70
0
 62
7
  6
CONTINUOUS
370
-3
390
F
  0
LAYER
  5
20D
100
AcDbSymbolTableRecord
100
AcDbLayerTableRecord
  2
20_DATUM_KINEMATIC_SCHEME
 70
0
 62
7
  6
CONTINUOUS
370
-3
390
F
  0
ENDTAB
  0
TABLE
  2
STYLE
  5
3
100
AcDbSymbolTable
 70
1
  0
STYLE
  5
11
100
AcDbSymbolTableRecord
100
AcDbTextStyleTableRecord
  2
STANDARD
 70
0
 40
0.0
 41
1.0
 50
0.0
 71
0
 42
0.2
  3
ARIAL.TTF
  4

  0
STYLE
  5
20E
100
AcDbSymbolTableRecord
100
AcDbTextStyleTableRecord
  2
TEXTSTYLE_1
 70
0
 40
0.0
 41
0.8
 50
0.0
 71
0
 42
0.2
  3
gdt
  4

  0
ENDTAB
  0
TABLE
  2
VIEW
  5
6
100
AcDbSymbolTable
 70
0
  0
ENDTAB
  0
TABLE
  2
UCS
  5
7
100
AcDbSymbolTable
 70
0
  0
ENDTAB
  0
TABLE
  2
APPID
  5
9
100
AcDbSymbolTable
 70
1
  0
APPID
  5
20F
100
AcDbSymbolTableRecord
100
AcDbRegAppTableRecord
  2
ACAD
 70
0
  0
ENDTAB
  0
TABLE
  2
BLOCK_RECORD
  5
1
100
AcDbSymbolTable
 70
0
  0
BLOCK_RECORD
  5
210
100
AcDbSymbolTableRecord
100
AcDbBlockTableRecord
  2
*Model_Space
  0
BLOCK_RECORD
  5
211
100
AcDbSymbolTableRecord
100
AcDbBlockTableRecord
  2
*Paper_Space
  0
BLOCK_RECORD
  5
212
100
AcDbSymbolTableRecord
100
AcDbBlockTableRecord
  2
_FILLED
  0
ENDTAB
  0
TABLE
  2
DIMSTYLE
  5
A
100
AcDbSymbolTable
 70
1
100
AcDbDimStyleTable
 71
0
  0
DIMSTYLE
105
213
100
AcDbSymbolTableRecord
100
AcDbDimStyleTableRecord
  2
STANDARD
 70
0
  3

  4

 40
1.0
 41
1.7230381864
 42
1.0
 43
0.38
 44
1.0
 45
0.0
 46
0.0
 47
0.01
 48
0.01
140
2.4122534609
141
0.09
142
0.0
143
25.4
144
1.0
145
0.0
146
1.0
147
0.625
 71
1
 72
0
 73
0
 74
0
 75
0
 76
0
 77
1
 78
8
 79
2
170
0
171
1
172
0
173
0
174
0
175
0
176
0
177
0
178
0
270
2
179
2
271
2
272
2
273
2
274
2
275
0
280
0
281
0
282
0
283
1
284
8
285
0
286
0
287
3
288
0
340
11
278
46
341
212
342
212
343
212
344
212
  0
ENDTAB
  0
ENDSEC
  0
SECTION
  2
BLOCKS
  0
BLOCK
  5
20
100
AcDbEntity
  8
0
100
AcDbBlockBegin
  2
*Model_Space
 70
0
 10
0.0
 20
0.0
 30
0.0
  3
*Model_Space
  1

  0
ENDBLK
  5
21
100
AcDbEntity
  8
0
100
AcDbBlockEnd
  0
BLOCK
  5
1C
100
AcDbEntity
  8
0
100
AcDbBlockBegin
  2
*Paper_Space
 70
0
 10
0.0
 20
0.0
 30
0.0
  3
*Paper_Space
  1

  0
ENDBLK
  5
1D
100
AcDbEntity
  8
0
100
AcDbBlockEnd
  0
BLOCK
  5
214
100
AcDbEntity
  8
0
100
AcDbBlockBegin
  2
_FILLED
 70
64
 10
0.0
 20
0.0
  3
_FILLED
  1

  0
SOLID
  5
215
100
AcDbEntity
  8
0
  6
BYBLOCK
 62
0
100
AcDbTrace
 10
0.0
 20
0.0
 11
-1.0
 21
0.25
 12
-1.0
 22
-0.25
 13
-1.0
 23
-0.25
  0
ENDBLK
  5
216
100
AcDbEntity
  8
0
  6
BYBLOCK
 62
0
100
AcDbBlockEnd
  0
ENDSEC
  0
SECTION
  2
ENTITIES
  0
LINE
  5
217
100
AcDbEntity
  8
0
100
AcDbLine
 62
7
  6
BYLAYER
 10
17.1219801958
 20
117.8495623632
 11
17.1219801958
 21
87.8495623632
  0
LINE
  5
218
100
AcDbEntity
  8
0
100
AcDbLine
 62
7
  6
BYLAYER
 10
40.3319801958
 20
108.9495623632
 11
40.3319801958
 21
96.7495623632
  0
LINE
  5
219
100
AcDbEntity
  8
0
100
AcDbLine
 62
7
  6
BYLAYER
 10
41.3519801958
 20
107.8745623632
 11
41.3519801958
 21
97.8245623632
  0
LINE
  5
21A
100
AcDbEntity
  8
0
100
AcDbLine
 62
7
  6
BYLAYER
 10
43.4919801958
 20
97.8245623632
 11
43.4919801958
 21
107.8745623632
  0
LINE
  5
21B
100
AcDbEntity
  8
0
100
AcDbLine
 62
7
  6
BYLAYER
 10
44.3319801958
 20
96.7495623632
 11
44.3319801958
 21
108.9495623632
  0
LINE
  5
21C
100
AcDbEntity
  8
0
100
AcDbLine
 62
7
  6
BYLAYER
 10
46.6219801958
 20
78.3495623731
 11
46.6219801958
 21
127.3495623641
  0
LINE
  5
21D
100
AcDbEntity
  8
0
100
AcDbLine
 62
7
  6
BYLAYER
 10
47.1219801958
 20
78.3495914532
 11
47.1219801958
 21
127.3495332696
  0
LINE
  5
21E
100
AcDbEntity
  8
0
100
AcDbLine
 62
7
  6
BYLAYER
 10
48.1219801958
 20
76.8495623632
 11
48.1219801958
 21
77.3495623632
  0
LINE
  5
21F
100
AcDbEntity
  8
0
100
AcDbLine
 62
7
  6
BYLAYER
 10
48.1219801958
 20
128.3495623632
 11
48.1219801958
 21
128.8495623632
  0
LINE
  5
220
100
AcDbEntity
  8
0
100
AcDbLine
 62
7
  6
BYLAYER
 10
49.6219801958
 20
85.8495623632
 11
49.6219801958
 21
119.8495623632
  0
LINE
  5
221
100
AcDbEntity
  8
0
100
AcDbLine
 62
7
  6
BYLAYER
 10
48.1219801949
 20
76.8495623632
 11
130.121980186
 21
76.8495623632
  0
LINE
  5
222
100
AcDbEntity
  8
0
100
AcDbLine
 62
7
  6
BYLAYER
 10
130.1219511058
 20
77.3495623632
 11
48.1220092895
 21
77.3495623632
  0
LINE
  5
223
100
AcDbEntity
  8
0
100
AcDbLine
 62
7
  6
BYLAYER
 10
49.8139712872
 20
87.6495623632
 11
49.8139712872
 21
93.018717395
  0
LINE
  5
224
100
AcDbEntity
  8
0
100
AcDbLine
 62
7
  6
BYLAYER
 10
49.8139712872
 20
112.6804073315
 11
49.8139712872
 21
118.0495623632
  0
LINE
  5
225
100
AcDbEntity
  8
0
100
AcDbLine
 62
7
  6
BYLAYER
 10
50.1826403676
 20
93.2889021915
 11
50.1826403676
 21
112.410222535
  0
LINE
  5
226
100
AcDbEntity
  8
0
100
AcDbLine
 62
7
  6
BYLAYER
 10
50.7433005394
 20
93.8495623632
 11
50.7433005394
 21
111.8495623632
  0
LINE
  5
227
100
AcDbEntity
  8
0
100
AcDbLine
 62
7
  6
BYLAYER
 10
53.1219801958
 20
110.915282213
 11
53.1219801958
 21
94.7838425135
  0
LINE
  5
228
100
AcDbEntity
  8
0
100
AcDbLine
 62
7
  6
BYLAYER
 10
53.6219801958
 20
110.7901506551
 11
53.6219801958
 21
94.9089740714
  0
LINE
  5
229
100
AcDbEntity
  8
0
100
AcDbLine
 62
7
  6
BYLAYER
 10
131.6219801958
 20
78.3495623632
 11
131.1219801958
 21
78.3495623632
  0
LINE
  5
22A
100
AcDbEntity
  8
0
100
AcDbLine
 62
7
  6
BYLAYER
 10
129.6219801958
 20
78.3495623632
 11
120.1219801958
 21
78.3495623632
  0
LINE
  5
22B
100
AcDbEntity
  8
0
100
AcDbLine
 62
7
  6
BYLAYER
 10
47.1219801958
 20
78.3495623632
 11
46.6219801958
 21
78.3495623632
  0
LINE
  5
22C
100
AcDbEntity
  8
0
100
AcDbLine
 62
7
  6
BYLAYER
 10
52.6219801958
 20
78.3495623632
 11
71.1719801958
 21
78.3495623632
  0
LINE
  5
22D
100
AcDbEntity
  8
0
100
AcDbLine
 62
7
  6
BYLAYER
 10
72.0719801958
 20
78.3495623632
 11
85.1719801958
 21
78.3495623632
  0
LINE
  5
22E
100
AcDbEntity
  8
0
100
AcDbLine
 62
7
  6
BYLAYER
 10
86.0719801958
 20
78.3495623632
 11
99.1719801958
 21
78.3495623632
  0
LINE
  5
22F
100
AcDbEntity
  8
0
100
AcDbLine
 62
7
  6
BYLAYER
 10
100.0719801958
 20
78.3495623632
 11
118.1219801958
 21
78.3495623632
  0
LINE
  5
230
100
AcDbEntity
  8
0
100
AcDbLine
 62
7
  6
BYLAYER
 10
52.6219801958
 20
79.7495623632
 11
59.6219801958
 21
79.7495623632
  0
LINE
  5
231
100
AcDbEntity
  8
0
100
AcDbLine
 62
7
  6
BYLAYER
 10
54.6219801958
 20
95.5624943565
 11
54.6219801958
 21
110.13663037
  0
LINE
  5
232
100
AcDbEntity
  8
0
100
AcDbLine
 62
7
  6
BYLAYER
 10
54.8165893476
 20
95.6613153277
 11
54.8165893476
 21
97.1995623632
  0
LINE
  5
233
100
AcDbEntity
  8
0
100
AcDbLine
 62
7
  6
BYLAYER
 10
54.8165893476
 20
108.4995623632
 11
54.8165893476
 21
110.0378093988
  0
LINE
  5
234
100
AcDbEntity
  8
0
100
AcDbLine
 62
7
  6
BYLAYER
 10
107.6219801958
 20
84.2944809702
 11
100.1950270326
 21
84.2944809702
  0
LINE
  5
235
100
AcDbEntity
  8
0
100
AcDbLine
 62
7
  6
BYLAYER
 10
99.0489333591
 20
84.2944809702
 11
86.1950270326
 21
84.2944809702
  0
LINE
  5
236
100
AcDbEntity
  8
0
100
AcDbLine
 62
7
  6
BYLAYER
 10
85.0489333591
 20
84.2944809702
 11
72.1950270326
 21
84.2944809702
  0
LINE
  5
237
100
AcDbEntity
  8
0
100
AcDbLine
 62
7
  6
BYLAYER
 10
71.0489333591
 20
84.2944809702
 11
70.9168226489
 21
84.2944809702
  0
LINE
  5
238
100
AcDbEntity
  8
0
100
AcDbLine
 62
7
  6
BYLAYER
 10
129.6219801958
 20
84.4995623632
 11
120.1219801958
 21
84.4995623632
  0
LINE
  5
239
100
AcDbEntity
  8
0
100
AcDbLine
 62
7
  6
BYLAYER
 10
118.1219801958
 20
84.4995623632
 11
100.0719801958
 21
84.4995623632
  0
LINE
  5
23A
100
AcDbEntity
  8
0
100
AcDbLine
 62
7
  6
BYLAYER
 10
99.1719801958
 20
84.4995623632
 11
86.0719801958
 21
84.4995623632
  0
LINE
  5
23B
100
AcDbEntity
  8
0
100
AcDbLine
 62
7
  6
BYLAYER
 10
85.1719801958
 20
84.4995623632
 11
72.0719801958
 21
84.4995623632
  0
LINE
  5
23C
100
AcDbEntity
  8
0
100
AcDbLine
 62
7
  6
BYLAYER
 10
71.1719801958
 20
84.4995623632
 11
71.121904042
 21
84.4995623632
  0
LINE
  5
23D
100
AcDbEntity
  8
0
100
AcDbLine
 62
7
  6
BYLAYER
 10
91.6219801958
 20
85.3495623632
 11
89.6219801958
 21
85.3495623632
  0
LINE
  5
23E
100
AcDbEntity
  8
0
100
AcDbLine
 62
7
  6
BYLAYER
 10
59.6219801958
 20
85.6495623632
 11
52.6219801958
 21
85.6495623632
  0
LINE
  5
23F
100
AcDbEntity
  8
0
100
AcDbLine
 62
7
  6
BYLAYER
 10
89.6219801958
 20
85.7495623632
 11
90.4219801958
 21
85.7495623632
  0
LINE
  5
240
100
AcDbEntity
  8
0
100
AcDbLine
 62
7
  6
BYLAYER
 10
90.8219801958
 20
85.7495623632
 11
91.6219801958
 21
85.7495623632
  0
LINE
  5
241
100
AcDbEntity
  8
0
100
AcDbLine
 62
7
  6
BYLAYER
 10
106.6219801958
 20
86.8495623632
 11
104.6219801958
 21
86.8495623632
  0
LINE
  5
242
100
AcDbEntity
  8
0
100
AcDbLine
 62
7
  6
BYLAYER
 10
85.6219801958
 20
86.8495623632
 11
83.6219801958
 21
86.8495623632
  0
LINE
  5
243
100
AcDbEntity
  8
0
100
AcDbLine
 62
7
  6
BYLAYER
 10
83.6219801958
 20
87.2495623632
 11
84.4219801958
 21
87.2495623632
  0
LINE
  5
244
100
AcDbEntity
  8
0
100
AcDbLine
 62
7
  6
BYLAYER
 10
84.8219801958
 20
87.2495623632
 11
85.6219801958
 21
87.2495623632
  0
LINE
  5
245
100
AcDbEntity
  8
0
100
AcDbLine
 62
7
  6
BYLAYER
 10
104.6219801958
 20
87.2495623632
 11
105.4219801958
 21
87.2495623632
  0
LINE
  5
246
100
AcDbEntity
  8
0
100
AcDbLine
 62
7
  6
BYLAYER
 10
105.8219801958
 20
87.2495623632
 11
106.6219801958
 21
87.2495623632
  0
LINE
  5
247
100
AcDbEntity
  8
0
100
AcDbLine
 62
7
  6
BYLAYER
 10
49.6219801958
 20
87.6495623632
 11
59.6219801958
 21
87.6495623632
  0
LINE
  5
248
100
AcDbEntity
  8
0
100
AcDbLine
 62
7
  6
BYLAYER
 10
17.1219801958
 20
87.8495623632
 11
46.6219801958
 21
87.8495623632
  0
LINE
  5
249
100
AcDbEntity
  8
0
100
AcDbLine
 62
7
  6
BYLAYER
 10
58.1219801958
 20
88.7495623632
 11
54.1219801958
 21
88.7495623632
  0
LINE
  5
24A
100
AcDbEntity
  8
0
100
AcDbLine
 62
7
  6
BYLAYER
 10
54.1219801958
 20
89.7495623632
 11
58.1219801958
 21
89.7495623632
  0
LINE
  5
24B
100
AcDbEntity
  8
0
100
AcDbLine
 62
7
  6
BYLAYER
 10
64.5719801958
 20
127.3495623632
 11
64.5719801958
 21
122.9995623632
  0
LINE
  5
24C
100
AcDbEntity
  8
0
100
AcDbLine
 62
7
  6
BYLAYER
 10
64.5719801958
 20
82.6995623632
 11
64.5719801958
 21
78.3495623632
  0
LINE
  5
24D
100
AcDbEntity
  8
0
100
AcDbLine
 62
7
  6
BYLAYER
 10
72.1950270326
 20
121.4046437563
 11
72.0719801958
 21
121.1995623632
  0
LINE
  5
24E
100
AcDbEntity
  8
0
100
AcDbLine
 62
7
  6
BYLAYER
 10
69.1219801958
 20
113.3469443029
 11
68.9168988027
 21
113.1418629098
  0
LINE
  5
24F
100
AcDbEntity
  8
0
100
AcDbLine
 62
7
  6
BYLAYER
 10
50.1826403676
 20
93.2889021915
 11
50.7433005394
 21
93.8495623632
  0
LINE
  5
250
100
AcDbEntity
  8
0
100
AcDbLine
 62
7
  6
BYLAYER
 10
68.9168988027
 20
91.1418629098
 11
64.3511177666
 21
91.1418629098
  0
LINE
  5
251
100
AcDbEntity
  8
0
100
AcDbLine
 62
7
  6
BYLAYER
 10
61.1431584637
 20
91.1549532115
 11
64.3471672783
 21
91.1549532115
  0
LINE
  5
252
100
AcDbEntity
  8
0
100
AcDbLine
 62
7
  6
BYLAYER
 10
69.1219801958
 20
91.3469443029
 11
68.6193431044
 21
91.3469443029
  0
LINE
  5
253
100
AcDbEntity
  8
0
100
AcDbLine
 62
7
  6
BYLAYER
 10
61.181391904
 20
91.3495623632
 11
68.6219515485
 21
91.3495623632
  0
LINE
  5
254
100
AcDbEntity
  8
0
100
AcDbLine
 62
7
  6
BYLAYER
 10
79.6219801958
 20
91.6495623632
 11
77.6219801958
 21
91.6495623632
  0
LINE
  5
255
100
AcDbEntity
  8
0
100
AcDbLine
 62
7
  6
BYLAYER
 10
77.6219801958
 20
92.0495623632
 11
78.4219801958
 21
92.0495623632
  0
LINE
  5
256
100
AcDbEntity
  8
0
100
AcDbLine
 62
7
  6
BYLAYER
 10
78.8219801958
 20
92.0495623632
 11
79.6219801958
 21
92.0495623632
  0
LINE
  5
257
100
AcDbEntity
  8
0
100
AcDbLine
 62
7
  6
BYLAYER
 10
68.6220726266
 20
92.3495624069
 11
61.181391904
 21
92.3495623632
  0
LINE
  5
258
100
AcDbEntity
  8
0
100
AcDbLine
 62
7
  6
BYLAYER
 10
68.6193428662
 20
92.3521804236
 11
69.1219801958
 21
92.3521804236
  0
LINE
  5
259
100
AcDbEntity
  8
0
100
AcDbLine
 62
7
  6
BYLAYER
 10
63.9550436362
 20
92.544171515
 11
61.1431584637
 21
92.544171515
  0
LINE
  5
25A
100
AcDbEntity
  8
0
100
AcDbLine
 62
7
  6
BYLAYER
 10
68.9168988027
 20
92.5572618167
 11
63.9516017261
 21
92.5572618167
  0
LINE
  5
25B
100
AcDbEntity
  8
0
100
AcDbLine
 62
7
  6
BYLAYER
 10
73.6219801958
 20
92.6495623632
 11
71.6219801958
 21
92.6495623632
  0
LINE
  5
25C
100
AcDbEntity
  8
0
100
AcDbLine
 62
7
  6
BYLAYER
 10
71.6219801958
 20
93.0495623632
 11
72.4219801958
 21
93.0495623632
  0
LINE
  5
25D
100
AcDbEntity
  8
0
100
AcDbLine
 62
7
  6
BYLAYER
 10
72.8219801958
 20
93.0495623632
 11
73.6219801958
 21
93.0495623632
  0
LINE
  5
25E
100
AcDbEntity
  8
0
100
AcDbLine
 62
7
  6
BYLAYER
 10
50.7433005394
 20
93.8495623632
 11
51.7534363394
 21
93.8495623632
  0
LINE
  5
25F
100
AcDbEntity
  8
0
100
AcDbLine
 62
7
  6
BYLAYER
 10
58.1219801958
 20
93.9495623632
 11
57.9108345778
 21
93.9495623632
  0
LINE
  5
260
100
AcDbEntity
  8
0
100
AcDbLine
 62
7
  6
BYLAYER
 10
54.3331258138
 20
93.9495623632
 11
54.1219801958
 21
93.9495623632
  0
LINE
  5
261
100
AcDbEntity
  8
0
100
AcDbLine
 62
7
  6
BYLAYER
 10
69.1219801958
 20
92.3521804236
 11
68.9168988027
 21
92.5572618167
  0
LINE
  5
262
100
AcDbEntity
  8
0
100
AcDbLine
 62
7
  6
BYLAYER
 10
50.7433005394
 20
111.8495623632
 11
50.1826403676
 21
112.410222535
  0
LINE
  5
263
100
AcDbEntity
  8
0
100
AcDbLine
 62
7
  6
BYLAYER
 10
72.1950270326
 20
84.2944809702
 11
72.0719801958
 21
84.4995623632
  0
LINE
  5
264
100
AcDbEntity
  8
0
100
AcDbLine
 62
7
  6
BYLAYER
 10
68.9168988027
 20
86.2944048163
 11
68.9168988027
 21
91.1418629098
  0
LINE
  5
265
100
AcDbEntity
  8
0
100
AcDbLine
 62
7
  6
BYLAYER
 10
68.9168988027
 20
92.5572618167
 11
68.9168988027
 21
97.1995623632
  0
LINE
  5
266
100
AcDbEntity
  8
0
100
AcDbLine
 62
7
  6
BYLAYER
 10
68.9168988027
 20
108.4995623632
 11
68.9168988027
 21
113.1418629098
  0
LINE
  5
267
100
AcDbEntity
  8
0
100
AcDbLine
 62
7
  6
BYLAYER
 10
68.9168988027
 20
114.5572618167
 11
68.9168988027
 21
119.4047199102
  0
LINE
  5
268
100
AcDbEntity
  8
0
100
AcDbLine
 62
7
  6
BYLAYER
 10
69.1219801958
 20
119.1996385171
 11
69.1219801958
 21
114.3521804236
  0
LINE
  5
269
100
AcDbEntity
  8
0
100
AcDbLine
 62
7
  6
BYLAYER
 10
69.1219801958
 20
113.3469443029
 11
69.1219801958
 21
92.3521804236
  0
LINE
  5
26A
100
AcDbEntity
  8
0
100
AcDbLine
 62
7
  6
BYLAYER
 10
69.1219801958
 20
91.3469443029
 11
69.1219801958
 21
86.4994862094
  0
LINE
  5
26B
100
AcDbEntity
  8
0
100
AcDbLine
 62
7
  6
BYLAYER
 10
72.4219801958
 20
96.3495623632
 11
72.8219801958
 21
96.3495623632
  0
LINE
  5
26C
100
AcDbEntity
  8
0
100
AcDbLine
 62
7
  6
BYLAYER
 10
78.4219801958
 20
96.3495623632
 11
78.8219801958
 21
96.3495623632
  0
LINE
  5
26D
100
AcDbEntity
  8
0
100
AcDbLine
 62
7
  6
BYLAYER
 10
84.4219801958
 20
96.3495623632
 11
84.8219801958
 21
96.3495623632
  0
LINE
  5
26E
100
AcDbEntity
  8
0
100
AcDbLine
 62
7
  6
BYLAYER
 10
90.4219801958
 20
96.3495623632
 11
90.8219801958
 21
96.3495623632
  0
LINE
  5
26F
100
AcDbEntity
  8
0
100
AcDbLine
 62
7
  6
BYLAYER
 10
105.4219801958
 20
96.3495623632
 11
105.8219801958
 21
96.3495623632
  0
LINE
  5
270
100
AcDbEntity
  8
0
100
AcDbLine
 62
7
  6
BYLAYER
 10
44.3319801958
 20
96.7495623632
 11
40.3319801958
 21
96.7495623632
  0
LINE
  5
271
100
AcDbEntity
  8
0
100
AcDbLine
 62
7
  6
BYLAYER
 10
54.755501273
 20
97.1995623632
 11
68.991077179
 21
97.1995623632
  0
LINE
  5
272
100
AcDbEntity
  8
0
100
AcDbLine
 62
7
  6
BYLAYER
 10
40.3319801958
 20
97.8245623632
 11
44.3319801958
 21
97.8245623632
  0
LINE
  5
273
100
AcDbEntity
  8
0
100
AcDbLine
 62
7
  6
BYLAYER
 10
69.0261997051
 20
98.8841178897
 11
54.7203787469
 21
98.8841178897
  0
LINE
  5
274
100
AcDbEntity
  8
0
100
AcDbLine
 62
7
  6
BYLAYER
 10
71.0489333591
 20
84.2944809702
 11
71.0489333591
 21
78.3495623632
  0
LINE
  5
275
100
AcDbEntity
  8
0
100
AcDbLine
 62
7
  6
BYLAYER
 10
71.0489333591
 20
121.4046437563
 11
71.0489333591
 21
127.3495623632
  0
LINE
  5
276
100
AcDbEntity
  8
0
100
AcDbLine
 62
7
  6
BYLAYER
 10
71.1719801958
 20
127.3495623632
 11
71.1719801958
 21
121.1995623632
  0
LINE
  5
277
100
AcDbEntity
  8
0
100
AcDbLine
 62
7
  6
BYLAYER
 10
71.1719801958
 20
84.4995623632
 11
71.1719801958
 21
78.3495623632
  0
LINE
  5
278
100
AcDbEntity
  8
0
100
AcDbLine
 62
7
  6
BYLAYER
 10
71.6219801958
 20
92.6495623632
 11
71.6219801958
 21
93.0495623632
  0
LINE
  5
279
100
AcDbEntity
  8
0
100
AcDbLine
 62
7
  6
BYLAYER
 10
71.6219801958
 20
112.6495623632
 11
71.6219801958
 21
113.0495623632
  0
LINE
  5
27A
100
AcDbEntity
  8
0
100
AcDbLine
 62
7
  6
BYLAYER
 10
72.0719801958
 20
78.3495623632
 11
72.0719801958
 21
84.4995623632
  0
LINE
  5
27B
100
AcDbEntity
  8
0
100
AcDbLine
 62
7
  6
BYLAYER
 10
72.0719801958
 20
121.1995623632
 11
72.0719801958
 21
127.3495623632
  0
LINE
  5
27C
100
AcDbEntity
  8
0
100
AcDbLine
 62
7
  6
BYLAYER
 10
72.1950270326
 20
84.2944809702
 11
72.1950270326
 21
78.3495623632
  0
LINE
  5
27D
100
AcDbEntity
  8
0
100
AcDbLine
 62
7
  6
BYLAYER
 10
72.1950270326
 20
121.4046437563
 11
72.1950270326
 21
127.3495623632
  0
LINE
  5
27E
100
AcDbEntity
  8
0
100
AcDbLine
 62
7
  6
BYLAYER
 10
72.4219801958
 20
93.0495623632
 11
72.4219801958
 21
96.3495623632
  0
LINE
  5
27F
100
AcDbEntity
  8
0
100
AcDbLine
 62
7
  6
BYLAYER
 10
72.4219801958
 20
109.3495623632
 11
72.4219801958
 21
112.6495623632
  0
LINE
  5
280
100
AcDbEntity
  8
0
100
AcDbLine
 62
7
  6
BYLAYER
 10
72.8219801958
 20
112.6495623632
 11
72.8219801958
 21
109.3495623632
  0
LINE
  5
281
100
AcDbEntity
  8
0
100
AcDbLine
 62
7
  6
BYLAYER
 10
72.8219801958
 20
96.3495623632
 11
72.8219801958
 21
93.0495623632
  0
LINE
  5
282
100
AcDbEntity
  8
0
100
AcDbLine
 62
7
  6
BYLAYER
 10
73.6219801958
 20
113.0495623632
 11
73.6219801958
 21
112.6495623632
  0
LINE
  5
283
100
AcDbEntity
  8
0
100
AcDbLine
 62
7
  6
BYLAYER
 10
73.6219801958
 20
93.0495623632
 11
73.6219801958
 21
92.6495623632
  0
LINE
  5
284
100
AcDbEntity
  8
0
100
AcDbLine
 62
7
  6
BYLAYER
 10
77.6219801958
 20
91.6495623632
 11
77.6219801958
 21
92.0495623632
  0
LINE
  5
285
100
AcDbEntity
  8
0
100
AcDbLine
 62
7
  6
BYLAYER
 10
77.6219801958
 20
113.6495623632
 11
77.6219801958
 21
114.0495623632
  0
LINE
  5
286
100
AcDbEntity
  8
0
100
AcDbLine
 62
7
  6
BYLAYER
 10
78.4219801958
 20
92.0495623632
 11
78.4219801958
 21
96.3495623632
  0
LINE
  5
287
100
AcDbEntity
  8
0
100
AcDbLine
 62
7
  6
BYLAYER
 10
78.4219801958
 20
109.3495623632
 11
78.4219801958
 21
113.6495623632
  0
LINE
  5
288
100
AcDbEntity
  8
0
100
AcDbLine
 62
7
  6
BYLAYER
 10
78.8219801958
 20
113.6495623632
 11
78.8219801958
 21
109.3495623632
  0
LINE
  5
289
100
AcDbEntity
  8
0
100
AcDbLine
 62
7
  6
BYLAYER
 10
78.8219801958
 20
96.3495623632
 11
78.8219801958
 21
92.0495623632
  0
LINE
  5
28A
100
AcDbEntity
  8
0
100
AcDbLine
 62
7
  6
BYLAYER
 10
86.1950270326
 20
121.4046437563
 11
86.0719801958
 21
121.1995623632
  0
LINE
  5
28B
100
AcDbEntity
  8
0
100
AcDbLine
 62
7
  6
BYLAYER
 10
69.1219801958
 20
91.3469443029
 11
68.9168988027
 21
91.1418629098
  0
LINE
  5
28C
100
AcDbEntity
  8
0
100
AcDbLine
 62
7
  6
BYLAYER
 10
69.0261996826
 20
106.8150068367
 11
54.7203787694
 21
106.8150068367
  0
LINE
  5
28D
100
AcDbEntity
  8
0
100
AcDbLine
 62
7
  6
BYLAYER
 10
69.1219801958
 20
114.3521804236
 11
68.9168988027
 21
114.5572618167
  0
LINE
  5
28E
100
AcDbEntity
  8
0
100
AcDbLine
 62
7
  6
BYLAYER
 10
86.1950270326
 20
84.2944809702
 11
86.0719801958
 21
84.4995623632
  0
LINE
  5
28F
100
AcDbEntity
  8
0
100
AcDbLine
 62
7
  6
BYLAYER
 10
79.6219801958
 20
114.0495623632
 11
79.6219801958
 21
113.6495623632
  0
LINE
  5
290
100
AcDbEntity
  8
0
100
AcDbLine
 62
7
  6
BYLAYER
 10
79.6219801958
 20
92.0495623632
 11
79.6219801958
 21
91.6495623632
  0
LINE
  5
291
100
AcDbEntity
  8
0
100
AcDbLine
 62
7
  6
BYLAYER
 10
71.0489333591
 20
84.2944809702
 11
71.1719801958
 21
84.4995623632
  0
LINE
  5
292
100
AcDbEntity
  8
0
100
AcDbLine
 62
7
  6
BYLAYER
 10
68.9168988027
 20
86.2944048163
 11
69.1219801958
 21
86.4994862094
  0
LINE
  5
293
100
AcDbEntity
  8
0
100
AcDbLine
 62
7
  6
BYLAYER
 10
40.3319801958
 20
107.8745623632
 11
44.3319801958
 21
107.8745623632
  0
LINE
  5
294
100
AcDbEntity
  8
0
100
AcDbLine
 62
7
  6
BYLAYER
 10
68.991077179
 20
108.4995623632
 11
54.755501273
 21
108.4995623632
  0
LINE
  5
295
100
AcDbEntity
  8
0
100
AcDbLine
 62
7
  6
BYLAYER
 10
40.3319801958
 20
108.9495623632
 11
44.3319801958
 21
108.9495623632
  0
LINE
  5
296
100
AcDbEntity
  8
0
100
AcDbLine
 62
7
  6
BYLAYER
 10
105.8219801958
 20
109.3495623632
 11
105.4219801958
 21
109.3495623632
  0
LINE
  5
297
100
AcDbEntity
  8
0
100
AcDbLine
 62
7
  6
BYLAYER
 10
90.8219801958
 20
109.3495623632
 11
90.4219801958
 21
109.3495623632
  0
LINE
  5
298
100
AcDbEntity
  8
0
100
AcDbLine
 62
7
  6
BYLAYER
 10
84.8219801958
 20
109.3495623632
 11
84.4219801958
 21
109.3495623632
  0
LINE
  5
299
100
AcDbEntity
  8
0
100
AcDbLine
 62
7
  6
BYLAYER
 10
78.8219801958
 20
109.3495623632
 11
78.4219801958
 21
109.3495623632
  0
LINE
  5
29A
100
AcDbEntity
  8
0
100
AcDbLine
 62
7
  6
BYLAYER
 10
72.8219801958
 20
109.3495623632
 11
72.4219801958
 21
109.3495623632
  0
LINE
  5
29B
100
AcDbEntity
  8
0
100
AcDbLine
 62
7
  6
BYLAYER
 10
54.1219801958
 20
111.7495623632
 11
54.3331258138
 21
111.7495623632
  0
LINE
  5
29C
100
AcDbEntity
  8
0
100
AcDbLine
 62
7
  6
BYLAYER
 10
57.9108345778
 20
111.7495623632
 11
58.1219801958
 21
111.7495623632
  0
LINE
  5
29D
100
AcDbEntity
  8
0
100
AcDbLine
 62
7
  6
BYLAYER
 10
69.1219801958
 20
119.1996385171
 11
68.9168988027
 21
119.4047199102
  0
LINE
  5
29E
100
AcDbEntity
  8
0
100
AcDbLine
 62
7
  6
BYLAYER
 10
71.0489333591
 20
121.4046437563
 11
71.1719801958
 21
121.1995623632
  0
LINE
  5
29F
100
AcDbEntity
  8
0
100
AcDbLine
 62
7
  6
BYLAYER
 10
83.6219801958
 20
86.8495623632
 11
83.6219801958
 21
87.2495623632
  0
LINE
  5
2A0
100
AcDbEntity
  8
0
100
AcDbLine
 62
7
  6
BYLAYER
 10
83.6219801958
 20
118.4495623632
 11
83.6219801958
 21
118.8495623632
  0
LINE
  5
2A1
100
AcDbEntity
  8
0
100
AcDbLine
 62
7
  6
BYLAYER
 10
84.4219801958
 20
87.2495623632
 11
84.4219801958
 21
96.3495623632
  0
LINE
  5
2A2
100
AcDbEntity
  8
0
100
AcDbLine
 62
7
  6
BYLAYER
 10
84.4219801958
 20
109.3495623632
 11
84.4219801958
 21
118.4495623632
  0
LINE
  5
2A3
100
AcDbEntity
  8
0
100
AcDbLine
 62
7
  6
BYLAYER
 10
84.8219801958
 20
118.4495623632
 11
84.8219801958
 21
109.3495623632
  0
LINE
  5
2A4
100
AcDbEntity
  8
0
100
AcDbLine
 62
7
  6
BYLAYER
 10
84.8219801958
 20
96.3495623632
 11
84.8219801958
 21
87.2495623632
  0
LINE
  5
2A5
100
AcDbEntity
  8
0
100
AcDbLine
 62
7
  6
BYLAYER
 10
85.0489333591
 20
84.2944809702
 11
85.0489333591
 21
78.3495623632
  0
LINE
  5
2A6
100
AcDbEntity
  8
0
100
AcDbLine
 62
7
  6
BYLAYER
 10
85.0489333591
 20
121.4046437563
 11
85.0489333591
 21
127.3495623632
  0
LINE
  5
2A7
100
AcDbEntity
  8
0
100
AcDbLine
 62
7
  6
BYLAYER
 10
85.1719801958
 20
127.3495623632
 11
85.1719801958
 21
121.1995623632
  0
LINE
  5
2A8
100
AcDbEntity
  8
0
100
AcDbLine
 62
7
  6
BYLAYER
 10
85.1719801958
 20
84.4995623632
 11
85.1719801958
 21
78.3495623632
  0
LINE
  5
2A9
100
AcDbEntity
  8
0
100
AcDbLine
 62
7
  6
BYLAYER
 10
85.6219801958
 20
118.8495623632
 11
85.6219801958
 21
118.4495623632
  0
LINE
  5
2AA
100
AcDbEntity
  8
0
100
AcDbLine
 62
7
  6
BYLAYER
 10
85.6219801958
 20
87.2495623632
 11
85.6219801958
 21
86.8495623632
  0
LINE
  5
2AB
100
AcDbEntity
  8
0
100
AcDbLine
 62
7
  6
BYLAYER
 10
86.0719801958
 20
78.3495623632
 11
86.0719801958
 21
84.4995623632
  0
LINE
  5
2AC
100
AcDbEntity
  8
0
100
AcDbLine
 62
7
  6
BYLAYER
 10
86.0719801958
 20
121.1995623632
 11
86.0719801958
 21
127.3495623632
  0
LINE
  5
2AD
100
AcDbEntity
  8
0
100
AcDbLine
 62
7
  6
BYLAYER
 10
86.1950270326
 20
84.2944809702
 11
86.1950270326
 21
78.3495623632
  0
LINE
  5
2AE
100
AcDbEntity
  8
0
100
AcDbLine
 62
7
  6
BYLAYER
 10
86.1950270326
 20
121.4046437563
 11
86.1950270326
 21
127.3495623632
  0
LINE
  5
2AF
100
AcDbEntity
  8
0
100
AcDbLine
 62
7
  6
BYLAYER
 10
100.1950270326
 20
121.4046437563
 11
100.0719801958
 21
121.1995623632
  0
LINE
  5
2B0
100
AcDbEntity
  8
0
100
AcDbLine
 62
7
  6
BYLAYER
 10
71.121904042
 20
84.4995623632
 11
70.9168226489
 21
84.2944809702
  0
LINE
  5
2B1
100
AcDbEntity
  8
0
100
AcDbLine
 62
7
  6
BYLAYER
 10
51.7534363394
 20
111.8495623632
 11
50.7433005394
 21
111.8495623632
  0
LINE
  5
2B2
100
AcDbEntity
  8
0
100
AcDbLine
 62
7
  6
BYLAYER
 10
73.6219801958
 20
112.6495623632
 11
72.8219801958
 21
112.6495623632
  0
LINE
  5
2B3
100
AcDbEntity
  8
0
100
AcDbLine
 62
7
  6
BYLAYER
 10
72.4219801958
 20
112.6495623632
 11
71.6219801958
 21
112.6495623632
  0
LINE
  5
2B4
100
AcDbEntity
  8
0
100
AcDbLine
 62
7
  6
BYLAYER
 10
71.6219801958
 20
113.0495623632
 11
73.6219801958
 21
113.0495623632
  0
LINE
  5
2B5
100
AcDbEntity
  8
0
100
AcDbLine
 62
7
  6
BYLAYER
 10
68.9168988027
 20
113.1418629098
 11
63.9516017261
 21
113.1418629098
  0
LINE
  5
2B6
100
AcDbEntity
  8
0
100
AcDbLine
 62
7
  6
BYLAYER
 10
61.1431584637
 20
113.1549532115
 11
63.9550436362
 21
113.1549532115
  0
LINE
  5
2B7
100
AcDbEntity
  8
0
100
AcDbLine
 62
7
  6
BYLAYER
 10
69.1219801958
 20
113.3469443029
 11
68.6193431044
 21
113.3469443029
  0
LINE
  5
2B8
100
AcDbEntity
  8
0
100
AcDbLine
 62
7
  6
BYLAYER
 10
61.181391904
 20
113.3495623632
 11
68.6219515486
 21
113.3495623632
  0
LINE
  5
2B9
100
AcDbEntity
  8
0
100
AcDbLine
 62
7
  6
BYLAYER
 10
79.6219801958
 20
113.6495623632
 11
78.8219801958
 21
113.6495623632
  0
LINE
  5
2BA
100
AcDbEntity
  8
0
100
AcDbLine
 62
7
  6
BYLAYER
 10
78.4219801958
 20
113.6495623632
 11
77.6219801958
 21
113.6495623632
  0
LINE
  5
2BB
100
AcDbEntity
  8
0
100
AcDbLine
 62
7
  6
BYLAYER
 10
77.6219801958
 20
114.0495623632
 11
79.6219801958
 21
114.0495623632
  0
LINE
  5
2BC
100
AcDbEntity
  8
0
100
AcDbLine
 62
7
  6
BYLAYER
 10
68.6220726266
 20
114.3495624069
 11
61.181391904
 21
114.3495623632
  0
LINE
  5
2BD
100
AcDbEntity
  8
0
100
AcDbLine
 62
7
  6
BYLAYER
 10
68.6193428662
 20
114.3521804236
 11
69.1219801958
 21
114.3521804236
  0
LINE
  5
2BE
100
AcDbEntity
  8
0
100
AcDbLine
 62
7
  6
BYLAYER
 10
64.3471672783
 20
114.544171515
 11
61.1431584637
 21
114.544171515
  0
LINE
  5
2BF
100
AcDbEntity
  8
0
100
AcDbLine
 62
7
  6
BYLAYER
 10
68.9168988027
 20
114.5572618167
 11
64.3511177666
 21
114.5572618167
  0
LINE
  5
2C0
100
AcDbEntity
  8
0
100
AcDbLine
 62
7
  6
BYLAYER
 10
58.1219801958
 20
115.9495623632
 11
54.1219801958
 21
115.9495623632
  0
LINE
  5
2C1
100
AcDbEntity
  8
0
100
AcDbLine
 62
7
  6
BYLAYER
 10
70.9168226489
 20
121.4046437563
 11
71.121904042
 21
121.1995623632
  0
LINE
  5
2C2
100
AcDbEntity
  8
0
100
AcDbLine
 62
7
  6
BYLAYER
 10
100.1950270326
 20
84.2944809702
 11
100.0719801958
 21
84.4995623632
  0
LINE
  5
2C3
100
AcDbEntity
  8
0
100
AcDbLine
 62
7
  6
BYLAYER
 10
89.6219801958
 20
85.3495623632
 11
89.6219801958
 21
85.7495623632
  0
LINE
  5
2C4
100
AcDbEntity
  8
0
100
AcDbLine
 62
7
  6
BYLAYER
 10
89.6219801958
 20
119.9495623632
 11
89.6219801958
 21
120.3495623632
  0
LINE
  5
2C5
100
AcDbEntity
  8
0
100
AcDbLine
 62
7
  6
BYLAYER
 10
90.4219801958
 20
85.7495623632
 11
90.4219801958
 21
96.3495623632
  0
LINE
  5
2C6
100
AcDbEntity
  8
0
100
AcDbLine
 62
7
  6
BYLAYER
 10
90.4219801958
 20
109.3495623632
 11
90.4219801958
 21
119.9495623632
  0
LINE
  5
2C7
100
AcDbEntity
  8
0
100
AcDbLine
 62
7
  6
BYLAYER
 10
90.8219801958
 20
119.9495623632
 11
90.8219801958
 21
109.3495623632
  0
LINE
  5
2C8
100
AcDbEntity
  8
0
100
AcDbLine
 62
7
  6
BYLAYER
 10
90.8219801958
 20
96.3495623632
 11
90.8219801958
 21
85.7495623632
  0
LINE
  5
2C9
100
AcDbEntity
  8
0
100
AcDbLine
 62
7
  6
BYLAYER
 10
91.6219801958
 20
120.3495623632
 11
91.6219801958
 21
119.9495623632
  0
LINE
  5
2CA
100
AcDbEntity
  8
0
100
AcDbLine
 62
7
  6
BYLAYER
 10
91.6219801958
 20
85.7495623632
 11
91.6219801958
 21
85.3495623632
  0
LINE
  5
2CB
100
AcDbEntity
  8
0
100
AcDbLine
 62
7
  6
BYLAYER
 10
54.1219801958
 20
116.9495623632
 11
58.1219801958
 21
116.9495623632
  0
LINE
  5
2CC
100
AcDbEntity
  8
0
100
AcDbLine
 62
7
  6
BYLAYER
 10
46.6219801958
 20
117.8495623632
 11
17.1219801958
 21
117.8495623632
  0
LINE
  5
2CD
100
AcDbEntity
  8
0
100
AcDbLine
 62
7
  6
BYLAYER
 10
59.6219801958
 20
118.0495623632
 11
49.6219801958
 21
118.0495623632
  0
LINE
  5
2CE
100
AcDbEntity
  8
0
100
AcDbLine
 62
7
  6
BYLAYER
 10
106.6219801958
 20
118.4495623632
 11
105.8219801958
 21
118.4495623632
  0
LINE
  5
2CF
100
AcDbEntity
  8
0
100
AcDbLine
 62
7
  6
BYLAYER
 10
105.4219801958
 20
118.4495623632
 11
104.6219801958
 21
118.4495623632
  0
LINE
  5
2D0
100
AcDbEntity
  8
0
100
AcDbLine
 62
7
  6
BYLAYER
 10
85.6219801958
 20
118.4495623632
 11
84.8219801958
 21
118.4495623632
  0
LINE
  5
2D1
100
AcDbEntity
  8
0
100
AcDbLine
 62
7
  6
BYLAYER
 10
84.4219801958
 20
118.4495623632
 11
83.6219801958
 21
118.4495623632
  0
LINE
  5
2D2
100
AcDbEntity
  8
0
100
AcDbLine
 62
7
  6
BYLAYER
 10
83.6219801958
 20
118.8495623632
 11
85.6219801958
 21
118.8495623632
  0
LINE
  5
2D3
100
AcDbEntity
  8
0
100
AcDbLine
 62
7
  6
BYLAYER
 10
104.6219801958
 20
118.8495623632
 11
106.6219801958
 21
118.8495623632
  0
LINE
  5
2D4
100
AcDbEntity
  8
0
100
AcDbLine
 62
7
  6
BYLAYER
 10
91.6219801958
 20
119.9495623632
 11
90.8219801958
 21
119.9495623632
  0
LINE
  5
2D5
100
AcDbEntity
  8
0
100
AcDbLine
 62
7
  6
BYLAYER
 10
90.4219801958
 20
119.9495623632
 11
89.6219801958
 21
119.9495623632
  0
LINE
  5
2D6
100
AcDbEntity
  8
0
100
AcDbLine
 62
7
  6
BYLAYER
 10
52.6219801958
 20
120.0495623632
 11
59.6219801958
 21
120.0495623632
  0
LINE
  5
2D7
100
AcDbEntity
  8
0
100
AcDbLine
 62
7
  6
BYLAYER
 10
85.0489333591
 20
84.2944809702
 11
85.1719801958
 21
84.4995623632
  0
LINE
  5
2D8
100
AcDbEntity
  8
0
100
AcDbLine
 62
7
  6
BYLAYER
 10
89.6219801958
 20
120.3495623632
 11
91.6219801958
 21
120.3495623632
  0
LINE
  5
2D9
100
AcDbEntity
  8
0
100
AcDbLine
 62
7
  6
BYLAYER
 10
71.121904042
 20
121.1995623632
 11
71.1719801958
 21
121.1995623632
  0
LINE
  5
2DA
100
AcDbEntity
  8
0
100
AcDbLine
 62
7
  6
BYLAYER
 10
72.0719801958
 20
121.1995623632
 11
85.1719801958
 21
121.1995623632
  0
LINE
  5
2DB
100
AcDbEntity
  8
0
100
AcDbLine
 62
7
  6
BYLAYER
 10
86.0719801958
 20
121.1995623632
 11
99.1719801958
 21
121.1995623632
  0
LINE
  5
2DC
100
AcDbEntity
  8
0
100
AcDbLine
 62
7
  6
BYLAYER
 10
100.0719801958
 20
121.1995623632
 11
118.1219801958
 21
121.1995623632
  0
LINE
  5
2DD
100
AcDbEntity
  8
0
100
AcDbLine
 62
7
  6
BYLAYER
 10
120.1219801958
 20
121.1995623632
 11
129.6219801958
 21
121.1995623632
  0
LINE
  5
2DE
100
AcDbEntity
  8
0
100
AcDbLine
 62
7
  6
BYLAYER
 10
70.9168226489
 20
121.4046437563
 11
71.0489333591
 21
121.4046437563
  0
LINE
  5
2DF
100
AcDbEntity
  8
0
100
AcDbLine
 62
7
  6
BYLAYER
 10
72.1950270326
 20
121.4046437563
 11
85.0489333591
 21
121.4046437563
  0
LINE
  5
2E0
100
AcDbEntity
  8
0
100
AcDbLine
 62
7
  6
BYLAYER
 10
86.1950270326
 20
121.4046437563
 11
99.0489333591
 21
121.4046437563
  0
LINE
  5
2E1
100
AcDbEntity
  8
0
100
AcDbLine
 62
7
  6
BYLAYER
 10
100.1950270326
 20
121.4046437563
 11
107.6219801958
 21
121.4046437563
  0
LINE
  5
2E2
100
AcDbEntity
  8
0
100
AcDbLine
 62
7
  6
BYLAYER
 10
85.0489333591
 20
121.4046437563
 11
85.1719801958
 21
121.1995623632
  0
LINE
  5
2E3
100
AcDbEntity
  8
0
100
AcDbLine
 62
7
  6
BYLAYER
 10
99.0489333591
 20
84.2944809702
 11
99.0489333591
 21
78.3495623632
  0
LINE
  5
2E4
100
AcDbEntity
  8
0
100
AcDbLine
 62
7
  6
BYLAYER
 10
99.0489333591
 20
121.4046437563
 11
99.0489333591
 21
127.3495623632
  0
LINE
  5
2E5
100
AcDbEntity
  8
0
100
AcDbLine
 62
7
  6
BYLAYER
 10
99.1719801958
 20
127.3495623632
 11
99.1719801958
 21
121.1995623632
  0
LINE
  5
2E6
100
AcDbEntity
  8
0
100
AcDbLine
 62
7
  6
BYLAYER
 10
99.1719801958
 20
84.4995623632
 11
99.1719801958
 21
78.3495623632
  0
LINE
  5
2E7
100
AcDbEntity
  8
0
100
AcDbLine
 62
7
  6
BYLAYER
 10
100.0719801958
 20
78.3495623632
 11
100.0719801958
 21
84.4995623632
  0
LINE
  5
2E8
100
AcDbEntity
  8
0
100
AcDbLine
 62
7
  6
BYLAYER
 10
100.0719801958
 20
121.1995623632
 11
100.0719801958
 21
127.3495623632
  0
LINE
  5
2E9
100
AcDbEntity
  8
0
100
AcDbLine
 62
7
  6
BYLAYER
 10
59.6219801958
 20
125.9495623632
 11
52.6219801958
 21
125.9495623632
  0
LINE
  5
2EA
100
AcDbEntity
  8
0
100
AcDbLine
 62
7
  6
BYLAYER
 10
129.6219801958
 20
127.3495623632
 11
120.1219801958
 21
127.3495623632
  0
LINE
  5
2EB
100
AcDbEntity
  8
0
100
AcDbLine
 62
7
  6
BYLAYER
 10
118.1219801958
 20
127.3495623632
 11
100.0719801958
 21
127.3495623632
  0
LINE
  5
2EC
100
AcDbEntity
  8
0
100
AcDbLine
 62
7
  6
BYLAYER
 10
99.1719801958
 20
127.3495623632
 11
86.0719801958
 21
127.3495623632
  0
LINE
  5
2ED
100
AcDbEntity
  8
0
100
AcDbLine
 62
7
  6
BYLAYER
 10
85.1719801958
 20
127.3495623632
 11
72.0719801958
 21
127.3495623632
  0
LINE
  5
2EE
100
AcDbEntity
  8
0
100
AcDbLine
 62
7
  6
BYLAYER
 10
46.6219801958
 20
127.3495623632
 11
47.1219801958
 21
127.3495623632
  0
LINE
  5
2EF
100
AcDbEntity
  8
0
100
AcDbLine
 62
7
  6
BYLAYER
 10
52.6219801958
 20
127.3495623632
 11
71.1719801958
 21
127.3495623632
  0
LINE
  5
2F0
100
AcDbEntity
  8
0
100
AcDbLine
 62
7
  6
BYLAYER
 10
131.1219801958
 20
127.3495623632
 11
131.6219801958
 21
127.3495623632
  0
LINE
  5
2F1
100
AcDbEntity
  8
0
100
AcDbLine
 62
7
  6
BYLAYER
 10
48.1220092858
 20
128.3495623632
 11
130.1219511022
 21
128.3495623632
  0
LINE
  5
2F2
100
AcDbEntity
  8
0
100
AcDbLine
 62
7
  6
BYLAYER
 10
100.1950270326
 20
84.2944809702
 11
100.1950270326
 21
78.3495623632
  0
LINE
  5
2F3
100
AcDbEntity
  8
0
100
AcDbLine
 62
7
  6
BYLAYER
 10
100.1950270326
 20
121.4046437563
 11
100.1950270326
 21
127.3495623632
  0
LINE
  5
2F4
100
AcDbEntity
  8
0
100
AcDbLine
 62
7
  6
BYLAYER
 10
130.1219801967
 20
128.8495623632
 11
48.1219802057
 21
128.8495623632
  0
LINE
  5
2F5
100
AcDbEntity
  8
0
100
AcDbLine
 62
7
  6
BYLAYER
 10
104.6219801958
 20
86.8495623632
 11
104.6219801958
 21
87.2495623632
  0
LINE
  5
2F6
100
AcDbEntity
  8
0
100
AcDbLine
 62
7
  6
BYLAYER
 10
104.6219801958
 20
118.4495623632
 11
104.6219801958
 21
118.8495623632
  0
LINE
  5
2F7
100
AcDbEntity
  8
0
100
AcDbLine
 62
7
  6
BYLAYER
 10
105.4219801958
 20
87.2495623632
 11
105.4219801958
 21
96.3495623632
  0
LINE
  5
2F8
100
AcDbEntity
  8
0
100
AcDbLine
 62
7
  6
BYLAYER
 10
105.4219801958
 20
109.3495623632
 11
105.4219801958
 21
118.4495623632
  0
LINE
  5
2F9
100
AcDbEntity
  8
0
100
AcDbLine
 62
7
  6
BYLAYER
 10
105.8219801958
 20
118.4495623632
 11
105.8219801958
 21
109.3495623632
  0
LINE
  5
2FA
100
AcDbEntity
  8
0
100
AcDbLine
 62
7
  6
BYLAYER
 10
105.8219801958
 20
96.3495623632
 11
105.8219801958
 21
87.2495623632
  0
LINE
  5
2FB
100
AcDbEntity
  8
0
100
AcDbLine
 62
7
  6
BYLAYER
 10
106.6219801958
 20
118.8495623632
 11
106.6219801958
 21
118.4495623632
  0
LINE
  5
2FC
100
AcDbEntity
  8
0
100
AcDbLine
 62
7
  6
BYLAYER
 10
106.6219801958
 20
87.2495623632
 11
106.6219801958
 21
86.8495623632
  0
LINE
  5
2FD
100
AcDbEntity
  8
0
100
AcDbLine
 62
7
  6
BYLAYER
 10
107.6219801958
 20
127.3495623632
 11
107.6219801958
 21
121.3086482106
  0
LINE
  5
2FE
100
AcDbEntity
  8
0
100
AcDbLine
 62
7
  6
BYLAYER
 10
107.6219801958
 20
84.3904765159
 11
107.6219801958
 21
78.3495623632
  0
LINE
  5
2FF
100
AcDbEntity
  8
0
100
AcDbLine
 62
7
  6
BYLAYER
 10
99.0489333591
 20
84.2944809702
 11
99.1719801958
 21
84.4995623632
  0
LINE
  5
300
100
AcDbEntity
  8
0
100
AcDbLine
 62
7
  6
BYLAYER
 10
99.0489333591
 20
121.4046437563
 11
99.1719801958
 21
121.1995623632
  0
LINE
  5
301
100
AcDbEntity
  8
0
100
AcDbLine
 62
7
  6
BYLAYER
 10
111.1219801958
 20
89.3495623632
 11
111.1219801958
 21
116.3495623632
  0
LINE
  5
302
100
AcDbEntity
  8
0
100
AcDbLine
 62
7
  6
BYLAYER
 10
118.1219801958
 20
127.3495623632
 11
118.1219801958
 21
121.1995623632
  0
LINE
  5
303
100
AcDbEntity
  8
0
100
AcDbLine
 62
7
  6
BYLAYER
 10
118.1219801958
 20
84.4995623632
 11
118.1219801958
 21
78.3495623632
  0
LINE
  5
304
100
AcDbEntity
  8
0
100
AcDbLine
 62
7
  6
BYLAYER
 10
119.1219801958
 20
116.3495623632
 11
119.1219801958
 21
89.3495623632
  0
LINE
  5
305
100
AcDbEntity
  8
0
100
AcDbLine
 62
7
  6
BYLAYER
 10
120.1219801958
 20
127.3495623632
 11
120.1219801958
 21
121.1995623632
  0
LINE
  5
306
100
AcDbEntity
  8
0
100
AcDbLine
 62
7
  6
BYLAYER
 10
120.1219801958
 20
84.4995623632
 11
120.1219801958
 21
78.3495623632
  0
LINE
  5
307
100
AcDbEntity
  8
0
100
AcDbLine
 62
7
  6
BYLAYER
 10
128.7053135292
 20
78.3495623632
 11
128.7053135292
 21
84.4459520291
  0
LINE
  5
308
100
AcDbEntity
  8
0
100
AcDbLine
 62
7
  6
BYLAYER
 10
128.7053135292
 20
121.2531726973
 11
128.7053135292
 21
127.3495623632
  0
LINE
  5
309
100
AcDbEntity
  8
0
100
AcDbLine
 62
7
  6
BYLAYER
 10
129.6219801958
 20
127.3495623632
 11
129.6219801958
 21
121.1995623632
  0
LINE
  5
30A
100
AcDbEntity
  8
0
100
AcDbLine
 62
7
  6
BYLAYER
 10
129.6219801958
 20
84.4995623632
 11
129.6219801958
 21
78.3495623632
  0
LINE
  5
30B
100
AcDbEntity
  8
0
100
AcDbLine
 62
7
  6
BYLAYER
 10
130.1219801958
 20
128.8495623632
 11
130.1219801958
 21
128.3495623632
  0
LINE
  5
30C
100
AcDbEntity
  8
0
100
AcDbLine
 62
7
  6
BYLAYER
 10
130.1219801958
 20
77.3495623632
 11
130.1219801958
 21
76.8495623632
  0
LINE
  5
30D
100
AcDbEntity
  8
0
100
AcDbLine
 62
7
  6
BYLAYER
 10
131.1219801958
 20
127.3495332732
 11
131.1219801958
 21
78.3495914569
  0
LINE
  5
30E
100
AcDbEntity
  8
0
100
AcDbLine
 62
7
  6
BYLAYER
 10
131.6219801958
 20
78.3495623623
 11
131.6219801958
 21
127.3495623534
  0
ARC
  5
30F
100
AcDbEntity
  8
0
100
AcDbCircle
 62
7
  6
BYLAYER
 10
59.6219801958
 20
82.6995623632
 40
4.95
100
AcDbArc
 50
0.0
 51
90.0
  0
ARC
  5
310
100
AcDbEntity
  8
0
100
AcDbCircle
 62
7
  6
BYLAYER
 10
52.6219801958
 20
82.6995623632
 40
4.35
100
AcDbArc
 50
133.6028189727
 51
270.0
  0
ARC
  5
311
100
AcDbEntity
  8
0
100
AcDbCircle
 62
7
  6
BYLAYER
 10
58.1219801958
 20
91.8495623632
 40
3.1
100
AcDbArc
 50
9.2817990867
 51
84.5754452158
  0
ARC
  5
312
100
AcDbEntity
  8
0
100
AcDbCircle
 62
7
  6
BYLAYER
 10
56.1219801958
 20
92.8495623632
 40
3.1
100
AcDbArc
 50
42.2944524301
 51
118.9385277402
  0
ARC
  5
313
100
AcDbEntity
  8
0
100
AcDbCircle
 62
7
  6
BYLAYER
 10
54.1219801958
 20
91.8495623632
 40
3.1
100
AcDbArc
 50
99.2817990867
 51
270.0
  0
ARC
  5
314
100
AcDbEntity
  8
0
100
AcDbCircle
 62
7
  6
BYLAYER
 10
58.1219801958
 20
91.8495623632
 40
3.1
100
AcDbArc
 50
270.0
 51
350.7182009133
  0
ARC
  5
315
100
AcDbEntity
  8
0
100
AcDbCircle
 62
7
  6
BYLAYER
 10
59.6219801958
 20
82.6995623632
 40
2.95
100
AcDbArc
 50
270.0
 51
90.0
  0
ARC
  5
316
100
AcDbEntity
  8
0
100
AcDbCircle
 62
7
  6
BYLAYER
 10
52.6219801958
 20
82.6995623632
 40
2.95
100
AcDbArc
 50
90.0
 51
270.0
  0
ARC
  5
317
100
AcDbEntity
  8
0
100
AcDbCircle
 62
7
  6
BYLAYER
 10
56.1219801958
 20
92.8495623632
 40
2.1
100
AcDbArc
 50
31.5881355052
 51
148.4118644948
  0
ARC
  5
318
100
AcDbEntity
  8
0
100
AcDbCircle
 62
7
  6
BYLAYER
 10
58.1219801958
 20
91.8495623632
 40
2.1
100
AcDbArc
 50
270.0
 51
90.0
  0
ARC
  5
319
100
AcDbEntity
  8
0
100
AcDbCircle
 62
7
  6
BYLAYER
 10
54.1219801958
 20
91.8495623632
 40
2.1
100
AcDbArc
 50
90.0
 51
270.0
  0
ARC
  5
31A
100
AcDbEntity
  8
0
100
AcDbCircle
 62
7
  6
BYLAYER
 10
49.1219801958
 20
94.3495623632
 40
1.5
100
AcDbArc
 50
294.8726008074
 51
315.0
  0
ARC
  5
31B
100
AcDbEntity
  8
0
100
AcDbCircle
 62
7
  6
BYLAYER
 10
48.1219801958
 20
78.3495623632
 40
1.5
100
AcDbArc
 50
180.0
 51
270.0000000629
  0
ARC
  5
31C
100
AcDbEntity
  8
0
100
AcDbCircle
 62
7
  6
BYLAYER
 10
48.1219801958
 20
78.3495623632
 40
0.9999953767
100
AcDbArc
 50
179.9983332664
 51
270.0016669424
  0
ARC
  5
31D
100
AcDbEntity
  8
0
100
AcDbCircle
 62
7
  6
BYLAYER
 10
68.6219641195
 20
91.8495623909
 40
0.5000000278
100
AcDbArc
 50
269.9985594664
 51
89.9875660097
  0
ARC
  5
31E
100
AcDbEntity
  8
0
100
AcDbCircle
 62
7
  6
BYLAYER
 10
59.6219801958
 20
122.9995623632
 40
4.95
100
AcDbArc
 50
270.0
 51
360.0
  0
ARC
  5
31F
100
AcDbEntity
  8
0
100
AcDbCircle
 62
7
  6
BYLAYER
 10
52.6219801958
 20
122.9995623632
 40
4.35
100
AcDbArc
 50
90.0
 51
226.3971810273
  0
ARC
  5
320
100
AcDbEntity
  8
0
100
AcDbCircle
 62
7
  6
BYLAYER
 10
56.1219801958
 20
112.8495623632
 40
3.1
100
AcDbArc
 50
241.0614722598
 51
317.7055475699
  0
ARC
  5
321
100
AcDbEntity
  8
0
100
AcDbCircle
 62
7
  6
BYLAYER
 10
58.1219801958
 20
113.8495623632
 40
3.1
100
AcDbArc
 50
275.4245547842
 51
350.7182009133
  0
ARC
  5
322
100
AcDbEntity
  8
0
100
AcDbCircle
 62
7
  6
BYLAYER
 10
58.1219801958
 20
113.8495623632
 40
3.1
100
AcDbArc
 50
9.2817990867
 51
90.0
  0
ARC
  5
323
100
AcDbEntity
  8
0
100
AcDbCircle
 62
7
  6
BYLAYER
 10
54.1219801958
 20
113.8495623632
 40
3.1
100
AcDbArc
 50
90.0
 51
260.7182009133
  0
ARC
  5
324
100
AcDbEntity
  8
0
100
AcDbCircle
 62
7
  6
BYLAYER
 10
59.6219801958
 20
122.9995623632
 40
2.95
100
AcDbArc
 50
270.0
 51
90.0
  0
ARC
  5
325
100
AcDbEntity
  8
0
100
AcDbCircle
 62
7
  6
BYLAYER
 10
52.6219801958
 20
122.9995623632
 40
2.95
100
AcDbArc
 50
90.0
 51
270.0
  0
ARC
  5
326
100
AcDbEntity
  8
0
100
AcDbCircle
 62
7
  6
BYLAYER
 10
58.1219801958
 20
113.8495623632
 40
2.1
100
AcDbArc
 50
270.0
 51
90.0
  0
ARC
  5
327
100
AcDbEntity
  8
0
100
AcDbCircle
 62
7
  6
BYLAYER
 10
56.1219801958
 20
112.8495623632
 40
2.1
100
AcDbArc
 50
211.5881355052
 51
328.4118644948
  0
ARC
  5
328
100
AcDbEntity
  8
0
100
AcDbCircle
 62
7
  6
BYLAYER
 10
54.1219801958
 20
113.8495623632
 40
2.1
100
AcDbArc
 50
90.0
 51
270.0
  0
ARC
  5
329
100
AcDbEntity
  8
0
100
AcDbCircle
 62
7
  6
BYLAYER
 10
49.1219801958
 20
111.3495623632
 40
1.5
100
AcDbArc
 50
45.0
 51
65.1273991926
  0
ARC
  5
32A
100
AcDbEntity
  8
0
100
AcDbCircle
 62
7
  6
BYLAYER
 10
48.1219801958
 20
127.3495623632
 40
1.5
100
AcDbArc
 50
90.0
 51
180.0000000629
  0
ARC
  5
32B
100
AcDbEntity
  8
0
100
AcDbCircle
 62
7
  6
BYLAYER
 10
48.1219801958
 20
127.3495623632
 40
0.9999953767
100
AcDbArc
 50
89.9983332664
 51
180.0016669424
  0
ARC
  5
32C
100
AcDbEntity
  8
0
100
AcDbCircle
 62
7
  6
BYLAYER
 10
68.6219641195
 20
113.8495623909
 40
0.5000000278
100
AcDbArc
 50
269.9985594723
 51
89.9875660039
  0
ARC
  5
32D
100
AcDbEntity
  8
0
100
AcDbCircle
 62
7
  6
BYLAYER
 10
115.1219801958
 20
89.3495623632
 40
4.0
100
AcDbArc
 50
180.0
 51
360.0
  0
ARC
  5
32E
100
AcDbEntity
  8
0
100
AcDbCircle
 62
7
  6
BYLAYER
 10
130.1219801958
 20
78.3495623632
 40
1.5
100
AcDbArc
 50
270.0
 51
359.9999999828
  0
ARC
  5
32F
100
AcDbEntity
  8
0
100
AcDbCircle
 62
7
  6
BYLAYER
 10
130.1219801958
 20
78.3495623632
 40
0.9999953767
100
AcDbArc
 50
269.9983332664
 51
0.0016669424
  0
ARC
  5
330
100
AcDbEntity
  8
0
100
AcDbCircle
 62
7
  6
BYLAYER
 10
103.1219801958
 20
102.8495623632
 40
40.5
100
AcDbArc
 50
165.2587598663
 51
171.9807283856
  0
ARC
  5
331
100
AcDbEntity
  8
0
100
AcDbCircle
 62
7
  6
BYLAYER
 10
103.1219801958
 20
102.8495623632
 40
40.5
100
AcDbArc
 50
188.0192716144
 51
194.7412401337
  0
ARC
  5
332
100
AcDbEntity
  8
0
100
AcDbCircle
 62
7
  6
BYLAYER
 10
103.1219801958
 20
102.8495623632
 40
40.5
100
AcDbArc
 50
142.7755999225
 51
163.216518864
  0
ARC
  5
333
100
AcDbEntity
  8
0
100
AcDbCircle
 62
7
  6
BYLAYER
 10
103.1219801958
 20
102.8495623632
 40
40.5
100
AcDbArc
 50
196.783481136
 51
217.2244000775
  0
CIRCLE
  5
334
100
AcDbEntity
  8
0
100
AcDbCircle
 62
7
  6
BYLAYER
 10
98.6219801958
 20
102.8495623632
 40
4.0
  0
ARC
  5
335
100
AcDbEntity
  8
0
100
AcDbCircle
 62
7
  6
BYLAYER
 10
115.1219801958
 20
116.3495623632
 40
4.0
100
AcDbArc
 50
0.0
 51
180.0
  0
ARC
  5
336
100
AcDbEntity
  8
0
100
AcDbCircle
 62
7
  6
BYLAYER
 10
130.1219801958
 20
127.3495623632
 40
1.5
100
AcDbArc
 50
0.0
 51
89.9999999828
  0
ARC
  5
337
100
AcDbEntity
  8
0
100
AcDbCircle
 62
7
  6
BYLAYER
 10
130.1219801958
 20
127.3495623632
 40
0.9999953767
100
AcDbArc
 50
359.9983332664
 51
90.0016669424
  0
CIRCLE
  5
338
100
AcDbEntity
  8
0
100
AcDbCircle
 62
7
  6
BYLAYER
 10
98.6219801958
 20
102.8495623632
 40
0.75
  0
SPLINE
  5
339
100
AcDbEntity
  8
0
100
AcDbSpline
 62
7
  6
BYLAYER
 70
0
 71
3
 72
23
 73
19
 74
0
 42
0.0000001
 43
0.0000001
 44
0.0000000001
 40
0.0
 40
0.0
 40
0.0
 40
0.0
 40
0.001284911
 40
0.0049320206
 40
0.0109608515
 40
0.0193583932
 40
0.0301078468
 40
0.0431913741
 40
0.0762637295
 40
0.1182287776
 40
0.1686599651
 40
0.2271207442
 40
0.2930364802
 40
0.3657262223
 40
0.4445049775
 40
0.6173325942
 40
0.8051049483
 40
1.0
 40
1.0
 40
1.0
 40
1.0
 10
49.6481607992
 20
116.0995623632
 30
0.0
 10
49.6476253261
 20
116.0995623628
 30
0.0
 10
49.647684635
 20
116.0964583794
 30
0.0
 10
49.646812824
 20
116.0929225659
 30
0.0
 10
49.6465503012
 20
116.0848380695
 30
0.0
 10
49.6459402528
 20
116.0746077299
 30
0.0
 10
49.6454696187
 20
116.0610895011
 30
0.0
 10
49.6447159158
 20
116.0374314982
 30
0.0
 10
49.6438716093
 20
116.000688112
 30
0.0
 10
49.6429243004
 20
115.9484214653
 30
0.0
 10
49.6420267296
 20
115.8855552224
 30
0.0
 10
49.6411805152
 20
115.8127123012
 30
0.0
 10
49.6403988588
 20
115.7305902049
 30
0.0
 10
49.6396878444
 20
115.6400005178
 30
0.0
 10
49.6388197232
 20
115.5048562222
 30
0.0
 10
49.6379867065
 20
115.3217515213
 30
0.0
 10
49.6373876182
 20
115.0902554706
 30
0.0
 10
49.6372521723
 20
114.930782824
 30
0.0
 10
49.6372521723
 20
114.8495623633
 30
0.0
  0
SPLINE
  5
33A
100
AcDbEntity
  8
0
100
AcDbSpline
 62
7
  6
BYLAYER
 70
0
 71
3
 72
23
 73
19
 74
0
 42
0.0000001
 43
0.0000001
 44
0.0000000001
 40
0.0
 40
0.0
 40
0.0
 40
0.0
 40
0.001284911
 40
0.0049320206
 40
0.0109608515
 40
0.0193583932
 40
0.0301078468
 40
0.0431913741
 40
0.0762637295
 40
0.1182287776
 40
0.1686599651
 40
0.2271207442
 40
0.2930364802
 40
0.3657262223
 40
0.4445049775
 40
0.6173325942
 40
0.8051049483
 40
1.0
 40
1.0
 40
1.0
 40
1.0
 10
49.6481607992
 20
92.0995623632
 30
0.0
 10
49.6476253261
 20
92.0995623628
 30
0.0
 10
49.647684635
 20
92.0964583794
 30
0.0
 10
49.646812824
 20
92.0929225659
 30
0.0
 10
49.6465503012
 20
92.0848380695
 30
0.0
 10
49.6459402528
 20
92.0746077299
 30
0.0
 10
49.6454696187
 20
92.0610895011
 30
0.0
 10
49.6447159158
 20
92.0374314982
 30
0.0
 10
49.6438716093
 20
92.000688112
 30
0.0
 10
49.6429243004
 20
91.9484214653
 30
0.0
 10
49.6420267296
 20
91.8855552224
 30
0.0
 10
49.6411805152
 20
91.8127123012
 30
0.0
 10
49.6403988588
 20
91.7305902049
 30
0.0
 10
49.6396878444
 20
91.6400005178
 30
0.0
 10
49.6388197232
 20
91.5048562222
 30
0.0
 10
49.6379867065
 20
91.3217515213
 30
0.0
 10
49.6373876182
 20
91.0902554706
 30
0.0
 10
49.6372521723
 20
90.930782824
 30
0.0
 10
49.6372521723
 20
90.8495623633
 30
0.0
  0
SPLINE
  5
33B
100
AcDbEntity
  8
0
100
AcDbSpline
 62
7
  6
BYLAYER
 70
0
 71
3
 72
23
 73
19
 74
0
 42
0.0000001
 43
0.0000001
 44
0.0000000001
 40
0.0
 40
0.0
 40
0.0
 40
0.0
 40
0.1948950512
 40
0.3826674025
 40
0.5554950192
 40
0.6342737749
 40
0.7069635179
 40
0.7728792545
 40
0.8313400335
 40
0.8817712215
 40
0.9237362701
 40
0.9568086253
 40
0.9698921526
 40
0.9806416065
 40
0.9890391485
 40
0.9950679797
 40
0.9987150893
 40
1.0
 40
1.0
 40
1.0
 40
1.0
 10
49.6372521723
 20
114.8495623633
 30
0.0
 10
49.6372521723
 20
114.7683419027
 30
0.0
 10
49.6373876182
 20
114.6088692575
 30
0.0
 10
49.6379867065
 20
114.3773732082
 30
0.0
 10
49.6388197231
 20
114.1942685083
 30
0.0
 10
49.6396878444
 20
114.059124212
 30
0.0
 10
49.6403988588
 20
113.9685345241
 30
0.0
 10
49.6411805151
 20
113.8864124271
 30
0.0
 10
49.6420267296
 20
113.8135695055
 30
0.0
 10
49.6429243004
 20
113.7507032622
 30
0.0
 10
49.6438716092
 20
113.6984366153
 30
0.0
 10
49.6447159158
 20
113.6616932288
 30
0.0
 10
49.6454696187
 20
113.6380352261
 30
0.0
 10
49.6459402528
 20
113.6245169968
 30
0.0
 10
49.6465503012
 20
113.6142866573
 30
0.0
 10
49.6468128241
 20
113.6062021596
 30
0.0
 10
49.6476846348
 20
113.6026663478
 30
0.0
 10
49.6476253262
 20
113.5995623628
 30
0.0
 10
49.6481607992
 20
113.5995623632
 30
0.0
  0
SPLINE
  5
33C
100
AcDbEntity
  8
0
100
AcDbSpline
 62
7
  6
BYLAYER
 70
0
 71
3
 72
23
 73
19
 74
0
 42
0.0000001
 43
0.0000001
 44
0.0000000001
 40
0.0
 40
0.0
 40
0.0
 40
0.0
 40
0.1948950512
 40
0.3826674025
 40
0.5554950192
 40
0.6342737749
 40
0.7069635179
 40
0.7728792545
 40
0.8313400335
 40
0.8817712215
 40
0.9237362701
 40
0.9568086253
 40
0.9698921526
 40
0.9806416065
 40
0.9890391485
 40
0.9950679797
 40
0.9987150893
 40
1.0
 40
1.0
 40
1.0
 40
1.0
 10
49.6372521723
 20
90.8495623633
 30
0.0
 10
49.6372521723
 20
90.7683419027
 30
0.0
 10
49.6373876182
 20
90.6088692575
 30
0.0
 10
49.6379867065
 20
90.3773732082
 30
0.0
 10
49.6388197231
 20
90.1942685083
 30
0.0
 10
49.6396878444
 20
90.059124212
 30
0.0
 10
49.6403988588
 20
89.9685345241
 30
0.0
 10
49.6411805151
 20
89.8864124271
 30
0.0
 10
49.6420267296
 20
89.8135695055
 30
0.0
 10
49.6429243004
 20
89.7507032622
 30
0.0
 10
49.6438716092
 20
89.6984366153
 30
0.0
 10
49.6447159158
 20
89.6616932288
 30
0.0
 10
49.6454696187
 20
89.6380352261
 30
0.0
 10
49.6459402528
 20
89.6245169968
 30
0.0
 10
49.6465503012
 20
89.6142866573
 30
0.0
 10
49.6468128241
 20
89.6062021596
 30
0.0
 10
49.6476846348
 20
89.6026663478
 30
0.0
 10
49.6476253262
 20
89.5995623628
 30
0.0
 10
49.6481607992
 20
89.5995623632
 30
0.0
  0
SPLINE
  5
33D
100
AcDbEntity
  8
0
100
AcDbSpline
 62
7
  6
BYLAYER
 70
0
 71
3
 72
29
 73
25
 74
0
 42
0.0000001
 43
0.0000001
 44
0.0000000001
 40
0.0
 40
0.0
 40
0.0
 40
0.0
 40
0.0003685891
 40
0.0012794155
 40
0.0027670079
 40
0.0048361857
 40
0.0074877833
 40
0.0107215166
 40
0.0189322466
 40
0.0294574911
 40
0.0422715589
 40
0.0573448604
 40
0.074647596
 40
0.0941468036
 40
0.1157969466
 40
0.1653548636
 40
0.222907949
 40
0.2879502679
 40
0.3599333111
 40
0.4382316408
 40
0.5221818322
 40
0.6110460587
 40
0.8004676703
 40
1.0
 40
1.0
 40
1.0
 40
1.0
 10
107.6219801958
 20
84.3904746687
 30
0.0
 10
107.6219801958
 20
84.3917650086
 30
0.0
 10
107.6276172737
 20
84.3937169858
 30
0.0
 10
107.6358465609
 20
84.3955605388
 30
0.0
 10
107.6520282945
 20
84.3978387501
 30
0.0
 10
107.6733485877
 20
84.4000292584
 30
0.0
 10
107.7012207108
 20
84.4023088897
 30
0.0
 10
107.7504032773
 20
84.4055983217
 30
0.0
 10
107.8272530628
 20
84.4095334031
 30
0.0
 10
107.9375975107
 20
84.413978974
 30
0.0
 10
108.0720045556
 20
84.4184035433
 30
0.0
 10
108.2301416516
 20
84.4227914547
 30
0.0
 10
108.4116935083
 20
84.4271228576
 30
0.0
 10
108.6162755709
 20
84.4313846643
 30
0.0
 10
108.9337660596
 20
84.4372259043
 30
0.0
 10
109.3844752872
 20
84.4441314541
 30
0.0
 10
109.9870951494
 20
84.4516743987
 30
0.0
 10
110.6682305152
 20
84.4587242375
 30
0.0
 10
111.4219983432
 20
84.4652091942
 30
0.0
 10
112.2419648694
 20
84.4710721528
 30
0.0
 10
113.1210339182
 20
84.4762545865
 30
0.0
 10
114.389119051
 20
84.4823288231
 30
0.0
 10
116.0618353137
 20
84.487799295
 30
0.0
 10
117.4234666662
 20
84.4899234324
 30
0.0
 10
118.1219801958
 20
84.4904555206
 30
0.0
  0
SPLINE
  5
33E
100
AcDbEntity
  8
0
100
AcDbSpline
 62
7
  6
BYLAYER
 70
0
 71
3
 72
23
 73
19
 74
0
 42
0.0000001
 43
0.0000001
 44
0.0000000001
 40
0.0
 40
0.0
 40
0.0
 40
0.0
 40
0.0012596895
 40
0.0044332475
 40
0.0096277605
 40
0.0168569381
 40
0.02612222
 40
0.037421613
 40
0.0661086129
 40
0.1028716608
 40
0.147604217
 40
0.2001843074
 40
0.2604893132
 40
0.3283868671
 40
0.4037067733
 40
0.5758946003
 40
0.7754359549
 40
1.0
 40
1.0
 40
1.0
 40
1.0
 10
54.755501273
 20
97.1995623632
 30
0.0
 10
54.7547934738
 20
97.1995623632
 30
0.0
 10
54.7538197227
 20
97.2027802566
 30
0.0
 10
54.7528159652
 20
97.2073295481
 30
0.0
 10
54.7516420436
 20
97.2164406624
 30
0.0
 10
54.7504833584
 20
97.2283885372
 30
0.0
 10
54.7492910071
 20
97.2440317116
 30
0.0
 10
54.7475642621
 20
97.2716182957
 30
0.0
 10
54.7455034786
 20
97.3147171468
 30
0.0
 10
54.7431766912
 20
97.376574029
 30
0.0
 10
54.7408651521
 20
97.4518774847
 30
0.0
 10
54.7385769977
 20
97.5404097694
 30
0.0
 10
54.7363236681
 20
97.6419641967
 30
0.0
 10
54.7341125708
 20
97.7562988001
 30
0.0
 10
54.7310928493
 20
97.9334943791
 30
0.0
 10
54.7275437211
 20
98.1846594365
 30
0.0
 10
54.7237029141
 20
98.5196852116
 30
0.0
 10
54.7214633505
 20
98.7579728266
 30
0.0
 10
54.7203784407
 20
98.8841470716
 30
0.0
  0
SPLINE
  5
33F
100
AcDbEntity
  8
0
100
AcDbSpline
 62
7
  6
BYLAYER
 70
0
 71
3
 72
21
 73
17
 74
0
 42
0.0000001
 43
0.0000001
 44
0.0000000001
 40
0.0
 40
0.0
 40
0.0
 40
0.0
 40
0.01991815
 40
0.0553325513
 40
0.1050881922
 40
0.1675923841
 40
0.2408282326
 40
0.3224274108
 40
0.4999999647
 40
0.6775725275
 40
0.7591717143
 40
0.8324075756
 40
0.8949117813
 40
0.9446674332
 40
0.9800818448
 40
1.0
 40
1.0
 40
1.0
 40
1.0
 10
54.7203784407
 20
98.8841470716
 30
0.0
 10
54.716912526
 20
98.936692068
 30
0.0
 10
54.7130814606
 20
99.0829823881
 30
0.0
 10
54.7073798402
 20
99.3607210835
 30
0.0
 10
54.702660465
 20
99.7511293549
 30
0.0
 10
54.6982299922
 20
100.2415127579
 30
0.0
 10
54.6946906343
 20
100.8161015669
 30
0.0
 10
54.6910542213
 20
101.6949056376
 30
0.0
 10
54.6893619963
 20
102.8495621063
 30
0.0
 10
54.69105422
 20
104.0042185982
 30
0.0
 10
54.6946906325
 20
104.8830227491
 30
0.0
 10
54.69822999
 20
105.4576116513
 30
0.0
 10
54.7026604628
 20
105.9479951536
 30
0.0
 10
54.7073798378
 20
106.3384035179
 30
0.0
 10
54.7130814602
 20
106.6161422833
 30
0.0
 10
54.716912525
 20
106.7624326445
 30
0.0
 10
54.7203784407
 20
106.8149776546
 30
0.0
  0
SPLINE
  5
340
100
AcDbEntity
  8
0
100
AcDbSpline
 62
7
  6
BYLAYER
 70
0
 71
3
 72
23
 73
19
 74
0
 42
0.0000001
 43
0.0000001
 44
0.0000000001
 40
0.0
 40
0.0
 40
0.0
 40
0.0
 40
0.2245640451
 40
0.4241053996
 40
0.5962932267
 40
0.6716131329
 40
0.7395106868
 40
0.7998156926
 40
0.852395783
 40
0.8971283392
 40
0.9338913871
 40
0.962578387
 40
0.97387778
 40
0.9831430619
 40
0.9903722395
 40
0.9955667525
 40
0.9987403105
 40
1.0
 40
1.0
 40
1.0
 40
1.0
 10
54.7203784407
 20
106.8149776546
 30
0.0
 10
54.7214633505
 20
106.9411518996
 30
0.0
 10
54.7237029141
 20
107.1794395146
 30
0.0
 10
54.7275437211
 20
107.5144652898
 30
0.0
 10
54.7310928493
 20
107.7656303473
 30
0.0
 10
54.7341125708
 20
107.9428259263
 30
0.0
 10
54.7363236681
 20
108.0571605297
 30
0.0
 10
54.7385769977
 20
108.158714957
 30
0.0
 10
54.7408651521
 20
108.2472472417
 30
0.0
 10
54.7431766912
 20
108.3225506974
 30
0.0
 10
54.7455034786
 20
108.3844075797
 30
0.0
 10
54.7475642621
 20
108.4275064308
 30
0.0
 10
54.7492910071
 20
108.4550930149
 30
0.0
 10
54.7504833584
 20
108.4707361892
 30
0.0
 10
54.7516420436
 20
108.4826840641
 30
0.0
 10
54.7528159652
 20
108.4917951784
 30
0.0
 10
54.7538197227
 20
108.4963444699
 30
0.0
 10
54.7547934738
 20
108.4995623632
 30
0.0
 10
54.755501273
 20
108.4995623632
 30
0.0
  0
SPLINE
  5
341
100
AcDbEntity
  8
0
100
AcDbSpline
 62
7
  6
BYLAYER
 70
0
 71
3
 72
23
 73
19
 74
0
 42
0.0000001
 43
0.0000001
 44
0.0000000001
 40
0.0
 40
0.0
 40
0.0
 40
0.0
 40
0.001284911
 40
0.0049320206
 40
0.0109608515
 40
0.0193583932
 40
0.0301078468
 40
0.0431913741
 40
0.0762637295
 40
0.1182287776
 40
0.1686599651
 40
0.2271207442
 40
0.2930364802
 40
0.3657262223
 40
0.4445049775
 40
0.6173325942
 40
0.8051049484
 40
1.0
 40
1.0
 40
1.0
 40
1.0
 10
49.6481607992
 20
89.5995623632
 30
0.0
 10
49.6486962723
 20
89.5995623636
 30
0.0
 10
49.6486369634
 20
89.602666347
 30
0.0
 10
49.6495087744
 20
89.6062021606
 30
0.0
 10
49.6497712972
 20
89.614286657
 30
0.0
 10
49.6503813456
 20
89.6245169966
 30
0.0
 10
49.6508519797
 20
89.6380352254
 30
0.0
 10
49.6516056826
 20
89.6616932282
 30
0.0
 10
49.6524499891
 20
89.6984366145
 30
0.0
 10
49.653397298
 20
89.7507032612
 30
0.0
 10
49.6542948688
 20
89.8135695041
 30
0.0
 10
49.6551410832
 20
89.8864124253
 30
0.0
 10
49.6559227396
 20
89.9685345216
 30
0.0
 10
49.656633754
 20
90.0591242087
 30
0.0
 10
49.6575018752
 20
90.1942685044
 30
0.0
 10
49.6583348919
 20
90.3773732053
 30
0.0
 10
49.6589339802
 20
90.6088692559
 30
0.0
 10
49.6590694261
 20
90.7683419025
 30
0.0
 10
49.6590694261
 20
90.8495623633
 30
0.0
  0
SPLINE
  5
342
100
AcDbEntity
  8
0
100
AcDbSpline
 62
7
  6
BYLAYER
 70
0
 71
3
 72
23
 73
19
 74
0
 42
0.0000001
 43
0.0000001
 44
0.0000000001
 40
0.0
 40
0.0
 40
0.0
 40
0.0
 40
0.1948950512
 40
0.3826674025
 40
0.5554950192
 40
0.6342737749
 40
0.7069635179
 40
0.7728792545
 40
0.8313400335
 40
0.8817712215
 40
0.9237362701
 40
0.9568086253
 40
0.9698921526
 40
0.9806416065
 40
0.9890391485
 40
0.9950679797
 40
0.9987150893
 40
1.0
 40
1.0
 40
1.0
 40
1.0
 10
49.6590694261
 20
114.8495623633
 30
0.0
 10
49.6590694261
 20
114.9307828238
 30
0.0
 10
49.6589339802
 20
115.090255469
 30
0.0
 10
49.6583348919
 20
115.3217515183
 30
0.0
 10
49.6575018753
 20
115.5048562182
 30
0.0
 10
49.656633754
 20
115.6400005145
 30
0.0
 10
49.6559227396
 20
115.7305902024
 30
0.0
 10
49.6551410833
 20
115.8127122994
 30
0.0
 10
49.6542948688
 20
115.885555221
 30
0.0
 10
49.6533972981
 20
115.9484214642
 30
0.0
 10
49.6524499892
 20
116.0006881112
 30
0.0
 10
49.6516056826
 20
116.0374314976
 30
0.0
 10
49.6508519797
 20
116.0610895004
 30
0.0
 10
49.6503813456
 20
116.0746077296
 30
0.0
 10
49.6497712972
 20
116.0848380692
 30
0.0
 10
49.6495087743
 20
116.0929225669
 30
0.0
 10
49.6486369636
 20
116.0964583787
 30
0.0
 10
49.6486962722
 20
116.0995623636
 30
0.0
 10
49.6481607992
 20
116.0995623632
 30
0.0
  0
SPLINE
  5
343
100
AcDbEntity
  8
0
100
AcDbSpline
 62
7
  6
BYLAYER
 70
0
 71
3
 72
23
 73
19
 74
0
 42
0.0000001
 43
0.0000001
 44
0.0000000001
 40
0.0
 40
0.0
 40
0.0
 40
0.0
 40
0.1948950512
 40
0.3826674025
 40
0.5554950192
 40
0.6342737749
 40
0.7069635179
 40
0.7728792545
 40
0.8313400335
 40
0.8817712215
 40
0.9237362701
 40
0.9568086253
 40
0.9698921526
 40
0.9806416065
 40
0.9890391485
 40
0.9950679797
 40
0.9987150893
 40
1.0
 40
1.0
 40
1.0
 40
1.0
 10
49.6590694261
 20
90.8495623633
 30
0.0
 10
49.6590694261
 20
90.9307828238
 30
0.0
 10
49.6589339802
 20
91.090255469
 30
0.0
 10
49.6583348919
 20
91.3217515183
 30
0.0
 10
49.6575018753
 20
91.5048562182
 30
0.0
 10
49.656633754
 20
91.6400005145
 30
0.0
 10
49.6559227396
 20
91.7305902024
 30
0.0
 10
49.6551410833
 20
91.8127122994
 30
0.0
 10
49.6542948688
 20
91.885555221
 30
0.0
 10
49.6533972981
 20
91.9484214642
 30
0.0
 10
49.6524499892
 20
92.0006881112
 30
0.0
 10
49.6516056826
 20
92.0374314976
 30
0.0
 10
49.6508519797
 20
92.0610895004
 30
0.0
 10
49.6503813456
 20
92.0746077296
 30
0.0
 10
49.6497712972
 20
92.0848380692
 30
0.0
 10
49.6495087743
 20
92.0929225669
 30
0.0
 10
49.6486369636
 20
92.0964583787
 30
0.0
 10
49.6486962722
 20
92.0995623636
 30
0.0
 10
49.6481607992
 20
92.0995623632
 30
0.0
  0
SPLINE
  5
344
100
AcDbEntity
  8
0
100
AcDbSpline
 62
7
  6
BYLAYER
 70
0
 71
3
 72
23
 73
19
 74
0
 42
0.0000001
 43
0.0000001
 44
0.0000000001
 40
0.0
 40
0.0
 40
0.0
 40
0.0
 40
0.001284911
 40
0.0049320206
 40
0.0109608515
 40
0.0193583932
 40
0.0301078468
 40
0.0431913741
 40
0.0762637295
 40
0.1182287776
 40
0.1686599651
 40
0.2271207442
 40
0.2930364802
 40
0.3657262223
 40
0.4445049775
 40
0.6173325942
 40
0.8051049484
 40
1.0
 40
1.0
 40
1.0
 40
1.0
 10
49.6481607992
 20
113.5995623632
 30
0.0
 10
49.6486962723
 20
113.5995623636
 30
0.0
 10
49.6486369634
 20
113.602666347
 30
0.0
 10
49.6495087744
 20
113.6062021606
 30
0.0
 10
49.6497712972
 20
113.614286657
 30
0.0
 10
49.6503813456
 20
113.6245169966
 30
0.0
 10
49.6508519797
 20
113.6380352254
 30
0.0
 10
49.6516056826
 20
113.6616932282
 30
0.0
 10
49.6524499891
 20
113.6984366145
 30
0.0
 10
49.653397298
 20
113.7507032612
 30
0.0
 10
49.6542948688
 20
113.8135695041
 30
0.0
 10
49.6551410832
 20
113.8864124253
 30
0.0
 10
49.6559227396
 20
113.9685345216
 30
0.0
 10
49.656633754
 20
114.0591242087
 30
0.0
 10
49.6575018752
 20
114.1942685044
 30
0.0
 10
49.6583348919
 20
114.3773732053
 30
0.0
 10
49.6589339802
 20
114.6088692559
 30
0.0
 10
49.6590694261
 20
114.7683419025
 30
0.0
 10
49.6590694261
 20
114.8495623633
 30
0.0
  0
SPLINE
  5
345
100
AcDbEntity
  8
0
100
AcDbSpline
 62
7
  6
BYLAYER
 70
0
 71
3
 72
10
 73
6
 74
0
 42
0.0000001
 43
0.0000001
 44
0.0000000001
 40
0.0
 40
0.0
 40
0.0
 40
0.0
 40
0.5678298798
 40
0.8070858253
 40
1.0
 40
1.0
 40
1.0
 40
1.0
 10
120.1219801958
 20
121.20866938
 30
0.0
 10
121.7466355547
 20
121.2099069507
 30
0.0
 10
124.0558464686
 20
121.2155954728
 30
0.0
 10
126.9169568524
 20
121.2338016276
 30
0.0
 10
128.1534141385
 20
121.2459117439
 30
0.0
 10
128.7053259504
 20
121.2531728326
 30
0.0
  0
SPLINE
  5
346
100
AcDbEntity
  8
0
100
AcDbSpline
 62
7
  6
BYLAYER
 70
0
 71
3
 72
10
 73
6
 74
0
 42
0.0000001
 43
0.0000001
 44
0.0000000001
 40
0.0
 40
0.0
 40
0.0
 40
0.0
 40
0.5337678575
 40
0.8174708635
 40
1.0
 40
1.0
 40
1.0
 40
1.0
 10
128.7053259504
 20
121.2531728326
 30
0.0
 10
128.8625440103
 20
121.2552412325
 30
0.0
 10
129.1033606218
 20
121.2554610818
 30
0.0
 10
129.3979206007
 20
121.2544942481
 30
0.0
 10
129.5352640289
 20
121.2535478655
 30
0.0
 10
129.5890174738
 20
121.2523188049
 30
0.0
  0
SPLINE
  5
347
100
AcDbEntity
  8
0
100
AcDbSpline
 62
7
  6
BYLAYER
 70
0
 71
3
 72
13
 73
9
 74
0
 42
0.0000001
 43
0.0000001
 44
0.0000000001
 40
0.0
 40
0.0
 40
0.0
 40
0.0
 40
0.433538808
 40
0.7459108904
 40
0.8560302843
 40
0.9351221867
 40
0.9830102429
 40
1.0
 40
1.0
 40
1.0
 40
1.0
 10
129.5890174738
 20
121.2523188049
 30
0.0
 10
129.5937904273
 20
121.2522096724
 30
0.0
 10
129.6019707429
 20
121.2519875816
 30
0.0
 10
129.6114793348
 20
121.2516936307
 30
0.0
 10
129.6168803601
 20
121.2513634347
 30
0.0
 10
129.6196761317
 20
121.2512506888
 30
0.0
 10
129.6209103204
 20
121.250951838
 30
0.0
 10
129.6219801958
 20
121.2509476787
 30
0.0
 10
129.6219801958
 20
121.2507605847
 30
0.0
  0
SPLINE
  5
348
100
AcDbEntity
  8
0
100
AcDbSpline
 62
7
  6
BYLAYER
 70
0
 71
3
 72
10
 73
6
 74
0
 42
0.0000001
 43
0.0000001
 44
0.0000000001
 40
0.0
 40
0.0
 40
0.0
 40
0.0
 40
0.5329855415
 40
0.8166735385
 40
1.0
 40
1.0
 40
1.0
 40
1.0
 10
128.7053256371
 20
84.4459518972
 30
0.0
 10
128.8621640276
 20
84.4438884925
 30
0.0
 10
129.1025168944
 20
84.4436683779
 30
0.0
 10
129.3967971423
 20
84.4446204289
 30
0.0
 10
129.5342399009
 20
84.4455706388
 30
0.0
 10
129.5881772129
 20
84.4467869018
 30
0.0
  0
SPLINE
  5
349
100
AcDbEntity
  8
0
100
AcDbSpline
 62
7
  6
BYLAYER
 70
0
 71
3
 72
13
 73
9
 74
0
 42
0.0000001
 43
0.0000001
 44
0.0000000001
 40
0.0
 40
0.0
 40
0.0
 40
0.0
 40
0.4334466798
 40
0.7458430862
 40
0.8559942389
 40
0.9351176369
 40
0.9830253915
 40
1.0
 40
1.0
 40
1.0
 40
1.0
 10
129.5881772129
 20
84.4467869018
 30
0.0
 10
129.5930705546
 20
84.4468972445
 30
0.0
 10
129.6014580905
 20
84.4471223405
 30
0.0
 10
129.6112086732
 20
84.4474185902
 30
0.0
 10
129.6167476567
 20
84.4477545079
 30
0.0
 10
129.6196166515
 20
84.4478659589
 30
0.0
 10
129.6208810727
 20
84.4481733995
 30
0.0
 10
129.6219801958
 20
84.4481724586
 30
0.0
 10
129.6219801958
 20
84.44836414
 30
0.0
  0
SPLINE
  5
34A
100
AcDbEntity
  8
0
100
AcDbSpline
 62
7
  6
BYLAYER
 70
0
 71
3
 72
10
 73
6
 74
0
 42
0.0000001
 43
0.0000001
 44
0.0000000001
 40
0.0
 40
0.0
 40
0.0
 40
0.0
 40
0.5678293296
 40
0.8070860497
 40
1.0
 40
1.0
 40
1.0
 40
1.0
 10
120.1219801958
 20
84.4904553464
 30
0.0
 10
121.7466339211
 20
84.4892177771
 30
0.0
 10
124.0558453912
 20
84.483528979
 30
0.0
 10
126.9169556726
 20
84.4653231625
 30
0.0
 10
128.1534144873
 20
84.4532129773
 30
0.0
 10
128.7053256371
 20
84.4459518972
 30
0.0
  0
LINE
  5
34B
100
AcDbEntity
  8
0
100
AcDbLine
 62
7
  6
BYLAYER
 10
53.5241031139
 20
94.8913617085
 11
53.5243711261
 21
94.9072829305
  0
SPLINE
  5
34C
100
AcDbEntity
  8
0
100
AcDbSpline
 62
7
  6
BYLAYER
 70
0
 71
3
 72
13
 73
9
 74
0
 42
0.0000001
 43
0.0000001
 44
0.0000000001
 40
0.0
 40
0.0
 40
0.0
 40
0.0
 40
0.0886136978
 40
0.207604276
 40
0.4999999997
 40
0.7923957237
 40
0.911386302
 40
1.0
 40
1.0
 40
1.0
 40
1.0
 10
53.5243711261
 20
94.9072829305
 30
0.0
 10
53.5322310156
 20
95.3764235102
 30
0.0
 10
53.5443314979
 20
96.4756266924
 30
0.0
 10
53.562112291
 20
99.1230499168
 30
0.0
 10
53.5694695948
 20
102.849562361
 30
0.0
 10
53.562112291
 20
106.5760748059
 30
0.0
 10
53.5443314978
 20
109.2234980332
 30
0.0
 10
53.5322310157
 20
110.3227012171
 30
0.0
 10
53.5243711261
 20
110.7918417978
 30
0.0
  0
LINE
  5
34D
100
AcDbEntity
  8
0
100
AcDbLine
 62
7
  6
BYLAYER
 10
53.5243711261
 20
110.7918417978
 11
53.5241031139
 21
110.807763018
  0
SPLINE
  5
34E
100
AcDbEntity
  8
0
100
AcDbSpline
 62
7
  6
BYLAYER
 70
0
 71
3
 72
23
 73
19
 74
0
 42
0.0000001
 43
0.0000001
 44
0.0000000001
 40
0.0
 40
0.0
 40
0.0
 40
0.0
 40
0.0012596661
 40
0.0044331419
 40
0.0096275197
 40
0.0168565129
 40
0.026121565
 40
0.0374206863
 40
0.0661070313
 40
0.1028693218
 40
0.1476011157
 40
0.2001805358
 40
0.2604850607
 40
0.3283824076
 40
0.4037024058
 40
0.5758913455
 40
0.7754347196
 40
1.0
 40
1.0
 40
1.0
 40
1.0
 10
68.991077179
 20
97.1995623632
 30
0.0
 10
68.991784965
 20
97.1995623632
 30
0.0
 10
68.9927587412
 20
97.2027801454
 30
0.0
 10
68.993762482
 20
97.2073293432
 30
0.0
 10
68.9949364154
 20
97.2164402049
 30
0.0
 10
68.9960950974
 20
97.2283877802
 30
0.0
 10
68.997287452
 20
97.2440305639
 30
0.0
 10
68.9990141993
 20
97.2716164986
 30
0.0
 10
69.0010749882
 20
97.3147144011
 30
0.0
 10
69.0034017818
 20
97.3765700608
 30
0.0
 10
69.0057133265
 20
97.4518722852
 30
0.0
 10
69.0080014861
 20
97.5404034942
 30
0.0
 10
69.0102548199
 20
97.641957158
 30
0.0
 10
69.0124659196
 20
97.7562914265
 30
0.0
 10
69.0154856478
 20
97.933487566
 30
0.0
 10
69.0190347684
 20
98.1846544353
 30
0.0
 10
69.0228755352
 20
98.519682665
 30
0.0
 10
69.0251150953
 20
98.7579721088
 30
0.0
 10
69.0262000111
 20
98.8841470478
 30
0.0
  0
SPLINE
  5
34F
100
AcDbEntity
  8
0
100
AcDbSpline
 62
7
  6
BYLAYER
 70
0
 71
3
 72
29
 73
25
 74
0
 42
0.0000001
 43
0.0000001
 44
0.0000000001
 40
0.0
 40
0.0
 40
0.0
 40
0.0
 40
0.0003685961
 40
0.0012794473
 40
0.0027670803
 40
0.0048363129
 40
0.0074879786
 40
0.0107217917
 40
0.0189327115
 40
0.0294581158
 40
0.0422722639
 40
0.057345591
 40
0.0746483223
 40
0.0941474546
 40
0.115797428
 40
0.1653549367
 40
0.2229076696
 40
0.2879497151
 40
0.3599326664
 40
0.4382310362
 40
0.5221814388
 40
0.6110460605
 40
0.8004681146
 40
1.0
 40
1.0
 40
1.0
 40
1.0
 10
107.6219801958
 20
121.3086500609
 30
0.0
 10
107.6219801958
 20
121.3073596963
 30
0.0
 10
107.6276174823
 20
121.3054077595
 30
0.0
 10
107.6358469479
 20
121.3035641836
 30
0.0
 10
107.6520291525
 20
121.3012859949
 30
0.0
 10
107.6733500021
 20
121.2990954881
 30
0.0
 10
107.7012228453
 20
121.2968158701
 30
0.0
 10
107.7504065936
 20
121.2935264559
 30
0.0
 10
107.8272578883
 20
121.289591419
 30
0.0
 10
107.9376038422
 20
121.2851458692
 30
0.0
 10
108.0720118177
 20
121.2807212963
 30
0.0
 10
108.2301492684
 20
121.2763333767
 30
0.0
 10
108.4117009344
 20
121.2720019674
 30
0.0
 10
108.616282123
 20
121.2677401436
 30
0.0
 10
108.9337703226
 20
121.2618988616
 30
0.0
 10
109.3844762901
 20
121.2549932556
 30
0.0
 10
109.9870925282
 20
121.2474502462
 30
0.0
 10
110.6682253774
 20
121.2404003255
 30
0.0
 10
111.4219920632
 20
121.23391531
 30
0.0
 10
112.2419591434
 20
121.228052293
 30
0.0
 10
113.1210304514
 20
121.2228698337
 30
0.0
 10
114.3891192508
 20
121.2167956184
 30
0.0
 10
116.0618368841
 20
121.2113253001
 30
0.0
 10
117.4234682245
 20
121.2092012929
 30
0.0
 10
118.1219801958
 20
121.2086692059
 30
0.0
  0
SPLINE
  5
350
100
AcDbEntity
  8
0
100
AcDbSpline
 62
7
  6
BYLAYER
 70
0
 71
3
 72
21
 73
17
 74
0
 42
0.0000001
 43
0.0000001
 44
0.0000000001
 40
0.0
 40
0.0
 40
0.0
 40
0.0
 40
0.0199179031
 40
0.0553321256
 40
0.1050874366
 40
0.1675907683
 40
0.2408261626
 40
0.3224255662
 40
0.5000000015
 40
0.6775744364
 40
0.7591738397
 40
0.8324092334
 40
0.8949125645
 40
0.9446678751
 40
0.9800820972
 40
1.0
 40
1.0
 40
1.0
 40
1.0
 10
69.0262000111
 20
98.8841470478
 30
0.0
 10
69.0296658829
 20
98.9366913932
 30
0.0
 10
69.0334969701
 20
99.0829805869
 30
0.0
 10
69.0391983807
 20
99.3607172908
 30
0.0
 10
69.0439178235
 20
99.7511219432
 30
0.0
 10
69.0483483998
 20
100.2415010012
 30
0.0
 10
69.0518878702
 20
100.8160869339
 30
0.0
 10
69.0555244335
 20
101.6948953787
 30
0.0
 10
69.0572167577
 20
102.8495623742
 30
0.0
 10
69.0555244335
 20
104.0042293687
 30
0.0
 10
69.0518878701
 20
104.8830378101
 30
0.0
 10
69.0483483997
 20
105.4576237387
 30
0.0
 10
69.0439178234
 20
105.9480027924
 30
0.0
 10
69.0391983806
 20
106.3384074409
 30
0.0
 10
69.0334969701
 20
106.6161441419
 30
0.0
 10
69.0296658828
 20
106.7624333339
 30
0.0
 10
69.0262000111
 20
106.8149776787
 30
0.0
  0
SPLINE
  5
351
100
AcDbEntity
  8
0
100
AcDbSpline
 62
7
  6
BYLAYER
 70
0
 71
3
 72
23
 73
19
 74
0
 42
0.0000001
 43
0.0000001
 44
0.0000000001
 40
0.0
 40
0.0
 40
0.0
 40
0.0
 40
0.2245652804
 40
0.4241086545
 40
0.5962975942
 40
0.6716175924
 40
0.7395149393
 40
0.7998194642
 40
0.8523988843
 40
0.8971306782
 40
0.9338929687
 40
0.9625793137
 40
0.973878435
 40
0.9831434871
 40
0.9903724803
 40
0.9955668581
 40
0.9987403339
 40
1.0
 40
1.0
 40
1.0
 40
1.0
 10
69.0262000111
 20
106.8149776787
 30
0.0
 10
69.0251150953
 20
106.9411526177
 30
0.0
 10
69.0228755352
 20
107.1794420615
 30
0.0
 10
69.0190347684
 20
107.5144702912
 30
0.0
 10
69.0154856478
 20
107.7656371605
 30
0.0
 10
69.0124659196
 20
107.9428333
 30
0.0
 10
69.0102548199
 20
108.0571675684
 30
0.0
 10
69.0080014861
 20
108.1587212323
 30
0.0
 10
69.0057133265
 20
108.2472524413
 30
0.0
 10
69.0034017818
 20
108.3225546656
 30
0.0
 10
69.0010749882
 20
108.3844103254
 30
0.0
 10
68.9990141993
 20
108.4275082278
 30
0.0
 10
68.997287452
 20
108.4550941626
 30
0.0
 10
68.9960950974
 20
108.4707369463
 30
0.0
 10
68.9949364154
 20
108.4826845216
 30
0.0
 10
68.993762482
 20
108.4917953833
 30
0.0
 10
68.9927587412
 20
108.496344581
 30
0.0
 10
68.991784965
 20
108.4995623632
 30
0.0
 10
68.991077179
 20
108.4995623632
 30
0.0
  0
SPLINE
  5
352
100
AcDbEntity
  8
0
100
AcDbSpline
 62
7
  6
BYLAYER
 70
0
 71
3
 72
51
 73
47
 74
0
 42
0.0000001
 43
0.0000001
 44
0.0000000001
 40
0.0
 40
0.0
 40
0.0
 40
0.0
 40
0.0001487135
 40
0.0005705018
 40
0.0012902811
 40
0.0023104713
 40
0.003631142
 40
0.0052517545
 40
0.0093895909
 40
0.0147144645
 40
0.0212114094
 40
0.0288646848
 40
0.0376582561
 40
0.0475711287
 40
0.0585771091
 40
0.0837619778
 40
0.1129721787
 40
0.1459244713
 40
0.182301172
 40
0.2217503454
 40
0.2638898356
 40
0.3083130156
 40
0.402271832
 40
0.5000010774
 40
0.597729908
 40
0.691687609
 40
0.7361101054
 40
0.7782490306
 40
0.8176977088
 40
0.8540742462
 40
0.8870264293
 40
0.9162368833
 40
0.9414219445
 40
0.9524281424
 40
0.9623411882
 40
0.9711348259
 40
0.9787882473
 40
0.9852853691
 40
0.9906103611
 40
0.9947482219
 40
0.996368842
 40
0.9976895186
 40
0.9987097134
 40
0.9994294958
 40
0.9998512859
 40
1.0
 40
1.0
 40
1.0
 40
1.0
 10
49.7528435687
 20
92.9886756027
 30
0.0
 10
49.7519563699
 20
92.9882644222
 30
0.0
 10
49.7493017298
 20
92.9931987519
 30
0.0
 10
49.7485282088
 20
93.0001168
 30
0.0
 10
49.7459641666
 20
93.015003197
 30
0.0
 10
49.7442079738
 20
93.0346674354
 30
0.0
 10
49.7420482945
 20
93.0607770849
 30
0.0
 10
49.7390975738
 20
93.1071614415
 30
0.0
 10
49.7354966802
 20
93.1799992685
 30
0.0
 10
49.7314762547
 20
93.2848438679
 30
0.0
 10
49.7274620853
 20
93.4128455558
 30
0.0
 10
49.7234923544
 20
93.5636557578
 30
0.0
 10
49.7195795037
 20
93.7369383339
 30
0.0
 10
49.7157377397
 20
93.9322714781
 30
0.0
 10
49.7104855175
 20
94.2353765454
 30
0.0
 10
49.7043107629
 20
94.6653708645
 30
0.0
 10
49.6976142997
 20
95.2396758327
 30
0.0
 10
49.6914208731
 20
95.8875808912
 30
0.0
 10
49.68579525
 20
96.6028186134
 30
0.0
 10
49.6807988956
 20
97.3784717806
 30
0.0
 10
49.676481572
 20
98.2070385473
 30
0.0
 10
49.6716018641
 20
99.3940290476
 30
0.0
 10
49.6675712371
 20
100.9465498351
 30
0.0
 10
49.6659618544
 20
102.8495808448
 30
0.0
 10
49.667571298
 20
104.7526045204
 30
0.0
 10
49.6716019023
 20
106.3051107515
 30
0.0
 10
49.6764815912
 20
107.4920857077
 30
0.0
 10
49.6807988069
 20
108.3206410085
 30
0.0
 10
49.6857951543
 20
109.0962861306
 30
0.0
 10
49.6914206259
 20
109.8115188035
 30
0.0
 10
49.6976140965
 20
110.4594237318
 30
0.0
 10
49.7043104295
 20
111.0337309113
 30
0.0
 10
49.7104852989
 20
111.4637295896
 30
0.0
 10
49.7157374836
 20
111.7668384924
 30
0.0
 10
49.7195792326
 20
111.9621746441
 30
0.0
 10
49.7234921586
 20
112.1354597548
 30
0.0
 10
49.7274619183
 20
112.2862725169
 30
0.0
 10
49.7314761246
 20
112.4142771061
 30
0.0
 10
49.7354965972
 20
112.5191238069
 30
0.0
 10
49.7390976275
 20
112.591962618
 30
0.0
 10
49.7420484096
 20
112.6383472201
 30
0.0
 10
49.7442081234
 20
112.6644569875
 30
0.0
 10
49.745964344
 20
112.6841213096
 30
0.0
 10
49.7485284048
 20
112.6990077756
 30
0.0
 10
49.7493019403
 20
112.7059258438
 30
0.0
 10
49.7519565826
 20
112.7108602029
 30
0.0
 10
49.7528437847
 20
112.7104490209
 30
0.0
  0
ELLIPSE
  5
353
100
AcDbEntity
  8
0
100
AcDbEllipse
 62
7
  6
BYLAYER
 10
71.1220563526
 20
86.49963852
 30
0.0
 11
1.4143212623
 21
1.4143212623
 31
0.0
 40
0.9999238505
 41
2.3562325664
 42
3.9269527408
  0
ELLIPSE
  5
354
100
AcDbEntity
  8
0
100
AcDbEllipse
 62
7
  6
BYLAYER
 10
70.9169749595
 20
86.2945571269
 30
0.0
 11
1.4143212623
 21
1.4143212623
 31
0.0
 40
0.9999238505
 41
2.3562325664
 42
3.9269527408
  0
ELLIPSE
  5
355
100
AcDbEntity
  8
0
100
AcDbEllipse
 62
7
  6
BYLAYER
 10
71.1220563526
 20
119.1994862065
 30
0.0
 11
-1.4143212623
 21
1.4143212623
 31
0.0
 40
0.9999238505
 41
-0.7853600872
 42
0.7853600872
  0
ELLIPSE
  5
356
100
AcDbEntity
  8
0
100
AcDbEllipse
 62
7
  6
BYLAYER
 10
70.9169749595
 20
119.4045675995
 30
0.0
 11
-1.4143212623
 21
1.4143212623
 31
0.0
 40
0.9999238505
 41
-0.7853600872
 42
0.7853600872
  0
ENDSEC
  0
SECTION
  2
OBJECTS
  0
DICTIONARY
  5
C
100
AcDbDictionary
280
0
281
1
  3
ACAD_GROUP
350
D
  3
ACAD_MLINESTYLE
350
17
  3
ACAD_LAYOUT
350
1A
  3
ACAD_PLOTSETTINGS
350
19
  3
ACAD_PLOTSTYLENAME
350
E
  0
DICTIONARY
  5
D
102
{ACAD_REACTORS
330
C
102
}
100
AcDbDictionary
280
0
281
1
  0
ACDBDICTIONARYWDFLT
  5
E
102
{ACAD_REACTORS
330
C
102
}
100
AcDbDictionary
281
1
  3
Normal
350
F
100
AcDbDictionaryWithDefault
340
F
  0
DICTIONARY
  5
17
102
{ACAD_REACTORS
330
C
102
}
100
AcDbDictionary
280
0
281
1
  3
Standard
350
18
  0
DICTIONARY
  5
19
102
{ACAD_REACTORS
330
C
102
}
100
AcDbDictionary
281
1
  0
DICTIONARY
  5
1A
102
{ACAD_REACTORS
330
C
102
}
100
AcDbDictionary
281
1
  3
Model
350
357
  3
Layout1
350
358
  0
ACDBPLACEHOLDER
  5
F
102
{ACAD_REACTORS
330
E
102
}
  0
MLINESTYLE
  5
18
102
{ACAD_REACTORS
330
17
102
}
100
AcDbMlineStyle
  2
STANDARD
 70
0
  3

 62
256
 51
90.0
 52
90.0
 71
2
 49
0.5
 62
256
  6
BYLAYER
 49
-0.5
 62
256
  6
BYLAYER
  0
LAYOUT
  5
357
102
{ACAD_REACTORS
330
1A
102
}
100
AcDbPlotSettings
  1

  2
none_device
  4

  6

 40
0.0
 41
0.0
 42
0.0
 43
0.0
 44
210.0
 45
297.0
 46
0.0
 47
0.0
 48
0.0
 49
0.0
140
0.0
141
0.0
142
1.0
143
1.0
 70
1024
 72
1
 73
0
 74
0
  7

 75
0
147
1.0
148
0.0
149
0.0
100
AcDbLayout
  1
Model
 70
0
 71
0
 10
0.0
 20
0.0
 11
210.0
 21
297.0
 12
0.0
 22
0.0
 32
0.0
 14
0.0
 24
0.0
 34
0.0
 15
0.0
 25
0.0
 35
0.0
146
0.0
 13
0.0
 23
0.0
 33
0.0
 16
1.0
 26
0.0
 36
0.0
 17
0.0
 27
1.0
 37
0.0
 76
0
330
210
345
0
346
0
  0
LAYOUT
  5
358
102
{ACAD_REACTORS
330
1A
102
}
100
AcDbPlotSettings
  1

  2
none_device
  4

  6

 40
0.0
 41
0.0
 42
0.0
 43
0.0
 44
210.0
 45
297.0
 46
0.0
 47
0.0
 48
0.0
 49
0.0
140
0.0
141
0.0
142
1.0
143
1.0
 70
0
 72
1
 73
0
 74
0
  7

 75
0
147
1.0
148
0.0
149
0.0
100
AcDbLayout
  1
Layout1
 70
0
 71
1
 10
0.0
 20
0.0
 11
210.0
 21
297.0
 12
0.0
 22
0.0
 32
0.0
 14
0.0
 24
0.0
 34
0.0
 15
0.0
 25
0.0
 35
0.0
146
0.0
 13
0.0
 23
0.0
 33
0.0
 16
1.0
 26
0.0
 36
0.0
 17
0.0
 27
1.0
 37
0.0
 76
0
330
211
345
0
346
0
  0
ENDSEC
  0
EOF
