999
DXF file: C:\Vinayak\New 2D genarating\updateCreo8 with 3dPdf\CAD\NSYCRN54150_3D-CAD\drw0001_5.dxf
999
Pro/ENGINEER 2021284 by Parametric Technology Corporation
  0
SECTION
  2
HEADER
  9
$ACADVER
  1
AC1024
  9
$DWGCODEPAGE
  3
ANSI_1252
  9
$EXTMAX
 10
423.8509568631
 20
599.4463532778
 30
0.0
  9
$EXTMIN
 10
0.0
 20
0.0
 30
0.0
  9
$LIMMIN
 10
0.0
 20
0.0
  9
$LIMMAX
 10
423.8509568631
 20
599.4463532778
  9
$VIEWCTR
 10
211.9254784315
 20
299.7231766389
  9
$VIEWSIZE
 40
599.4463532778
  9
$CLAYER
  8
0
  9
$LTSCALE
 40
39.075021547
  9
$CELTYPE
  6
BYLAYER
  9
$DIMSCALE
 40
1.0
  9
$DIMASZ
 40
5.0458447246
  9
$DIMEXO
 40
1.0
  9
$DIMDLI
 40
26.9972876143
  9
$DIMEXE
 40
1.0
  9
$DIMCEN
 40
6.394094435
  9
$DIMLFAC
 40
1.0
  9
$DIMBLK
  1
_FILLED
  9
$DIMALT
 70
0
  9
$DIMALTF
 40
0.0393700787
  9
$DIMTXT
 40
7.0641826144
  9
$DIMTOL
 70
1
  9
$DIMLIM
 70
0
  9
$DIMTFAC
 40
1.0
  9
$DIMTP
 40
0.01
  9
$DIMTM
 40
0.01
  9
$DIMGAP
 40
0.625
  9
$DIMDSEP
 70
46
  9
$AUNITS
 70
0
  9
$PDMODE
 70
3
  9
$PDSIZE
 40
0.3125
  9
$HANDSEED
  5
36E
  9
$TILEMODE
 70
1
  9
$MEASUREMENT
 70
1
  9
$INSUNITS
 70
4
  0
ENDSEC
  0
SECTION
  2
CLASSES
  0
CLASS
  1
ACDBDICTIONARYWDFLT
  2
AcDbDictionaryWithDefault
  3
AutoCAD 2000
 90
0
 91
1
280
0
281
0
  0
CLASS
  1
ACDBPLACEHOLDER
  2
AcDbPlaceHolder
  3
AutoCAD 2000
 90
0
 91
1
280
0
281
0
  0
CLASS
  1
LAYOUT
  2
AcDbLayout
  3
AutoCAD 2000
 90
0
 91
0
280
0
281
0
  0
ENDSEC
  0
SECTION
  2
TABLES
  0
TABLE
  2
VPORT
  5
8
100
AcDbSymbolTable
 70
2
  0
VPORT
  5
1F4
100
AcDbSymbolTableRecord
100
AcDbViewportTableRecord
  2
*ACTIVE
 70
0
 10
0.0
 20
0.0
 11
1.0
 21
1.0
 12
211.9254784315
 22
299.7231766389
 13
0.0
 23
0.0
 14
1.0
 24
1.0
 15
0.0
 25
0.0
 16
0.0
 26
0.0
 36
1.0
 17
0.0
 27
0.0
 37
0.0
 40
599.4463532778
 41
0.7070707071
 42
50.0
 43
0.0
 44
0.0
 50
0.0
 51
0.0
 71
0
 72
100
 73
1
 74
1
 75
0
 76
0
 77
0
 78
0
  0
ENDTAB
  0
TABLE
  2
LTYPE
  5
5
100
AcDbSymbolTable
 70
6
  0
LTYPE
  5
14
100
AcDbSymbolTableRecord
100
AcDbLinetypeTableRecord
  2
BYBLOCK
 70
0
  3

 72
65
 73
0
 40
0.0
  0
LTYPE
  5
15
100
AcDbSymbolTableRecord
100
AcDbLinetypeTableRecord
  2
BYLAYER
 70
0
  3

 72
65
 73
0
 40
0.0
  0
LTYPE
  5
16
100
AcDbSymbolTableRecord
100
AcDbLinetypeTableRecord
  2
CONTINUOUS
 70
64
  3
Solid line
 72
65
 73
0
 40
0.0
  0
LTYPE
  5
1F5
100
AcDbSymbolTableRecord
100
AcDbLinetypeTableRecord
  2
CENTER
 70
64
  3
____ _ ____ _ ____ _ ____ _ ____ _ ____ _ ____
 72
65
 73
4
 40
0.6
 49
0.375
 74
0
 49
-0.075
 74
0
 49
0.075
 74
0
 49
-0.075
 74
0
  0
LTYPE
  5
1F6
100
AcDbSymbolTableRecord
100
AcDbLinetypeTableRecord
  2
HIDDEN
 70
64
  3
- - - - - - - - - - - - - - - - - - - -
 72
65
 73
2
 40
0.2
 49
0.1
 74
0
 49
-0.1
 74
0
  0
LTYPE
  5
1F7
100
AcDbSymbolTableRecord
100
AcDbLinetypeTableRecord
  2
PHANTOM
 70
64
  3
_____ _ _ _____ _ _ _____ _ _ _____
 72
65
 73
6
 40
0.8
 49
0.45
 74
0
 49
-0.05
 74
0
 49
0.1
 74
0
 49
-0.05
 74
0
 49
0.1
 74
0
 49
-0.05
 74
0
  0
LTYPE
  5
1F8
100
AcDbSymbolTableRecord
100
AcDbLinetypeTableRecord
  2
DOT
 70
64
  3
. . . . . . . . . . . . . . . . . . . .
 72
65
 73
2
 40
0.2
 49
0.1
 74
0
 49
-0.1
 74
0
  0
LTYPE
  5
1F9
100
AcDbSymbolTableRecord
100
AcDbLinetypeTableRecord
  2
DASHED
 70
64
  3
- - - - - - - - - - - - - - - - - - - -
 72
65
 73
2
 40
0.2
 49
0.1
 74
0
 49
-0.1
 74
0
  0
ENDTAB
  0
TABLE
  2
LAYER
  5
2
100
AcDbSymbolTable
 70
36
  0
LAYER
  5
10
100
AcDbSymbolTableRecord
100
AcDbLayerTableRecord
  2
0
 70
0
 62
7
  6
CONTINUOUS
370
-3
390
F
  0
LAYER
  5
1FA
100
AcDbSymbolTableRecord
100
AcDbLayerTableRecord
  2
DEFAULT_1
 70
0
 62
7
  6
CENTER
370
-3
390
F
  0
LAYER
  5
1FB
100
AcDbSymbolTableRecord
100
AcDbLayerTableRecord
  2
DEFAULT_2
 70
0
 62
8
  6
HIDDEN
370
-3
390
F
  0
LAYER
  5
1FC
100
AcDbSymbolTableRecord
100
AcDbLayerTableRecord
  2
DEFAULT_3
 70
0
 62
7
  6
PHANTOM
370
-3
390
F
  0
LAYER
  5
1FD
100
AcDbSymbolTableRecord
100
AcDbLayerTableRecord
  2
00_COMPONENTS
 70
0
 62
7
  6
CONTINUOUS
370
-3
390
F
  0
LAYER
  5
1FE
100
AcDbSymbolTableRecord
100
AcDbLayerTableRecord
  2
00_COMPONENTS_11
 70
0
 62
7
  6
CONTINUOUS
370
-3
390
F
  0
LAYER
  5
1FF
100
AcDbSymbolTableRecord
100
AcDbLayerTableRecord
  2
01_1_DEFAULT_DATUMS
 70
0
 62
7
  6
CONTINUOUS
370
-3
390
F
  0
LAYER
  5
200
100
AcDbSymbolTableRecord
100
AcDbLayerTableRecord
  2
01_PLANES
 70
0
 62
7
  6
CONTINUOUS
370
-3
390
F
  0
LAYER
  5
201
100
AcDbSymbolTableRecord
100
AcDbLayerTableRecord
  2
02_COORD_SYS
 70
0
 62
7
  6
CONTINUOUS
370
-3
390
F
  0
LAYER
  5
202
100
AcDbSymbolTableRecord
100
AcDbLayerTableRecord
  2
03_AXES
 70
0
 62
7
  6
CONTINUOUS
370
-3
390
F
  0
LAYER
  5
203
100
AcDbSymbolTableRecord
100
AcDbLayerTableRecord
  2
04_POINTS
 70
0
 62
7
  6
CONTINUOUS
370
-3
390
F
  0
LAYER
  5
204
100
AcDbSymbolTableRecord
100
AcDbLayerTableRecord
  2
05_CURVES
 70
0
 62
7
  6
CONTINUOUS
370
-3
390
F
  0
LAYER
  5
205
100
AcDbSymbolTableRecord
100
AcDbLayerTableRecord
  2
06_SURFS
 70
0
 62
7
  6
CONTINUOUS
370
-3
390
F
  0
LAYER
  5
206
100
AcDbSymbolTableRecord
100
AcDbLayerTableRecord
  2
07_COSMETICS
 70
0
 62
7
  6
CONTINUOUS
370
-3
390
F
  0
LAYER
  5
207
100
AcDbSymbolTableRecord
100
AcDbLayerTableRecord
  2
10_NOTES
 70
0
 62
7
  6
CONTINUOUS
370
-3
390
F
  0
LAYER
  5
208
100
AcDbSymbolTableRecord
100
AcDbLayerTableRecord
  2
11_NOTES_PUB
 70
0
 62
7
  6
CONTINUOUS
370
-3
390
F
  0
LAYER
  5
209
100
AcDbSymbolTableRecord
100
AcDbLayerTableRecord
  2
13_REF_GTOL
 70
0
 62
7
  6
CONTINUOUS
370
-3
390
F
  0
LAYER
  5
20A
100
AcDbSymbolTableRecord
100
AcDbLayerTableRecord
  2
16_MISC
 70
0
 62
7
  6
CONTINUOUS
370
-3
390
F
  0
LAYER
  5
20B
100
AcDbSymbolTableRecord
100
AcDbLayerTableRecord
  2
17_NO_PRINT
 70
0
 62
7
  6
CONTINUOUS
370
-3
390
F
  0
LAYER
  5
20C
100
AcDbSymbolTableRecord
100
AcDbLayerTableRecord
  2
18_DATUM_CAMS_JOINTS
 70
0
 62
7
  6
CONTINUOUS
370
-3
390
F
  0
LAYER
  5
20D
100
AcDbSymbolTableRecord
100
AcDbLayerTableRecord
  2
19_DATUM_FUNCTIONAL
 70
0
 62
7
  6
CONTINUOUS
370
-3
390
F
  0
LAYER
  5
20E
100
AcDbSymbolTableRecord
100
AcDbLayerTableRecord
  2
20_DATUM_KINEMATIC_SCHEME
 70
0
 62
7
  6
CONTINUOUS
370
-3
390
F
  0
LAYER
  5
20F
100
AcDbSymbolTableRecord
100
AcDbLayerTableRecord
  2
PART
 70
0
 62
7
  6
CONTINUOUS
370
-3
390
F
  0
LAYER
  5
210
100
AcDbSymbolTableRecord
100
AcDbLayerTableRecord
  2
PART_1
 70
0
 62
7
  6
CONTINUOUS
370
-3
390
F
  0
ENDTAB
  0
TABLE
  2
STYLE
  5
3
100
AcDbSymbolTable
 70
1
  0
STYLE
  5
11
100
AcDbSymbolTableRecord
100
AcDbTextStyleTableRecord
  2
STANDARD
 70
0
 40
0.0
 41
0.8
 50
0.0
 71
0
 42
0.2
  3
txt
  4

  0
STYLE
  5
211
100
AcDbSymbolTableRecord
100
AcDbTextStyleTableRecord
  2
TEXTSTYLE_1
 70
0
 40
0.0
 41
0.8
 50
0.0
 71
0
 42
0.2
  3
gdt
  4

  0
ENDTAB
  0
TABLE
  2
VIEW
  5
6
100
AcDbSymbolTable
 70
0
  0
ENDTAB
  0
TABLE
  2
UCS
  5
7
100
AcDbSymbolTable
 70
0
  0
ENDTAB
  0
TABLE
  2
APPID
  5
9
100
AcDbSymbolTable
 70
1
  0
APPID
  5
212
100
AcDbSymbolTableRecord
100
AcDbRegAppTableRecord
  2
ACAD
 70
0
  0
ENDTAB
  0
TABLE
  2
BLOCK_RECORD
  5
1
100
AcDbSymbolTable
 70
0
  0
BLOCK_RECORD
  5
213
100
AcDbSymbolTableRecord
100
AcDbBlockTableRecord
  2
*Model_Space
  0
BLOCK_RECORD
  5
214
100
AcDbSymbolTableRecord
100
AcDbBlockTableRecord
  2
*Paper_Space
  0
BLOCK_RECORD
  5
215
100
AcDbSymbolTableRecord
100
AcDbBlockTableRecord
  2
_FILLED
  0
ENDTAB
  0
TABLE
  2
DIMSTYLE
  5
A
100
AcDbSymbolTable
 70
1
100
AcDbDimStyleTable
 71
0
  0
DIMSTYLE
105
216
100
AcDbSymbolTableRecord
100
AcDbDimStyleTableRecord
  2
STANDARD
 70
0
  3

  4

 40
1.0
 41
5.0458447246
 42
1.0
 43
0.38
 44
1.0
 45
0.0
 46
0.0
 47
0.01
 48
0.01
140
7.0641826144
141
0.09
142
0.0
143
25.4
144
1.0
145
0.0
146
1.0
147
0.625
 71
1
 72
0
 73
0
 74
0
 75
0
 76
0
 77
1
 78
8
 79
2
170
0
171
1
172
0
173
0
174
0
175
0
176
0
177
0
178
0
270
2
179
2
271
2
272
2
273
2
274
2
275
0
280
0
281
0
282
0
283
1
284
8
285
0
286
0
287
3
288
0
340
11
278
46
341
215
342
215
343
215
344
215
  0
ENDTAB
  0
ENDSEC
  0
SECTION
  2
BLOCKS
  0
BLOCK
  5
20
100
AcDbEntity
  8
0
100
AcDbBlockBegin
  2
*Model_Space
 70
0
 10
0.0
 20
0.0
 30
0.0
  3
*Model_Space
  1

  0
ENDBLK
  5
21
100
AcDbEntity
  8
0
100
AcDbBlockEnd
  0
BLOCK
  5
1C
100
AcDbEntity
  8
0
100
AcDbBlockBegin
  2
*Paper_Space
 70
0
 10
0.0
 20
0.0
 30
0.0
  3
*Paper_Space
  1

  0
ENDBLK
  5
1D
100
AcDbEntity
  8
0
100
AcDbBlockEnd
  0
BLOCK
  5
217
100
AcDbEntity
  8
0
100
AcDbBlockBegin
  2
_FILLED
 70
64
 10
0.0
 20
0.0
  3
_FILLED
  1

  0
SOLID
  5
218
100
AcDbEntity
  8
0
  6
BYBLOCK
 62
0
100
AcDbTrace
 10
0.0
 20
0.0
 11
-1.0
 21
0.25
 12
-1.0
 22
-0.25
 13
-1.0
 23
-0.25
  0
ENDBLK
  5
219
100
AcDbEntity
  8
0
  6
BYBLOCK
 62
0
100
AcDbBlockEnd
  0
ENDSEC
  0
SECTION
  2
ENTITIES
  0
LINE
  5
21A
100
AcDbEntity
  8
00_COMPONENTS_11
100
AcDbLine
 62
7
  6
CONTINUOUS
 10
236.3101369452
 20
48.8232669407
 11
236.3050786766
 21
48.8222261915
  0
LINE
  5
21B
100
AcDbEntity
  8
00_COMPONENTS_11
100
AcDbLine
 62
7
  6
CONTINUOUS
 10
236.3060623021
 20
48.8175456106
 11
236.3104090269
 21
48.8184231988
  0
LINE
  5
21C
100
AcDbEntity
  8
00_COMPONENTS_11
100
AcDbLine
 62
7
  6
CONTINUOUS
 10
236.3062934617
 20
48.8183299269
 11
236.3106338001
 21
48.8191877589
  0
LINE
  5
21D
100
AcDbEntity
  8
00_COMPONENTS_11
100
AcDbLine
 62
7
  6
CONTINUOUS
 10
236.3104722473
 20
48.824420588
 11
236.3054285948
 21
48.8234265938
  0
LWPOLYLINE
  5
21E
100
AcDbEntity
  8
00_COMPONENTS_11
100
AcDbPolyline
 62
7
  6
CONTINUOUS
 90
3
 70
0
 10
238.0345590375
 20
49.1556003124
 10
238.0644393235
 20
49.1586857725
 10
238.0954083038
 20
49.1668654934
  0
LWPOLYLINE
  5
21F
100
AcDbEntity
  8
00_COMPONENTS_11
100
AcDbPolyline
 62
7
  6
CONTINUOUS
 90
3
 70
0
 10
202.0345590375
 20
49.1556003124
 10
202.0644393235
 20
49.1586857725
 10
202.0954083038
 20
49.1668654934
  0
LWPOLYLINE
  5
220
100
AcDbEntity
  8
00_COMPONENTS_11
100
AcDbPolyline
 62
7
  6
CONTINUOUS
 90
3
 70
0
 10
166.0345590375
 20
49.1556003124
 10
166.0644393235
 20
49.1586857725
 10
166.0954083038
 20
49.1668654934
  0
LINE
  5
221
100
AcDbEntity
  8
00_COMPONENTS_11
100
AcDbLine
 62
7
  6
CONTINUOUS
 10
236.1991913497
 20
48.7971620817
 11
236.180052712
 21
48.7954427732
  0
LINE
  5
222
100
AcDbEntity
  8
00_COMPONENTS_11
100
AcDbLine
 62
7
  6
CONTINUOUS
 10
200.1991913497
 20
48.7971620817
 11
200.180052712
 21
48.7954427732
  0
LINE
  5
223
100
AcDbEntity
  8
00_COMPONENTS_11
100
AcDbLine
 62
7
  6
CONTINUOUS
 10
164.1991913497
 20
48.7971620817
 11
164.180052712
 21
48.7954427732
  0
LINE
  5
224
100
AcDbEntity
  8
00_COMPONENTS_11
100
AcDbLine
 62
7
  6
CONTINUOUS
 10
236.1417630613
 20
48.7921450342
 11
236.1503870304
 21
48.7928712722
  0
LINE
  5
225
100
AcDbEntity
  8
00_COMPONENTS_11
100
AcDbLine
 62
7
  6
CONTINUOUS
 10
200.1417630613
 20
48.7921450342
 11
200.1503870304
 21
48.7928712722
  0
LINE
  5
226
100
AcDbEntity
  8
00_COMPONENTS_11
100
AcDbLine
 62
7
  6
CONTINUOUS
 10
164.1417630613
 20
48.7921450342
 11
164.1503870304
 21
48.7928712722
  0
LINE
  5
227
100
AcDbEntity
  8
00_COMPONENTS_11
100
AcDbLine
 62
7
  6
CONTINUOUS
 10
238.0049208953
 20
49.1547523691
 11
238.0345590375
 21
49.1556003124
  0
LINE
  5
228
100
AcDbEntity
  8
00_COMPONENTS_11
100
AcDbLine
 62
7
  6
CONTINUOUS
 10
238.0954165064
 20
49.166867045
 11
238.0393656709
 21
49.1652604667
  0
LINE
  5
229
100
AcDbEntity
  8
00_COMPONENTS_11
100
AcDbLine
 62
7
  6
CONTINUOUS
 10
202.0049208953
 20
49.1547523691
 11
202.0345590375
 21
49.1556003124
  0
LINE
  5
22A
100
AcDbEntity
  8
00_COMPONENTS_11
100
AcDbLine
 62
7
  6
CONTINUOUS
 10
202.0954179475
 20
49.1668665041
 11
202.0393656709
 21
49.1652604667
  0
LINE
  5
22B
100
AcDbEntity
  8
00_COMPONENTS_11
100
AcDbLine
 62
7
  6
CONTINUOUS
 10
166.0049208953
 20
49.1547523691
 11
166.0345590375
 21
49.1556003124
  0
LINE
  5
22C
100
AcDbEntity
  8
00_COMPONENTS_11
100
AcDbLine
 62
7
  6
CONTINUOUS
 10
166.0954179475
 20
49.1668665041
 11
166.0393656709
 21
49.1652604667
  0
LINE
  5
22D
100
AcDbEntity
  8
00_COMPONENTS_11
100
AcDbLine
 62
7
  6
CONTINUOUS
 10
234.9741709858
 20
49.1538728862
 11
235.3130196975
 21
49.1553309876
  0
LINE
  5
22E
100
AcDbEntity
  8
00_COMPONENTS_11
100
AcDbLine
 62
7
  6
CONTINUOUS
 10
198.9741709858
 20
49.1538728025
 11
199.4891709852
 21
49.1555239872
  0
LINE
  5
22F
100
AcDbEntity
  8
00_COMPONENTS_11
100
AcDbLine
 62
7
  6
CONTINUOUS
 10
162.9741709858
 20
49.1538728025
 11
163.4891709852
 21
49.1555239872
  0
LINE
  5
230
100
AcDbEntity
  8
00_COMPONENTS_11
100
AcDbLine
 62
7
  6
CONTINUOUS
 10
158.8202288811
 20
50.2608658948
 11
168.1581130906
 21
50.2608658948
  0
LINE
  5
231
100
AcDbEntity
  8
00_COMPONENTS_11
100
AcDbLine
 62
7
  6
CONTINUOUS
 10
194.8202288811
 20
50.2608658948
 11
204.1581130906
 21
50.2608658948
  0
LINE
  5
232
100
AcDbEntity
  8
00_COMPONENTS_11
100
AcDbLine
 62
7
  6
CONTINUOUS
 10
230.8202288811
 20
50.2608658948
 11
240.1581130906
 21
50.2608658948
  0
LINE
  5
233
100
AcDbEntity
  8
00_COMPONENTS_11
100
AcDbLine
 62
7
  6
CONTINUOUS
 10
158.7391709858
 20
50.4216538782
 11
168.2391709858
 21
50.4216538782
  0
LINE
  5
234
100
AcDbEntity
  8
00_COMPONENTS_11
100
AcDbLine
 62
7
  6
CONTINUOUS
 10
194.7391709858
 20
50.4216538782
 11
204.2391709858
 21
50.4216538782
  0
LINE
  5
235
100
AcDbEntity
  8
00_COMPONENTS_11
100
AcDbLine
 62
7
  6
CONTINUOUS
 10
230.7391709858
 20
50.4216538782
 11
240.2391709858
 21
50.4216538782
  0
LINE
  5
236
100
AcDbEntity
  8
00_COMPONENTS_11
100
AcDbLine
 62
7
  6
CONTINUOUS
 10
240.2391709858
 20
50.7216411769
 11
240.0588701401
 21
50.7216411769
  0
LINE
  5
237
100
AcDbEntity
  8
00_COMPONENTS_11
100
AcDbLine
 62
7
  6
CONTINUOUS
 10
239.6370467518
 20
50.7216411769
 11
237.8038257398
 21
50.7216411769
  0
LINE
  5
238
100
AcDbEntity
  8
00_COMPONENTS_11
100
AcDbLine
 62
7
  6
CONTINUOUS
 10
236.7854539949
 20
50.7216411769
 11
234.1928879768
 21
50.7216411769
  0
LINE
  5
239
100
AcDbEntity
  8
00_COMPONENTS_11
100
AcDbLine
 62
7
  6
CONTINUOUS
 10
233.1745162319
 20
50.7216411769
 11
231.3412952199
 21
50.7216411769
  0
LINE
  5
23A
100
AcDbEntity
  8
00_COMPONENTS_11
100
AcDbLine
 62
7
  6
CONTINUOUS
 10
230.9194718316
 20
50.7216411769
 11
230.7391709858
 21
50.7216411769
  0
LINE
  5
23B
100
AcDbEntity
  8
00_COMPONENTS_11
100
AcDbLine
 62
7
  6
CONTINUOUS
 10
204.2391709858
 20
50.7216411769
 11
204.0588701401
 21
50.7216411769
  0
LINE
  5
23C
100
AcDbEntity
  8
00_COMPONENTS_11
100
AcDbLine
 62
7
  6
CONTINUOUS
 10
203.6370467518
 20
50.7216411769
 11
201.8038257398
 21
50.7216411769
  0
LINE
  5
23D
100
AcDbEntity
  8
00_COMPONENTS_11
100
AcDbLine
 62
7
  6
CONTINUOUS
 10
200.7854539949
 20
50.7216411769
 11
198.1928879768
 21
50.7216411769
  0
LINE
  5
23E
100
AcDbEntity
  8
00_COMPONENTS_11
100
AcDbLine
 62
7
  6
CONTINUOUS
 10
197.1745162319
 20
50.7216411769
 11
195.3412952199
 21
50.7216411769
  0
LINE
  5
23F
100
AcDbEntity
  8
00_COMPONENTS_11
100
AcDbLine
 62
7
  6
CONTINUOUS
 10
194.9194718316
 20
50.7216411769
 11
194.7391709858
 21
50.7216411769
  0
LINE
  5
240
100
AcDbEntity
  8
00_COMPONENTS_11
100
AcDbLine
 62
7
  6
CONTINUOUS
 10
168.2391709858
 20
50.7216411769
 11
168.0588701401
 21
50.7216411769
  0
LINE
  5
241
100
AcDbEntity
  8
00_COMPONENTS_11
100
AcDbLine
 62
7
  6
CONTINUOUS
 10
167.6370467518
 20
50.7216411769
 11
165.8038257398
 21
50.7216411769
  0
LINE
  5
242
100
AcDbEntity
  8
00_COMPONENTS_11
100
AcDbLine
 62
7
  6
CONTINUOUS
 10
164.7854539949
 20
50.7216411769
 11
162.1928879768
 21
50.7216411769
  0
LINE
  5
243
100
AcDbEntity
  8
00_COMPONENTS_11
100
AcDbLine
 62
7
  6
CONTINUOUS
 10
161.1745162319
 20
50.7216411769
 11
159.3412952199
 21
50.7216411769
  0
LINE
  5
244
100
AcDbEntity
  8
00_COMPONENTS_11
100
AcDbLine
 62
7
  6
CONTINUOUS
 10
158.9194718316
 20
50.7216411769
 11
158.7391709858
 21
50.7216411769
  0
LINE
  5
245
100
AcDbEntity
  8
00_COMPONENTS_11
100
AcDbLine
 62
7
  6
CONTINUOUS
 10
159.2916532549
 20
50.8042763591
 11
161.2658117206
 21
50.8042763591
  0
LINE
  5
246
100
AcDbEntity
  8
00_COMPONENTS_11
100
AcDbLine
 62
7
  6
CONTINUOUS
 10
162.0932317649
 20
50.8042763591
 11
164.8851102068
 21
50.8042763591
  0
LINE
  5
247
100
AcDbEntity
  8
00_COMPONENTS_11
100
AcDbLine
 62
7
  6
CONTINUOUS
 10
165.7125302687
 20
50.8042763591
 11
167.6866887168
 21
50.8042763591
  0
LINE
  5
248
100
AcDbEntity
  8
00_COMPONENTS_11
100
AcDbLine
 62
7
  6
CONTINUOUS
 10
195.2916532549
 20
50.8042763591
 11
197.2658117206
 21
50.8042763591
  0
LINE
  5
249
100
AcDbEntity
  8
00_COMPONENTS_11
100
AcDbLine
 62
7
  6
CONTINUOUS
 10
198.0932317649
 20
50.8042763591
 11
200.8851102068
 21
50.8042763591
  0
LINE
  5
24A
100
AcDbEntity
  8
00_COMPONENTS_11
100
AcDbLine
 62
7
  6
CONTINUOUS
 10
201.7125302687
 20
50.8042763591
 11
203.6866887168
 21
50.8042763591
  0
LINE
  5
24B
100
AcDbEntity
  8
00_COMPONENTS_11
100
AcDbLine
 62
7
  6
CONTINUOUS
 10
231.2916532549
 20
50.8042763591
 11
233.2658117206
 21
50.8042763591
  0
LINE
  5
24C
100
AcDbEntity
  8
00_COMPONENTS_11
100
AcDbLine
 62
7
  6
CONTINUOUS
 10
234.0932317649
 20
50.8042763591
 11
236.8851102068
 21
50.8042763591
  0
LINE
  5
24D
100
AcDbEntity
  8
00_COMPONENTS_11
100
AcDbLine
 62
7
  6
CONTINUOUS
 10
237.7125302687
 20
50.8042763591
 11
239.6866887168
 21
50.8042763591
  0
LINE
  5
24E
100
AcDbEntity
  8
00_COMPONENTS_11
100
AcDbLine
 62
7
  6
CONTINUOUS
 10
158.6188101443
 20
51.1216411769
 11
240.3595318274
 21
51.1216411769
  0
LINE
  5
24F
100
AcDbEntity
  8
PART_1
100
AcDbLine
 62
7
  6
CONTINUOUS
 10
267.299210165
 20
52.1216411769
 11
140.841210165
 21
52.1216411769
  0
LINE
  5
250
100
AcDbEntity
  8
PART_1
100
AcDbLine
 62
7
  6
CONTINUOUS
 10
139.4995693785
 20
53.3216411769
 11
267.299210165
 21
53.3216411769
  0
LINE
  5
251
100
AcDbEntity
  8
PART
100
AcDbLine
 62
7
  6
CONTINUOUS
 10
289.199210165
 20
54.6216411769
 11
275.499210165
 21
54.6216411769
  0
LINE
  5
252
100
AcDbEntity
  8
00_COMPONENTS_11
100
AcDbLine
 62
7
  6
CONTINUOUS
 10
163.3130196975
 20
49.1553309876
 11
163.664171883
 21
49.1553351989
  0
LINE
  5
253
100
AcDbEntity
  8
00_COMPONENTS_11
100
AcDbLine
 62
7
  6
CONTINUOUS
 10
235.3114721608
 20
49.1553292921
 11
235.664171883
 21
49.1553351989
  0
LINE
  5
254
100
AcDbEntity
  8
00_COMPONENTS_11
100
AcDbLine
 62
7
  6
CONTINUOUS
 10
163.664171883
 20
49.1553351989
 11
164.0041709858
 21
49.1538729029
  0
LINE
  5
255
100
AcDbEntity
  8
00_COMPONENTS_11
100
AcDbLine
 62
7
  6
CONTINUOUS
 10
199.4891709866
 20
49.1555239383
 11
200.0041709858
 21
49.1538729029
  0
LINE
  5
256
100
AcDbEntity
  8
00_COMPONENTS_11
100
AcDbLine
 62
7
  6
CONTINUOUS
 10
235.664171883
 20
49.1553351989
 11
236.0041709858
 21
49.1538729029
  0
LINE
  5
257
100
AcDbEntity
  8
00_COMPONENTS_11
100
AcDbLine
 62
7
  6
CONTINUOUS
 10
160.9437696466
 20
49.1556009859
 11
160.9767562328
 21
49.1546565755
  0
LINE
  5
258
100
AcDbEntity
  8
00_COMPONENTS_11
100
AcDbLine
 62
7
  6
CONTINUOUS
 10
160.938974344
 20
49.1652611404
 11
160.8829322922
 21
49.1668640467
  0
LINE
  5
259
100
AcDbEntity
  8
00_COMPONENTS_11
100
AcDbLine
 62
7
  6
CONTINUOUS
 10
196.9437696466
 20
49.1556009859
 11
196.9767562328
 21
49.1546565755
  0
LINE
  5
25A
100
AcDbEntity
  8
00_COMPONENTS_11
100
AcDbLine
 62
7
  6
CONTINUOUS
 10
196.938974344
 20
49.1652611404
 11
196.8829322922
 21
49.1668640467
  0
LINE
  5
25B
100
AcDbEntity
  8
00_COMPONENTS_11
100
AcDbLine
 62
7
  6
CONTINUOUS
 10
232.9437696466
 20
49.1556009859
 11
232.9767559848
 21
49.1546566451
  0
LINE
  5
25C
100
AcDbEntity
  8
00_COMPONENTS_11
100
AcDbLine
 62
7
  6
CONTINUOUS
 10
232.938974344
 20
49.1652611404
 11
232.8829351678
 21
49.1668636299
  0
LINE
  5
25D
100
AcDbEntity
  8
00_COMPONENTS_11
100
AcDbLine
 62
7
  6
CONTINUOUS
 10
162.8365789104
 20
48.7921450342
 11
162.8279026602
 21
48.7928757038
  0
LINE
  5
25E
100
AcDbEntity
  8
00_COMPONENTS_11
100
AcDbLine
 62
7
  6
CONTINUOUS
 10
198.8365789104
 20
48.7921450342
 11
198.8279026602
 21
48.7928757038
  0
LINE
  5
25F
100
AcDbEntity
  8
00_COMPONENTS_11
100
AcDbLine
 62
7
  6
CONTINUOUS
 10
234.8365789104
 20
48.7921450342
 11
234.8279026602
 21
48.7928757038
  0
LINE
  5
260
100
AcDbEntity
  8
00_COMPONENTS_11
100
AcDbLine
 62
7
  6
CONTINUOUS
 10
160.9138925756
 20
49.1586871386
 11
160.9437696466
 21
49.1556009859
  0
LINE
  5
261
100
AcDbEntity
  8
00_COMPONENTS_11
100
AcDbLine
 62
7
  6
CONTINUOUS
 10
196.9138925756
 20
49.1586871386
 11
196.9437696466
 21
49.1556009859
  0
LINE
  5
262
100
AcDbEntity
  8
00_COMPONENTS_11
100
AcDbLine
 62
7
  6
CONTINUOUS
 10
232.9138925756
 20
49.1586871386
 11
232.9437696466
 21
49.1556009859
  0
LINE
  5
263
100
AcDbEntity
  8
00_COMPONENTS_11
100
AcDbLine
 62
7
  6
CONTINUOUS
 10
162.6711916419
 20
48.818432803
 11
162.6676694459
 21
48.819126767
  0
LINE
  5
264
100
AcDbEntity
  8
00_COMPONENTS_11
100
AcDbLine
 62
7
  6
CONTINUOUS
 10
198.6711916419
 20
48.818432803
 11
198.6676694459
 21
48.819126767
  0
LINE
  5
265
100
AcDbEntity
  8
00_COMPONENTS_11
100
AcDbLine
 62
7
  6
CONTINUOUS
 10
162.6714004198
 20
48.8177240389
 11
162.6678722932
 21
48.8184367355
  0
LINE
  5
266
100
AcDbEntity
  8
00_COMPONENTS_11
100
AcDbLine
 62
7
  6
CONTINUOUS
 10
198.6714004198
 20
48.8177240389
 11
198.6678722932
 21
48.8184367355
  0
LINE
  5
267
100
AcDbEntity
  8
00_COMPONENTS_11
100
AcDbLine
 62
7
  6
CONTINUOUS
 10
160.8829282789
 20
49.1668660584
 11
160.9138925756
 21
49.1586871386
  0
LINE
  5
268
100
AcDbEntity
  8
00_COMPONENTS_11
100
AcDbLine
 62
7
  6
CONTINUOUS
 10
196.8829282789
 20
49.1668660584
 11
196.9138925756
 21
49.1586871386
  0
LINE
  5
269
100
AcDbEntity
  8
PART_1
100
AcDbLine
 62
7
  6
CONTINUOUS
 10
140.7264170165
 20
550.6771680742
 11
139.7881325856
 21
549.9216411769
  0
LINE
  5
26A
100
AcDbEntity
  8
00_COMPONENTS_11
100
AcDbLine
 62
7
  6
CONTINUOUS
 10
200.3101369452
 20
48.8232669407
 11
200.3050786766
 21
48.8222261915
  0
LINE
  5
26B
100
AcDbEntity
  8
00_COMPONENTS_11
100
AcDbLine
 62
7
  6
CONTINUOUS
 10
164.3101369452
 20
48.8232669407
 11
164.3050786766
 21
48.8222261915
  0
LINE
  5
26C
100
AcDbEntity
  8
00_COMPONENTS_11
100
AcDbLine
 62
7
  6
CONTINUOUS
 10
200.3060623021
 20
48.8175456106
 11
200.3104090269
 21
48.8184231988
  0
LINE
  5
26D
100
AcDbEntity
  8
00_COMPONENTS_11
100
AcDbLine
 62
7
  6
CONTINUOUS
 10
164.3060623021
 20
48.8175456106
 11
164.3104090269
 21
48.8184231988
  0
LINE
  5
26E
100
AcDbEntity
  8
00_COMPONENTS_11
100
AcDbLine
 62
7
  6
CONTINUOUS
 10
200.3062934617
 20
48.8183299269
 11
200.3106338001
 21
48.8191877589
  0
LINE
  5
26F
100
AcDbEntity
  8
00_COMPONENTS_11
100
AcDbLine
 62
7
  6
CONTINUOUS
 10
164.3062934617
 20
48.8183299269
 11
164.3106338001
 21
48.8191877589
  0
LINE
  5
270
100
AcDbEntity
  8
00_COMPONENTS_11
100
AcDbLine
 62
7
  6
CONTINUOUS
 10
200.3104722473
 20
48.824420588
 11
200.3054285948
 21
48.8234265938
  0
LINE
  5
271
100
AcDbEntity
  8
00_COMPONENTS_11
100
AcDbLine
 62
7
  6
CONTINUOUS
 10
164.3104722473
 20
48.824420588
 11
164.3054285948
 21
48.8234265938
  0
LINE
  5
272
100
AcDbEntity
  8
PART
100
AcDbLine
 62
7
  6
CONTINUOUS
 10
275.499210165
 20
60.6216411768
 11
291.699210165
 21
60.6216411786
  0
LINE
  5
273
100
AcDbEntity
  8
PART_1
100
AcDbLine
 62
7
  6
CONTINUOUS
 10
275.499210165
 20
72.4216411769
 11
270.499210165
 21
72.4216411769
  0
LINE
  5
274
100
AcDbEntity
  8
PART_1
100
AcDbLine
 62
7
  6
CONTINUOUS
 10
275.499210165
 20
73.6216411769
 11
270.499210165
 21
73.6216411769
  0
LINE
  5
275
100
AcDbEntity
  8
00_COMPONENTS_11
100
AcDbLine
 62
7
  6
CONTINUOUS
 10
234.6711916419
 20
48.818432803
 11
234.6676694459
 21
48.819126767
  0
LINE
  5
276
100
AcDbEntity
  8
00_COMPONENTS_11
100
AcDbLine
 62
7
  6
CONTINUOUS
 10
234.6714004198
 20
48.8177240389
 11
234.6678722932
 21
48.8184367355
  0
LINE
  5
277
100
AcDbEntity
  8
00_COMPONENTS_11
100
AcDbLine
 62
7
  6
CONTINUOUS
 10
232.8829282789
 20
49.1668660584
 11
232.9138925756
 21
49.1586871386
  0
LINE
  5
278
100
AcDbEntity
  8
0
100
AcDbLine
 62
7
  6
CONTINUOUS
 10
292.569210165
 20
148.6216411769
 11
291.699210165
 21
148.6216411769
  0
LINE
  5
279
100
AcDbEntity
  8
0
100
AcDbLine
 62
7
  6
CONTINUOUS
 10
291.699210165
 20
188.6216411769
 11
292.569210165
 21
188.6216411769
  0
LINE
  5
27A
100
AcDbEntity
  8
PART_1
100
AcDbLine
 62
7
  6
CONTINUOUS
 10
139.4995693785
 20
53.3216411769
 11
139.4912102523
 21
53.4724435125
  0
LINE
  5
27B
100
AcDbEntity
  8
PART_1
100
AcDbLine
 62
7
  6
CONTINUOUS
 10
139.391210165
 20
533.0442908374
 11
139.391210165
 21
521.1989915163
  0
LINE
  5
27C
100
AcDbEntity
  8
PART_1
100
AcDbLine
 62
7
  6
CONTINUOUS
 10
139.391210165
 20
83.0442908374
 11
139.391210165
 21
71.1989915163
  0
LINE
  5
27D
100
AcDbEntity
  8
PART_1
100
AcDbLine
 62
7
  6
CONTINUOUS
 10
139.491210165
 20
53.471957844
 11
139.491210165
 21
549.9216411769
  0
LINE
  5
27E
100
AcDbEntity
  8
PART_1
100
AcDbLine
 62
7
  6
CONTINUOUS
 10
140.841210165
 20
552.1216411769
 11
140.841210165
 21
53.3216411769
  0
LINE
  5
27F
100
AcDbEntity
  8
00_COMPONENTS_11
100
AcDbLine
 62
7
  6
CONTINUOUS
 10
164.3104897984
 20
48.824424047
 11
164.3114503844
 21
48.7928712722
  0
LINE
  5
280
100
AcDbEntity
  8
00_COMPONENTS_11
100
AcDbLine
 62
7
  6
CONTINUOUS
 10
164.3114503844
 20
48.7928712722
 11
164.3114686888
 21
48.7921450342
  0
LINE
  5
281
100
AcDbEntity
  8
00_COMPONENTS_11
100
AcDbLine
 62
7
  6
CONTINUOUS
 10
158.7391709858
 20
50.7216411769
 11
158.7391709858
 21
50.4216538785
  0
LINE
  5
282
100
AcDbEntity
  8
00_COMPONENTS_11
100
AcDbLine
 62
7
  6
CONTINUOUS
 10
162.9741709858
 20
49.1652622572
 11
162.9741709858
 21
48.7975402874
  0
LINE
  5
283
100
AcDbEntity
  8
00_COMPONENTS_11
100
AcDbLine
 62
7
  6
CONTINUOUS
 10
163.4891709866
 20
49.1555239383
 11
163.4891709871
 21
49.1668663807
  0
LINE
  5
284
100
AcDbEntity
  8
00_COMPONENTS_11
100
AcDbLine
 62
7
  6
CONTINUOUS
 10
164.0041709858
 20
48.7975402874
 11
164.0041709858
 21
49.165262161
  0
LINE
  5
285
100
AcDbEntity
  8
00_COMPONENTS_11
100
AcDbLine
 62
7
  6
CONTINUOUS
 10
168.2391709858
 20
50.7216411769
 11
168.2391709858
 21
50.4216538785
  0
LINE
  5
286
100
AcDbEntity
  8
00_COMPONENTS_11
100
AcDbLine
 62
7
  6
CONTINUOUS
 10
184.7391709858
 20
52.1216411768
 11
184.7391709858
 21
51.1216411769
  0
LINE
  5
287
100
AcDbEntity
  8
00_COMPONENTS_11
100
AcDbLine
 62
7
  6
CONTINUOUS
 10
162.6670007577
 20
48.7971620817
 11
162.6668732829
 21
48.7921450342
  0
LINE
  5
288
100
AcDbEntity
  8
00_COMPONENTS_11
100
AcDbLine
 62
7
  6
CONTINUOUS
 10
162.6676694459
 20
48.819126767
 11
162.6670007577
 21
48.7971620817
  0
LINE
  5
289
100
AcDbEntity
  8
00_COMPONENTS_11
100
AcDbLine
 62
7
  6
CONTINUOUS
 10
200.3104897984
 20
48.824424047
 11
200.3114503844
 21
48.7928712722
  0
LINE
  5
28A
100
AcDbEntity
  8
00_COMPONENTS_11
100
AcDbLine
 62
7
  6
CONTINUOUS
 10
200.3114503844
 20
48.7928712722
 11
200.3114686888
 21
48.7921450342
  0
LINE
  5
28B
100
AcDbEntity
  8
00_COMPONENTS_11
100
AcDbLine
 62
7
  6
CONTINUOUS
 10
194.7391709858
 20
50.7216411769
 11
194.7391709858
 21
50.4216538785
  0
LINE
  5
28C
100
AcDbEntity
  8
00_COMPONENTS_11
100
AcDbLine
 62
7
  6
CONTINUOUS
 10
198.9741709858
 20
49.1652622572
 11
198.9741709858
 21
48.7975402874
  0
LINE
  5
28D
100
AcDbEntity
  8
00_COMPONENTS_11
100
AcDbLine
 62
7
  6
CONTINUOUS
 10
199.4891709866
 20
49.1555239383
 11
199.4891709871
 21
49.1668663807
  0
LINE
  5
28E
100
AcDbEntity
  8
00_COMPONENTS_11
100
AcDbLine
 62
7
  6
CONTINUOUS
 10
200.0041709858
 20
48.7975402874
 11
200.0041709858
 21
49.165262161
  0
LINE
  5
28F
100
AcDbEntity
  8
00_COMPONENTS_11
100
AcDbLine
 62
7
  6
CONTINUOUS
 10
204.2391709858
 20
50.7216411769
 11
204.2391709858
 21
50.4216538785
  0
LINE
  5
290
100
AcDbEntity
  8
00_COMPONENTS_11
100
AcDbLine
 62
7
  6
CONTINUOUS
 10
214.2391709858
 20
51.1216411769
 11
214.2391709858
 21
52.1216411768
  0
LINE
  5
291
100
AcDbEntity
  8
00_COMPONENTS_11
100
AcDbLine
 62
7
  6
CONTINUOUS
 10
198.6670007577
 20
48.7971620817
 11
198.6668732829
 21
48.7921450342
  0
LINE
  5
292
100
AcDbEntity
  8
00_COMPONENTS_11
100
AcDbLine
 62
7
  6
CONTINUOUS
 10
198.6676694459
 20
48.819126767
 11
198.6670007577
 21
48.7971620817
  0
LINE
  5
293
100
AcDbEntity
  8
00_COMPONENTS_11
100
AcDbLine
 62
7
  6
CONTINUOUS
 10
236.3104897984
 20
48.824424047
 11
236.3114503844
 21
48.7928712722
  0
LINE
  5
294
100
AcDbEntity
  8
00_COMPONENTS_11
100
AcDbLine
 62
7
  6
CONTINUOUS
 10
236.3114503844
 20
48.7928712722
 11
236.3114686888
 21
48.7921450342
  0
LINE
  5
295
100
AcDbEntity
  8
00_COMPONENTS_11
100
AcDbLine
 62
7
  6
CONTINUOUS
 10
230.7391709858
 20
50.7216411769
 11
230.7391709858
 21
50.4216538785
  0
LINE
  5
296
100
AcDbEntity
  8
00_COMPONENTS_11
100
AcDbLine
 62
7
  6
CONTINUOUS
 10
234.9741709858
 20
49.1652622572
 11
234.9741709858
 21
48.7975402874
  0
LINE
  5
297
100
AcDbEntity
  8
00_COMPONENTS_11
100
AcDbLine
 62
7
  6
CONTINUOUS
 10
235.4891709866
 20
49.1555239383
 11
235.4891709871
 21
49.1668663807
  0
LINE
  5
298
100
AcDbEntity
  8
00_COMPONENTS_11
100
AcDbLine
 62
7
  6
CONTINUOUS
 10
236.0041709858
 20
48.7975402874
 11
236.0041709858
 21
49.165262161
  0
LINE
  5
299
100
AcDbEntity
  8
00_COMPONENTS_11
100
AcDbLine
 62
7
  6
CONTINUOUS
 10
240.2391709858
 20
50.7216411769
 11
240.2391709858
 21
50.4216538785
  0
LINE
  5
29A
100
AcDbEntity
  8
00_COMPONENTS_11
100
AcDbLine
 62
7
  6
CONTINUOUS
 10
234.6670007577
 20
48.7971620817
 11
234.6668732829
 21
48.7921450342
  0
LINE
  5
29B
100
AcDbEntity
  8
00_COMPONENTS_11
100
AcDbLine
 62
7
  6
CONTINUOUS
 10
234.6676694459
 20
48.819126767
 11
234.6670007577
 21
48.7971620818
  0
LINE
  5
29C
100
AcDbEntity
  8
PART_1
100
AcDbLine
 62
7
  6
CONTINUOUS
 10
267.299210165
 20
52.1216411769
 11
267.299210165
 21
552.1216411769
  0
LINE
  5
29D
100
AcDbEntity
  8
PART_1
100
AcDbLine
 62
7
  6
CONTINUOUS
 10
269.499210165
 20
549.9216411769
 11
269.499210165
 21
54.3216411769
  0
LINE
  5
29E
100
AcDbEntity
  8
PART_1
100
AcDbLine
 62
7
  6
CONTINUOUS
 10
270.499210165
 20
531.8216411769
 11
270.499210165
 21
72.4216411769
  0
LINE
  5
29F
100
AcDbEntity
  8
0
100
AcDbLine
 62
7
  6
CONTINUOUS
 10
293.9996802156
 20
416.6702484053
 11
296.1296802156
 21
423.4202484053
  0
LINE
  5
2A0
100
AcDbEntity
  8
0
100
AcDbLine
 62
7
  6
CONTINUOUS
 10
296.1296802156
 20
180.8230339484
 11
293.9996802156
 21
187.5730339484
  0
LINE
  5
2A1
100
AcDbEntity
  8
PART
100
AcDbLine
 62
7
  6
CONTINUOUS
 10
275.499210165
 20
54.6216411769
 11
275.499210165
 21
549.6216411769
  0
LINE
  5
2A2
100
AcDbEntity
  8
PART
100
AcDbLine
 62
7
  6
CONTINUOUS
 10
289.199210165
 20
54.6216411769
 11
289.199210165
 21
549.6216411769
  0
LINE
  5
2A3
100
AcDbEntity
  8
PART
100
AcDbLine
 62
7
  6
CONTINUOUS
 10
291.699210165
 20
57.1216411769
 11
291.699210165
 21
547.1216411768
  0
LINE
  5
2A4
100
AcDbEntity
  8
0
100
AcDbLine
 62
7
  6
CONTINUOUS
 10
296.199210165
 20
156.87164117
 11
296.199210165
 21
180.3716411769
  0
LINE
  5
2A5
100
AcDbEntity
  8
0
100
AcDbLine
 62
7
  6
CONTINUOUS
 10
296.199210165
 20
423.87164117
 11
296.199210165
 21
447.3716411769
  0
LINE
  5
2A6
100
AcDbEntity
  8
0
100
AcDbLine
 62
7
  6
CONTINUOUS
 10
293.9996802156
 20
149.6702484053
 11
296.1296802156
 21
156.4202484053
  0
LINE
  5
2A7
100
AcDbEntity
  8
00_COMPONENTS_11
100
AcDbLine
 62
7
  6
CONTINUOUS
 10
164.204789338
 20
48.8035927843
 11
164.1991913497
 21
48.7971620817
  0
LINE
  5
2A8
100
AcDbEntity
  8
0
100
AcDbLine
 62
7
  6
CONTINUOUS
 10
292.569210165
 20
415.6216411769
 11
291.699210165
 21
415.6216411769
  0
LINE
  5
2A9
100
AcDbEntity
  8
0
100
AcDbLine
 62
7
  6
CONTINUOUS
 10
296.1296802156
 20
447.8230339484
 11
293.9996802156
 21
454.5730339484
  0
LINE
  5
2AA
100
AcDbEntity
  8
00_COMPONENTS_11
100
AcDbLine
 62
7
  6
CONTINUOUS
 10
200.204789338
 20
48.8035927843
 11
200.1991913497
 21
48.7971620817
  0
LINE
  5
2AB
100
AcDbEntity
  8
0
100
AcDbLine
 62
7
  6
CONTINUOUS
 10
291.699210165
 20
455.6216411769
 11
292.569210165
 21
455.6216411769
  0
LINE
  5
2AC
100
AcDbEntity
  8
00_COMPONENTS_11
100
AcDbLine
 62
7
  6
CONTINUOUS
 10
236.204789338
 20
48.8035927843
 11
236.1991913497
 21
48.7971620817
  0
LINE
  5
2AD
100
AcDbEntity
  8
PART_1
100
AcDbLine
 62
7
  6
CONTINUOUS
 10
275.499210165
 20
530.6216411769
 11
270.499210165
 21
530.6216411769
  0
LINE
  5
2AE
100
AcDbEntity
  8
PART_1
100
AcDbLine
 62
7
  6
CONTINUOUS
 10
275.499210165
 20
531.8216411769
 11
270.499210165
 21
531.8216411769
  0
LINE
  5
2AF
100
AcDbEntity
  8
PART
100
AcDbLine
 62
7
  6
CONTINUOUS
 10
291.699210165
 20
543.6216411769
 11
275.499210165
 21
543.6216411769
  0
LINE
  5
2B0
100
AcDbEntity
  8
PART
100
AcDbLine
 62
7
  6
CONTINUOUS
 10
275.499210165
 20
549.6216411769
 11
289.199210165
 21
549.6216411769
  0
LINE
  5
2B1
100
AcDbEntity
  8
PART_1
100
AcDbLine
 62
7
  6
CONTINUOUS
 10
269.499210165
 20
549.9216411769
 11
139.4912101655
 21
549.9216411769
  0
LINE
  5
2B2
100
AcDbEntity
  8
PART_1
100
AcDbLine
 62
7
  6
CONTINUOUS
 10
140.841210165
 20
552.1216411769
 11
267.299210165
 21
552.1216411769
  0
ARC
  5
2B3
100
AcDbEntity
  8
00_COMPONENTS_11
100
AcDbCircle
 62
7
  6
CONTINUOUS
 10
79.0842845947
 20
61.5802019437
 40
125.0675020715
100
AcDbArc
 50
355.0572202911
 51
355.203132992
  0
ARC
  5
2B4
100
AcDbEntity
  8
00_COMPONENTS_11
100
AcDbCircle
 62
7
  6
CONTINUOUS
 10
43.0842846457
 20
61.5802019393
 40
125.0675020203
100
AcDbArc
 50
355.0572202911
 51
355.203132992
  0
ARC
  5
2B5
100
AcDbEntity
  8
00_COMPONENTS_11
100
AcDbCircle
 62
7
  6
CONTINUOUS
 10
115.0842847183
 20
61.5802019331
 40
125.0675019474
100
AcDbArc
 50
355.0572202911
 51
355.2031329921
  0
ARC
  5
2B6
100
AcDbEntity
  8
00_COMPONENTS_11
100
AcDbCircle
 62
7
  6
CONTINUOUS
 10
163.489907195
 20
-33.7316427638
 40
82.898508827
100
AcDbArc
 50
90.0005088352
 51
90.3564563364
  0
ARC
  5
2B7
100
AcDbEntity
  8
00_COMPONENTS_11
100
AcDbCircle
 62
7
  6
CONTINUOUS
 10
163.492896804
 20
-32.2455871465
 40
81.4124532917
100
AcDbArc
 50
89.6401773418
 51
90.0026221253
  0
ARC
  5
2B8
100
AcDbEntity
  8
PART_1
100
AcDbCircle
 62
7
  6
CONTINUOUS
 10
140.841210165
 20
53.473680356
 40
1.3520391791
100
AcDbArc
 50
179.6936542781
 51
270.0
  0
ARC
  5
2B9
100
AcDbEntity
  8
00_COMPONENTS_11
100
AcDbCircle
 62
7
  6
CONTINUOUS
 10
164.2273749722
 20
52.7307958288
 40
3.9395836295
100
AcDbArc
 50
266.7520683933
 51
267.4138665492
  0
ARC
  5
2BA
100
AcDbEntity
  8
00_COMPONENTS_11
100
AcDbCircle
 62
7
  6
CONTINUOUS
 10
162.7509697545
 20
52.7307534013
 40
3.939541114
100
AcDbArc
 50
272.5809285239
 51
273.2479265639
  0
ARC
  5
2BB
100
AcDbEntity
  8
00_COMPONENTS_11
100
AcDbCircle
 62
7
  6
CONTINUOUS
 10
164.2271188065
 20
52.7252466523
 40
3.9340285462
100
AcDbArc
 50
267.413946931
 51
267.748431488
  0
ARC
  5
2BC
100
AcDbEntity
  8
00_COMPONENTS_11
100
AcDbCircle
 62
7
  6
CONTINUOUS
 10
162.7512983296
 20
52.7234594257
 40
3.9322397414
100
AcDbArc
 50
271.9121157544
 51
272.5809315743
  0
ARC
  5
2BD
100
AcDbEntity
  8
00_COMPONENTS_11
100
AcDbCircle
 62
7
  6
CONTINUOUS
 10
164.2269765192
 20
52.7216310079
 40
3.9304101032
100
AcDbArc
 50
267.7484333692
 51
268.0826627987
  0
ARC
  5
2BE
100
AcDbEntity
  8
00_COMPONENTS_11
100
AcDbCircle
 62
7
  6
CONTINUOUS
 10
164.2268217321
 20
52.7168904434
 40
3.9256670139
100
AcDbArc
 50
268.0826057682
 51
268.758457037
  0
ARC
  5
2BF
100
AcDbEntity
  8
00_COMPONENTS_11
100
AcDbCircle
 62
7
  6
CONTINUOUS
 10
162.7515218077
 20
52.7168291324
 40
3.9256056834
100
AcDbArc
 50
271.241539471
 51
271.912084756
  0
ARC
  5
2C0
100
AcDbEntity
  8
00_COMPONENTS_11
100
AcDbCircle
 62
7
  6
CONTINUOUS
 10
164.2267370908
 20
52.69692896
 40
3.9057031314
100
AcDbArc
 50
271.2430908553
 51
271.9099528146
  0
ARC
  5
2C1
100
AcDbEntity
  8
00_COMPONENTS_11
100
AcDbCircle
 62
7
  6
CONTINUOUS
 10
162.7516028125
 20
52.696864343
 40
3.9056384847
100
AcDbArc
 50
268.0840901991
 51
268.7569189159
  0
ARC
  5
2C2
100
AcDbEntity
  8
00_COMPONENTS_11
100
AcDbCircle
 62
7
  6
CONTINUOUS
 10
164.2267865104
 20
52.6953945409
 40
3.9041679177
100
AcDbArc
 50
271.9099784711
 51
272.2461030485
  0
ARC
  5
2C3
100
AcDbEntity
  8
00_COMPONENTS_11
100
AcDbCircle
 62
7
  6
CONTINUOUS
 10
162.7515428282
 20
52.6950062272
 40
3.9037794022
100
AcDbArc
 50
267.4119958434
 51
268.084058334
  0
ARC
  5
2C4
100
AcDbEntity
  8
00_COMPONENTS_11
100
AcDbCircle
 62
7
  6
CONTINUOUS
 10
164.2268215482
 20
52.6944979351
 40
3.9032706275
100
AcDbArc
 50
272.2461049377
 51
272.5819901661
  0
ARC
  5
2C5
100
AcDbEntity
  8
00_COMPONENTS_11
100
AcDbCircle
 62
7
  6
CONTINUOUS
 10
162.7514895637
 20
52.6938311313
 40
3.9026030998
100
AcDbArc
 50
266.7407979165
 51
267.4119980463
  0
ARC
  5
2C6
100
AcDbEntity
  8
00_COMPONENTS_11
100
AcDbCircle
 62
7
  6
CONTINUOUS
 10
164.2268516203
 20
52.6938288175
 40
3.9026008345
100
AcDbArc
 50
272.5819916561
 51
273.2592155592
  0
ARC
  5
2C7
100
AcDbEntity
  8
00_COMPONENTS_11
100
AcDbCircle
 62
7
  6
CONTINUOUS
 10
163.6910464342
 20
51.7984127924
 40
3.0689054875
100
AcDbArc
 50
281.6631843906
 51
284.1839330604
  0
ARC
  5
2C8
100
AcDbEntity
  8
00_COMPONENTS_11
100
AcDbCircle
 62
7
  6
CONTINUOUS
 10
158.9391709858
 20
50.4216538785
 40
0.2
100
AcDbArc
 50
180.0
 51
233.5080012584
  0
ARC
  5
2C9
100
AcDbEntity
  8
00_COMPONENTS_11
100
AcDbCircle
 62
7
  6
CONTINUOUS
 10
168.0391709858
 20
50.4216538785
 40
0.2
100
AcDbArc
 50
306.4919987416
 51
360.0
  0
ARC
  5
2CA
100
AcDbEntity
  8
00_COMPONENTS_11
100
AcDbCircle
 62
7
  6
CONTINUOUS
 10
165.803899971
 20
50.8083993522
 40
0.0867582071
100
AcDbArc
 50
257.2508912726
 51
269.9509771392
  0
ARC
  5
2CB
100
AcDbEntity
  8
00_COMPONENTS_11
100
AcDbCircle
 62
7
  6
CONTINUOUS
 10
161.1744402498
 20
50.8083734183
 40
0.0867322747
100
AcDbArc
 50
270.050194176
 51
282.7297754109
  0
ARC
  5
2CC
100
AcDbEntity
  8
00_COMPONENTS_11
100
AcDbCircle
 62
7
  6
CONTINUOUS
 10
163.4891709858
 20
56.5724224269
 40
7.85078125
100
AcDbArc
 50
289.3884975767
 51
306.4919975827
  0
ARC
  5
2CD
100
AcDbEntity
  8
00_COMPONENTS_11
100
AcDbCircle
 62
7
  6
CONTINUOUS
 10
163.4891709858
 20
56.5724224269
 40
7.85078125
100
AcDbArc
 50
233.5080024129
 51
250.6114639438
  0
ARC
  5
2CE
100
AcDbEntity
  8
00_COMPONENTS_11
100
AcDbCircle
 62
7
  6
CONTINUOUS
 10
163.4891709858
 20
56.5724224269
 40
7.8338714079
100
AcDbArc
 50
251.0019976877
 51
262.964275686
  0
ARC
  5
2CF
100
AcDbEntity
  8
00_COMPONENTS_11
100
AcDbCircle
 62
7
  6
CONTINUOUS
 10
163.4891709858
 20
56.5724224269
 40
7.8338714079
100
AcDbArc
 50
277.035724314
 51
288.9979915034
  0
ARC
  5
2D0
100
AcDbEntity
  8
00_COMPONENTS_11
100
AcDbCircle
 62
7
  6
CONTINUOUS
 10
163.488782158
 20
56.5977648782
 40
7.8328848587
100
AcDbArc
 50
274.8456496273
 51
275.0630744473
  0
ARC
  5
2D1
100
AcDbEntity
  8
00_COMPONENTS_11
100
AcDbCircle
 62
7
  6
CONTINUOUS
 10
163.4895542398
 20
56.5977007265
 40
7.8328204657
100
AcDbArc
 50
264.7963650003
 51
265.1543543435
  0
ARC
  5
2D2
100
AcDbEntity
  8
00_COMPONENTS_11
100
AcDbCircle
 62
7
  6
CONTINUOUS
 10
163.7838129538
 20
54.3220143153
 40
5.6155756371
100
AcDbArc
 50
254.0866751738
 51
258.537741672
  0
ARC
  5
2D3
100
AcDbEntity
  8
00_COMPONENTS_11
100
AcDbCircle
 62
7
  6
CONTINUOUS
 10
163.2470653211
 20
53.9753733537
 40
5.2606385482
100
AcDbArc
 50
279.8874500468
 51
281.6023915151
  0
ARC
  5
2D4
100
AcDbEntity
  8
00_COMPONENTS_11
100
AcDbCircle
 62
7
  6
CONTINUOUS
 10
163.2720654007
 20
53.9484427242
 40
5.2340476481
100
AcDbArc
 50
280.2028471614
 51
281.3938466144
  0
ARC
  5
2D5
100
AcDbEntity
  8
00_COMPONENTS_11
100
AcDbCircle
 62
7
  6
CONTINUOUS
 10
163.7058235132
 20
53.9457790588
 40
5.231345852
100
AcDbArc
 50
258.5954282033
 51
259.7968688282
  0
ARC
  5
2D6
100
AcDbEntity
  8
00_COMPONENTS_11
100
AcDbCircle
 62
7
  6
CONTINUOUS
 10
158.6188101443
 20
55.6216411769
 40
4.5
100
AcDbArc
 50
232.7886697407
 51
270.0
  0
ARC
  5
2D7
100
AcDbEntity
  8
PART_1
100
AcDbCircle
 62
7
  6
CONTINUOUS
 10
141.391210165
 20
83.0442909077
 40
2.0
100
AcDbArc
 50
163.4182812601
 51
180.0
  0
ARC
  5
2D8
100
AcDbEntity
  8
PART_1
100
AcDbCircle
 62
7
  6
CONTINUOUS
 10
141.391210165
 20
71.198991446
 40
2.0
100
AcDbArc
 50
180.0
 51
196.5817187399
  0
ARC
  5
2D9
100
AcDbEntity
  8
00_COMPONENTS_11
100
AcDbCircle
 62
7
  6
CONTINUOUS
 10
198.7509697545
 20
52.7307534012
 40
3.939541114
100
AcDbArc
 50
272.5809285239
 51
273.2479265639
  0
ARC
  5
2DA
100
AcDbEntity
  8
00_COMPONENTS_11
100
AcDbCircle
 62
7
  6
CONTINUOUS
 10
198.7512983295
 20
52.7234594264
 40
3.9322397421
100
AcDbArc
 50
271.9121157544
 51
272.5809315742
  0
ARC
  5
2DB
100
AcDbEntity
  8
00_COMPONENTS_11
100
AcDbCircle
 62
7
  6
CONTINUOUS
 10
198.7515218077
 20
52.7168291319
 40
3.9256056829
100
AcDbArc
 50
271.2415394709
 51
271.912084756
  0
ARC
  5
2DC
100
AcDbEntity
  8
00_COMPONENTS_11
100
AcDbCircle
 62
7
  6
CONTINUOUS
 10
198.7516028125
 20
52.696864343
 40
3.9056384847
100
AcDbArc
 50
268.0840901991
 51
268.7569189159
  0
ARC
  5
2DD
100
AcDbEntity
  8
00_COMPONENTS_11
100
AcDbCircle
 62
7
  6
CONTINUOUS
 10
198.7515428282
 20
52.6950062272
 40
3.9037794022
100
AcDbArc
 50
267.4119958434
 51
268.084058334
  0
ARC
  5
2DE
100
AcDbEntity
  8
00_COMPONENTS_11
100
AcDbCircle
 62
7
  6
CONTINUOUS
 10
198.7514895637
 20
52.6938311313
 40
3.9026030998
100
AcDbArc
 50
266.7407979165
 51
267.4119980463
  0
ARC
  5
2DF
100
AcDbEntity
  8
00_COMPONENTS_11
100
AcDbCircle
 62
7
  6
CONTINUOUS
 10
194.9391709858
 20
50.4216538785
 40
0.2
100
AcDbArc
 50
180.0
 51
233.5080012584
  0
ARC
  5
2E0
100
AcDbEntity
  8
00_COMPONENTS_11
100
AcDbCircle
 62
7
  6
CONTINUOUS
 10
197.1744402498
 20
50.8083734183
 40
0.0867322747
100
AcDbArc
 50
270.050194176
 51
282.7297754109
  0
ARC
  5
2E1
100
AcDbEntity
  8
PART_1
100
AcDbCircle
 62
7
  6
CONTINUOUS
 10
141.391210165
 20
533.0442909077
 40
2.0
100
AcDbArc
 50
163.4182812601
 51
180.0
  0
ARC
  5
2E2
100
AcDbEntity
  8
PART_1
100
AcDbCircle
 62
7
  6
CONTINUOUS
 10
141.391210165
 20
521.198991446
 40
2.0
100
AcDbArc
 50
180.0
 51
196.5817187399
  0
ARC
  5
2E3
100
AcDbEntity
  8
PART_1
100
AcDbCircle
 62
7
  6
CONTINUOUS
 10
140.841210165
 20
550.7696019978
 40
1.3520391791
100
AcDbArc
 50
90.0
 51
218.8417685855
  0
ARC
  5
2E4
100
AcDbEntity
  8
PART_1
100
AcDbCircle
 62
7
  6
CONTINUOUS
 10
140.841210165
 20
550.7696019978
 40
0.1520391791
100
AcDbArc
 50
90.0
 51
218.8417685981
  0
ARC
  5
2E5
100
AcDbEntity
  8
00_COMPONENTS_11
100
AcDbCircle
 62
7
  6
CONTINUOUS
 10
199.489907195
 20
-33.7316427638
 40
82.8985088271
100
AcDbArc
 50
90.0005088352
 51
90.3564563364
  0
ARC
  5
2E6
100
AcDbEntity
  8
00_COMPONENTS_11
100
AcDbCircle
 62
7
  6
CONTINUOUS
 10
199.492896804
 20
-32.2455871438
 40
81.412453289
100
AcDbArc
 50
89.6401773418
 51
90.0026221253
  0
ARC
  5
2E7
100
AcDbEntity
  8
00_COMPONENTS_11
100
AcDbCircle
 62
7
  6
CONTINUOUS
 10
200.2273749722
 20
52.7307958286
 40
3.9395836293
100
AcDbArc
 50
266.7520683933
 51
267.4138665492
  0
ARC
  5
2E8
100
AcDbEntity
  8
00_COMPONENTS_11
100
AcDbCircle
 62
7
  6
CONTINUOUS
 10
200.2271188066
 20
52.7252466547
 40
3.9340285486
100
AcDbArc
 50
267.4139469311
 51
267.7484314879
  0
ARC
  5
2E9
100
AcDbEntity
  8
00_COMPONENTS_11
100
AcDbCircle
 62
7
  6
CONTINUOUS
 10
200.2269765191
 20
52.7216310068
 40
3.930410102
100
AcDbArc
 50
267.7484333691
 51
268.0826627987
  0
ARC
  5
2EA
100
AcDbEntity
  8
00_COMPONENTS_11
100
AcDbCircle
 62
7
  6
CONTINUOUS
 10
200.2268217321
 20
52.7168904434
 40
3.9256670139
100
AcDbArc
 50
268.0826057682
 51
268.758457037
  0
ARC
  5
2EB
100
AcDbEntity
  8
00_COMPONENTS_11
100
AcDbCircle
 62
7
  6
CONTINUOUS
 10
200.2267370908
 20
52.69692896
 40
3.9057031314
100
AcDbArc
 50
271.2430908553
 51
271.9099528146
  0
ARC
  5
2EC
100
AcDbEntity
  8
00_COMPONENTS_11
100
AcDbCircle
 62
7
  6
CONTINUOUS
 10
200.2267865104
 20
52.6953945409
 40
3.9041679177
100
AcDbArc
 50
271.9099784711
 51
272.2461030485
  0
ARC
  5
2ED
100
AcDbEntity
  8
00_COMPONENTS_11
100
AcDbCircle
 62
7
  6
CONTINUOUS
 10
200.2268215482
 20
52.6944979354
 40
3.9032706279
100
AcDbArc
 50
272.2461049377
 51
272.5819901661
  0
ARC
  5
2EE
100
AcDbEntity
  8
00_COMPONENTS_11
100
AcDbCircle
 62
7
  6
CONTINUOUS
 10
200.2268516203
 20
52.6938288174
 40
3.9026008344
100
AcDbArc
 50
272.5819916561
 51
273.2592155592
  0
ARC
  5
2EF
100
AcDbEntity
  8
00_COMPONENTS_11
100
AcDbCircle
 62
7
  6
CONTINUOUS
 10
199.6910464342
 20
51.7984127924
 40
3.0689054875
100
AcDbArc
 50
281.6631843906
 51
284.1839330604
  0
ARC
  5
2F0
100
AcDbEntity
  8
00_COMPONENTS_11
100
AcDbCircle
 62
7
  6
CONTINUOUS
 10
204.0391709858
 20
50.4216538785
 40
0.2
100
AcDbArc
 50
306.4919987416
 51
360.0
  0
ARC
  5
2F1
100
AcDbEntity
  8
00_COMPONENTS_11
100
AcDbCircle
 62
7
  6
CONTINUOUS
 10
201.803899971
 20
50.8083993522
 40
0.0867582071
100
AcDbArc
 50
257.2508912723
 51
269.9509771394
  0
ARC
  5
2F2
100
AcDbEntity
  8
00_COMPONENTS_11
100
AcDbCircle
 62
7
  6
CONTINUOUS
 10
199.4891709858
 20
56.5724224269
 40
7.85078125
100
AcDbArc
 50
289.3884975767
 51
306.4919975827
  0
ARC
  5
2F3
100
AcDbEntity
  8
00_COMPONENTS_11
100
AcDbCircle
 62
7
  6
CONTINUOUS
 10
199.4891709858
 20
56.5724224269
 40
7.85078125
100
AcDbArc
 50
233.5080024129
 51
250.6114639438
  0
ARC
  5
2F4
100
AcDbEntity
  8
00_COMPONENTS_11
100
AcDbCircle
 62
7
  6
CONTINUOUS
 10
199.4891709858
 20
56.5724224269
 40
7.8338714079
100
AcDbArc
 50
251.0019976877
 51
262.964275686
  0
ARC
  5
2F5
100
AcDbEntity
  8
00_COMPONENTS_11
100
AcDbCircle
 62
7
  6
CONTINUOUS
 10
199.4891709858
 20
56.5724224269
 40
7.8338714079
100
AcDbArc
 50
277.035724314
 51
288.9979915034
  0
ARC
  5
2F6
100
AcDbEntity
  8
00_COMPONENTS_11
100
AcDbCircle
 62
7
  6
CONTINUOUS
 10
199.4887821571
 20
56.5977648885
 40
7.832884869
100
AcDbArc
 50
274.8456496275
 51
275.0630744472
  0
ARC
  5
2F7
100
AcDbEntity
  8
00_COMPONENTS_11
100
AcDbCircle
 62
7
  6
CONTINUOUS
 10
199.4895542398
 20
56.5977007268
 40
7.832820466
100
AcDbArc
 50
264.7963650003
 51
265.1543543435
  0
ARC
  5
2F8
100
AcDbEntity
  8
00_COMPONENTS_11
100
AcDbCircle
 62
7
  6
CONTINUOUS
 10
199.7838129538
 20
54.3220143153
 40
5.6155756371
100
AcDbArc
 50
254.0866751738
 51
258.537741672
  0
ARC
  5
2F9
100
AcDbEntity
  8
00_COMPONENTS_11
100
AcDbCircle
 62
7
  6
CONTINUOUS
 10
199.2470653212
 20
53.9753733535
 40
5.2606385481
100
AcDbArc
 50
279.8874500467
 51
281.6023915151
  0
ARC
  5
2FA
100
AcDbEntity
  8
00_COMPONENTS_11
100
AcDbCircle
 62
7
  6
CONTINUOUS
 10
199.2720654008
 20
53.9484427241
 40
5.234047648
100
AcDbArc
 50
280.2028471614
 51
281.3938466144
  0
ARC
  5
2FB
100
AcDbEntity
  8
00_COMPONENTS_11
100
AcDbCircle
 62
7
  6
CONTINUOUS
 10
199.7058235132
 20
53.9457790587
 40
5.231345852
100
AcDbArc
 50
258.5954282033
 51
259.7968688282
  0
ARC
  5
2FC
100
AcDbEntity
  8
00_COMPONENTS_11
100
AcDbCircle
 62
7
  6
CONTINUOUS
 10
234.7509697544
 20
52.7307534017
 40
3.9395411145
100
AcDbArc
 50
272.580928524
 51
273.2479265639
  0
ARC
  5
2FD
100
AcDbEntity
  8
00_COMPONENTS_11
100
AcDbCircle
 62
7
  6
CONTINUOUS
 10
234.7512983295
 20
52.7234594263
 40
3.9322397421
100
AcDbArc
 50
271.9121157544
 51
272.5809315742
  0
ARC
  5
2FE
100
AcDbEntity
  8
00_COMPONENTS_11
100
AcDbCircle
 62
7
  6
CONTINUOUS
 10
234.7515218077
 20
52.716829132
 40
3.9256056829
100
AcDbArc
 50
271.2415394709
 51
271.912084756
  0
ARC
  5
2FF
100
AcDbEntity
  8
00_COMPONENTS_11
100
AcDbCircle
 62
7
  6
CONTINUOUS
 10
234.7516028125
 20
52.696864343
 40
3.9056384847
100
AcDbArc
 50
268.0840901991
 51
268.7569189159
  0
ARC
  5
300
100
AcDbEntity
  8
00_COMPONENTS_11
100
AcDbCircle
 62
7
  6
CONTINUOUS
 10
234.7515428282
 20
52.6950062273
 40
3.9037794024
100
AcDbArc
 50
267.4119958434
 51
268.084058334
  0
ARC
  5
301
100
AcDbEntity
  8
00_COMPONENTS_11
100
AcDbCircle
 62
7
  6
CONTINUOUS
 10
234.7514895637
 20
52.6938311316
 40
3.9026031001
100
AcDbArc
 50
266.7407979165
 51
267.4119980463
  0
ARC
  5
302
100
AcDbEntity
  8
00_COMPONENTS_11
100
AcDbCircle
 62
7
  6
CONTINUOUS
 10
230.9391709858
 20
50.4216538785
 40
0.2
100
AcDbArc
 50
180.0
 51
233.5080012584
  0
ARC
  5
303
100
AcDbEntity
  8
00_COMPONENTS_11
100
AcDbCircle
 62
7
  6
CONTINUOUS
 10
233.1744402498
 20
50.8083734183
 40
0.0867322747
100
AcDbArc
 50
270.0501941761
 51
282.7297754108
  0
ARC
  5
304
100
AcDbEntity
  8
00_COMPONENTS_11
100
AcDbCircle
 62
7
  6
CONTINUOUS
 10
235.489907195
 20
-33.7316427638
 40
82.898508827
100
AcDbArc
 50
90.0005088352
 51
90.3564563364
  0
ARC
  5
305
100
AcDbEntity
  8
00_COMPONENTS_11
100
AcDbCircle
 62
7
  6
CONTINUOUS
 10
235.492896804
 20
-32.2455871466
 40
81.4124532918
100
AcDbArc
 50
89.6401773418
 51
90.0026221253
  0
ARC
  5
306
100
AcDbEntity
  8
00_COMPONENTS_11
100
AcDbCircle
 62
7
  6
CONTINUOUS
 10
235.4891709858
 20
56.5724224269
 40
7.85078125
100
AcDbArc
 50
289.3884975767
 51
306.4919975827
  0
ARC
  5
307
100
AcDbEntity
  8
00_COMPONENTS_11
100
AcDbCircle
 62
7
  6
CONTINUOUS
 10
235.4891709858
 20
56.5724224269
 40
7.85078125
100
AcDbArc
 50
233.5080024129
 51
250.6114639438
  0
ARC
  5
308
100
AcDbEntity
  8
00_COMPONENTS_11
100
AcDbCircle
 62
7
  6
CONTINUOUS
 10
235.4891709858
 20
56.5724224269
 40
7.8338714079
100
AcDbArc
 50
251.0019976877
 51
262.964275686
  0
ARC
  5
309
100
AcDbEntity
  8
00_COMPONENTS_11
100
AcDbCircle
 62
7
  6
CONTINUOUS
 10
235.4891709858
 20
56.5724224269
 40
7.8338714079
100
AcDbArc
 50
277.035724314
 51
288.9979915034
  0
ARC
  5
30A
100
AcDbEntity
  8
00_COMPONENTS_11
100
AcDbCircle
 62
7
  6
CONTINUOUS
 10
235.4887821581
 20
56.5977648772
 40
7.8328848577
100
AcDbArc
 50
274.8456496273
 51
275.0630744473
  0
ARC
  5
30B
100
AcDbEntity
  8
00_COMPONENTS_11
100
AcDbCircle
 62
7
  6
CONTINUOUS
 10
235.4895542401
 20
56.5977007293
 40
7.8328204685
100
AcDbArc
 50
264.7963650004
 51
265.1543543434
  0
ARC
  5
30C
100
AcDbEntity
  8
00_COMPONENTS_11
100
AcDbCircle
 62
7
  6
CONTINUOUS
 10
235.7838129538
 20
54.3220143153
 40
5.6155756371
100
AcDbArc
 50
254.0866751738
 51
258.537741672
  0
ARC
  5
30D
100
AcDbEntity
  8
00_COMPONENTS_11
100
AcDbCircle
 62
7
  6
CONTINUOUS
 10
235.2470653211
 20
53.9753733538
 40
5.2606385484
100
AcDbArc
 50
279.8874500468
 51
281.6023915151
  0
ARC
  5
30E
100
AcDbEntity
  8
00_COMPONENTS_11
100
AcDbCircle
 62
7
  6
CONTINUOUS
 10
235.2720654008
 20
53.948442724
 40
5.2340476479
100
AcDbArc
 50
280.2028471614
 51
281.3938466144
  0
ARC
  5
30F
100
AcDbEntity
  8
00_COMPONENTS_11
100
AcDbCircle
 62
7
  6
CONTINUOUS
 10
235.7058235132
 20
53.9457790588
 40
5.231345852
100
AcDbArc
 50
258.5954282033
 51
259.7968688282
  0
ARC
  5
310
100
AcDbEntity
  8
00_COMPONENTS_11
100
AcDbCircle
 62
7
  6
CONTINUOUS
 10
240.3595318274
 20
55.6216411769
 40
4.5
100
AcDbArc
 50
270.0
 51
307.2113302593
  0
ARC
  5
311
100
AcDbEntity
  8
00_COMPONENTS_11
100
AcDbCircle
 62
7
  6
CONTINUOUS
 10
236.2273749722
 20
52.7307958288
 40
3.9395836295
100
AcDbArc
 50
266.7520683933
 51
267.4138665492
  0
ARC
  5
312
100
AcDbEntity
  8
00_COMPONENTS_11
100
AcDbCircle
 62
7
  6
CONTINUOUS
 10
236.2271188066
 20
52.7252466535
 40
3.9340285474
100
AcDbArc
 50
267.4139469311
 51
267.748431488
  0
ARC
  5
313
100
AcDbEntity
  8
00_COMPONENTS_11
100
AcDbCircle
 62
7
  6
CONTINUOUS
 10
236.2269765191
 20
52.7216310068
 40
3.930410102
100
AcDbArc
 50
267.7484333691
 51
268.0826627987
  0
ARC
  5
314
100
AcDbEntity
  8
00_COMPONENTS_11
100
AcDbCircle
 62
7
  6
CONTINUOUS
 10
236.2268217321
 20
52.7168904434
 40
3.9256670139
100
AcDbArc
 50
268.0826057682
 51
268.758457037
  0
ARC
  5
315
100
AcDbEntity
  8
00_COMPONENTS_11
100
AcDbCircle
 62
7
  6
CONTINUOUS
 10
236.2267370908
 20
52.69692896
 40
3.9057031314
100
AcDbArc
 50
271.2430908553
 51
271.9099528146
  0
ARC
  5
316
100
AcDbEntity
  8
00_COMPONENTS_11
100
AcDbCircle
 62
7
  6
CONTINUOUS
 10
236.2267865105
 20
52.6953945385
 40
3.9041679153
100
AcDbArc
 50
271.909978471
 51
272.2461030486
  0
ARC
  5
317
100
AcDbEntity
  8
00_COMPONENTS_11
100
AcDbCircle
 62
7
  6
CONTINUOUS
 10
236.2268215483
 20
52.6944979347
 40
3.9032706272
100
AcDbArc
 50
272.2461049377
 51
272.5819901661
  0
ARC
  5
318
100
AcDbEntity
  8
00_COMPONENTS_11
100
AcDbCircle
 62
7
  6
CONTINUOUS
 10
236.2268516204
 20
52.6938288174
 40
3.9026008344
100
AcDbArc
 50
272.5819916561
 51
273.2592155593
  0
ARC
  5
319
100
AcDbEntity
  8
00_COMPONENTS_11
100
AcDbCircle
 62
7
  6
CONTINUOUS
 10
235.6910464342
 20
51.7984127924
 40
3.0689054875
100
AcDbArc
 50
281.6631843906
 51
284.1839330604
  0
ARC
  5
31A
100
AcDbEntity
  8
PART_1
100
AcDbCircle
 62
7
  6
CONTINUOUS
 10
267.299210165
 20
54.3216411769
 40
2.2
100
AcDbArc
 50
270.0
 51
360.0
  0
ARC
  5
31B
100
AcDbEntity
  8
PART_1
100
AcDbCircle
 62
7
  6
CONTINUOUS
 10
270.499210165
 20
71.4216411769
 40
1.0
100
AcDbArc
 50
90.0
 51
180.0
  0
ARC
  5
31C
100
AcDbEntity
  8
00_COMPONENTS_11
100
AcDbCircle
 62
7
  6
CONTINUOUS
 10
240.0391709858
 20
50.4216538785
 40
0.2
100
AcDbArc
 50
306.4919987416
 51
360.0
  0
ARC
  5
31D
100
AcDbEntity
  8
00_COMPONENTS_11
100
AcDbCircle
 62
7
  6
CONTINUOUS
 10
237.803899971
 20
50.8083993522
 40
0.0867582071
100
AcDbArc
 50
257.2508912724
 51
269.9509771392
  0
ARC
  5
31E
100
AcDbEntity
  8
00_COMPONENTS_11
100
AcDbCircle
 62
7
  6
CONTINUOUS
 10
283.3781006652
 20
61.5364521423
 40
124.5496945621
100
AcDbArc
 50
184.7966598129
 51
184.9431791265
  0
ARC
  5
31F
100
AcDbEntity
  8
00_COMPONENTS_11
100
AcDbCircle
 62
7
  6
CONTINUOUS
 10
319.3781006652
 20
61.5364521423
 40
124.5496945621
100
AcDbArc
 50
184.7966598129
 51
184.9431791265
  0
ARC
  5
320
100
AcDbEntity
  8
00_COMPONENTS_11
100
AcDbCircle
 62
7
  6
CONTINUOUS
 10
355.3781006161
 20
61.5364521381
 40
124.5496945129
100
AcDbArc
 50
184.7966598129
 51
184.9431791265
  0
ARC
  5
321
100
AcDbEntity
  8
PART
100
AcDbCircle
 62
7
  6
CONTINUOUS
 10
289.199210165
 20
57.1216411769
 40
2.5
100
AcDbArc
 50
270.0
 51
360.0
  0
ARC
  5
322
100
AcDbEntity
  8
0
100
AcDbCircle
 62
7
  6
CONTINUOUS
 10
294.699210165
 20
180.3716411769
 40
1.5
100
AcDbArc
 50
0.0
 51
17.5133803758
  0
ARC
  5
323
100
AcDbEntity
  8
0
100
AcDbCircle
 62
7
  6
CONTINUOUS
 10
294.699210165
 20
156.8716411769
 40
1.5
100
AcDbArc
 50
342.4866196242
 51
359.9999998695
  0
ARC
  5
324
100
AcDbEntity
  8
0
100
AcDbCircle
 62
7
  6
CONTINUOUS
 10
292.569210165
 20
150.1216411769
 40
1.5
100
AcDbArc
 50
270.0
 51
342.4866196242
  0
ARC
  5
325
100
AcDbEntity
  8
0
100
AcDbCircle
 62
7
  6
CONTINUOUS
 10
292.569210165
 20
187.1216411769
 40
1.5
100
AcDbArc
 50
17.5133803758
 51
90.0
  0
ARC
  5
326
100
AcDbEntity
  8
PART
100
AcDbCircle
 62
7
  6
CONTINUOUS
 10
289.199210165
 20
547.1216411769
 40
2.5
100
AcDbArc
 50
0.0
 51
90.0
  0
ARC
  5
327
100
AcDbEntity
  8
PART_1
100
AcDbCircle
 62
7
  6
CONTINUOUS
 10
267.299210165
 20
549.9216411769
 40
2.2
100
AcDbArc
 50
0.0
 51
90.0
  0
ARC
  5
328
100
AcDbEntity
  8
0
100
AcDbCircle
 62
7
  6
CONTINUOUS
 10
294.699210165
 20
447.3716411769
 40
1.5
100
AcDbArc
 50
0.0
 51
17.5133803758
  0
ARC
  5
329
100
AcDbEntity
  8
0
100
AcDbCircle
 62
7
  6
CONTINUOUS
 10
294.699210165
 20
423.8716411769
 40
1.5
100
AcDbArc
 50
342.4866196242
 51
359.9999998695
  0
ARC
  5
32A
100
AcDbEntity
  8
0
100
AcDbCircle
 62
7
  6
CONTINUOUS
 10
292.569210165
 20
417.1216411769
 40
1.5
100
AcDbArc
 50
270.0
 51
342.4866196242
  0
ARC
  5
32B
100
AcDbEntity
  8
0
100
AcDbCircle
 62
7
  6
CONTINUOUS
 10
292.569210165
 20
454.1216411769
 40
1.5
100
AcDbArc
 50
17.5133803758
 51
90.0
  0
ARC
  5
32C
100
AcDbEntity
  8
PART_1
100
AcDbCircle
 62
7
  6
CONTINUOUS
 10
267.299210165
 20
549.9216411769
 40
1.0
100
AcDbArc
 50
0.0
 51
90.0
  0
ARC
  5
32D
100
AcDbEntity
  8
PART_1
100
AcDbCircle
 62
7
  6
CONTINUOUS
 10
270.499210165
 20
532.8216411769
 40
1.0
100
AcDbArc
 50
180.0
 51
270.0
  0
SPLINE
  5
32E
100
AcDbEntity
  8
00_COMPONENTS_11
100
AcDbSpline
 62
7
  6
CONTINUOUS
 70
0
 71
3
 72
9
 73
5
 74
0
 42
0.0000001
 43
0.0000001
 44
0.0000000001
 40
0.0
 40
0.0
 40
0.0
 40
0.0
 40
0.2550951787
 40
1.0
 40
1.0
 40
1.0
 40
1.0
 10
236.8789354668
 20
48.9716411769
 30
0.0
 10
236.8312351521
 20
48.9566647859
 30
0.0
 10
236.6435588162
 20
48.9001768021
 30
0.0
 10
236.4531212734
 20
48.8527578825
 30
0.0
 10
236.3101369452
 20
48.8232669407
 30
0.0
  0
SPLINE
  5
32F
100
AcDbEntity
  8
00_COMPONENTS_11
100
AcDbSpline
 62
7
  6
CONTINUOUS
 70
0
 71
3
 72
12
 73
8
 74
0
 42
0.0000001
 43
0.0000001
 44
0.0000000001
 40
0.0
 40
0.0
 40
0.0
 40
0.0
 40
0.3668787521
 40
0.6669026771
 40
0.7834605754
 40
0.8762559009
 40
1.0
 40
1.0
 40
1.0
 40
1.0
 10
240.0294182129
 20
50.8042836435
 30
0.0
 10
240.0300259814
 20
50.7930929327
 30
0.0
 10
240.0322280083
 20
50.77278704
 30
0.0
 10
240.0377329411
 20
50.7494135913
 30
0.0
 10
240.0439259968
 20
50.7349907705
 30
0.0
 10
240.0490737151
 20
50.7264400382
 30
0.0
 10
240.055090076
 20
50.7216411769
 30
0.0
 10
240.0588701401
 20
50.7216411769
 30
0.0
  0
SPLINE
  5
330
100
AcDbEntity
  8
00_COMPONENTS_11
100
AcDbSpline
 62
7
  6
CONTINUOUS
 70
0
 71
3
 72
9
 73
5
 74
0
 42
0.0000001
 43
0.0000001
 44
0.0000000001
 40
0.0
 40
0.0
 40
0.0
 40
0.0
 40
0.5178173237
 40
1.0
 40
1.0
 40
1.0
 40
1.0
 10
237.7125302687
 20
50.804283642
 30
0.0
 10
237.7156758051
 20
50.7850221931
 30
0.0
 10
237.7323708676
 20
50.7485428578
 30
0.0
 10
237.7670278149
 20
50.727787653
 30
0.0
 10
237.7847539735
 20
50.7237801033
 30
0.0
  0
LINE
  5
331
100
AcDbEntity
  8
00_COMPONENTS_11
100
AcDbLine
 62
7
  6
CONTINUOUS
 10
237.7125302687
 20
50.804283642
 11
237.6607146166
 21
51.1216377725
  0
SPLINE
  5
332
100
AcDbEntity
  8
00_COMPONENTS_11
100
AcDbSpline
 62
7
  6
CONTINUOUS
 70
0
 71
3
 72
9
 73
5
 74
0
 42
0.0000001
 43
0.0000001
 44
0.0000000001
 40
0.0
 40
0.0
 40
0.0
 40
0.0
 40
0.4822216116
 40
1.0
 40
1.0
 40
1.0
 40
1.0
 10
233.1935519788
 20
50.7237730088
 30
0.0
 10
233.2112865046
 20
50.7277757176
 30
0.0
 10
233.2459638242
 20
50.7485254697
 30
0.0
 10
233.2626654469
 20
50.785017787
 30
0.0
 10
233.2658117206
 20
50.8042837511
 30
0.0
  0
LINE
  5
333
100
AcDbEntity
  8
00_COMPONENTS_11
100
AcDbLine
 62
7
  6
CONTINUOUS
 10
233.2658117206
 20
50.8042837511
 11
233.3176263628
 21
51.1216379496
  0
SPLINE
  5
334
100
AcDbEntity
  8
00_COMPONENTS_11
100
AcDbSpline
 62
7
  6
CONTINUOUS
 70
0
 71
3
 72
12
 73
8
 74
0
 42
0.0000001
 43
0.0000001
 44
0.0000000001
 40
0.0
 40
0.0
 40
0.0
 40
0.0
 40
0.1237637414
 40
0.2165706651
 40
0.3331384703
 40
0.6331611196
 40
1.0
 40
1.0
 40
1.0
 40
1.0
 10
230.9194718316
 20
50.7216411769
 30
0.0
 10
230.9232524804
 20
50.7216411769
 30
0.0
 10
230.9292686708
 20
50.7264424598
 30
0.0
 10
230.9344173475
 20
50.7349936446
 30
0.0
 10
230.940610275
 20
50.7494173102
 30
0.0
 10
230.9461148806
 20
50.7727896329
 30
0.0
 10
230.9483160647
 20
50.7930943031
 30
0.0
 10
230.9489237646
 20
50.8042837526
 30
0.0
  0
LINE
  5
335
100
AcDbEntity
  8
00_COMPONENTS_11
100
AcDbLine
 62
7
  6
CONTINUOUS
 10
230.9489237646
 20
50.8042837526
 11
230.966443152
 21
51.1216379496
  0
LINE
  5
336
100
AcDbEntity
  8
00_COMPONENTS_11
100
AcDbLine
 62
7
  6
CONTINUOUS
 10
240.0294182129
 20
50.8042836435
 11
240.0118984865
 21
51.1216377725
  0
SPLINE
  5
337
100
AcDbEntity
  8
00_COMPONENTS_11
100
AcDbSpline
 62
7
  6
CONTINUOUS
 70
0
 71
3
 72
9
 73
5
 74
0
 42
0.0000001
 43
0.0000001
 44
0.0000000001
 40
0.0
 40
0.0
 40
0.0
 40
0.0
 40
0.5052624746
 40
1.0
 40
1.0
 40
1.0
 40
1.0
 10
234.0932286105
 20
50.804283642
 30
0.0
 10
234.0972666898
 20
50.7814233198
 30
0.0
 10
234.1226385327
 20
50.7376321308
 30
0.0
 10
234.1701573157
 20
50.7216411769
 30
0.0
 10
234.1928879768
 20
50.7216411769
 30
0.0
  0
SPLINE
  5
338
100
AcDbEntity
  8
00_COMPONENTS_11
100
AcDbSpline
 62
7
  6
CONTINUOUS
 70
0
 71
3
 72
9
 73
5
 74
0
 42
0.0000001
 43
0.0000001
 44
0.0000000001
 40
0.0
 40
0.0
 40
0.0
 40
0.0
 40
0.2542271467
 40
1.0
 40
1.0
 40
1.0
 40
1.0
 10
236.4430372966
 20
48.8230656473
 30
0.0
 10
236.4808949585
 20
48.8326436962
 30
0.0
 10
236.6290506258
 20
48.8732274411
 30
0.0
 10
236.7739978012
 20
48.9256981112
 30
0.0
 10
236.8789354668
 20
48.9716411769
 30
0.0
  0
SPLINE
  5
339
100
AcDbEntity
  8
00_COMPONENTS_11
100
AcDbSpline
 62
7
  6
CONTINUOUS
 70
0
 71
3
 72
12
 73
8
 74
0
 42
0.0000001
 43
0.0000001
 44
0.0000000001
 40
0.0
 40
0.0
 40
0.0
 40
0.0
 40
0.3270039792
 40
0.54176599
 40
0.7225688652
 40
0.8713760224
 40
1.0
 40
1.0
 40
1.0
 40
1.0
 10
231.2916510631
 20
50.8042836435
 30
0.0
 10
231.2926264575
 20
50.7930075776
 30
0.0
 10
231.2958082928
 20
50.7743771051
 30
0.0
 10
231.3046283538
 20
50.750840339
 30
0.0
 10
231.3148409097
 20
50.734790884
 30
0.0
 10
231.3271477611
 20
50.7242471262
 30
0.0
 10
231.3368433214
 20
50.7216411769
 30
0.0
 10
231.3412952199
 20
50.7216411769
 30
0.0
  0
SPLINE
  5
33A
100
AcDbEntity
  8
00_COMPONENTS_11
100
AcDbSpline
 62
7
  6
CONTINUOUS
 70
0
 71
3
 72
9
 73
5
 74
0
 42
0.0000001
 43
0.0000001
 44
0.0000000001
 40
0.0
 40
0.0
 40
0.0
 40
0.0
 40
0.4947805499
 40
1.0
 40
1.0
 40
1.0
 40
1.0
 10
236.7854539949
 20
50.7216411769
 30
0.0
 10
236.8081866684
 20
50.7216411769
 30
0.0
 10
236.8557059873
 20
50.7376338618
 30
0.0
 10
236.8810756386
 20
50.7814253397
 30
0.0
 10
236.8851133804
 20
50.8042837511
 30
0.0
  0
LINE
  5
33B
100
AcDbEntity
  8
00_COMPONENTS_11
100
AcDbLine
 62
7
  6
CONTINUOUS
 10
236.8851133804
 20
50.8042837511
 11
236.9408709625
 21
51.1216379496
  0
SPLINE
  5
33C
100
AcDbEntity
  8
00_COMPONENTS_11
100
AcDbSpline
 62
7
  6
CONTINUOUS
 70
0
 71
3
 72
9
 73
5
 74
0
 42
0.0000001
 43
0.0000001
 44
0.0000000001
 40
0.0
 40
0.0
 40
0.0
 40
0.0
 40
0.2461014618
 40
1.0
 40
1.0
 40
1.0
 40
1.0
 10
234.2441182761
 20
48.9216411769
 30
0.0
 10
234.2779253867
 20
48.908747523
 30
0.0
 10
234.4163341906
 20
48.8591038365
 30
0.0
 10
234.5586309904
 20
48.8204318769
 30
0.0
 10
234.6670007577
 20
48.7971620818
 30
0.0
  0
SPLINE
  5
33D
100
AcDbEntity
  8
00_COMPONENTS_11
100
AcDbSpline
 62
7
  6
CONTINUOUS
 70
0
 71
3
 72
11
 73
7
 74
0
 42
0.0000001
 43
0.0000001
 44
0.0000000001
 40
0.0
 40
0.0
 40
0.0
 40
0.0
 40
0.1744012102
 40
0.3334981697
 40
0.526315733
 40
1.0
 40
1.0
 40
1.0
 40
1.0
 10
239.6370467518
 20
50.7216411769
 30
0.0
 10
239.6430684811
 20
50.7216411769
 30
0.0
 10
239.6546537159
 20
50.7260263889
 30
0.0
 10
239.6671205072
 20
50.7395754336
 30
0.0
 10
239.6806636586
 20
50.7648967827
 30
0.0
 10
239.6852814195
 20
50.7879892186
 30
0.0
 10
239.6866909179
 20
50.8042837526
 30
0.0
  0
LINE
  5
33E
100
AcDbEntity
  8
00_COMPONENTS_11
100
AcDbLine
 62
7
  6
CONTINUOUS
 10
234.0932286105
 20
50.804283642
 11
234.0374699391
 21
51.1216377725
  0
SPLINE
  5
33F
100
AcDbEntity
  8
00_COMPONENTS_11
100
AcDbSpline
 62
7
  6
CONTINUOUS
 70
0
 71
3
 72
9
 73
5
 74
0
 42
0.0000001
 43
0.0000001
 44
0.0000000001
 40
0.0
 40
0.0
 40
0.0
 40
0.0
 40
0.2550951787
 40
1.0
 40
1.0
 40
1.0
 40
1.0
 10
164.8789354668
 20
48.9716411769
 30
0.0
 10
164.8312351521
 20
48.9566647859
 30
0.0
 10
164.6435588162
 20
48.9001768021
 30
0.0
 10
164.4531212734
 20
48.8527578825
 30
0.0
 10
164.3101369452
 20
48.8232669407
 30
0.0
  0
SPLINE
  5
340
100
AcDbEntity
  8
00_COMPONENTS_11
100
AcDbSpline
 62
7
  6
CONTINUOUS
 70
0
 71
3
 72
12
 73
8
 74
0
 42
0.0000001
 43
0.0000001
 44
0.0000000001
 40
0.0
 40
0.0
 40
0.0
 40
0.0
 40
0.3668787521
 40
0.6669026771
 40
0.7834605754
 40
0.8762559009
 40
1.0
 40
1.0
 40
1.0
 40
1.0
 10
168.0294182129
 20
50.8042836435
 30
0.0
 10
168.0300259814
 20
50.7930929327
 30
0.0
 10
168.0322280083
 20
50.77278704
 30
0.0
 10
168.0377329411
 20
50.7494135913
 30
0.0
 10
168.0439259968
 20
50.7349907705
 30
0.0
 10
168.0490737151
 20
50.7264400382
 30
0.0
 10
168.055090076
 20
50.7216411769
 30
0.0
 10
168.0588701401
 20
50.7216411769
 30
0.0
  0
SPLINE
  5
341
100
AcDbEntity
  8
00_COMPONENTS_11
100
AcDbSpline
 62
7
  6
CONTINUOUS
 70
0
 71
3
 72
9
 73
5
 74
0
 42
0.0000001
 43
0.0000001
 44
0.0000000001
 40
0.0
 40
0.0
 40
0.0
 40
0.0
 40
0.5178173237
 40
1.0
 40
1.0
 40
1.0
 40
1.0
 10
165.7125302687
 20
50.804283642
 30
0.0
 10
165.7156758051
 20
50.7850221931
 30
0.0
 10
165.7323708676
 20
50.7485428578
 30
0.0
 10
165.7670278149
 20
50.727787653
 30
0.0
 10
165.7847539735
 20
50.7237801033
 30
0.0
  0
LINE
  5
342
100
AcDbEntity
  8
00_COMPONENTS_11
100
AcDbLine
 62
7
  6
CONTINUOUS
 10
165.7125302687
 20
50.804283642
 11
165.6607146166
 21
51.1216377725
  0
SPLINE
  5
343
100
AcDbEntity
  8
00_COMPONENTS_11
100
AcDbSpline
 62
7
  6
CONTINUOUS
 70
0
 71
3
 72
9
 73
5
 74
0
 42
0.0000001
 43
0.0000001
 44
0.0000000001
 40
0.0
 40
0.0
 40
0.0
 40
0.0
 40
0.4822216116
 40
1.0
 40
1.0
 40
1.0
 40
1.0
 10
161.1935519788
 20
50.7237730088
 30
0.0
 10
161.2112865046
 20
50.7277757176
 30
0.0
 10
161.2459638242
 20
50.7485254697
 30
0.0
 10
161.2626654469
 20
50.785017787
 30
0.0
 10
161.2658117206
 20
50.8042837511
 30
0.0
  0
LINE
  5
344
100
AcDbEntity
  8
00_COMPONENTS_11
100
AcDbLine
 62
7
  6
CONTINUOUS
 10
161.2658117206
 20
50.8042837511
 11
161.3176263628
 21
51.1216379496
  0
SPLINE
  5
345
100
AcDbEntity
  8
00_COMPONENTS_11
100
AcDbSpline
 62
7
  6
CONTINUOUS
 70
0
 71
3
 72
12
 73
8
 74
0
 42
0.0000001
 43
0.0000001
 44
0.0000000001
 40
0.0
 40
0.0
 40
0.0
 40
0.0
 40
0.1237637414
 40
0.2165706651
 40
0.3331384703
 40
0.6331611196
 40
1.0
 40
1.0
 40
1.0
 40
1.0
 10
158.9194718316
 20
50.7216411769
 30
0.0
 10
158.9232524804
 20
50.7216411769
 30
0.0
 10
158.9292686708
 20
50.7264424598
 30
0.0
 10
158.9344173475
 20
50.7349936446
 30
0.0
 10
158.940610275
 20
50.7494173102
 30
0.0
 10
158.9461148806
 20
50.7727896329
 30
0.0
 10
158.9483160647
 20
50.7930943031
 30
0.0
 10
158.9489237646
 20
50.8042837526
 30
0.0
  0
LINE
  5
346
100
AcDbEntity
  8
00_COMPONENTS_11
100
AcDbLine
 62
7
  6
CONTINUOUS
 10
158.9489237646
 20
50.8042837526
 11
158.966443152
 21
51.1216379496
  0
LINE
  5
347
100
AcDbEntity
  8
00_COMPONENTS_11
100
AcDbLine
 62
7
  6
CONTINUOUS
 10
168.0294182129
 20
50.8042836435
 11
168.0118984865
 21
51.1216377725
  0
SPLINE
  5
348
100
AcDbEntity
  8
00_COMPONENTS_11
100
AcDbSpline
 62
7
  6
CONTINUOUS
 70
0
 71
3
 72
9
 73
5
 74
0
 42
0.0000001
 43
0.0000001
 44
0.0000000001
 40
0.0
 40
0.0
 40
0.0
 40
0.0
 40
0.5052624746
 40
1.0
 40
1.0
 40
1.0
 40
1.0
 10
162.0932286105
 20
50.804283642
 30
0.0
 10
162.0972666898
 20
50.7814233198
 30
0.0
 10
162.1226385327
 20
50.7376321308
 30
0.0
 10
162.1701573157
 20
50.7216411769
 30
0.0
 10
162.1928879768
 20
50.7216411769
 30
0.0
  0
SPLINE
  5
349
100
AcDbEntity
  8
00_COMPONENTS_11
100
AcDbSpline
 62
7
  6
CONTINUOUS
 70
0
 71
3
 72
9
 73
5
 74
0
 42
0.0000001
 43
0.0000001
 44
0.0000000001
 40
0.0
 40
0.0
 40
0.0
 40
0.0
 40
0.2542271467
 40
1.0
 40
1.0
 40
1.0
 40
1.0
 10
164.4430372966
 20
48.8230656472
 30
0.0
 10
164.4808949585
 20
48.8326436962
 30
0.0
 10
164.6290506258
 20
48.8732274411
 30
0.0
 10
164.7739978012
 20
48.9256981112
 30
0.0
 10
164.8789354668
 20
48.9716411769
 30
0.0
  0
SPLINE
  5
34A
100
AcDbEntity
  8
00_COMPONENTS_11
100
AcDbSpline
 62
7
  6
CONTINUOUS
 70
0
 71
3
 72
12
 73
8
 74
0
 42
0.0000001
 43
0.0000001
 44
0.0000000001
 40
0.0
 40
0.0
 40
0.0
 40
0.0
 40
0.3270039792
 40
0.54176599
 40
0.7225688652
 40
0.8713760224
 40
1.0
 40
1.0
 40
1.0
 40
1.0
 10
159.2916510631
 20
50.8042836435
 30
0.0
 10
159.2926264575
 20
50.7930075776
 30
0.0
 10
159.2958082928
 20
50.7743771051
 30
0.0
 10
159.3046283538
 20
50.750840339
 30
0.0
 10
159.3148409097
 20
50.734790884
 30
0.0
 10
159.3271477611
 20
50.7242471262
 30
0.0
 10
159.3368433214
 20
50.7216411769
 30
0.0
 10
159.3412952199
 20
50.7216411769
 30
0.0
  0
SPLINE
  5
34B
100
AcDbEntity
  8
00_COMPONENTS_11
100
AcDbSpline
 62
7
  6
CONTINUOUS
 70
0
 71
3
 72
9
 73
5
 74
0
 42
0.0000001
 43
0.0000001
 44
0.0000000001
 40
0.0
 40
0.0
 40
0.0
 40
0.0
 40
0.4947805499
 40
1.0
 40
1.0
 40
1.0
 40
1.0
 10
164.7854539949
 20
50.7216411769
 30
0.0
 10
164.8081866684
 20
50.7216411769
 30
0.0
 10
164.8557059873
 20
50.7376338618
 30
0.0
 10
164.8810756386
 20
50.7814253397
 30
0.0
 10
164.8851133804
 20
50.8042837511
 30
0.0
  0
LINE
  5
34C
100
AcDbEntity
  8
00_COMPONENTS_11
100
AcDbLine
 62
7
  6
CONTINUOUS
 10
164.8851133804
 20
50.8042837511
 11
164.9408709625
 21
51.1216379496
  0
SPLINE
  5
34D
100
AcDbEntity
  8
00_COMPONENTS_11
100
AcDbSpline
 62
7
  6
CONTINUOUS
 70
0
 71
3
 72
9
 73
5
 74
0
 42
0.0000001
 43
0.0000001
 44
0.0000000001
 40
0.0
 40
0.0
 40
0.0
 40
0.0
 40
0.2461014618
 40
1.0
 40
1.0
 40
1.0
 40
1.0
 10
162.2441182761
 20
48.9216411769
 30
0.0
 10
162.2779253867
 20
48.908747523
 30
0.0
 10
162.4163341906
 20
48.8591038365
 30
0.0
 10
162.5586309904
 20
48.8204318769
 30
0.0
 10
162.6670007577
 20
48.7971620817
 30
0.0
  0
SPLINE
  5
34E
100
AcDbEntity
  8
00_COMPONENTS_11
100
AcDbSpline
 62
7
  6
CONTINUOUS
 70
0
 71
3
 72
11
 73
7
 74
0
 42
0.0000001
 43
0.0000001
 44
0.0000000001
 40
0.0
 40
0.0
 40
0.0
 40
0.0
 40
0.1744012102
 40
0.3334981697
 40
0.526315733
 40
1.0
 40
1.0
 40
1.0
 40
1.0
 10
167.6370467518
 20
50.7216411769
 30
0.0
 10
167.6430684811
 20
50.7216411769
 30
0.0
 10
167.6546537159
 20
50.7260263889
 30
0.0
 10
167.6671205072
 20
50.7395754336
 30
0.0
 10
167.6806636586
 20
50.7648967827
 30
0.0
 10
167.6852814195
 20
50.7879892186
 30
0.0
 10
167.6866909179
 20
50.8042837526
 30
0.0
  0
LINE
  5
34F
100
AcDbEntity
  8
00_COMPONENTS_11
100
AcDbLine
 62
7
  6
CONTINUOUS
 10
162.0932286105
 20
50.804283642
 11
162.0374699391
 21
51.1216377725
  0
SPLINE
  5
350
100
AcDbEntity
  8
00_COMPONENTS_11
100
AcDbSpline
 62
7
  6
CONTINUOUS
 70
0
 71
3
 72
9
 73
5
 74
0
 42
0.0000001
 43
0.0000001
 44
0.0000000001
 40
0.0
 40
0.0
 40
0.0
 40
0.0
 40
0.2550951787
 40
1.0
 40
1.0
 40
1.0
 40
1.0
 10
200.8789354668
 20
48.9716411769
 30
0.0
 10
200.8312351521
 20
48.9566647859
 30
0.0
 10
200.6435588162
 20
48.9001768021
 30
0.0
 10
200.4531212734
 20
48.8527578825
 30
0.0
 10
200.3101369452
 20
48.8232669407
 30
0.0
  0
SPLINE
  5
351
100
AcDbEntity
  8
00_COMPONENTS_11
100
AcDbSpline
 62
7
  6
CONTINUOUS
 70
0
 71
3
 72
12
 73
8
 74
0
 42
0.0000001
 43
0.0000001
 44
0.0000000001
 40
0.0
 40
0.0
 40
0.0
 40
0.0
 40
0.3668787521
 40
0.6669026771
 40
0.7834605754
 40
0.8762559009
 40
1.0
 40
1.0
 40
1.0
 40
1.0
 10
204.0294182129
 20
50.8042836435
 30
0.0
 10
204.0300259814
 20
50.7930929327
 30
0.0
 10
204.0322280083
 20
50.77278704
 30
0.0
 10
204.0377329411
 20
50.7494135913
 30
0.0
 10
204.0439259968
 20
50.7349907705
 30
0.0
 10
204.0490737151
 20
50.7264400382
 30
0.0
 10
204.055090076
 20
50.7216411769
 30
0.0
 10
204.0588701401
 20
50.7216411769
 30
0.0
  0
SPLINE
  5
352
100
AcDbEntity
  8
00_COMPONENTS_11
100
AcDbSpline
 62
7
  6
CONTINUOUS
 70
0
 71
3
 72
9
 73
5
 74
0
 42
0.0000001
 43
0.0000001
 44
0.0000000001
 40
0.0
 40
0.0
 40
0.0
 40
0.0
 40
0.5178173237
 40
1.0
 40
1.0
 40
1.0
 40
1.0
 10
201.7125302687
 20
50.804283642
 30
0.0
 10
201.7156758051
 20
50.7850221931
 30
0.0
 10
201.7323708676
 20
50.7485428578
 30
0.0
 10
201.7670278149
 20
50.727787653
 30
0.0
 10
201.7847539735
 20
50.7237801033
 30
0.0
  0
LINE
  5
353
100
AcDbEntity
  8
00_COMPONENTS_11
100
AcDbLine
 62
7
  6
CONTINUOUS
 10
201.7125302687
 20
50.804283642
 11
201.6607146166
 21
51.1216377725
  0
SPLINE
  5
354
100
AcDbEntity
  8
00_COMPONENTS_11
100
AcDbSpline
 62
7
  6
CONTINUOUS
 70
0
 71
3
 72
9
 73
5
 74
0
 42
0.0000001
 43
0.0000001
 44
0.0000000001
 40
0.0
 40
0.0
 40
0.0
 40
0.0
 40
0.4822216116
 40
1.0
 40
1.0
 40
1.0
 40
1.0
 10
197.1935519788
 20
50.7237730088
 30
0.0
 10
197.2112865046
 20
50.7277757176
 30
0.0
 10
197.2459638242
 20
50.7485254697
 30
0.0
 10
197.2626654469
 20
50.785017787
 30
0.0
 10
197.2658117206
 20
50.8042837511
 30
0.0
  0
LINE
  5
355
100
AcDbEntity
  8
00_COMPONENTS_11
100
AcDbLine
 62
7
  6
CONTINUOUS
 10
197.2658117206
 20
50.8042837511
 11
197.3176263628
 21
51.1216379496
  0
SPLINE
  5
356
100
AcDbEntity
  8
00_COMPONENTS_11
100
AcDbSpline
 62
7
  6
CONTINUOUS
 70
0
 71
3
 72
12
 73
8
 74
0
 42
0.0000001
 43
0.0000001
 44
0.0000000001
 40
0.0
 40
0.0
 40
0.0
 40
0.0
 40
0.1237637414
 40
0.2165706651
 40
0.3331384703
 40
0.6331611196
 40
1.0
 40
1.0
 40
1.0
 40
1.0
 10
194.9194718316
 20
50.7216411769
 30
0.0
 10
194.9232524804
 20
50.7216411769
 30
0.0
 10
194.9292686708
 20
50.7264424598
 30
0.0
 10
194.9344173475
 20
50.7349936446
 30
0.0
 10
194.940610275
 20
50.7494173102
 30
0.0
 10
194.9461148806
 20
50.7727896329
 30
0.0
 10
194.9483160647
 20
50.7930943031
 30
0.0
 10
194.9489237646
 20
50.8042837526
 30
0.0
  0
LINE
  5
357
100
AcDbEntity
  8
00_COMPONENTS_11
100
AcDbLine
 62
7
  6
CONTINUOUS
 10
194.9489237646
 20
50.8042837526
 11
194.966443152
 21
51.1216379496
  0
LINE
  5
358
100
AcDbEntity
  8
00_COMPONENTS_11
100
AcDbLine
 62
7
  6
CONTINUOUS
 10
204.0294182129
 20
50.8042836435
 11
204.0118984865
 21
51.1216377725
  0
SPLINE
  5
359
100
AcDbEntity
  8
00_COMPONENTS_11
100
AcDbSpline
 62
7
  6
CONTINUOUS
 70
0
 71
3
 72
9
 73
5
 74
0
 42
0.0000001
 43
0.0000001
 44
0.0000000001
 40
0.0
 40
0.0
 40
0.0
 40
0.0
 40
0.5052624746
 40
1.0
 40
1.0
 40
1.0
 40
1.0
 10
198.0932286105
 20
50.804283642
 30
0.0
 10
198.0972666898
 20
50.7814233198
 30
0.0
 10
198.1226385327
 20
50.7376321308
 30
0.0
 10
198.1701573157
 20
50.7216411769
 30
0.0
 10
198.1928879768
 20
50.7216411769
 30
0.0
  0
SPLINE
  5
35A
100
AcDbEntity
  8
00_COMPONENTS_11
100
AcDbSpline
 62
7
  6
CONTINUOUS
 70
0
 71
3
 72
9
 73
5
 74
0
 42
0.0000001
 43
0.0000001
 44
0.0000000001
 40
0.0
 40
0.0
 40
0.0
 40
0.0
 40
0.2542271467
 40
1.0
 40
1.0
 40
1.0
 40
1.0
 10
200.4430372966
 20
48.8230656473
 30
0.0
 10
200.4808949585
 20
48.8326436962
 30
0.0
 10
200.6290506258
 20
48.8732274411
 30
0.0
 10
200.7739978012
 20
48.9256981112
 30
0.0
 10
200.8789354668
 20
48.9716411769
 30
0.0
  0
SPLINE
  5
35B
100
AcDbEntity
  8
00_COMPONENTS_11
100
AcDbSpline
 62
7
  6
CONTINUOUS
 70
0
 71
3
 72
12
 73
8
 74
0
 42
0.0000001
 43
0.0000001
 44
0.0000000001
 40
0.0
 40
0.0
 40
0.0
 40
0.0
 40
0.3270039792
 40
0.54176599
 40
0.7225688652
 40
0.8713760224
 40
1.0
 40
1.0
 40
1.0
 40
1.0
 10
195.2916510631
 20
50.8042836435
 30
0.0
 10
195.2926264575
 20
50.7930075776
 30
0.0
 10
195.2958082928
 20
50.7743771051
 30
0.0
 10
195.3046283538
 20
50.750840339
 30
0.0
 10
195.3148409097
 20
50.734790884
 30
0.0
 10
195.3271477611
 20
50.7242471262
 30
0.0
 10
195.3368433214
 20
50.7216411769
 30
0.0
 10
195.3412952199
 20
50.7216411769
 30
0.0
  0
SPLINE
  5
35C
100
AcDbEntity
  8
00_COMPONENTS_11
100
AcDbSpline
 62
7
  6
CONTINUOUS
 70
0
 71
3
 72
9
 73
5
 74
0
 42
0.0000001
 43
0.0000001
 44
0.0000000001
 40
0.0
 40
0.0
 40
0.0
 40
0.0
 40
0.4947805499
 40
1.0
 40
1.0
 40
1.0
 40
1.0
 10
200.7854539949
 20
50.7216411769
 30
0.0
 10
200.8081866684
 20
50.7216411769
 30
0.0
 10
200.8557059873
 20
50.7376338618
 30
0.0
 10
200.8810756386
 20
50.7814253397
 30
0.0
 10
200.8851133804
 20
50.8042837511
 30
0.0
  0
LINE
  5
35D
100
AcDbEntity
  8
00_COMPONENTS_11
100
AcDbLine
 62
7
  6
CONTINUOUS
 10
200.8851133804
 20
50.8042837511
 11
200.9408709625
 21
51.1216379496
  0
SPLINE
  5
35E
100
AcDbEntity
  8
00_COMPONENTS_11
100
AcDbSpline
 62
7
  6
CONTINUOUS
 70
0
 71
3
 72
9
 73
5
 74
0
 42
0.0000001
 43
0.0000001
 44
0.0000000001
 40
0.0
 40
0.0
 40
0.0
 40
0.0
 40
0.2461014618
 40
1.0
 40
1.0
 40
1.0
 40
1.0
 10
198.2441182761
 20
48.9216411769
 30
0.0
 10
198.2779253867
 20
48.908747523
 30
0.0
 10
198.4163341906
 20
48.8591038365
 30
0.0
 10
198.5586309904
 20
48.8204318769
 30
0.0
 10
198.6670007577
 20
48.7971620817
 30
0.0
  0
SPLINE
  5
35F
100
AcDbEntity
  8
00_COMPONENTS_11
100
AcDbSpline
 62
7
  6
CONTINUOUS
 70
0
 71
3
 72
11
 73
7
 74
0
 42
0.0000001
 43
0.0000001
 44
0.0000000001
 40
0.0
 40
0.0
 40
0.0
 40
0.0
 40
0.1744012102
 40
0.3334981697
 40
0.526315733
 40
1.0
 40
1.0
 40
1.0
 40
1.0
 10
203.6370467518
 20
50.7216411769
 30
0.0
 10
203.6430684811
 20
50.7216411769
 30
0.0
 10
203.6546537159
 20
50.7260263889
 30
0.0
 10
203.6671205072
 20
50.7395754336
 30
0.0
 10
203.6806636586
 20
50.7648967827
 30
0.0
 10
203.6852814195
 20
50.7879892186
 30
0.0
 10
203.6866909179
 20
50.8042837526
 30
0.0
  0
LINE
  5
360
100
AcDbEntity
  8
00_COMPONENTS_11
100
AcDbLine
 62
7
  6
CONTINUOUS
 10
198.0932286105
 20
50.804283642
 11
198.0374699391
 21
51.1216377725
  0
SPLINE
  5
361
100
AcDbEntity
  8
PART_1
100
AcDbSpline
 62
7
  6
CONTINUOUS
 70
0
 71
3
 72
9
 73
5
 74
0
 42
0.0000001
 43
0.0000001
 44
0.0000000001
 40
0.0
 40
0.0
 40
0.0
 40
0.0
 40
0.3432770395
 40
1.0
 40
1.0
 40
1.0
 40
1.0
 10
269.499210165
 20
54.3216411769
 30
0.0
 10
269.499210165
 20
54.190498141
 30
0.0
 10
269.1317068875
 20
53.9076292337
 30
0.0
 10
268.7995487471
 20
53.7948611611
 30
0.0
 10
268.5630034409
 20
53.7112434906
 30
0.0
  0
SPLINE
  5
362
100
AcDbEntity
  8
PART_1
100
AcDbSpline
 62
7
  6
CONTINUOUS
 70
0
 71
3
 72
9
 73
5
 74
0
 42
0.0000001
 43
0.0000001
 44
0.0000000001
 40
0.0
 40
0.0
 40
0.0
 40
0.0
 40
0.2351088259
 40
1.0
 40
1.0
 40
1.0
 40
1.0
 10
268.5630034409
 20
53.7112434906
 30
0.0
 10
268.509940566
 20
53.6924860099
 30
0.0
 10
268.2834712728
 20
53.6148899239
 30
0.0
 10
268.054722976
 20
53.5441355456
 30
0.0
 10
267.8793429182
 20
53.491526842
 30
0.0
  0
SPLINE
  5
363
100
AcDbEntity
  8
PART_1
100
AcDbSpline
 62
7
  6
CONTINUOUS
 70
0
 71
3
 72
8
 73
4
 74
0
 42
0.0000001
 43
0.0000001
 44
0.0000000001
 40
0.0
 40
0.0
 40
0.0
 40
0.0
 40
1.0
 40
1.0
 40
1.0
 40
1.0
 10
267.8793429182
 20
53.491526842
 30
0.0
 10
267.686340659
 20
53.4336320119
 30
0.0
 10
267.4927677375
 20
53.3776514395
 30
0.0
 10
267.299210165
 20
53.3216411769
 30
0.0
  0
SPLINE
  5
364
100
AcDbEntity
  8
PART_1
100
AcDbSpline
 62
7
  6
CONTINUOUS
 70
0
 71
3
 72
9
 73
5
 74
0
 42
0.0000001
 43
0.0000001
 44
0.0000000001
 40
0.0
 40
0.0
 40
0.0
 40
0.0
 40
0.2353833766
 40
1.0
 40
1.0
 40
1.0
 40
1.0
 10
269.499210165
 20
532.8216411769
 30
0.0
 10
269.499210165
 20
532.6990254359
 30
0.0
 10
269.5497538035
 20
532.1769268981
 30
0.0
 10
269.7897571861
 20
531.6937594167
 30
0.0
 10
269.9992100511
 20
531.3549745102
 30
0.0
  0
SPLINE
  5
365
100
AcDbEntity
  8
PART_1
100
AcDbSpline
 62
7
  6
CONTINUOUS
 70
0
 71
3
 72
8
 73
4
 74
0
 42
0.0000001
 43
0.0000001
 44
0.0000000001
 40
0.0
 40
0.0
 40
0.0
 40
0.0
 40
1.0
 40
1.0
 40
1.0
 40
1.0
 10
269.9992100511
 20
531.3549745102
 30
0.0
 10
270.1547896942
 20
531.1033282277
 30
0.0
 10
270.3272930782
 20
530.8624219737
 30
0.0
 10
270.499210165
 20
530.6216411769
 30
0.0
  0
SPLINE
  5
366
100
AcDbEntity
  8
PART_1
100
AcDbSpline
 62
7
  6
CONTINUOUS
 70
0
 71
3
 72
9
 73
5
 74
0
 42
0.0000001
 43
0.0000001
 44
0.0000000001
 40
0.0
 40
0.0
 40
0.0
 40
0.0
 40
0.2548138331
 40
1.0
 40
1.0
 40
1.0
 40
1.0
 10
270.499210165
 20
73.6216411769
 30
0.0
 10
270.4454906663
 20
73.5464036078
 30
0.0
 10
270.2348471823
 20
73.2511509671
 30
0.0
 10
270.0302815459
 20
72.9504935087
 30
0.0
 10
269.896509668
 20
72.7155526183
 30
0.0
  0
SPLINE
  5
367
100
AcDbEntity
  8
PART_1
100
AcDbSpline
 62
7
  6
CONTINUOUS
 70
0
 71
3
 72
9
 73
5
 74
0
 42
0.0000001
 43
0.0000001
 44
0.0000000001
 40
0.0
 40
0.0
 40
0.0
 40
0.0
 40
0.2577208697
 40
1.0
 40
1.0
 40
1.0
 40
1.0
 10
269.896509668
 20
72.7155526183
 30
0.0
 10
269.8701660877
 20
72.6692859118
 30
0.0
 10
269.7708633618
 20
72.4881806572
 30
0.0
 10
269.6846656985
 20
72.2994171928
 30
0.0
 10
269.633184827
 20
72.1549745102
 30
0.0
  0
ELLIPSE
  5
368
100
AcDbEntity
  8
0
100
AcDbEllipse
 62
7
  6
CONTINUOUS
 10
303.1292624677
 20
187.6216411769
 30
0.0
 11
11.4300523028
 21
0.0
 31
0.0
 40
0.0874886635
 41
2.5512328805
 42
3.1415918858
  0
ELLIPSE
  5
369
100
AcDbEntity
  8
0
100
AcDbEllipse
 62
7
  6
CONTINUOUS
 10
303.1292624677
 20
149.6216411769
 30
0.0
 11
11.4300523028
 21
0.0
 31
0.0
 40
0.0874886635
 41
3.1415926106
 42
3.7319524267
  0
ELLIPSE
  5
36A
100
AcDbEntity
  8
0
100
AcDbEllipse
 62
7
  6
CONTINUOUS
 10
303.1292624677
 20
454.6216411769
 30
0.0
 11
11.4300523028
 21
0.0
 31
0.0
 40
0.0874886635
 41
2.5512328805
 42
3.1415918858
  0
ELLIPSE
  5
36B
100
AcDbEntity
  8
0
100
AcDbEllipse
 62
7
  6
CONTINUOUS
 10
303.1292624677
 20
416.6216411769
 30
0.0
 11
11.4300523028
 21
0.0
 31
0.0
 40
0.0874886635
 41
3.1415926106
 42
3.7319524267
  0
ENDSEC
  0
SECTION
  2
OBJECTS
  0
DICTIONARY
  5
C
100
AcDbDictionary
280
0
281
1
  3
ACAD_GROUP
350
D
  3
ACAD_MLINESTYLE
350
17
  3
ACAD_LAYOUT
350
1A
  3
ACAD_PLOTSETTINGS
350
19
  3
ACAD_PLOTSTYLENAME
350
E
  0
DICTIONARY
  5
D
102
{ACAD_REACTORS
330
C
102
}
100
AcDbDictionary
280
0
281
1
  0
ACDBDICTIONARYWDFLT
  5
E
102
{ACAD_REACTORS
330
C
102
}
100
AcDbDictionary
281
1
  3
Normal
350
F
100
AcDbDictionaryWithDefault
340
F
  0
DICTIONARY
  5
17
102
{ACAD_REACTORS
330
C
102
}
100
AcDbDictionary
280
0
281
1
  3
Standard
350
18
  0
DICTIONARY
  5
19
102
{ACAD_REACTORS
330
C
102
}
100
AcDbDictionary
281
1
  0
DICTIONARY
  5
1A
102
{ACAD_REACTORS
330
C
102
}
100
AcDbDictionary
281
1
  3
Model
350
36C
  3
Layout1
350
36D
  0
ACDBPLACEHOLDER
  5
F
102
{ACAD_REACTORS
330
E
102
}
  0
MLINESTYLE
  5
18
102
{ACAD_REACTORS
330
17
102
}
100
AcDbMlineStyle
  2
STANDARD
 70
0
  3

 62
256
 51
90.0
 52
90.0
 71
2
 49
0.5
 62
256
  6
BYLAYER
 49
-0.5
 62
256
  6
BYLAYER
  0
LAYOUT
  5
36C
102
{ACAD_REACTORS
330
1A
102
}
100
AcDbPlotSettings
  1

  2
none_device
  4

  6

 40
0.0
 41
0.0
 42
0.0
 43
0.0
 44
210.0
 45
297.0
 46
0.0
 47
0.0
 48
0.0
 49
0.0
140
0.0
141
0.0
142
1.0
143
1.0
 70
1024
 72
1
 73
0
 74
0
  7

 75
0
147
1.0
148
0.0
149
0.0
100
AcDbLayout
  1
Model
 70
0
 71
0
 10
0.0
 20
0.0
 11
210.0
 21
297.0
 12
0.0
 22
0.0
 32
0.0
 14
0.0
 24
0.0
 34
0.0
 15
0.0
 25
0.0
 35
0.0
146
0.0
 13
0.0
 23
0.0
 33
0.0
 16
1.0
 26
0.0
 36
0.0
 17
0.0
 27
1.0
 37
0.0
 76
0
330
213
345
0
346
0
  0
LAYOUT
  5
36D
102
{ACAD_REACTORS
330
1A
102
}
100
AcDbPlotSettings
  1

  2
none_device
  4

  6

 40
0.0
 41
0.0
 42
0.0
 43
0.0
 44
210.0
 45
297.0
 46
0.0
 47
0.0
 48
0.0
 49
0.0
140
0.0
141
0.0
142
1.0
143
1.0
 70
0
 72
1
 73
0
 74
0
  7

 75
0
147
1.0
148
0.0
149
0.0
100
AcDbLayout
  1
Layout1
 70
0
 71
1
 10
0.0
 20
0.0
 11
210.0
 21
297.0
 12
0.0
 22
0.0
 32
0.0
 14
0.0
 24
0.0
 34
0.0
 15
0.0
 25
0.0
 35
0.0
146
0.0
 13
0.0
 23
0.0
 33
0.0
 16
1.0
 26
0.0
 36
0.0
 17
0.0
 27
1.0
 37
0.0
 76
0
330
214
345
0
346
0
  0
ENDSEC
  0
EOF
