999
DXF file: C:\Users\sesa63760\Dev\_Creo\CAD\MCADID0000498_3D-CAD\drw0001_1.dxf
999
Pro/ENGINEER 2019471 by Parametric Technology Corporation
  0
SECTION
  2
HEADER
  9
$ACADVER
  1
AC1024
  9
$DWGCODEPAGE
  3
ANSI_1252
  9
$EXTMAX
 10
407.0480687392
 20
575.6822686454
 30
0.0
  9
$EXTMIN
 10
0.0
 20
0.0
 30
0.0
  9
$LIMMIN
 10
0.0
 20
0.0
  9
$LIMMAX
 10
407.0480687392
 20
575.6822686454
  9
$VIEWCTR
 10
203.5240343696
 20
287.8411343227
  9
$VIEWSIZE
 40
575.6822686454
  9
$CLAYER
  8
0
  9
$LTSCALE
 40
37.5259552895
  9
$CELTYPE
  6
BYLAYER
  9
$DIMSCALE
 40
1.0
  9
$DIMASZ
 40
4.8458103421
  9
$DIMEXO
 40
1.0
  9
$DIMDLI
 40
25.9270236545
  9
$DIMEXE
 40
1.0
  9
$DIMCEN
 40
6.1406108656
  9
$DIMLFAC
 40
1.0
  9
$DIMBLK
  1
_FILLED
  9
$DIMALT
 70
0
  9
$DIMALTF
 40
0.0393700787
  9
$DIMTXT
 40
6.784134479
  9
$DIMTOL
 70
1
  9
$DIMLIM
 70
0
  9
$DIMTFAC
 40
1.0
  9
$DIMTP
 40
0.01
  9
$DIMTM
 40
0.01
  9
$DIMGAP
 40
0.625
  9
$DIMDSEP
 70
46
  9
$AUNITS
 70
0
  9
$PDMODE
 70
3
  9
$PDSIZE
 40
0.3125
  9
$HANDSEED
  5
2A3
  9
$TILEMODE
 70
1
  9
$MEASUREMENT
 70
1
  9
$INSUNITS
 70
4
  0
ENDSEC
  0
SECTION
  2
CLASSES
  0
CLASS
  1
ACDBDICTIONARYWDFLT
  2
AcDbDictionaryWithDefault
  3
AutoCAD 2000
 90
0
 91
1
280
0
281
0
  0
CLASS
  1
ACDBPLACEHOLDER
  2
AcDbPlaceHolder
  3
AutoCAD 2000
 90
0
 91
1
280
0
281
0
  0
CLASS
  1
LAYOUT
  2
AcDbLayout
  3
AutoCAD 2000
 90
0
 91
0
280
0
281
0
  0
ENDSEC
  0
SECTION
  2
TABLES
  0
TABLE
  2
VPORT
  5
8
100
AcDbSymbolTable
 70
2
  0
VPORT
  5
1F4
100
AcDbSymbolTableRecord
100
AcDbViewportTableRecord
  2
*ACTIVE
 70
0
 10
0.0
 20
0.0
 11
1.0
 21
1.0
 12
203.5240343696
 22
287.8411343227
 13
0.0
 23
0.0
 14
1.0
 24
1.0
 15
0.0
 25
0.0
 16
0.0
 26
0.0
 36
1.0
 17
0.0
 27
0.0
 37
0.0
 40
575.6822686454
 41
0.7070707071
 42
50.0
 43
0.0
 44
0.0
 50
0.0
 51
0.0
 71
0
 72
100
 73
1
 74
1
 75
0
 76
0
 77
0
 78
0
  0
ENDTAB
  0
TABLE
  2
LTYPE
  5
5
100
AcDbSymbolTable
 70
6
  0
LTYPE
  5
14
100
AcDbSymbolTableRecord
100
AcDbLinetypeTableRecord
  2
BYBLOCK
 70
0
  3

 72
65
 73
0
 40
0.0
  0
LTYPE
  5
15
100
AcDbSymbolTableRecord
100
AcDbLinetypeTableRecord
  2
BYLAYER
 70
0
  3

 72
65
 73
0
 40
0.0
  0
LTYPE
  5
16
100
AcDbSymbolTableRecord
100
AcDbLinetypeTableRecord
  2
CONTINUOUS
 70
64
  3
Solid line
 72
65
 73
0
 40
0.0
  0
LTYPE
  5
1F5
100
AcDbSymbolTableRecord
100
AcDbLinetypeTableRecord
  2
CENTER
 70
64
  3
____ _ ____ _ ____ _ ____ _ ____ _ ____ _ ____
 72
65
 73
4
 40
0.6
 49
0.375
 74
0
 49
-0.075
 74
0
 49
0.075
 74
0
 49
-0.075
 74
0
  0
LTYPE
  5
1F6
100
AcDbSymbolTableRecord
100
AcDbLinetypeTableRecord
  2
HIDDEN
 70
64
  3
- - - - - - - - - - - - - - - - - - - -
 72
65
 73
2
 40
0.2
 49
0.1
 74
0
 49
-0.1
 74
0
  0
LTYPE
  5
1F7
100
AcDbSymbolTableRecord
100
AcDbLinetypeTableRecord
  2
PHANTOM
 70
64
  3
_____ _ _ _____ _ _ _____ _ _ _____
 72
65
 73
6
 40
0.8
 49
0.45
 74
0
 49
-0.05
 74
0
 49
0.1
 74
0
 49
-0.05
 74
0
 49
0.1
 74
0
 49
-0.05
 74
0
  0
LTYPE
  5
1F8
100
AcDbSymbolTableRecord
100
AcDbLinetypeTableRecord
  2
DOT
 70
64
  3
. . . . . . . . . . . . . . . . . . . .
 72
65
 73
2
 40
0.2
 49
0.1
 74
0
 49
-0.1
 74
0
  0
LTYPE
  5
1F9
100
AcDbSymbolTableRecord
100
AcDbLinetypeTableRecord
  2
DASHED
 70
64
  3
- - - - - - - - - - - - - - - - - - - -
 72
65
 73
2
 40
0.2
 49
0.1
 74
0
 49
-0.1
 74
0
  0
ENDTAB
  0
TABLE
  2
LAYER
  5
2
100
AcDbSymbolTable
 70
36
  0
LAYER
  5
10
100
AcDbSymbolTableRecord
100
AcDbLayerTableRecord
  2
0
 70
0
 62
7
  6
CONTINUOUS
370
-3
390
F
  0
LAYER
  5
1FA
100
AcDbSymbolTableRecord
100
AcDbLayerTableRecord
  2
DEFAULT_1
 70
0
 62
7
  6
CENTER
370
-3
390
F
  0
LAYER
  5
1FB
100
AcDbSymbolTableRecord
100
AcDbLayerTableRecord
  2
DEFAULT_2
 70
0
 62
8
  6
HIDDEN
370
-3
390
F
  0
LAYER
  5
1FC
100
AcDbSymbolTableRecord
100
AcDbLayerTableRecord
  2
DEFAULT_3
 70
0
 62
7
  6
PHANTOM
370
-3
390
F
  0
LAYER
  5
1FD
100
AcDbSymbolTableRecord
100
AcDbLayerTableRecord
  2
00_COMPONENTS
 70
0
 62
7
  6
CONTINUOUS
370
-3
390
F
  0
LAYER
  5
1FE
100
AcDbSymbolTableRecord
100
AcDbLayerTableRecord
  2
01_1_DEFAULT_DATUMS
 70
0
 62
7
  6
CONTINUOUS
370
-3
390
F
  0
LAYER
  5
1FF
100
AcDbSymbolTableRecord
100
AcDbLayerTableRecord
  2
01_PLANES
 70
0
 62
7
  6
CONTINUOUS
370
-3
390
F
  0
LAYER
  5
200
100
AcDbSymbolTableRecord
100
AcDbLayerTableRecord
  2
02_COORD_SYS
 70
0
 62
7
  6
CONTINUOUS
370
-3
390
F
  0
LAYER
  5
201
100
AcDbSymbolTableRecord
100
AcDbLayerTableRecord
  2
03_AXES
 70
0
 62
7
  6
CONTINUOUS
370
-3
390
F
  0
LAYER
  5
202
100
AcDbSymbolTableRecord
100
AcDbLayerTableRecord
  2
04_POINTS
 70
0
 62
7
  6
CONTINUOUS
370
-3
390
F
  0
LAYER
  5
203
100
AcDbSymbolTableRecord
100
AcDbLayerTableRecord
  2
05_CURVES
 70
0
 62
7
  6
CONTINUOUS
370
-3
390
F
  0
LAYER
  5
204
100
AcDbSymbolTableRecord
100
AcDbLayerTableRecord
  2
06_SURFS
 70
0
 62
7
  6
CONTINUOUS
370
-3
390
F
  0
LAYER
  5
205
100
AcDbSymbolTableRecord
100
AcDbLayerTableRecord
  2
07_COSMETICS
 70
0
 62
7
  6
CONTINUOUS
370
-3
390
F
  0
LAYER
  5
206
100
AcDbSymbolTableRecord
100
AcDbLayerTableRecord
  2
10_NOTES
 70
0
 62
7
  6
CONTINUOUS
370
-3
390
F
  0
LAYER
  5
207
100
AcDbSymbolTableRecord
100
AcDbLayerTableRecord
  2
11_NOTES_PUB
 70
0
 62
7
  6
CONTINUOUS
370
-3
390
F
  0
LAYER
  5
208
100
AcDbSymbolTableRecord
100
AcDbLayerTableRecord
  2
13_REF_GTOL
 70
0
 62
7
  6
CONTINUOUS
370
-3
390
F
  0
LAYER
  5
209
100
AcDbSymbolTableRecord
100
AcDbLayerTableRecord
  2
16_MISC
 70
0
 62
7
  6
CONTINUOUS
370
-3
390
F
  0
LAYER
  5
20A
100
AcDbSymbolTableRecord
100
AcDbLayerTableRecord
  2
17_NO_PRINT
 70
0
 62
7
  6
CONTINUOUS
370
-3
390
F
  0
LAYER
  5
20B
100
AcDbSymbolTableRecord
100
AcDbLayerTableRecord
  2
18_DATUM_CAMS_JOINTS
 70
0
 62
7
  6
CONTINUOUS
370
-3
390
F
  0
LAYER
  5
20C
100
AcDbSymbolTableRecord
100
AcDbLayerTableRecord
  2
19_DATUM_FUNCTIONAL
 70
0
 62
7
  6
CONTINUOUS
370
-3
390
F
  0
LAYER
  5
20D
100
AcDbSymbolTableRecord
100
AcDbLayerTableRecord
  2
20_DATUM_KINEMATIC_SCHEME
 70
0
 62
7
  6
CONTINUOUS
370
-3
390
F
  0
ENDTAB
  0
TABLE
  2
STYLE
  5
3
100
AcDbSymbolTable
 70
1
  0
STYLE
  5
11
100
AcDbSymbolTableRecord
100
AcDbTextStyleTableRecord
  2
STANDARD
 70
0
 40
0.0
 41
0.8
 50
0.0
 71
0
 42
0.2
  3
txt
  4

  0
STYLE
  5
20E
100
AcDbSymbolTableRecord
100
AcDbTextStyleTableRecord
  2
TEXTSTYLE_1
 70
0
 40
0.0
 41
0.8
 50
0.0
 71
0
 42
0.2
  3
gdt
  4

  0
ENDTAB
  0
TABLE
  2
VIEW
  5
6
100
AcDbSymbolTable
 70
0
  0
ENDTAB
  0
TABLE
  2
UCS
  5
7
100
AcDbSymbolTable
 70
0
  0
ENDTAB
  0
TABLE
  2
APPID
  5
9
100
AcDbSymbolTable
 70
1
  0
APPID
  5
20F
100
AcDbSymbolTableRecord
100
AcDbRegAppTableRecord
  2
ACAD
 70
0
  0
ENDTAB
  0
TABLE
  2
BLOCK_RECORD
  5
1
100
AcDbSymbolTable
 70
0
  0
BLOCK_RECORD
  5
210
100
AcDbSymbolTableRecord
100
AcDbBlockTableRecord
  2
*Model_Space
  0
BLOCK_RECORD
  5
211
100
AcDbSymbolTableRecord
100
AcDbBlockTableRecord
  2
*Paper_Space
  0
BLOCK_RECORD
  5
212
100
AcDbSymbolTableRecord
100
AcDbBlockTableRecord
  2
_FILLED
  0
ENDTAB
  0
TABLE
  2
DIMSTYLE
  5
A
100
AcDbSymbolTable
 70
1
100
AcDbDimStyleTable
 71
0
  0
DIMSTYLE
105
213
100
AcDbSymbolTableRecord
100
AcDbDimStyleTableRecord
  2
STANDARD
 70
0
  3

  4

 40
1.0
 41
4.8458103421
 42
1.0
 43
0.38
 44
1.0
 45
0.0
 46
0.0
 47
0.01
 48
0.01
140
6.784134479
141
0.09
142
0.0
143
25.4
144
1.0
145
0.0
146
1.0
147
0.625
 71
1
 72
0
 73
0
 74
0
 75
0
 76
0
 77
1
 78
8
 79
2
170
0
171
1
172
0
173
0
174
0
175
0
176
0
177
0
178
0
270
2
179
2
271
2
272
2
273
2
274
2
275
0
280
0
281
0
282
0
283
1
284
8
285
0
286
0
287
3
288
0
340
11
278
46
341
212
342
212
343
212
344
212
  0
ENDTAB
  0
ENDSEC
  0
SECTION
  2
BLOCKS
  0
BLOCK
  5
20
100
AcDbEntity
  8
0
100
AcDbBlockBegin
  2
*Model_Space
 70
0
 10
0.0
 20
0.0
 30
0.0
  3
*Model_Space
  1

  0
ENDBLK
  5
21
100
AcDbEntity
  8
0
100
AcDbBlockEnd
  0
BLOCK
  5
1C
100
AcDbEntity
  8
0
100
AcDbBlockBegin
  2
*Paper_Space
 70
0
 10
0.0
 20
0.0
 30
0.0
  3
*Paper_Space
  1

  0
ENDBLK
  5
1D
100
AcDbEntity
  8
0
100
AcDbBlockEnd
  0
BLOCK
  5
214
100
AcDbEntity
  8
0
100
AcDbBlockBegin
  2
_FILLED
 70
64
 10
0.0
 20
0.0
  3
_FILLED
  1

  0
SOLID
  5
215
100
AcDbEntity
  8
0
  6
BYBLOCK
 62
0
100
AcDbTrace
 10
0.0
 20
0.0
 11
-1.0
 21
0.25
 12
-1.0
 22
-0.25
 13
-1.0
 23
-0.25
  0
ENDBLK
  5
216
100
AcDbEntity
  8
0
  6
BYBLOCK
 62
0
100
AcDbBlockEnd
  0
ENDSEC
  0
SECTION
  2
ENTITIES
  0
LINE
  5
217
100
AcDbEntity
  8
0
100
AcDbLine
 62
7
  6
CONTINUOUS
 10
52.5799086124
 20
481.5068644368
 11
47.7921915644
 21
478.3804506485
  0
LINE
  5
218
100
AcDbEntity
  8
0
100
AcDbLine
 62
7
  6
CONTINUOUS
 10
49.3264702136
 20
478.2616867792
 11
54.2818417832
 21
481.3751229378
  0
LINE
  5
219
100
AcDbEntity
  8
0
100
AcDbLine
 62
7
  6
CONTINUOUS
 10
49.1193005777
 20
474.9236414899
 11
49.4558649688
 21
475.1179558721
  0
LINE
  5
21A
100
AcDbEntity
  8
0
100
AcDbLine
 62
7
  6
CONTINUOUS
 10
49.6757839075
 20
475.2269309924
 11
50.2244659838
 21
475.5437108459
  0
LINE
  5
21B
100
AcDbEntity
  8
0
100
AcDbLine
 62
7
  6
CONTINUOUS
 10
50.465683625
 20
475.0052102836
 11
50.8192391656
 21
475.2093344517
  0
LINE
  5
21C
100
AcDbEntity
  8
0
100
AcDbLine
 62
7
  6
CONTINUOUS
 10
78.0818141709
 20
486.7332434237
 11
60.7437438126
 21
477.6444264605
  0
LINE
  5
21D
100
AcDbEntity
  8
0
100
AcDbLine
 62
7
  6
CONTINUOUS
 10
49.4636784777
 20
475.104422397
 11
49.0485913716
 21
474.1870282974
  0
LINE
  5
21E
100
AcDbEntity
  8
0
100
AcDbLine
 62
7
  6
CONTINUOUS
 10
80.2941864637
 20
486.4791471319
 11
62.2937351855
 21
476.7495587687
  0
LINE
  5
21F
100
AcDbEntity
  8
0
100
AcDbLine
 62
7
  6
CONTINUOUS
 10
70.9185678341
 20
450.9679332999
 11
71.0246334092
 21
451.0291699227
  0
LINE
  5
220
100
AcDbEntity
  8
0
100
AcDbLine
 62
7
  6
CONTINUOUS
 10
72.4185611182
 20
450.8193604639
 11
72.5246266925
 21
450.8805970877
  0
LINE
  5
221
100
AcDbEntity
  8
0
100
AcDbLine
 62
7
  6
CONTINUOUS
 10
95.1521378972
 20
437.8168929431
 11
95.0460723229
 21
437.7556563192
  0
LINE
  5
222
100
AcDbEntity
  8
0
100
AcDbLine
 62
7
  6
CONTINUOUS
 10
97.1674014984
 20
434.0814268043
 11
97.273467074
 21
434.1426634273
  0
LINE
  5
223
100
AcDbEntity
  8
0
100
AcDbLine
 62
7
  6
CONTINUOUS
 10
97.273467074
 20
426.7941416716
 11
97.1674014984
 21
426.73290505
  0
LINE
  5
224
100
AcDbEntity
  8
0
100
AcDbLine
 62
7
  6
CONTINUOUS
 10
96.5460656071
 20
425.3595472262
 11
96.6521311821
 21
425.420783849
  0
LINE
  5
225
100
AcDbEntity
  8
0
100
AcDbLine
 62
7
  6
CONTINUOUS
 10
339.894912469
 20
93.4934126294
 11
340.8863368283
 21
93.3952481586
  0
LINE
  5
226
100
AcDbEntity
  8
0
100
AcDbLine
 62
7
  6
CONTINUOUS
 10
47.222259173
 20
262.7338449271
 11
47.222259173
 21
477.0467852341
  0
LINE
  5
227
100
AcDbEntity
  8
0
100
AcDbLine
 62
7
  6
CONTINUOUS
 10
49.0485913711
 20
263.039755271
 11
49.0485913711
 21
474.1870282986
  0
LINE
  5
228
100
AcDbEntity
  8
0
100
AcDbLine
 62
7
  6
CONTINUOUS
 10
70.2972319428
 20
442.2460537218
 11
70.2972319428
 21
449.5945754752
  0
LINE
  5
229
100
AcDbEntity
  8
0
100
AcDbLine
 62
7
  6
CONTINUOUS
 10
97.1674014984
 20
434.0814268043
 11
97.1674014984
 21
426.73290505
  0
LINE
  5
22A
100
AcDbEntity
  8
0
100
AcDbLine
 62
7
  6
CONTINUOUS
 10
97.273467074
 20
434.1426634255
 11
97.273467074
 21
426.794141675
  0
LINE
  5
22B
100
AcDbEntity
  8
0
100
AcDbLine
 62
7
  6
CONTINUOUS
 10
341.4812445034
 20
90.4686868222
 11
49.2820919047
 21
259.1661297859
  0
LINE
  5
22C
100
AcDbEntity
  8
0
100
AcDbLine
 62
7
  6
CONTINUOUS
 10
339.8949124676
 20
93.4934126296
 11
50.4601562933
 21
260.5948666797
  0
LINE
  5
22D
100
AcDbEntity
  8
0
100
AcDbLine
 62
7
  6
CONTINUOUS
 10
216.9871519772
 20
164.7384149049
 11
173.1463490181
 21
190.0493416852
  0
LINE
  5
22E
100
AcDbEntity
  8
0
100
AcDbLine
 62
7
  6
CONTINUOUS
 10
175.9747879187
 20
208.8289390953
 11
214.1587130766
 21
186.7839383512
  0
LINE
  5
22F
100
AcDbEntity
  8
0
100
AcDbLine
 62
7
  6
CONTINUOUS
 10
176.0808534946
 20
208.8901757182
 11
214.2647786518
 21
186.8451749745
  0
LINE
  5
230
100
AcDbEntity
  8
0
100
AcDbLine
 62
7
  6
CONTINUOUS
 10
173.1463490181
 20
190.0493416851
 11
173.1463490181
 21
207.1958924441
  0
LINE
  5
231
100
AcDbEntity
  8
0
100
AcDbLine
 62
7
  6
CONTINUOUS
 10
216.9871519772
 20
181.8849656646
 11
216.9871519772
 21
164.7384149049
  0
LINE
  5
232
100
AcDbEntity
  8
0
100
AcDbLine
 62
7
  6
CONTINUOUS
 10
217.0932175528
 20
181.9462022878
 11
217.0932175528
 21
164.799651528
  0
LINE
  5
233
100
AcDbEntity
  8
0
100
AcDbLine
 62
7
  6
CONTINUOUS
 10
341.3699255929
 20
309.6541336135
 11
346.3934190315
 21
312.7282404824
  0
LINE
  5
234
100
AcDbEntity
  8
0
100
AcDbLine
 62
7
  6
CONTINUOUS
 10
340.228051605
 20
308.1228586851
 11
339.8744960644
 21
307.918734517
  0
LINE
  5
235
100
AcDbEntity
  8
0
100
AcDbLine
 62
7
  6
CONTINUOUS
 10
173.9747968724
 20
209.0270362114
 11
174.0808624474
 21
209.0882728341
  0
LINE
  5
236
100
AcDbEntity
  8
0
100
AcDbLine
 62
7
  6
CONTINUOUS
 10
341.2970407743
 20
305.454828482
 11
341.650593871
 21
305.6589512391
  0
LINE
  5
237
100
AcDbEntity
  8
0
100
AcDbLine
 62
7
  6
CONTINUOUS
 10
343.5476352756
 20
305.8822507382
 11
348.7216499076
 21
308.6956487008
  0
LINE
  5
238
100
AcDbEntity
  8
0
100
AcDbLine
 62
7
  6
CONTINUOUS
 10
362.9556302614
 20
323.2881783387
 11
344.8917248709
 21
313.5952243956
  0
LINE
  5
239
100
AcDbEntity
  8
0
100
AcDbLine
 62
7
  6
CONTINUOUS
 10
366.1480584102
 20
317.7587612808
 11
348.7216499077
 21
306.9615049036
  0
LINE
  5
23A
100
AcDbEntity
  8
0
100
AcDbLine
 62
7
  6
CONTINUOUS
 10
175.9747879187
 20
208.8289390953
 11
176.0808534943
 21
208.8901757184
  0
LINE
  5
23B
100
AcDbEntity
  8
0
100
AcDbLine
 62
7
  6
CONTINUOUS
 10
95.046072323
 20
425.5081200623
 11
72.4185611182
 21
438.5718242069
  0
LINE
  5
23C
100
AcDbEntity
  8
0
100
AcDbLine
 62
7
  6
CONTINUOUS
 10
72.4185611182
 20
450.8193604639
 11
95.0460723229
 21
437.7556563192
  0
LINE
  5
23D
100
AcDbEntity
  8
0
100
AcDbLine
 62
7
  6
CONTINUOUS
 10
72.5246266919
 20
450.8805970881
 11
95.1521378977
 21
437.8168929428
  0
LINE
  5
23E
100
AcDbEntity
  8
0
100
AcDbLine
 62
7
  6
CONTINUOUS
 10
50.465683625
 20
475.0052102836
 11
339.8744960644
 21
307.918734517
  0
LINE
  5
23F
100
AcDbEntity
  8
0
100
AcDbLine
 62
7
  6
CONTINUOUS
 10
50.2166647304
 20
475.5572230938
 11
340.5816436249
 21
307.9187168555
  0
LINE
  5
240
100
AcDbEntity
  8
0
100
AcDbLine
 62
7
  6
CONTINUOUS
 10
49.3264702136
 20
478.2616867792
 11
341.3699255929
 21
309.6541336135
  0
LINE
  5
241
100
AcDbEntity
  8
0
100
AcDbLine
 62
7
  6
CONTINUOUS
 10
214.2647786522
 20
186.8451749743
 11
214.1587130766
 21
186.7839383512
  0
LINE
  5
242
100
AcDbEntity
  8
0
100
AcDbLine
 62
7
  6
CONTINUOUS
 10
216.9871519772
 20
181.8849656646
 11
217.0932175528
 21
181.9462022877
  0
LINE
  5
243
100
AcDbEntity
  8
0
100
AcDbLine
 62
7
  6
CONTINUOUS
 10
54.2818969649
 20
481.3750910785
 11
346.3934078838
 21
312.7282469175
  0
LINE
  5
244
100
AcDbEntity
  8
0
100
AcDbLine
 62
7
  6
CONTINUOUS
 10
216.9871519772
 20
164.7384149049
 11
217.0932175528
 21
164.7996515264
  0
LINE
  5
245
100
AcDbEntity
  8
0
100
AcDbLine
 62
7
  6
CONTINUOUS
 10
362.9556302614
 20
323.2881783387
 11
80.2941864637
 21
486.4791471319
  0
LINE
  5
246
100
AcDbEntity
  8
0
100
AcDbLine
 62
7
  6
CONTINUOUS
 10
341.2970407743
 20
305.454828482
 11
341.2970407743
 21
94.3029549294
  0
LINE
  5
247
100
AcDbEntity
  8
0
100
AcDbLine
 62
7
  6
CONTINUOUS
 10
341.650593871
 20
306.0672509963
 11
341.650593871
 21
93.7879551985
  0
LINE
  5
248
100
AcDbEntity
  8
0
100
AcDbLine
 62
7
  6
CONTINUOUS
 10
343.5476352756
 20
305.8822507382
 11
343.5476352756
 21
91.6617522009
  0
LINE
  5
249
100
AcDbEntity
  8
0
100
AcDbLine
 62
7
  6
CONTINUOUS
 10
348.7216499077
 20
308.6955825142
 11
348.7216499077
 21
94.4102073982
  0
LINE
  5
24A
100
AcDbEntity
  8
0
100
AcDbLine
 62
7
  6
CONTINUOUS
 10
366.1480584102
 20
114.4158550746
 11
366.1480584102
 21
317.7587612808
  0
LINE
  5
24B
100
AcDbEntity
  8
0
100
AcDbLine
 62
7
  6
CONTINUOUS
 10
348.7216499077
 20
101.8844739522
 11
365.2627605498
 21
112.3731221771
  0
LINE
  5
24C
100
AcDbEntity
  8
0
100
AcDbLine
 62
7
  6
CONTINUOUS
 10
366.1480584102
 20
114.4158550746
 11
348.7216499077
 21
103.6610222341
  0
LINE
  5
24D
100
AcDbEntity
  8
0
100
AcDbLine
 62
7
  6
CONTINUOUS
 10
341.650593871
 20
94.5070776866
 11
341.2970407743
 21
94.3029549294
  0
LINE
  5
24E
100
AcDbEntity
  8
0
100
AcDbLine
 62
7
  6
CONTINUOUS
 10
341.0984936459
 20
93.5176865539
 11
341.6295994573
 21
93.8243188068
  0
LINE
  5
24F
100
AcDbEntity
  8
0
100
AcDbLine
 62
7
  6
CONTINUOUS
 10
341.6506030479
 20
93.7879393037
 11
340.5884006019
 21
93.1746800962
  0
LINE
  5
250
100
AcDbEntity
  8
0
100
AcDbLine
 62
7
  6
CONTINUOUS
 10
343.5476352756
 20
91.6617522009
 11
348.7216499076
 21
94.4101929876
  0
LINE
  5
251
100
AcDbEntity
  8
0
100
AcDbLine
 62
7
  6
CONTINUOUS
 10
342.8963378012
 20
90.2990932724
 11
347.9941404695
 21
92.8880817091
  0
ARC
  5
252
100
AcDbEntity
  8
0
100
AcDbCircle
 62
7
  6
CONTINUOUS
 10
49.6998316617
 20
475.1849810934
 40
0.5184542296
100
AcDbArc
 50
113.0510953006
 51
119.9834011532
  0
ARC
  5
253
100
AcDbEntity
  8
0
100
AcDbCircle
 62
7
  6
CONTINUOUS
 10
341.087845374
 20
93.5357309607
 40
0.5028897216
100
AcDbArc
 50
300.0225843721
 51
307.8531736485
  0
SPLINE
  5
254
100
AcDbEntity
  8
0
100
AcDbSpline
 62
7
  6
CONTINUOUS
 70
0
 71
3
 72
9
 73
5
 74
0
 42
0.0000001
 43
0.0000001
 44
0.0000000001
 40
0.0
 40
0.0
 40
0.0
 40
0.0
 40
0.4491660543
 40
1.0
 40
1.0
 40
1.0
 40
1.0
 10
173.9749087796
 20
209.0268423846
 30
0.0
 10
173.7051226727
 20
208.8710821043
 30
0.0
 10
173.2389374152
 20
208.2878372406
 30
0.0
 10
173.146349018
 20
207.5779265713
 30
0.0
 10
173.1463490181
 20
207.1958924442
 30
0.0
  0
SPLINE
  5
255
100
AcDbEntity
  8
0
100
AcDbSpline
 62
7
  6
CONTINUOUS
 70
0
 71
3
 72
9
 73
5
 74
0
 42
0.0000001
 43
0.0000001
 44
0.0000000001
 40
0.0
 40
0.0
 40
0.0
 40
0.0
 40
0.4491660543
 40
1.0
 40
1.0
 40
1.0
 40
1.0
 10
70.9186517639
 20
450.9677879309
 30
0.0
 10
70.7163121833
 20
450.8509677203
 30
0.0
 10
70.3666732398
 20
450.4135340707
 30
0.0
 10
70.2972319423
 20
449.8811010672
 30
0.0
 10
70.2972319421
 20
449.5945754711
 30
0.0
  0
SPLINE
  5
256
100
AcDbEntity
  8
0
100
AcDbSpline
 62
7
  6
CONTINUOUS
 70
0
 71
3
 72
9
 73
5
 74
0
 42
0.0000001
 43
0.0000001
 44
0.0000000001
 40
0.0
 40
0.0
 40
0.0
 40
0.0
 40
0.2204653805
 40
1.0
 40
1.0
 40
1.0
 40
1.0
 10
49.4968299428
 20
475.6620398846
 30
0.0
 10
49.5471118194
 20
475.6834466731
 30
0.0
 10
49.7916911471
 20
475.7443999949
 30
0.0
 10
50.0493205399
 20
475.6538371215
 30
0.0
 10
50.2166647304
 20
475.5572230938
 30
0.0
  0
SPLINE
  5
257
100
AcDbEntity
  8
0
100
AcDbSpline
 62
7
  6
CONTINUOUS
 70
0
 71
3
 72
9
 73
5
 74
0
 42
0.0000001
 43
0.0000001
 44
0.0000000001
 40
0.0
 40
0.0
 40
0.0
 40
0.0
 40
0.4507423729
 40
1.0
 40
1.0
 40
1.0
 40
1.0
 10
47.792230223
 20
478.3803852667
 30
0.0
 10
47.6045741753
 20
478.2571270836
 30
0.0
 10
47.29225002
 20
477.8269076577
 30
0.0
 10
47.2222839611
 20
477.3204519731
 30
0.0
 10
47.2222591793
 20
477.0468654276
 30
0.0
  0
SPLINE
  5
258
100
AcDbEntity
  8
0
100
AcDbSpline
 62
7
  6
CONTINUOUS
 70
0
 71
3
 72
9
 73
5
 74
0
 42
0.0000001
 43
0.0000001
 44
0.0000000001
 40
0.0
 40
0.0
 40
0.0
 40
0.0
 40
0.4485548804
 40
1.0
 40
1.0
 40
1.0
 40
1.0
 10
52.5799514999
 20
481.5067919136
 30
0.0
 10
52.8015006999
 20
481.6523121454
 30
0.0
 10
53.4327102553
 20
481.7656216906
 30
0.0
 10
53.9996792994
 20
481.5380112113
 30
0.0
 10
54.2818969649
 20
481.375091083
 30
0.0
  0
SPLINE
  5
259
100
AcDbEntity
  8
0
100
AcDbSpline
 62
7
  6
CONTINUOUS
 70
0
 71
3
 72
9
 73
5
 74
0
 42
0.0000001
 43
0.0000001
 44
0.0000000001
 40
0.0
 40
0.0
 40
0.0
 40
0.0
 40
0.4507108514
 40
1.0
 40
1.0
 40
1.0
 40
1.0
 10
342.8963024451
 20
90.2991554619
 30
0.0
 10
342.6993085454
 20
90.1997590642
 30
0.0
 10
342.1795818505
 20
90.144937726
 30
0.0
 10
341.7140822723
 20
90.334272678
 30
0.0
 10
341.481193413
 20
90.4687163153
 30
0.0
  0
SPLINE
  5
25A
100
AcDbEntity
  8
0
100
AcDbSpline
 62
7
  6
CONTINUOUS
 70
0
 71
3
 72
9
 73
5
 74
0
 42
0.0000001
 43
0.0000001
 44
0.0000000001
 40
0.0
 40
0.0
 40
0.0
 40
0.0
 40
0.4500382127
 40
1.0
 40
1.0
 40
1.0
 40
1.0
 10
78.0818217907
 20
486.7332307133
 30
0.0
 10
78.3873099447
 20
486.8931958938
 30
0.0
 10
79.201328527
 20
486.9936624738
 30
0.0
 10
79.9290523836
 20
486.6899011289
 30
0.0
 10
80.2940208471
 20
486.4792427299
 30
0.0
  0
SPLINE
  5
25B
100
AcDbEntity
  8
0
100
AcDbSpline
 62
7
  6
CONTINUOUS
 70
0
 71
3
 72
9
 73
5
 74
0
 42
0.0000001
 43
0.0000001
 44
0.0000000001
 40
0.0
 40
0.0
 40
0.0
 40
0.0
 40
0.5499497757
 40
1.0
 40
1.0
 40
1.0
 40
1.0
 10
366.1480584022
 20
114.4157482607
 30
0.0
 10
366.1480222685
 20
113.994474737
 30
0.0
 10
366.0473096754
 20
113.2126188528
 30
0.0
 10
365.5538183504
 20
112.557885129
 30
0.0
 10
365.2627531009
 20
112.3731355589
 30
0.0
  0
SPLINE
  5
25C
100
AcDbEntity
  8
0
100
AcDbSpline
 62
7
  6
CONTINUOUS
 70
0
 71
3
 72
11
 73
7
 74
0
 42
0.0000001
 43
0.0000001
 44
0.0000000001
 40
0.0
 40
0.0
 40
0.0
 40
0.0
 40
0.2372500778
 40
0.5000021509
 40
0.762752776
 40
1.0
 40
1.0
 40
1.0
 40
1.0
 10
366.1480584093
 20
317.7589466665
 30
0.0
 10
366.1480114106
 20
318.2822919564
 30
0.0
 10
365.9518216369
 20
319.385978132
 30
0.0
 10
365.2673287827
 20
320.9366102308
 30
0.0
 10
364.2666675397
 20
322.3046930752
 30
0.0
 10
363.4089340899
 20
323.0264149025
 30
0.0
 10
362.9557301612
 20
323.2881206626
 30
0.0
  0
SPLINE
  5
25D
100
AcDbEntity
  8
0
100
AcDbSpline
 62
7
  6
CONTINUOUS
 70
0
 71
3
 72
9
 73
5
 74
0
 42
0.0000001
 43
0.0000001
 44
0.0000000001
 40
0.0
 40
0.0
 40
0.0
 40
0.0
 40
0.55142543
 40
1.0
 40
1.0
 40
1.0
 40
1.0
 10
348.7216499085
 20
94.4102073977
 30
0.0
 10
348.7216320298
 20
94.0882052115
 30
0.0
 10
348.636313836
 20
93.4905985527
 30
0.0
 10
348.2279613867
 20
93.0061492277
 30
0.0
 10
347.994101204
 20
92.8881512906
 30
0.0
  0
SPLINE
  5
25E
100
AcDbEntity
  8
0
100
AcDbSpline
 62
7
  6
CONTINUOUS
 70
0
 71
3
 72
11
 73
7
 74
0
 42
0.0000001
 43
0.0000001
 44
0.0000000001
 40
0.0
 40
0.0
 40
0.0
 40
0.0
 40
0.2375782484
 40
0.5000001405
 40
0.7624220058
 40
1.0
 40
1.0
 40
1.0
 40
1.0
 10
346.3934078838
 20
312.7282469192
 30
0.0
 10
346.7243393957
 20
312.5371630963
 30
0.0
 10
347.3466364638
 20
312.0075367076
 30
0.0
 10
348.0813248824
 20
311.0143253424
 30
0.0
 10
348.5741191171
 20
309.8814580055
 30
0.0
 10
348.7216353941
 20
309.0777191112
 30
0.0
 10
348.7216499109
 20
308.6955825123
 30
0.0
  0
SPLINE
  5
25F
100
AcDbEntity
  8
0
100
AcDbSpline
 62
7
  6
CONTINUOUS
 70
0
 71
3
 72
11
 73
7
 74
0
 42
0.0000001
 43
0.0000001
 44
0.0000000001
 40
0.0
 40
0.0
 40
0.0
 40
0.0
 40
0.2375809703
 40
0.5000028488
 40
0.7624233214
 40
1.0
 40
1.0
 40
1.0
 40
1.0
 10
49.2820129406
 20
259.1661753832
 30
0.0
 10
48.989241353
 20
259.3352405703
 30
0.0
 10
48.438704644
 20
259.8038150157
 30
0.0
 10
47.7887385596
 20
260.6825196498
 30
0.0
 10
47.352775211
 20
261.6847668376
 30
0.0
 10
47.2222718823
 20
262.3958303741
 30
0.0
 10
47.2222591703
 20
262.7339044939
 30
0.0
  0
SPLINE
  5
260
100
AcDbEntity
  8
0
100
AcDbSpline
 62
7
  6
CONTINUOUS
 70
0
 71
3
 72
9
 73
5
 74
0
 42
0.0000001
 43
0.0000001
 44
0.0000000001
 40
0.0
 40
0.0
 40
0.0
 40
0.0
 40
0.2903575001
 40
1.0
 40
1.0
 40
1.0
 40
1.0
 10
341.650593871
 20
93.7879551985
 30
0.0
 10
341.650593871
 20
93.7192821692
 30
0.0
 10
341.6352239537
 20
93.4853423548
 30
0.0
 10
341.5289863396
 20
93.2416176575
 30
0.0
 10
341.3964386716
 20
93.1386563471
 30
0.0
  0
SPLINE
  5
261
100
AcDbEntity
  8
0
100
AcDbSpline
 62
7
  6
CONTINUOUS
 70
0
 71
3
 72
9
 73
5
 74
0
 42
0.0000001
 43
0.0000001
 44
0.0000000001
 40
0.0
 40
0.0
 40
0.0
 40
0.0
 40
0.4999988717
 40
1.0
 40
1.0
 40
1.0
 40
1.0
 10
340.5816436249
 20
307.9187168555
 30
0.0
 10
340.8989229568
 20
307.7355396919
 30
0.0
 10
341.400221674
 20
307.157012355
 30
0.0
 10
341.650593871
 20
306.4336131932
 30
0.0
 10
341.650593871
 20
306.0672509963
 30
0.0
  0
SPLINE
  5
262
100
AcDbEntity
  8
0
100
AcDbSpline
 62
7
  6
CONTINUOUS
 70
0
 71
3
 72
9
 73
5
 74
0
 42
0.0000001
 43
0.0000001
 44
0.0000000001
 40
0.0
 40
0.0
 40
0.0
 40
0.0
 40
0.5000011283
 40
1.0
 40
1.0
 40
1.0
 40
1.0
 10
49.0485913716
 20
263.0397552727
 30
0.0
 10
49.0485913716
 20
262.5559684657
 30
0.0
 10
49.3792116339
 20
261.600708961
 30
0.0
 10
50.0411841516
 20
260.8367548868
 30
0.0
 10
50.460156295
 20
260.5948666793
 30
0.0
  0
SPLINE
  5
263
100
AcDbEntity
  8
0
100
AcDbSpline
 62
7
  6
CONTINUOUS
 70
0
 71
3
 72
11
 73
7
 74
0
 42
0.0000001
 43
0.0000001
 44
0.0000000001
 40
0.0
 40
0.0
 40
0.0
 40
0.0
 40
0.2372539654
 40
0.500001259
 40
0.7627478694
 40
1.0
 40
1.0
 40
1.0
 40
1.0
 10
70.2972319421
 20
442.246053726
 30
0.0
 10
70.2972319424
 20
441.8982760764
 30
0.0
 10
70.4276247389
 20
441.1648570025
 30
0.0
 10
70.8824420041
 20
440.1344281061
 30
0.0
 10
71.5474137184
 20
439.2253357068
 30
0.0
 10
72.1173774636
 20
438.7457087369
 30
0.0
 10
72.418561117
 20
438.5718242068
 30
0.0
  0
SPLINE
  5
264
100
AcDbEntity
  8
0
100
AcDbSpline
 62
7
  6
CONTINUOUS
 70
0
 71
3
 72
9
 73
5
 74
0
 42
0.0000001
 43
0.0000001
 44
0.0000000001
 40
0.0
 40
0.0
 40
0.0
 40
0.0
 40
0.5508326584
 40
1.0
 40
1.0
 40
1.0
 40
1.0
 10
95.0460723228
 20
425.5081200616
 30
0.0
 10
95.2942050189
 20
425.3648638239
 30
0.0
 10
95.7900150666
 20
425.1587961543
 30
0.0
 10
96.343646876
 20
425.2428751446
 30
0.0
 10
96.5459816769
 20
425.3596925958
 30
0.0
  0
SPLINE
  5
265
100
AcDbEntity
  8
0
100
AcDbSpline
 62
7
  6
CONTINUOUS
 70
0
 71
3
 72
11
 73
7
 74
0
 42
0.0000001
 43
0.0000001
 44
0.0000000001
 40
0.0
 40
0.0
 40
0.0
 40
0.0
 40
0.2375798312
 40
0.5000014735
 40
0.7624224103
 40
1.0
 40
1.0
 40
1.0
 40
1.0
 10
341.3699774592
 20
309.6541036643
 30
0.0
 10
341.6795053947
 20
309.4753677496
 30
0.0
 10
342.2615526097
 20
308.9799826397
 30
0.0
 10
342.9487219952
 20
308.0509950505
 30
0.0
 10
343.4096426677
 20
306.9913897494
 30
0.0
 10
343.547619361
 20
306.2396305019
 30
0.0
 10
343.5476352778
 20
305.8822068609
 30
0.0
  0
SPLINE
  5
266
100
AcDbEntity
  8
0
100
AcDbSpline
 62
7
  6
CONTINUOUS
 70
0
 71
3
 72
9
 73
5
 74
0
 42
0.0000001
 43
0.0000001
 44
0.0000000001
 40
0.0
 40
0.0
 40
0.0
 40
0.0
 40
0.551421764
 40
1.0
 40
1.0
 40
1.0
 40
1.0
 10
343.5476352686
 20
91.6616626193
 30
0.0
 10
343.5476079645
 20
91.3734127493
 30
0.0
 10
343.4712113811
 20
90.8384473054
 30
0.0
 10
343.1056524983
 20
90.4047863528
 30
0.0
 10
342.8963024451
 20
90.2991554619
 30
0.0
  0
SPLINE
  5
267
100
AcDbEntity
  8
0
100
AcDbSpline
 62
7
  6
CONTINUOUS
 70
0
 71
3
 72
9
 73
5
 74
0
 42
0.0000001
 43
0.0000001
 44
0.0000000001
 40
0.0
 40
0.0
 40
0.0
 40
0.0
 40
0.5514450425
 40
1.0
 40
1.0
 40
1.0
 40
1.0
 10
49.3265180597
 20
478.2616591591
 30
0.0
 10
49.0721014269
 20
478.4085298786
 30
0.0
 10
48.5609840553
 20
478.6137181388
 30
0.0
 10
47.9919547581
 20
478.5115703984
 30
0.0
 10
47.792230223
 20
478.3803852667
 30
0.0
  0
SPLINE
  5
268
100
AcDbEntity
  8
0
100
AcDbSpline
 62
7
  6
CONTINUOUS
 70
0
 71
3
 72
9
 73
5
 74
0
 42
0.0000001
 43
0.0000001
 44
0.0000000001
 40
0.0
 40
0.0
 40
0.0
 40
0.0
 40
0.221496988
 40
1.0
 40
1.0
 40
1.0
 40
1.0
 10
71.2769453488
 20
451.1324208139
 30
0.0
 10
71.3692386339
 20
451.1566816547
 30
0.0
 10
71.8016706236
 20
451.2095827482
 30
0.0
 10
72.2341544625
 20
451.0482975137
 30
0.0
 10
72.5246266919
 20
450.8805970881
 30
0.0
  0
SPLINE
  5
269
100
AcDbEntity
  8
0
100
AcDbSpline
 62
7
  6
CONTINUOUS
 70
0
 71
3
 72
9
 73
5
 74
0
 42
0.0000001
 43
0.0000001
 44
0.0000000001
 40
0.0
 40
0.0
 40
0.0
 40
0.0
 40
0.2652658399
 40
1.0
 40
1.0
 40
1.0
 40
1.0
 10
49.1193005777
 20
474.9236414895
 30
0.0
 10
49.1193005777
 20
474.9550319978
 30
0.0
 10
49.1232073479
 20
475.0732668714
 30
0.0
 10
49.1432543873
 20
475.1914875379
 30
0.0
 10
49.1698698328
 20
475.2742591699
 30
0.0
  0
SPLINE
  5
26A
100
AcDbEntity
  8
0
100
AcDbSpline
 62
7
  6
CONTINUOUS
 70
0
 71
3
 72
9
 73
5
 74
0
 42
0.0000001
 43
0.0000001
 44
0.0000000001
 40
0.0
 40
0.0
 40
0.0
 40
0.0
 40
0.2731841327
 40
1.0
 40
1.0
 40
1.0
 40
1.0
 10
49.1698698328
 20
475.2742591699
 30
0.0
 10
49.1825816507
 20
475.3137917755
 30
0.0
 10
49.2383973991
 20
475.4549635478
 30
0.0
 10
49.345054579
 20
475.5788101472
 30
0.0
 10
49.4407346335
 20
475.6340507073
 30
0.0
  0
SPLINE
  5
26B
100
AcDbEntity
  8
0
100
AcDbSpline
 62
7
  6
CONTINUOUS
 70
0
 71
3
 72
9
 73
5
 74
0
 42
0.0000001
 43
0.0000001
 44
0.0000000001
 40
0.0
 40
0.0
 40
0.0
 40
0.0
 40
0.238830015
 40
1.0
 40
1.0
 40
1.0
 40
1.0
 10
341.2970407748
 20
305.4548284812
 30
0.0
 10
341.2970407748
 20
305.4901243938
 30
0.0
 10
341.2928010988
 20
305.6379022544
 30
0.0
 10
341.2729068164
 20
305.7850495444
 30
0.0
 10
341.2509339178
 20
305.8953735268
 30
0.0
  0
SPLINE
  5
26C
100
AcDbEntity
  8
0
100
AcDbSpline
 62
7
  6
CONTINUOUS
 70
0
 71
3
 72
9
 73
5
 74
0
 42
0.0000001
 43
0.0000001
 44
0.0000000001
 40
0.0
 40
0.0
 40
0.0
 40
0.0
 40
0.2406033827
 40
1.0
 40
1.0
 40
1.0
 40
1.0
 10
341.2509339178
 20
305.8953735268
 30
0.0
 10
341.2347505966
 20
305.9766285526
 30
0.0
 10
341.1517196667
 20
306.3111159392
 30
0.0
 10
341.0111136024
 20
306.6304104014
 30
0.0
 10
340.880365255
 20
306.856871925
 30
0.0
  0
SPLINE
  5
26D
100
AcDbEntity
  8
0
100
AcDbSpline
 62
7
  6
CONTINUOUS
 70
0
 71
3
 72
9
 73
5
 74
0
 42
0.0000001
 43
0.0000001
 44
0.0000000001
 40
0.0
 40
0.0
 40
0.0
 40
0.0
 40
0.2574697821
 40
1.0
 40
1.0
 40
1.0
 40
1.0
 10
340.880365255
 20
306.856871925
 30
0.0
 10
340.8360417741
 20
306.9336420196
 30
0.0
 10
340.6525774837
 20
307.2249665166
 30
0.0
 10
340.4251334176
 20
307.4899295045
 30
0.0
 10
340.2329637566
 20
307.6585384693
 30
0.0
  0
SPLINE
  5
26E
100
AcDbEntity
  8
0
100
AcDbSpline
 62
7
  6
CONTINUOUS
 70
0
 71
3
 72
9
 73
5
 74
0
 42
0.0000001
 43
0.0000001
 44
0.0000000001
 40
0.0
 40
0.0
 40
0.0
 40
0.0
 40
0.2608386548
 40
1.0
 40
1.0
 40
1.0
 40
1.0
 10
340.2329637566
 20
307.6585384693
 30
0.0
 10
340.203989472
 20
307.6839604017
 30
0.0
 10
340.0908165086
 20
307.7789709003
 30
0.0
 10
339.9690932451
 20
307.8641200455
 30
0.0
 10
339.874496064
 20
307.9187345179
 30
0.0
  0
SPLINE
  5
26F
100
AcDbEntity
  8
0
100
AcDbSpline
 62
7
  6
CONTINUOUS
 70
0
 71
3
 72
9
 73
5
 74
0
 42
0.0000001
 43
0.0000001
 44
0.0000000001
 40
0.0
 40
0.0
 40
0.0
 40
0.0
 40
0.2214969879
 40
1.0
 40
1.0
 40
1.0
 40
1.0
 10
174.4172783681
 20
209.2259406893
 30
0.0
 10
174.5403360818
 20
209.2582884769
 30
0.0
 10
175.1169120692
 20
209.3288232675
 30
0.0
 10
175.6935571882
 20
209.1137762865
 30
0.0
 10
176.0808534946
 20
208.8901757182
 30
0.0
  0
SPLINE
  5
270
100
AcDbEntity
  8
0
100
AcDbSpline
 62
7
  6
CONTINUOUS
 70
0
 71
3
 72
9
 73
5
 74
0
 42
0.0000001
 43
0.0000001
 44
0.0000000001
 40
0.0
 40
0.0
 40
0.0
 40
0.0
 40
0.2610365304
 40
1.0
 40
1.0
 40
1.0
 40
1.0
 10
50.4656836269
 20
475.0052102832
 30
0.0
 10
50.439181597
 20
475.0205108911
 30
0.0
 10
50.3362305704
 20
475.0765721667
 30
0.0
 10
50.2273866259
 20
475.122203947
 30
0.0
 10
50.1446171248
 20
475.1477763239
 30
0.0
  0
SPLINE
  5
271
100
AcDbEntity
  8
0
100
AcDbSpline
 62
7
  6
CONTINUOUS
 70
0
 71
3
 72
9
 73
5
 74
0
 42
0.0000001
 43
0.0000001
 44
0.0000000001
 40
0.0
 40
0.0
 40
0.0
 40
0.0
 40
0.5313368361
 40
1.0
 40
1.0
 40
1.0
 40
1.0
 10
50.1446171248
 20
475.1477763239
 30
0.0
 10
50.0265995615
 20
475.1842389047
 30
0.0
 10
49.7916019015
 20
475.2233554895
 30
0.0
 10
49.5580337654
 20
475.1588981074
 30
0.0
 10
49.4636784777
 20
475.104422397
 30
0.0
  0
SPLINE
  5
272
100
AcDbEntity
  8
0
100
AcDbSpline
 62
7
  6
CONTINUOUS
 70
0
 71
3
 72
9
 73
5
 74
0
 42
0.0000001
 43
0.0000001
 44
0.0000000001
 40
0.0
 40
0.0
 40
0.0
 40
0.0
 40
0.2860311139
 40
1.0
 40
1.0
 40
1.0
 40
1.0
 10
97.273467074
 20
426.794141675
 30
0.0
 10
97.2734670738
 20
426.6712088119
 30
0.0
 10
97.2472938427
 20
426.2449128208
 30
0.0
 10
97.0836176342
 20
425.8056058433
 30
0.0
 10
96.8676547446
 20
425.587614172
 30
0.0
  0
SPLINE
  5
273
100
AcDbEntity
  8
0
100
AcDbSpline
 62
7
  6
CONTINUOUS
 70
0
 71
3
 72
11
 73
7
 74
0
 42
0.0000001
 43
0.0000001
 44
0.0000000001
 40
0.0
 40
0.0
 40
0.0
 40
0.0
 40
0.2372523758
 40
0.4999990758
 40
0.7627462798
 40
1.0
 40
1.0
 40
1.0
 40
1.0
 10
95.1521378977
 20
437.8168929428
 30
0.0
 10
95.4533218624
 20
437.6430082332
 30
0.0
 10
96.023285926
 20
437.1633808341
 30
0.0
 10
96.6882576261
 20
436.2542879795
 30
0.0
 10
97.1430744904
 20
435.223859299
 30
0.0
 10
97.2734670737
 20
434.4904407155
 30
0.0
 10
97.273467074
 20
434.1426634255
 30
0.0
  0
SPLINE
  5
274
100
AcDbEntity
  8
0
100
AcDbSpline
 62
7
  6
CONTINUOUS
 70
0
 71
3
 72
11
 73
7
 74
0
 42
0.0000001
 43
0.0000001
 44
0.0000000001
 40
0.0
 40
0.0
 40
0.0
 40
0.0
 40
0.2372523758
 40
0.4999990757
 40
0.7627462798
 40
1.0
 40
1.0
 40
1.0
 40
1.0
 10
214.2647786518
 20
186.8451749745
 30
0.0
 10
214.6663572714
 20
186.6133286955
 30
0.0
 10
215.4263093558
 20
185.9738254971
 30
0.0
 10
216.3129382894
 20
184.7617016918
 30
0.0
 10
216.9193607745
 20
183.3877967852
 30
0.0
 10
217.0932175528
 20
182.409905341
 30
0.0
 10
217.0932175528
 20
181.9462022878
 30
0.0
  0
SPLINE
  5
275
100
AcDbEntity
  8
0
100
AcDbSpline
 62
7
  6
CONTINUOUS
 70
0
 71
3
 72
9
 73
5
 74
0
 42
0.0000001
 43
0.0000001
 44
0.0000000001
 40
0.0
 40
0.0
 40
0.0
 40
0.0
 40
0.5508326582
 40
1.0
 40
1.0
 40
1.0
 40
1.0
 10
72.4185611081
 20
450.8193604689
 30
0.0
 10
72.1704284138
 20
450.9626167056
 30
0.0
 10
71.6746183686
 20
451.1686843725
 30
0.0
 10
71.1209865636
 20
451.0846053813
 30
0.0
 10
70.9186517639
 20
450.9677879309
 30
0.0
  0
SPLINE
  5
276
100
AcDbEntity
  8
0
100
AcDbSpline
 62
7
  6
CONTINUOUS
 70
0
 71
3
 72
11
 73
7
 74
0
 42
0.0000001
 43
0.0000001
 44
0.0000000001
 40
0.0
 40
0.0
 40
0.0
 40
0.0
 40
0.2372539653
 40
0.5000012589
 40
0.7627478693
 40
1.0
 40
1.0
 40
1.0
 40
1.0
 10
97.1674014977
 20
434.0814268037
 30
0.0
 10
97.1674014974
 20
434.4292044521
 30
0.0
 10
97.0370087017
 20
435.1626235236
 30
0.0
 10
96.582191438
 20
436.1930524168
 30
0.0
 10
95.9172197271
 20
437.1021448141
 30
0.0
 10
95.3472559844
 20
437.581771784
 30
0.0
 10
95.0460723317
 20
437.7556563134
 30
0.0
  0
SPLINE
  5
277
100
AcDbEntity
  8
0
100
AcDbSpline
 62
7
  6
CONTINUOUS
 70
0
 71
3
 72
14
 73
10
 74
0
 42
0.0000001
 43
0.0000001
 44
0.0000000001
 40
0.0
 40
0.0
 40
0.0
 40
0.0
 40
0.2639540779
 40
0.3897587158
 40
0.5108815694
 40
0.6200324319
 40
0.7277594723
 40
0.8551717694
 40
1.0
 40
1.0
 40
1.0
 40
1.0
 10
75.4445431288
 20
441.9490518153
 30
0.0
 10
75.4334529616
 20
441.8635115333
 30
0.0
 10
75.4032603816
 20
441.7385969001
 30
0.0
 10
75.3410762813
 20
441.5834067072
 30
0.0
 10
75.2886279543
 20
441.4797091774
 30
0.0
 10
75.2128092308
 20
441.3937366958
 30
0.0
 10
75.097633644
 20
441.3650101876
 30
0.0
 10
74.9743566092
 20
441.392614557
 30
0.0
 10
74.8930419466
 20
441.4295316879
 30
0.0
 10
74.8517438135
 20
441.4526481951
 30
0.0
  0
SPLINE
  5
278
100
AcDbEntity
  8
0
100
AcDbSpline
 62
7
  6
CONTINUOUS
 70
0
 71
3
 72
11
 73
7
 74
0
 42
0.0000001
 43
0.0000001
 44
0.0000000001
 40
0.0
 40
0.0
 40
0.0
 40
0.0
 40
0.2523290048
 40
0.4841919045
 40
0.7142975332
 40
1.0
 40
1.0
 40
1.0
 40
1.0
 10
75.4779155451
 20
445.4912531172
 30
0.0
 10
75.4930311445
 20
445.5700548649
 30
0.0
 10
75.5423670648
 20
445.7051228638
 30
0.0
 10
75.6218916358
 20
445.9662894538
 30
0.0
 10
75.9055987322
 20
445.9091345023
 30
0.0
 10
76.0416748189
 20
445.8365380519
 30
0.0
 10
76.1163823591
 20
445.7848402933
 30
0.0
  0
SPLINE
  5
279
100
AcDbEntity
  8
0
100
AcDbSpline
 62
7
  6
CONTINUOUS
 70
0
 71
3
 72
9
 73
5
 74
0
 42
0.0000001
 43
0.0000001
 44
0.0000000001
 40
0.0
 40
0.0
 40
0.0
 40
0.0
 40
0.485226169
 40
1.0
 40
1.0
 40
1.0
 40
1.0
 10
73.5827141611
 20
447.247621217
 30
0.0
 10
73.7730808747
 20
447.1777559592
 30
0.0
 10
74.0893531167
 20
446.8460847532
 30
0.0
 10
74.1989569007
 20
446.433156167
 30
0.0
 10
74.2176680978
 20
446.2188408294
 30
0.0
  0
SPLINE
  5
27A
100
AcDbEntity
  8
0
100
AcDbSpline
 62
7
  6
CONTINUOUS
 70
0
 71
3
 72
11
 73
7
 74
0
 42
0.0000001
 43
0.0000001
 44
0.0000000001
 40
0.0
 40
0.0
 40
0.0
 40
0.0
 40
0.243700563
 40
0.4584909717
 40
0.7119166053
 40
1.0
 40
1.0
 40
1.0
 40
1.0
 10
77.8025670902
 20
442.5022703478
 30
0.0
 10
77.8026958819
 20
442.6448453138
 30
0.0
 10
77.899252969
 20
442.9472788731
 30
0.0
 10
78.3499333699
 20
443.0519133066
 30
0.0
 10
78.7779211212
 20
442.9281566882
 30
0.0
 10
79.0637074823
 20
442.787654175
 30
0.0
 10
79.2085992515
 20
442.7015589421
 30
0.0
  0
SPLINE
  5
27B
100
AcDbEntity
  8
0
100
AcDbSpline
 62
7
  6
CONTINUOUS
 70
0
 71
3
 72
15
 73
11
 74
0
 42
0.0000001
 43
0.0000001
 44
0.0000000001
 40
0.0
 40
0.0
 40
0.0
 40
0.0
 40
0.1515383045
 40
0.293133135
 40
0.4170952787
 40
0.5280670974
 40
0.6386027418
 40
0.7531424887
 40
0.86294987
 40
1.0
 40
1.0
 40
1.0
 40
1.0
 10
79.2042081453
 20
442.0550793499
 30
0.0
 10
79.1510210574
 20
442.0873861536
 30
0.0
 10
79.0442080009
 20
442.1435898215
 30
0.0
 10
78.8856065755
 20
442.2085218805
 30
0.0
 10
78.7283140657
 20
442.2313464947
 30
0.0
 10
78.5902271646
 20
442.1820496269
 30
0.0
 10
78.4844998263
 20
442.0881092521
 30
0.0
 10
78.4106547002
 20
441.9768557009
 30
0.0
 10
78.2884814938
 20
441.8622469518
 30
0.0
 10
78.1786230833
 20
441.9199950457
 30
0.0
 10
78.132778266
 20
441.9526408709
 30
0.0
  0
SPLINE
  5
27C
100
AcDbEntity
  8
0
100
AcDbSpline
 62
7
  6
CONTINUOUS
 70
0
 71
3
 72
10
 73
6
 74
0
 42
0.0000001
 43
0.0000001
 44
0.0000000001
 40
0.0
 40
0.0
 40
0.0
 40
0.0
 40
0.4915662476
 40
0.7580444106
 40
1.0
 40
1.0
 40
1.0
 40
1.0
 10
86.6269338386
 20
438.4186783629
 30
0.0
 10
87.0427282578
 20
438.1828127908
 30
0.0
 10
87.5899205977
 20
437.6360663965
 30
0.0
 10
88.01895084
 20
436.7556976421
 30
0.0
 10
88.1071129723
 20
436.2615088528
 30
0.0
 10
88.1181534587
 20
436.0264726355
 30
0.0
  0
SPLINE
  5
27D
100
AcDbEntity
  8
0
100
AcDbSpline
 62
7
  6
CONTINUOUS
 70
0
 71
3
 72
9
 73
5
 74
0
 42
0.0000001
 43
0.0000001
 44
0.0000000001
 40
0.0
 40
0.0
 40
0.0
 40
0.0
 40
0.5001674641
 40
1.0
 40
1.0
 40
1.0
 40
1.0
 10
86.6866528817
 20
434.6199148358
 30
0.0
 10
86.1976354335
 20
434.8920918041
 30
0.0
 10
85.3628181742
 20
435.7309639776
 30
0.0
 10
85.0747521338
 20
436.8727038175
 30
0.0
 10
85.0812645035
 20
437.4319502873
 30
0.0
  0
SPLINE
  5
27E
100
AcDbEntity
  8
0
100
AcDbSpline
 62
7
  6
CONTINUOUS
 70
0
 71
3
 72
10
 73
6
 74
0
 42
0.0000001
 43
0.0000001
 44
0.0000000001
 40
0.0
 40
0.0
 40
0.0
 40
0.0
 40
0.2794515421
 40
0.5061164528
 40
1.0
 40
1.0
 40
1.0
 40
1.0
 10
90.4770556371
 20
437.1065086042
 30
0.0
 10
90.4775875823
 20
437.1601116779
 30
0.0
 10
90.4873357288
 20
437.2593977782
 30
0.0
 10
90.621316799
 20
437.4227550951
 30
0.0
 10
90.7896006981
 20
437.3703525055
 30
0.0
 10
90.8748898471
 20
437.3291062594
 30
0.0
  0
SPLINE
  5
27F
100
AcDbEntity
  8
0
100
AcDbSpline
 62
7
  6
CONTINUOUS
 70
0
 71
3
 72
12
 73
8
 74
0
 42
0.0000001
 43
0.0000001
 44
0.0000000001
 40
0.0
 40
0.0
 40
0.0
 40
0.0
 40
0.2550456767
 40
0.3626868573
 40
0.4710892913
 40
0.7148894441
 40
1.0
 40
1.0
 40
1.0
 40
1.0
 10
91.9384157352
 20
434.2995414509
 30
0.0
 10
91.9415955043
 20
434.4407347605
 30
0.0
 10
91.9836192332
 20
434.6599098059
 30
0.0
 10
92.1927237131
 20
434.8304988095
 30
0.0
 10
92.4433587464
 20
434.9000897671
 30
0.0
 10
92.8029103962
 20
434.8321100109
 30
0.0
 10
93.0659923719
 20
434.7024164492
 30
0.0
 10
93.2021760621
 20
434.6225463752
 30
0.0
  0
SPLINE
  5
280
100
AcDbEntity
  8
0
100
AcDbSpline
 62
7
  6
CONTINUOUS
 70
0
 71
3
 72
10
 73
6
 74
0
 42
0.0000001
 43
0.0000001
 44
0.0000000001
 40
0.0
 40
0.0
 40
0.0
 40
0.0
 40
0.4811030969
 40
0.7492339219
 40
1.0
 40
1.0
 40
1.0
 40
1.0
 10
93.2654079895
 20
430.8217547292
 30
0.0
 10
92.9410552044
 20
431.0092969338
 30
0.0
 10
92.4753896244
 20
431.3867235571
 30
0.0
 10
92.037565242
 20
432.0352652601
 30
0.0
 10
91.9107317451
 20
432.4331806877
 30
0.0
 10
91.9032868875
 20
432.6283279693
 30
0.0
  0
SPLINE
  5
281
100
AcDbEntity
  8
0
100
AcDbSpline
 62
7
  6
CONTINUOUS
 70
0
 71
3
 72
11
 73
7
 74
0
 42
0.0000001
 43
0.0000001
 44
0.0000000001
 40
0.0
 40
0.0
 40
0.0
 40
0.0
 40
0.2914659855
 40
0.5525278416
 40
0.7825146245
 40
1.0
 40
1.0
 40
1.0
 40
1.0
 10
78.9504022154
 20
439.7353549376
 30
0.0
 10
79.0175270304
 20
439.6968213251
 30
0.0
 10
79.150872874
 20
439.6335040277
 30
0.0
 10
79.3540116882
 20
439.5824053429
 30
0.0
 10
79.5472595314
 20
439.594810557
 30
0.0
 10
79.6518551314
 20
439.6652718431
 30
0.0
 10
79.6889862549
 20
439.7095066763
 30
0.0
  0
SPLINE
  5
282
100
AcDbEntity
  8
0
100
AcDbSpline
 62
7
  6
CONTINUOUS
 70
0
 71
3
 72
13
 73
9
 74
0
 42
0.0000001
 43
0.0000001
 44
0.0000000001
 40
0.0
 40
0.0
 40
0.0
 40
0.0
 40
0.2769448495
 40
0.5021222537
 40
0.6067345323
 40
0.7250508578
 40
0.8576067999
 40
1.0
 40
1.0
 40
1.0
 40
1.0
 10
82.717880677
 20
435.4670726371
 30
0.0
 10
82.9203309147
 20
435.3429619617
 30
0.0
 10
83.2929927835
 20
435.1486274497
 30
0.0
 10
83.8692994423
 20
435.0590501447
 30
0.0
 10
84.1739774891
 20
435.3319524061
 30
0.0
 10
84.2757492132
 20
435.6252402395
 30
0.0
 10
84.3317826253
 20
435.9576678499
 30
0.0
 10
84.3403792825
 20
436.1943624107
 30
0.0
 10
84.3364423776
 20
436.3163931981
 30
0.0
  0
SPLINE
  5
283
100
AcDbEntity
  8
0
100
AcDbSpline
 62
7
  6
CONTINUOUS
 70
0
 71
3
 72
9
 73
5
 74
0
 42
0.0000001
 43
0.0000001
 44
0.0000000001
 40
0.0
 40
0.0
 40
0.0
 40
0.0
 40
0.5508326585
 40
1.0
 40
1.0
 40
1.0
 40
1.0
 10
175.974787919
 20
208.8289390943
 30
0.0
 10
175.6439443243
 20
209.0199474116
 30
0.0
 10
174.9828642608
 20
209.2947043052
 30
0.0
 10
174.2446885145
 20
209.182598986
 30
0.0
 10
173.9749087796
 20
209.0268423846
 30
0.0
  0
SPLINE
  5
284
100
AcDbEntity
  8
0
100
AcDbSpline
 62
7
  6
CONTINUOUS
 70
0
 71
3
 72
11
 73
7
 74
0
 42
0.0000001
 43
0.0000001
 44
0.0000000001
 40
0.0
 40
0.0
 40
0.0
 40
0.0
 40
0.2372539654
 40
0.5000012591
 40
0.7627478695
 40
1.0
 40
1.0
 40
1.0
 40
1.0
 10
216.9871519772
 20
181.8849656639
 30
0.0
 10
216.9871519772
 20
182.3486691965
 30
0.0
 10
216.8132949146
 20
183.3265612947
 30
0.0
 10
216.2068718936
 20
184.7004664886
 30
0.0
 10
215.3202429409
 20
185.9125896862
 30
0.0
 10
214.5602912807
 20
186.5520923113
 30
0.0
 10
214.1587130763
 20
186.7839383506
 30
0.0
  0
SPLINE
  5
285
100
AcDbEntity
  8
0
100
AcDbSpline
 62
7
  6
CONTINUOUS
 70
0
 71
3
 72
34
 73
30
 74
0
 42
0.0000001
 43
0.0000001
 44
0.0000000001
 40
0.0
 40
0.0
 40
0.0
 40
0.0
 40
0.0697808552
 40
0.1038244352
 40
0.1366764022
 40
0.1676551877
 40
0.1820812664
 40
0.1955961882
 40
0.2179471411
 40
0.2300000457
 40
0.246157931
 40
0.2644475137
 40
0.2827082497
 40
0.3182737983
 40
0.3529589732
 40
0.3873558866
 40
0.422216935
 40
0.4579741147
 40
0.5312639579
 40
0.5996181196
 40
0.6294414868
 40
0.6557278211
 40
0.6786732446
 40
0.7000400857
 40
0.746076783
 40
0.8008118915
 40
0.8625184565
 40
0.9297516447
 40
1.0
 40
1.0
 40
1.0
 40
1.0
 10
185.5074487742
 20
199.1981571036
 30
0.0
 10
185.347189987
 20
199.3733008976
 30
0.0
 10
185.1053872884
 20
199.6310830097
 30
0.0
 10
184.7679079361
 20
199.95121451
 30
0.0
 10
184.5099180757
 20
200.1625508113
 30
0.0
 10
184.2895322333
 20
200.3119677206
 30
0.0
 10
184.1071718957
 20
200.4004719252
 30
0.0
 10
183.9531543094
 20
200.4589749227
 30
0.0
 10
183.7500845082
 20
200.4741448142
 30
0.0
 10
183.6780613786
 20
200.2943454896
 30
0.0
 10
183.7126930125
 20
200.1366364268
 30
0.0
 10
183.7928846094
 20
199.9750891669
 30
0.0
 10
183.9391181953
 20
199.7773652547
 30
0.0
 10
184.1374830976
 20
199.550496372
 30
0.0
 10
184.388910958
 20
199.2982488274
 30
0.0
 10
184.6436688023
 20
199.0530710205
 30
0.0
 10
184.8927535766
 20
198.7965964279
 30
0.0
 10
185.2076461731
 20
198.4215024886
 30
0.0
 10
185.5335123397
 20
197.90649461
 30
0.0
 10
185.6896822645
 20
197.3318544093
 30
0.0
 10
185.6876841402
 20
196.9059773552
 30
0.0
 10
185.625879671
 20
196.6412733255
 30
0.0
 10
185.4976343508
 20
196.4305497812
 30
0.0
 10
185.2276404995
 20
196.2610779728
 30
0.0
 10
184.7863461255
 20
196.2874001883
 30
0.0
 10
184.2742044223
 20
196.4952034254
 30
0.0
 10
183.7479208963
 20
196.8406802482
 30
0.0
 10
183.2447306333
 20
197.2964029015
 30
0.0
 10
182.9277677618
 20
197.6411305635
 30
0.0
 10
182.7724502816
 20
197.8227686282
 30
0.0
  0
SPLINE
  5
286
100
AcDbEntity
  8
0
100
AcDbSpline
 62
7
  6
CONTINUOUS
 70
0
 71
3
 72
16
 73
12
 74
0
 42
0.0000001
 43
0.0000001
 44
0.0000000001
 40
0.0
 40
0.0
 40
0.0
 40
0.0
 40
0.0975645598
 40
0.1569298651
 40
0.2236314312
 40
0.3709451596
 40
0.5261011177
 40
0.6720411152
 40
0.8007859359
 40
0.9092324109
 40
1.0
 40
1.0
 40
1.0
 40
1.0
 10
200.8646162528
 20
187.2440525065
 30
0.0
 10
200.7214557388
 20
187.1978741307
 30
0.0
 10
200.4615261453
 20
187.1967223011
 30
0.0
 10
200.1469687896
 20
187.3434711896
 30
0.0
 10
199.7991306577
 20
187.5839522307
 30
0.0
 10
199.4073608017
 20
188.0080665648
 30
0.0
 10
199.0804291636
 20
188.624172878
 30
0.0
 10
198.903237743
 20
189.2692038069
 30
0.0
 10
198.8826008374
 20
189.8632740272
 30
0.0
 10
198.9939220069
 20
190.369149306
 30
0.0
 10
199.2344993431
 20
190.6048835511
 30
0.0
 10
199.3658695853
 20
190.6531154844
 30
0.0
  0
SPLINE
  5
287
100
AcDbEntity
  8
0
100
AcDbSpline
 62
7
  6
CONTINUOUS
 70
0
 71
3
 72
9
 73
5
 74
0
 42
0.0000001
 43
0.0000001
 44
0.0000000001
 40
0.0
 40
0.0
 40
0.0
 40
0.0
 40
0.5767070137
 40
1.0
 40
1.0
 40
1.0
 40
1.0
 10
207.2129522709
 20
185.3184639004
 30
0.0
 10
207.0306080733
 20
185.5737817646
 30
0.0
 10
206.4777070371
 20
186.2197192404
 30
0.0
 10
206.1193195824
 20
185.5463160553
 30
0.0
 10
206.0387745511
 20
185.3305770451
 30
0.0
  0
SPLINE
  5
288
100
AcDbEntity
  8
0
100
AcDbSpline
 62
7
  6
CONTINUOUS
 70
0
 71
3
 72
15
 73
11
 74
0
 42
0.0000001
 43
0.0000001
 44
0.0000000001
 40
0.0
 40
0.0
 40
0.0
 40
0.0
 40
0.1484104933
 40
0.2838505842
 40
0.3925052521
 40
0.4379295497
 40
0.4822081335
 40
0.583920939
 40
0.7084784913
 40
1.0
 40
1.0
 40
1.0
 40
1.0
 10
199.8988538714
 20
185.6773907653
 30
0.0
 10
199.8395625814
 20
185.7599195256
 30
0.0
 10
199.7177752434
 20
185.912500631
 30
0.0
 10
199.5153529313
 20
186.0911225933
 30
0.0
 10
199.3200617851
 20
186.1660791603
 30
0.0
 10
199.1820305587
 20
186.1400136985
 30
0.0
 10
199.0773125275
 20
186.0531995311
 30
0.0
 10
199.0218849381
 20
185.8653775517
 30
0.0
 10
199.0295561212
 20
185.5109029195
 30
0.0
 10
199.16341775
 20
185.2329800817
 30
0.0
 10
199.2992927973
 20
185.0867542496
 30
0.0
  0
SPLINE
  5
289
100
AcDbEntity
  8
0
100
AcDbSpline
 62
7
  6
CONTINUOUS
 70
0
 71
3
 72
11
 73
7
 74
0
 42
0.0000001
 43
0.0000001
 44
0.0000000001
 40
0.0
 40
0.0
 40
0.0
 40
0.0
 40
0.1971536936
 40
0.4161362269
 40
0.6787397543
 40
1.0
 40
1.0
 40
1.0
 40
1.0
 10
189.6462924104
 20
193.0240712332
 30
0.0
 10
189.8300902038
 20
193.1179654552
 30
0.0
 10
190.2594857361
 20
193.2468379476
 30
0.0
 10
190.980636325
 20
193.1689415466
 30
0.0
 10
191.7573737089
 20
192.7973046747
 30
0.0
 10
192.1587919619
 20
192.3110931889
 30
0.0
 10
192.3368547254
 20
192.0257845754
 30
0.0
  0
SPLINE
  5
28A
100
AcDbEntity
  8
0
100
AcDbSpline
 62
7
  6
CONTINUOUS
 70
0
 71
3
 72
9
 73
5
 74
0
 42
0.0000001
 43
0.0000001
 44
0.0000000001
 40
0.0
 40
0.0
 40
0.0
 40
0.0
 40
0.5458151717
 40
1.0
 40
1.0
 40
1.0
 40
1.0
 10
189.0718823518
 20
190.3055055205
 30
0.0
 10
188.9241857675
 20
190.5654840104
 30
0.0
 10
188.7393946439
 20
191.0984229894
 30
0.0
 10
188.7640230465
 20
191.6585401976
 30
0.0
 10
188.8201175901
 20
191.9009417782
 30
0.0
  0
SPLINE
  5
28B
100
AcDbEntity
  8
0
100
AcDbSpline
 62
7
  6
CONTINUOUS
 70
0
 71
3
 72
11
 73
7
 74
0
 42
0.0000001
 43
0.0000001
 44
0.0000000001
 40
0.0
 40
0.0
 40
0.0
 40
0.0
 40
0.1975669089
 40
0.4163404878
 40
0.6784053215
 40
1.0
 40
1.0
 40
1.0
 40
1.0
 10
191.7512148715
 20
189.3269481919
 30
0.0
 10
191.5661924972
 20
189.2373554653
 30
0.0
 10
191.1426848655
 20
189.1020942135
 30
0.0
 10
190.4251172336
 20
189.1777275799
 30
0.0
 10
189.6488241481
 20
189.5384128849
 30
0.0
 10
189.2538208988
 20
190.0246619048
 30
0.0
 10
189.0718823518
 20
190.3055055205
 30
0.0
  0
SPLINE
  5
28C
100
AcDbEntity
  8
0
100
AcDbSpline
 62
7
  6
CONTINUOUS
 70
0
 71
3
 72
13
 73
9
 74
0
 42
0.0000001
 43
0.0000001
 44
0.0000000001
 40
0.0
 40
0.0
 40
0.0
 40
0.0
 40
0.2837264742
 40
0.4421077866
 40
0.5929543711
 40
0.7162645603
 40
0.8149876104
 40
1.0
 40
1.0
 40
1.0
 40
1.0
 10
190.4526641525
 20
194.7459173967
 30
0.0
 10
190.4555639375
 20
194.9047085728
 30
0.0
 10
190.421605175
 20
195.157372991
 30
0.0
 10
190.2661682552
 20
195.455581654
 30
0.0
 10
190.0945362672
 20
195.6300804912
 30
0.0
 10
189.9018053243
 20
195.7298415645
 30
0.0
 10
189.6654237133
 20
195.7095901633
 30
0.0
 10
189.5325955213
 20
195.6002252818
 30
0.0
 10
189.468909948
 20
195.5185601081
 30
0.0
  0
SPLINE
  5
28D
100
AcDbEntity
  8
0
100
AcDbSpline
 62
7
  6
CONTINUOUS
 70
0
 71
3
 72
17
 73
13
 74
0
 42
0.0000001
 43
0.0000001
 44
0.0000000001
 40
0.0
 40
0.0
 40
0.0
 40
0.0
 40
0.1115702553
 40
0.2394207324
 40
0.385010814
 40
0.5410069358
 40
0.6868309571
 40
0.7511010942
 40
0.8085637357
 40
0.8593231128
 40
0.9053360102
 40
1.0
 40
1.0
 40
1.0
 40
1.0
 10
188.296784987
 20
194.4033033931
 30
0.0
 10
188.0952770246
 20
194.4345619306
 30
0.0
 10
187.6678199302
 20
194.5498136
 30
0.0
 10
187.0550383331
 20
194.9103382256
 30
0.0
 10
186.4810333331
 20
195.4566741806
 30
0.0
 10
186.0502336592
 20
196.1641305474
 30
0.0
 10
185.8752682646
 20
196.8221403462
 30
0.0
 10
185.8707140762
 20
197.3134742246
 30
0.0
 10
185.9285583145
 20
197.625637532
 30
0.0
 10
186.0503089835
 20
197.8855316179
 30
0.0
 10
186.3173791111
 20
198.1278852552
 30
0.0
 10
186.6012623556
 20
198.1521698697
 30
0.0
 10
186.772304246
 20
198.1260931891
 30
0.0
  0
SPLINE
  5
28E
100
AcDbEntity
  8
0
100
AcDbSpline
 62
7
  6
CONTINUOUS
 70
0
 71
3
 72
17
 73
13
 74
0
 42
0.0000001
 43
0.0000001
 44
0.0000000001
 40
0.0
 40
0.0
 40
0.0
 40
0.0
 40
0.060249794
 40
0.1156641403
 40
0.2080554588
 40
0.3032143869
 40
0.3600439335
 40
0.4229681723
 40
0.565088528
 40
0.7197569066
 40
0.867705367
 40
1.0
 40
1.0
 40
1.0
 40
1.0
 10
196.0325298078
 20
192.8783127982
 30
0.0
 10
195.9398163387
 20
192.9273846355
 30
0.0
 10
195.7558990376
 20
193.0102487253
 30
0.0
 10
195.4113052406
 20
193.1263507115
 30
0.0
 10
194.9492424282
 20
193.0420052721
 30
0.0
 10
194.70565006
 20
192.6473333888
 30
0.0
 10
194.6389761328
 20
192.2795982695
 30
0.0
 10
194.6314097452
 20
191.8213305867
 30
0.0
 10
194.7703313139
 20
191.2004385524
 30
0.0
 10
195.1476317756
 20
190.5136227238
 30
0.0
 10
195.6698179724
 20
189.9552390285
 30
0.0
 10
196.0788241703
 20
189.681912509
 30
0.0
 10
196.2817027489
 20
189.5728520684
 30
0.0
  0
SPLINE
  5
28F
100
AcDbEntity
  8
0
100
AcDbSpline
 62
7
  6
CONTINUOUS
 70
0
 71
3
 72
13
 73
9
 74
0
 42
0.0000001
 43
0.0000001
 44
0.0000000001
 40
0.0
 40
0.0
 40
0.0
 40
0.0
 40
0.2931030404
 40
0.4470727481
 40
0.5864655177
 40
0.7024403013
 40
0.7956299608
 40
1.0
 40
1.0
 40
1.0
 40
1.0
 10
196.6762649179
 20
191.2830297214
 30
0.0
 10
196.6597452511
 20
191.4809823099
 30
0.0
 10
196.577629314
 20
191.7850514707
 30
0.0
 10
196.3396934875
 20
192.108953009
 30
0.0
 10
196.1227238624
 20
192.2851042023
 30
0.0
 10
195.9018408826
 20
192.3847247593
 30
0.0
 10
195.5975485658
 20
192.3328277201
 30
0.0
 10
195.5421791794
 20
192.0824328577
 30
0.0
 10
195.5307050628
 20
191.9444040498
 30
0.0
  0
SPLINE
  5
290
100
AcDbEntity
  8
0
100
AcDbSpline
 62
7
  6
CONTINUOUS
 70
0
 71
3
 72
15
 73
11
 74
0
 42
0.0000001
 43
0.0000001
 44
0.0000000001
 40
0.0
 40
0.0
 40
0.0
 40
0.0
 40
0.146920004
 40
0.2749988701
 40
0.3724393127
 40
0.4640106216
 40
0.5757937003
 40
0.7036266897
 40
0.8466973858
 40
1.0
 40
1.0
 40
1.0
 40
1.0
 10
200.8646162528
 20
189.2879725111
 30
0.0
 10
200.7778821913
 20
189.4010534031
 30
0.0
 10
200.5992604318
 20
189.6019767074
 30
0.0
 10
200.3077023836
 20
189.8179306347
 30
0.0
 10
199.9617667361
 20
189.8580570996
 30
0.0
 10
199.7679752767
 20
189.5930810515
 30
0.0
 10
199.7275592082
 20
189.273910905
 30
0.0
 10
199.7387505639
 20
188.900619519
 30
0.0
 10
199.8372515365
 20
188.4975090287
 30
0.0
 10
199.9799022995
 20
188.2416278337
 30
0.0
 10
200.0729548453
 20
188.1256351948
 30
0.0
  0
SPLINE
  5
291
100
AcDbEntity
  8
0
100
AcDbSpline
 62
7
  6
CONTINUOUS
 70
0
 71
3
 72
17
 73
13
 74
0
 42
0.0000001
 43
0.0000001
 44
0.0000000001
 40
0.0
 40
0.0
 40
0.0
 40
0.0
 40
0.0602463698
 40
0.1156515147
 40
0.208019175
 40
0.3032069381
 40
0.3600489848
 40
0.4229767715
 40
0.565084668
 40
0.7197465632
 40
0.8677031797
 40
1.0
 40
1.0
 40
1.0
 40
1.0
 10
203.421614259
 20
188.6123194109
 30
0.0
 10
203.3289388707
 20
188.6613677795
 30
0.0
 10
203.1451123833
 20
188.7441886546
 30
0.0
 10
202.800670488
 20
188.8601990139
 30
0.0
 10
202.3387983539
 20
188.7753192846
 30
0.0
 10
202.0958801217
 20
188.3804409438
 30
0.0
 10
202.0293571669
 20
188.0127638783
 30
0.0
 10
202.021860424
 20
187.5546574167
 30
0.0
 10
202.1606046956
 20
186.934018628
 30
0.0
 10
202.5375438125
 20
186.2473579874
 30
0.0
 10
203.0593766838
 20
185.689007449
 30
0.0
 10
203.4682357481
 20
185.415742422
 30
0.0
 10
203.6710370914
 20
185.3067096242
 30
0.0
  0
SPLINE
  5
292
100
AcDbEntity
  8
0
100
AcDbSpline
 62
7
  6
CONTINUOUS
 70
0
 71
3
 72
13
 73
9
 74
0
 42
0.0000001
 43
0.0000001
 44
0.0000000001
 40
0.0
 40
0.0
 40
0.0
 40
0.0
 40
0.2931443074
 40
0.4470690724
 40
0.5864963447
 40
0.7025081971
 40
0.7956655112
 40
1.0
 40
1.0
 40
1.0
 40
1.0
 10
204.0674021268
 20
187.0158512007
 30
0.0
 10
204.0506858759
 20
187.2139660557
 30
0.0
 10
203.967999381
 20
187.5181266228
 30
0.0
 10
203.7296536666
 20
187.8420816095
 30
0.0
 10
203.5126838985
 20
188.0184951334
 30
0.0
 10
203.2917750899
 20
188.1187024574
 30
0.0
 10
202.9871959726
 20
188.0666852023
 30
0.0
 10
202.9320129334
 20
187.8161595916
 30
0.0
 10
202.9203932662
 20
187.6780620939
 30
0.0
  0
SPLINE
  5
293
100
AcDbEntity
  8
0
100
AcDbSpline
 62
7
  6
CONTINUOUS
 70
0
 71
3
 72
14
 73
10
 74
0
 42
0.0000001
 43
0.0000001
 44
0.0000000001
 40
0.0
 40
0.0
 40
0.0
 40
0.0
 40
0.2800950053
 40
0.4322002584
 40
0.5614673307
 40
0.6616961624
 40
0.7526331178
 40
0.8651389822
 40
1.0
 40
1.0
 40
1.0
 40
1.0
 10
197.9568095447
 20
186.3203404607
 30
0.0
 10
197.9610586708
 20
186.5998218787
 30
0.0
 10
197.8791076744
 20
187.0470887761
 30
0.0
 10
197.534394441
 20
187.5044474715
 30
0.0
 10
197.2182246467
 20
187.7196586876
 30
0.0
 10
196.8691821747
 20
187.779398475
 30
0.0
 10
196.6350389512
 20
187.5321297436
 30
0.0
 10
196.5932796949
 20
187.1882453941
 30
0.0
 10
196.621848652
 20
186.9415472569
 30
0.0
 10
196.6535721123
 20
186.8107584783
 30
0.0
  0
SPLINE
  5
294
100
AcDbEntity
  8
0
100
AcDbSpline
 62
7
  6
CONTINUOUS
 70
0
 71
3
 72
10
 73
6
 74
0
 42
0.0000001
 43
0.0000001
 44
0.0000000001
 40
0.0
 40
0.0
 40
0.0
 40
0.0
 40
0.2880467543
 40
0.5176094004
 40
1.0
 40
1.0
 40
1.0
 40
1.0
 10
197.3275930357
 20
187.3556845001
 30
0.0
 10
197.2809718677
 20
187.3817787492
 30
0.0
 10
197.1936501402
 20
187.4266231262
 30
0.0
 10
196.9920088127
 20
187.4061855633
 30
0.0
 10
196.9354889103
 20
187.2491356277
 30
0.0
 10
196.9245279165
 20
187.1603356161
 30
0.0
  0
SPLINE
  5
295
100
AcDbEntity
  8
0
100
AcDbSpline
 62
7
  6
CONTINUOUS
 70
0
 71
3
 72
9
 73
5
 74
0
 42
0.0000001
 43
0.0000001
 44
0.0000000001
 40
0.0
 40
0.0
 40
0.0
 40
0.0
 40
0.2336167622
 40
1.0
 40
1.0
 40
1.0
 40
1.0
 10
340.8863368283
 20
93.3952481586
 30
0.0
 10
340.9308111301
 20
93.4209252483
 30
0.0
 10
341.1088147501
 20
93.5533777415
 30
0.0
 10
341.2127920638
 20
93.7664926426
 30
0.0
 10
341.253808858
 20
93.9298921653
 30
0.0
  0
SPLINE
  5
296
100
AcDbEntity
  8
0
100
AcDbSpline
 62
7
  6
CONTINUOUS
 70
0
 71
3
 72
9
 73
5
 74
0
 42
0.0000001
 43
0.0000001
 44
0.0000000001
 40
0.0
 40
0.0
 40
0.0
 40
0.0
 40
0.2381711772
 40
1.0
 40
1.0
 40
1.0
 40
1.0
 10
341.253808858
 20
93.9298921653
 30
0.0
 10
341.2610785642
 20
93.9588526567
 30
0.0
 10
341.2872696891
 20
94.0815250724
 30
0.0
 10
341.2970407748
 20
94.2074461784
 30
0.0
 10
341.2970407748
 20
94.3029549295
 30
0.0
  0
SPLINE
  5
297
100
AcDbEntity
  8
0
100
AcDbSpline
 62
7
  6
CONTINUOUS
 70
0
 71
3
 72
9
 73
5
 74
0
 42
0.0000001
 43
0.0000001
 44
0.0000000001
 40
0.0
 40
0.0
 40
0.0
 40
0.0
 40
0.2352342387
 40
1.0
 40
1.0
 40
1.0
 40
1.0
 10
341.339461883
 20
93.1003148328
 30
0.0
 10
341.3077942818
 20
93.0820316489
 30
0.0
 10
341.1643868262
 20
93.0189155961
 30
0.0
 10
340.9978659824
 20
93.0246467382
 30
0.0
 10
340.8824179874
 20
93.05300882
 30
0.0
  0
SPLINE
  5
298
100
AcDbEntity
  8
0
100
AcDbSpline
 62
7
  6
CONTINUOUS
 70
0
 71
3
 72
9
 73
5
 74
0
 42
0.0000001
 43
0.0000001
 44
0.0000000001
 40
0.0
 40
0.0
 40
0.0
 40
0.0
 40
0.2365132575
 40
1.0
 40
1.0
 40
1.0
 40
1.0
 10
340.8824179874
 20
93.05300882
 30
0.0
 10
340.8580096021
 20
93.0590052223
 30
0.0
 10
340.7558802193
 20
93.0886845249
 30
0.0
 10
340.6586663252
 20
93.1341130797
 30
0.0
 10
340.5884006032
 20
93.1746800955
 30
0.0
  0
SPLINE
  5
299
100
AcDbEntity
  8
0
100
AcDbSpline
 62
7
  6
CONTINUOUS
 70
0
 71
3
 72
9
 73
5
 74
0
 42
0.0000001
 43
0.0000001
 44
0.0000000001
 40
0.0
 40
0.0
 40
0.0
 40
0.0
 40
0.4491660544
 40
1.0
 40
1.0
 40
1.0
 40
1.0
 10
96.5459816769
 20
425.3596925958
 30
0.0
 10
96.748321257
 20
425.4765128063
 30
0.0
 10
97.0979602
 20
425.9139464541
 30
0.0
 10
97.1674014974
 20
426.4463794562
 30
0.0
 10
97.1674014977
 20
426.7329050515
 30
0.0
  0
SPLINE
  5
29A
100
AcDbEntity
  8
0
100
AcDbSpline
 62
7
  6
CONTINUOUS
 70
0
 71
3
 72
9
 73
5
 74
0
 42
0.0000001
 43
0.0000001
 44
0.0000000001
 40
0.0
 40
0.0
 40
0.0
 40
0.0
 40
0.4262152658
 40
1.0
 40
1.0
 40
1.0
 40
1.0
 10
199.3658695853
 20
190.6531154844
 30
0.0
 10
199.5971061784
 20
190.7380128534
 30
0.0
 10
200.2319295217
 20
190.5638524563
 30
0.0
 10
200.6414065498
 20
190.1598236317
 30
0.0
 10
200.8646162528
 20
189.9145757248
 30
0.0
  0
SPLINE
  5
29B
100
AcDbEntity
  8
0
100
AcDbSpline
 62
7
  6
CONTINUOUS
 70
0
 71
3
 72
9
 73
5
 74
0
 42
0.0000001
 43
0.0000001
 44
0.0000000001
 40
0.0
 40
0.0
 40
0.0
 40
0.0
 40
0.5526540875
 40
1.0
 40
1.0
 40
1.0
 40
1.0
 10
199.2992927973
 20
185.0867542496
 30
0.0
 10
199.3889444724
 20
184.9902730262
 30
0.0
 10
199.5867116673
 20
184.841198466
 30
0.0
 10
199.8254727096
 20
184.7921547821
 30
0.0
 10
199.9318187539
 20
184.7846838476
 30
0.0
  0
SPLINE
  5
29C
100
AcDbEntity
  8
0
100
AcDbSpline
 62
7
  6
CONTINUOUS
 70
0
 71
3
 72
9
 73
5
 74
0
 42
0.0000001
 43
0.0000001
 44
0.0000000001
 40
0.0
 40
0.0
 40
0.0
 40
0.0
 40
0.4589617837
 40
1.0
 40
1.0
 40
1.0
 40
1.0
 10
186.772304246
 20
198.1260931891
 30
0.0
 10
187.040530381
 20
198.0852000065
 30
0.0
 10
187.5852632534
 20
197.7991836705
 30
0.0
 10
188.0241003236
 20
197.4071264113
 30
0.0
 10
188.2564543246
 20
197.1873229032
 30
0.0
  0
SPLINE
  5
29D
100
AcDbEntity
  8
0
100
AcDbSpline
 62
7
  6
CONTINUOUS
 70
0
 71
3
 72
9
 73
5
 74
0
 42
0.0000001
 43
0.0000001
 44
0.0000000001
 40
0.0
 40
0.0
 40
0.0
 40
0.0
 40
0.5429183753
 40
1.0
 40
1.0
 40
1.0
 40
1.0
 10
196.2817027489
 20
189.5728520684
 30
0.0
 10
196.458151793
 20
189.4779992229
 30
0.0
 10
196.800325522
 20
189.3238669644
 30
0.0
 10
197.1840112494
 20
189.3212940925
 30
0.0
 10
197.347864847
 20
189.3612533041
 30
0.0
  0
SPLINE
  5
29E
100
AcDbEntity
  8
0
100
AcDbSpline
 62
7
  6
CONTINUOUS
 70
0
 71
3
 72
11
 73
7
 74
0
 42
0.0000001
 43
0.0000001
 44
0.0000000001
 40
0.0
 40
0.0
 40
0.0
 40
0.0
 40
0.3117845236
 40
0.5811424015
 40
0.8040648238
 40
1.0
 40
1.0
 40
1.0
 40
1.0
 10
200.0729548453
 20
188.1256351948
 30
0.0
 10
200.1323149822
 20
188.0516410997
 30
0.0
 10
200.259283517
 20
187.9257435833
 30
0.0
 10
200.473496552
 20
187.800885078
 30
0.0
 10
200.685969696
 20
187.7633696544
 30
0.0
 10
200.8124434156
 20
187.8026340208
 30
0.0
 10
200.8646162528
 20
187.8314755897
 30
0.0
  0
SPLINE
  5
29F
100
AcDbEntity
  8
0
100
AcDbSpline
 62
7
  6
CONTINUOUS
 70
0
 71
3
 72
9
 73
5
 74
0
 42
0.0000001
 43
0.0000001
 44
0.0000000001
 40
0.0
 40
0.0
 40
0.0
 40
0.0
 40
0.5428497025
 40
1.0
 40
1.0
 40
1.0
 40
1.0
 10
203.6710370914
 20
185.3067096242
 30
0.0
 10
203.8477413299
 20
185.2117075043
 30
0.0
 10
204.1904567486
 20
185.0573759225
 30
0.0
 10
204.5746713125
 20
185.0544005979
 30
0.0
 10
204.7388813059
 20
185.0941444968
 30
0.0
  0
SPLINE
  5
2A0
100
AcDbEntity
  8
0
100
AcDbSpline
 62
7
  6
CONTINUOUS
 70
0
 71
3
 72
10
 73
6
 74
0
 42
0.0000001
 43
0.0000001
 44
0.0000000001
 40
0.0
 40
0.0
 40
0.0
 40
0.0
 40
0.5691050457
 40
0.8067888534
 40
1.0
 40
1.0
 40
1.0
 40
1.0
 10
196.6535721123
 20
186.8107584783
 30
0.0
 10
196.7352288629
 20
186.474105838
 30
0.0
 10
197.0025660497
 20
186.0082624068
 30
0.0
 10
197.5437139717
 20
185.6993333914
 30
0.0
 10
197.814102482
 20
185.6777815611
 30
0.0
 10
197.930848191
 20
185.6919939749
 30
0.0
  0
ENDSEC
  0
SECTION
  2
OBJECTS
  0
DICTIONARY
  5
C
100
AcDbDictionary
280
0
281
1
  3
ACAD_GROUP
350
D
  3
ACAD_MLINESTYLE
350
17
  3
ACAD_LAYOUT
350
1A
  3
ACAD_PLOTSETTINGS
350
19
  3
ACAD_PLOTSTYLENAME
350
E
  0
DICTIONARY
  5
D
102
{ACAD_REACTORS
330
C
102
}
100
AcDbDictionary
280
0
281
1
  0
ACDBDICTIONARYWDFLT
  5
E
102
{ACAD_REACTORS
330
C
102
}
100
AcDbDictionary
281
1
  3
Normal
350
F
100
AcDbDictionaryWithDefault
340
F
  0
DICTIONARY
  5
17
102
{ACAD_REACTORS
330
C
102
}
100
AcDbDictionary
280
0
281
1
  3
Standard
350
18
  0
DICTIONARY
  5
19
102
{ACAD_REACTORS
330
C
102
}
100
AcDbDictionary
281
1
  0
DICTIONARY
  5
1A
102
{ACAD_REACTORS
330
C
102
}
100
AcDbDictionary
281
1
  3
Model
350
2A1
  3
Layout1
350
2A2
  0
ACDBPLACEHOLDER
  5
F
102
{ACAD_REACTORS
330
E
102
}
  0
MLINESTYLE
  5
18
102
{ACAD_REACTORS
330
17
102
}
100
AcDbMlineStyle
  2
STANDARD
 70
0
  3

 62
256
 51
90.0
 52
90.0
 71
2
 49
0.5
 62
256
  6
BYLAYER
 49
-0.5
 62
256
  6
BYLAYER
  0
LAYOUT
  5
2A1
102
{ACAD_REACTORS
330
1A
102
}
100
AcDbPlotSettings
  1

  2
none_device
  4

  6

 40
0.0
 41
0.0
 42
0.0
 43
0.0
 44
210.0
 45
297.0
 46
0.0
 47
0.0
 48
0.0
 49
0.0
140
0.0
141
0.0
142
1.0
143
1.0
 70
1024
 72
1
 73
0
 74
0
  7

 75
0
147
1.0
148
0.0
149
0.0
100
AcDbLayout
  1
Model
 70
0
 71
0
 10
0.0
 20
0.0
 11
210.0
 21
297.0
 12
0.0
 22
0.0
 32
0.0
 14
0.0
 24
0.0
 34
0.0
 15
0.0
 25
0.0
 35
0.0
146
0.0
 13
0.0
 23
0.0
 33
0.0
 16
1.0
 26
0.0
 36
0.0
 17
0.0
 27
1.0
 37
0.0
 76
0
330
210
345
0
346
0
  0
LAYOUT
  5
2A2
102
{ACAD_REACTORS
330
1A
102
}
100
AcDbPlotSettings
  1

  2
none_device
  4

  6

 40
0.0
 41
0.0
 42
0.0
 43
0.0
 44
210.0
 45
297.0
 46
0.0
 47
0.0
 48
0.0
 49
0.0
140
0.0
141
0.0
142
1.0
143
1.0
 70
0
 72
1
 73
0
 74
0
  7

 75
0
147
1.0
148
0.0
149
0.0
100
AcDbLayout
  1
Layout1
 70
0
 71
1
 10
0.0
 20
0.0
 11
210.0
 21
297.0
 12
0.0
 22
0.0
 32
0.0
 14
0.0
 24
0.0
 34
0.0
 15
0.0
 25
0.0
 35
0.0
146
0.0
 13
0.0
 23
0.0
 33
0.0
 16
1.0
 26
0.0
 36
0.0
 17
0.0
 27
1.0
 37
0.0
 76
0
330
211
345
0
346
0
  0
ENDSEC
  0
EOF
