999
DXF file: C:\Users\sesa63760\Dev\_Creo\CAD\MCADID0003543_3D-CAD\drw0001_1.dxf
999
Pro/ENGINEER 2019471 by Parametric Technology Corporation
  0
SECTION
  2
HEADER
  9
$ACADVER
  1
AC1024
  9
$DWGCODEPAGE
  3
ANSI_1252
  9
$EXTMAX
 10
57.6149120772
 20
81.4839470806
 30
0.0
  9
$EXTMIN
 10
0.0
 20
0.0
 30
0.0
  9
$LIMMIN
 10
0.0
 20
0.0
  9
$LIMMAX
 10
57.6149120772
 20
81.4839470806
  9
$VIEWCTR
 10
28.8074560386
 20
40.7419735403
  9
$VIEWSIZE
 40
81.4839470806
  9
$CLAYER
  8
0
  9
$LTSCALE
 40
5.3115461801
  9
$CELTYPE
  6
BYLAYER
  9
$DIMSCALE
 40
1.0
  9
$DIMASZ
 40
0.6858918104
  9
$DIMEXO
 40
1.0
  9
$DIMDLI
 40
3.6697955426
  9
$DIMEXE
 40
1.0
  9
$DIMCEN
 40
0.8691621022
  9
$DIMLFAC
 40
1.0
  9
$DIMBLK
  1
_FILLED
  9
$DIMALT
 70
0
  9
$DIMALTF
 40
0.0393700787
  9
$DIMTXT
 40
0.9602485346
  9
$DIMTOL
 70
1
  9
$DIMLIM
 70
0
  9
$DIMTFAC
 40
1.0
  9
$DIMTP
 40
0.01
  9
$DIMTM
 40
0.01
  9
$DIMGAP
 40
0.625
  9
$DIMDSEP
 70
46
  9
$AUNITS
 70
0
  9
$PDMODE
 70
3
  9
$PDSIZE
 40
0.3125
  9
$HANDSEED
  5
31F
  9
$TILEMODE
 70
1
  9
$MEASUREMENT
 70
1
  9
$INSUNITS
 70
4
  0
ENDSEC
  0
SECTION
  2
CLASSES
  0
CLASS
  1
ACDBDICTIONARYWDFLT
  2
AcDbDictionaryWithDefault
  3
AutoCAD 2000
 90
0
 91
1
280
0
281
0
  0
CLASS
  1
ACDBPLACEHOLDER
  2
AcDbPlaceHolder
  3
AutoCAD 2000
 90
0
 91
1
280
0
281
0
  0
CLASS
  1
LAYOUT
  2
AcDbLayout
  3
AutoCAD 2000
 90
0
 91
0
280
0
281
0
  0
ENDSEC
  0
SECTION
  2
TABLES
  0
TABLE
  2
VPORT
  5
8
100
AcDbSymbolTable
 70
2
  0
VPORT
  5
1F4
100
AcDbSymbolTableRecord
100
AcDbViewportTableRecord
  2
*ACTIVE
 70
0
 10
0.0
 20
0.0
 11
1.0
 21
1.0
 12
28.8074560386
 22
40.7419735403
 13
0.0
 23
0.0
 14
1.0
 24
1.0
 15
0.0
 25
0.0
 16
0.0
 26
0.0
 36
1.0
 17
0.0
 27
0.0
 37
0.0
 40
81.4839470806
 41
0.7070707071
 42
50.0
 43
0.0
 44
0.0
 50
0.0
 51
0.0
 71
0
 72
100
 73
1
 74
1
 75
0
 76
0
 77
0
 78
0
  0
ENDTAB
  0
TABLE
  2
LTYPE
  5
5
100
AcDbSymbolTable
 70
6
  0
LTYPE
  5
14
100
AcDbSymbolTableRecord
100
AcDbLinetypeTableRecord
  2
BYBLOCK
 70
0
  3

 72
65
 73
0
 40
0.0
  0
LTYPE
  5
15
100
AcDbSymbolTableRecord
100
AcDbLinetypeTableRecord
  2
BYLAYER
 70
0
  3

 72
65
 73
0
 40
0.0
  0
LTYPE
  5
16
100
AcDbSymbolTableRecord
100
AcDbLinetypeTableRecord
  2
CONTINUOUS
 70
64
  3
Solid line
 72
65
 73
0
 40
0.0
  0
LTYPE
  5
1F5
100
AcDbSymbolTableRecord
100
AcDbLinetypeTableRecord
  2
CENTER
 70
64
  3
____ _ ____ _ ____ _ ____ _ ____ _ ____ _ ____
 72
65
 73
4
 40
0.6
 49
0.375
 74
0
 49
-0.075
 74
0
 49
0.075
 74
0
 49
-0.075
 74
0
  0
LTYPE
  5
1F6
100
AcDbSymbolTableRecord
100
AcDbLinetypeTableRecord
  2
HIDDEN
 70
64
  3
- - - - - - - - - - - - - - - - - - - -
 72
65
 73
2
 40
0.2
 49
0.1
 74
0
 49
-0.1
 74
0
  0
LTYPE
  5
1F7
100
AcDbSymbolTableRecord
100
AcDbLinetypeTableRecord
  2
PHANTOM
 70
64
  3
_____ _ _ _____ _ _ _____ _ _ _____
 72
65
 73
6
 40
0.8
 49
0.45
 74
0
 49
-0.05
 74
0
 49
0.1
 74
0
 49
-0.05
 74
0
 49
0.1
 74
0
 49
-0.05
 74
0
  0
LTYPE
  5
1F8
100
AcDbSymbolTableRecord
100
AcDbLinetypeTableRecord
  2
DOT
 70
64
  3
. . . . . . . . . . . . . . . . . . . .
 72
65
 73
2
 40
0.2
 49
0.1
 74
0
 49
-0.1
 74
0
  0
LTYPE
  5
1F9
100
AcDbSymbolTableRecord
100
AcDbLinetypeTableRecord
  2
DASHED
 70
64
  3
- - - - - - - - - - - - - - - - - - - -
 72
65
 73
2
 40
0.2
 49
0.1
 74
0
 49
-0.1
 74
0
  0
ENDTAB
  0
TABLE
  2
LAYER
  5
2
100
AcDbSymbolTable
 70
36
  0
LAYER
  5
10
100
AcDbSymbolTableRecord
100
AcDbLayerTableRecord
  2
0
 70
0
 62
7
  6
CONTINUOUS
370
-3
390
F
  0
LAYER
  5
1FA
100
AcDbSymbolTableRecord
100
AcDbLayerTableRecord
  2
DEFAULT_1
 70
0
 62
7
  6
CENTER
370
-3
390
F
  0
LAYER
  5
1FB
100
AcDbSymbolTableRecord
100
AcDbLayerTableRecord
  2
DEFAULT_2
 70
0
 62
7
  6
HIDDEN
370
-3
390
F
  0
LAYER
  5
1FC
100
AcDbSymbolTableRecord
100
AcDbLayerTableRecord
  2
DEFAULT_3
 70
0
 62
7
  6
PHANTOM
370
-3
390
F
  0
LAYER
  5
1FD
100
AcDbSymbolTableRecord
100
AcDbLayerTableRecord
  2
00_COMPONENTS
 70
0
 62
7
  6
CONTINUOUS
370
-3
390
F
  0
LAYER
  5
1FE
100
AcDbSymbolTableRecord
100
AcDbLayerTableRecord
  2
01_1_DEFAULT_DATUMS
 70
0
 62
7
  6
CONTINUOUS
370
-3
390
F
  0
LAYER
  5
1FF
100
AcDbSymbolTableRecord
100
AcDbLayerTableRecord
  2
01_PLANES
 70
0
 62
7
  6
CONTINUOUS
370
-3
390
F
  0
LAYER
  5
200
100
AcDbSymbolTableRecord
100
AcDbLayerTableRecord
  2
02_COORD_SYS
 70
0
 62
7
  6
CONTINUOUS
370
-3
390
F
  0
LAYER
  5
201
100
AcDbSymbolTableRecord
100
AcDbLayerTableRecord
  2
03_AXES
 70
0
 62
7
  6
CONTINUOUS
370
-3
390
F
  0
LAYER
  5
202
100
AcDbSymbolTableRecord
100
AcDbLayerTableRecord
  2
04_POINTS
 70
0
 62
7
  6
CONTINUOUS
370
-3
390
F
  0
LAYER
  5
203
100
AcDbSymbolTableRecord
100
AcDbLayerTableRecord
  2
05_CURVES
 70
0
 62
7
  6
CONTINUOUS
370
-3
390
F
  0
LAYER
  5
204
100
AcDbSymbolTableRecord
100
AcDbLayerTableRecord
  2
06_SURFS
 70
0
 62
7
  6
CONTINUOUS
370
-3
390
F
  0
LAYER
  5
205
100
AcDbSymbolTableRecord
100
AcDbLayerTableRecord
  2
07_COSMETICS
 70
0
 62
7
  6
CONTINUOUS
370
-3
390
F
  0
LAYER
  5
206
100
AcDbSymbolTableRecord
100
AcDbLayerTableRecord
  2
10_NOTES
 70
0
 62
7
  6
CONTINUOUS
370
-3
390
F
  0
LAYER
  5
207
100
AcDbSymbolTableRecord
100
AcDbLayerTableRecord
  2
11_NOTES_PUB
 70
0
 62
7
  6
CONTINUOUS
370
-3
390
F
  0
LAYER
  5
208
100
AcDbSymbolTableRecord
100
AcDbLayerTableRecord
  2
13_REF_GTOL
 70
0
 62
7
  6
CONTINUOUS
370
-3
390
F
  0
LAYER
  5
209
100
AcDbSymbolTableRecord
100
AcDbLayerTableRecord
  2
16_MISC
 70
0
 62
7
  6
CONTINUOUS
370
-3
390
F
  0
LAYER
  5
20A
100
AcDbSymbolTableRecord
100
AcDbLayerTableRecord
  2
17_NO_PRINT
 70
0
 62
7
  6
CONTINUOUS
370
-3
390
F
  0
LAYER
  5
20B
100
AcDbSymbolTableRecord
100
AcDbLayerTableRecord
  2
18_DATUM_CAMS_JOINTS
 70
0
 62
7
  6
CONTINUOUS
370
-3
390
F
  0
LAYER
  5
20C
100
AcDbSymbolTableRecord
100
AcDbLayerTableRecord
  2
19_DATUM_FUNCTIONAL
 70
0
 62
7
  6
CONTINUOUS
370
-3
390
F
  0
LAYER
  5
20D
100
AcDbSymbolTableRecord
100
AcDbLayerTableRecord
  2
20_DATUM_KINEMATIC_SCHEME
 70
0
 62
7
  6
CONTINUOUS
370
-3
390
F
  0
LAYER
  5
20E
100
AcDbSymbolTableRecord
100
AcDbLayerTableRecord
  2
INTFCLR_19604
 70
0
 62
7
  6
CONTINUOUS
370
-3
390
F
  0
ENDTAB
  0
TABLE
  2
STYLE
  5
3
100
AcDbSymbolTable
 70
1
  0
STYLE
  5
11
100
AcDbSymbolTableRecord
100
AcDbTextStyleTableRecord
  2
STANDARD
 70
0
 40
0.0
 41
1.0
 50
0.0
 71
0
 42
0.2
  3
ARIAL.TTF
  4

  0
STYLE
  5
20F
100
AcDbSymbolTableRecord
100
AcDbTextStyleTableRecord
  2
TEXTSTYLE_1
 70
0
 40
0.0
 41
0.8
 50
0.0
 71
0
 42
0.2
  3
gdt
  4

  0
ENDTAB
  0
TABLE
  2
VIEW
  5
6
100
AcDbSymbolTable
 70
0
  0
ENDTAB
  0
TABLE
  2
UCS
  5
7
100
AcDbSymbolTable
 70
0
  0
ENDTAB
  0
TABLE
  2
APPID
  5
9
100
AcDbSymbolTable
 70
1
  0
APPID
  5
210
100
AcDbSymbolTableRecord
100
AcDbRegAppTableRecord
  2
ACAD
 70
0
  0
ENDTAB
  0
TABLE
  2
BLOCK_RECORD
  5
1
100
AcDbSymbolTable
 70
0
  0
BLOCK_RECORD
  5
211
100
AcDbSymbolTableRecord
100
AcDbBlockTableRecord
  2
*Model_Space
  0
BLOCK_RECORD
  5
212
100
AcDbSymbolTableRecord
100
AcDbBlockTableRecord
  2
*Paper_Space
  0
BLOCK_RECORD
  5
213
100
AcDbSymbolTableRecord
100
AcDbBlockTableRecord
  2
_FILLED
  0
ENDTAB
  0
TABLE
  2
DIMSTYLE
  5
A
100
AcDbSymbolTable
 70
1
100
AcDbDimStyleTable
 71
0
  0
DIMSTYLE
105
214
100
AcDbSymbolTableRecord
100
AcDbDimStyleTableRecord
  2
STANDARD
 70
0
  3

  4

 40
1.0
 41
0.6858918104
 42
1.0
 43
0.38
 44
1.0
 45
0.0
 46
0.0
 47
0.01
 48
0.01
140
0.9602485346
141
0.09
142
0.0
143
25.4
144
1.0
145
0.0
146
1.0
147
0.625
 71
1
 72
0
 73
0
 74
0
 75
0
 76
0
 77
1
 78
8
 79
2
170
0
171
1
172
0
173
0
174
0
175
0
176
0
177
0
178
0
270
2
179
2
271
2
272
2
273
2
274
2
275
0
280
0
281
0
282
0
283
1
284
8
285
0
286
0
287
3
288
0
340
11
278
46
341
213
342
213
343
213
344
213
  0
ENDTAB
  0
ENDSEC
  0
SECTION
  2
BLOCKS
  0
BLOCK
  5
20
100
AcDbEntity
  8
0
100
AcDbBlockBegin
  2
*Model_Space
 70
0
 10
0.0
 20
0.0
 30
0.0
  3
*Model_Space
  1

  0
ENDBLK
  5
21
100
AcDbEntity
  8
0
100
AcDbBlockEnd
  0
BLOCK
  5
1C
100
AcDbEntity
  8
0
100
AcDbBlockBegin
  2
*Paper_Space
 70
0
 10
0.0
 20
0.0
 30
0.0
  3
*Paper_Space
  1

  0
ENDBLK
  5
1D
100
AcDbEntity
  8
0
100
AcDbBlockEnd
  0
BLOCK
  5
215
100
AcDbEntity
  8
0
100
AcDbBlockBegin
  2
_FILLED
 70
64
 10
0.0
 20
0.0
  3
_FILLED
  1

  0
SOLID
  5
216
100
AcDbEntity
  8
0
  6
BYBLOCK
 62
0
100
AcDbTrace
 10
0.0
 20
0.0
 11
-1.0
 21
0.25
 12
-1.0
 22
-0.25
 13
-1.0
 23
-0.25
  0
ENDBLK
  5
217
100
AcDbEntity
  8
0
  6
BYBLOCK
 62
0
100
AcDbBlockEnd
  0
ENDSEC
  0
SECTION
  2
ENTITIES
  0
LINE
  5
218
100
AcDbEntity
  8
0
100
AcDbLine
 62
7
  6
BYLAYER
 10
17.3577107403
 20
70.5876859278
 11
7.1754154844
 21
64.7089701121
  0
LINE
  5
219
100
AcDbEntity
  8
0
100
AcDbLine
 62
7
  6
BYLAYER
 10
7.5254139175
 20
64.6743031168
 11
17.7077091734
 21
70.5530189325
  0
LWPOLYLINE
  5
21A
100
AcDbEntity
  8
0
100
AcDbPolyline
 62
7
  6
BYLAYER
 90
7
 70
0
 10
27.5814713502
 20
13.286044257
 10
27.6418548361
 20
13.2940387796
 10
27.6960511562
 20
13.306866528
 10
27.7462564074
 20
13.3234507429
 10
27.7922669378
 20
13.3427102558
 10
27.8344061112
 20
13.3638951326
 10
27.8508520199
 20
13.3731095234
  0
LWPOLYLINE
  5
21B
100
AcDbEntity
  8
0
100
AcDbPolyline
 62
7
  6
BYLAYER
 90
4
 70
0
 10
23.6563596893
 20
14.6064091186
 10
22.6575452215
 20
14.4917023027
 10
20.306422958
 20
14.7617004067
 10
18.3471135189
 20
15.5175316974
  0
LWPOLYLINE
  5
21C
100
AcDbEntity
  8
0
100
AcDbPolyline
 62
7
  6
BYLAYER
 90
4
 70
0
 10
21.5071027827
 20
15.5622814069
 10
20.2747487193
 20
15.661047656
 10
17.863325305
 20
16.4368739722
 10
17.3542430043
 20
16.7050947141
  0
LWPOLYLINE
  5
21D
100
AcDbEntity
  8
0
100
AcDbPolyline
 62
7
  6
BYLAYER
 90
3
 70
0
 10
21.1739597811
 20
15.7104452501
 10
20.1152198665
 20
15.7957090918
 10
17.5467708217
 20
16.6216561491
  0
LWPOLYLINE
  5
21E
100
AcDbEntity
  8
0
100
AcDbPolyline
 62
7
  6
BYLAYER
 90
10
 70
0
 10
27.2379748218
 20
13.3165372074
 10
27.250677681
 20
13.3127838654
 10
27.2699705909
 20
13.3076045906
 10
27.2921171344
 20
13.3023588557
 10
27.3166718622
 20
13.2973543821
 10
27.343748287
 20
13.2927551291
 10
27.373962058
 20
13.2886825477
 10
27.4079824766
 20
13.2853376944
 10
27.4476651413
 20
13.2829751135
 10
27.5828675174
 20
13.2860611714
  0
LINE
  5
21F
100
AcDbEntity
  8
0
100
AcDbLine
 62
7
  6
BYLAYER
 10
27.236008703
 20
13.3171287694
 11
27.2379437461
 21
13.3165463176
  0
LWPOLYLINE
  5
220
100
AcDbEntity
  8
0
100
AcDbPolyline
 62
7
  6
BYLAYER
 90
3
 70
0
 10
18.8024906634
 20
16.1347166671
 10
20.2414864099
 20
15.5788164859
 10
21.9051656292
 20
15.3852447563
  0
LINE
  5
221
100
AcDbEntity
  8
0
100
AcDbLine
 62
7
  6
BYLAYER
 10
6.8890198528
 20
25.1569963291
 11
6.952199465
 21
25.1064514469
  0
LINE
  5
222
100
AcDbEntity
  8
0
100
AcDbLine
 62
7
  6
BYLAYER
 10
6.8890198528
 20
25.1569963291
 11
6.9516578939
 21
25.1040588046
  0
LINE
  5
223
100
AcDbEntity
  8
0
100
AcDbLine
 62
7
  6
BYLAYER
 10
6.9074302757
 20
25.0504013194
 11
6.9073873373
 21
25.0504376087
  0
LINE
  5
224
100
AcDbEntity
  8
0
100
AcDbLine
 62
7
  6
BYLAYER
 10
17.6239077332
 20
16.563016167
 11
18.1064570846
 21
16.1460715232
  0
LWPOLYLINE
  5
225
100
AcDbEntity
  8
0
100
AcDbPolyline
 62
7
  6
BYLAYER
 90
17
 70
0
 10
6.6912895411
 20
25.4111351436
 10
6.6934742354
 20
25.3991274264
 10
6.697748313
 20
25.379178141
 10
6.7032920428
 20
25.3575688805
 10
6.7101560612
 20
25.3348684103
 10
6.7183646504
 20
25.3114902624
 10
6.7279570181
 20
25.2876626282
 10
6.7389949733
 20
25.2635031258
 10
6.7515248041
 20
25.2391379058
 10
6.7656862085
 20
25.2145108137
 10
6.7839343743
 20
25.1862056394
 10
6.8067031354
 20
25.154979992
 10
6.8325247734
 20
25.1237431706
 10
6.859005845
 20
25.0952807233
 10
6.882928198
 20
25.0720815774
 10
6.9004466003
 20
25.0563836627
 10
6.9073870319
 20
25.050437867
  0
LINE
  5
226
100
AcDbEntity
  8
0
100
AcDbLine
 62
7
  6
BYLAYER
 10
6.9073873373
 20
25.0504376087
 11
6.8890198752
 21
25.1569963096
  0
LINE
  5
227
100
AcDbEntity
  8
0
100
AcDbLine
 62
7
  6
BYLAYER
 10
6.6912290693
 20
25.4114863806
 11
6.689253251
 21
25.4404945743
  0
LWPOLYLINE
  5
228
100
AcDbEntity
  8
0
100
AcDbPolyline
 62
7
  6
BYLAYER
 90
6
 70
0
 10
6.6840042916
 20
25.5010357129
 10
6.6844056838
 20
25.4788052881
 10
6.6855963653
 20
25.457799157
 10
6.6874642965
 20
25.4381248236
 10
6.6901420091
 20
25.4181917494
 10
6.6912290693
 20
25.4114863806
  0
LINE
  5
229
100
AcDbEntity
  8
0
100
AcDbLine
 62
7
  6
BYLAYER
 10
6.6839925613
 20
25.50041991
 11
6.6839925613
 21
63.4495491511
  0
LINE
  5
22A
100
AcDbEntity
  8
0
100
AcDbLine
 62
7
  6
BYLAYER
 10
6.8254139175
 20
63.4495494911
 11
6.8254139175
 21
64.1027514248
  0
LINE
  5
22B
100
AcDbEntity
  8
0
100
AcDbLine
 62
7
  6
BYLAYER
 10
6.8890198528
 20
25.1569963291
 11
6.8890195688
 21
31.0698353622
  0
LINE
  5
22C
100
AcDbEntity
  8
0
100
AcDbLine
 62
7
  6
BYLAYER
 10
6.8890196933
 20
32.3870371953
 11
6.8890199747
 21
63.163778186
  0
LINE
  5
22D
100
AcDbEntity
  8
0
100
AcDbLine
 62
7
  6
BYLAYER
 10
7.0304412315
 20
63.1637785834
 11
7.0304412315
 21
63.8169805171
  0
LINE
  5
22E
100
AcDbEntity
  8
0
100
AcDbLine
 62
7
  6
BYLAYER
 10
23.6298426181
 20
15.9395671922
 11
20.8897924332
 21
17.521500116
  0
LINE
  5
22F
100
AcDbEntity
  8
0
100
AcDbLine
 62
7
  6
BYLAYER
 10
13.1115854565
 20
22.0121484157
 11
10.3715352716
 21
23.5940813395
  0
LINE
  5
230
100
AcDbEntity
  8
0
100
AcDbLine
 62
7
  6
BYLAYER
 10
10.3715352716
 20
24.5330591192
 11
12.0674691771
 21
23.5539333731
  0
LINE
  5
231
100
AcDbEntity
  8
0
100
AcDbLine
 62
7
  6
BYLAYER
 10
21.9339087126
 20
17.857670718
 11
23.6298426181
 21
16.8785449719
  0
LINE
  5
232
100
AcDbEntity
  8
0
100
AcDbLine
 62
7
  6
BYLAYER
 10
12.0674691771
 20
23.8397092191
 11
13.1115854565
 21
23.2369020414
  0
LINE
  5
233
100
AcDbEntity
  8
0
100
AcDbLine
 62
7
  6
BYLAYER
 10
20.8897924332
 20
18.7462537417
 11
21.9339087126
 21
18.143446564
  0
LINE
  5
234
100
AcDbEntity
  8
0
100
AcDbLine
 62
7
  6
BYLAYER
 10
10.3715352716
 20
23.5940813395
 11
10.3715352716
 21
24.5330591192
  0
LINE
  5
235
100
AcDbEntity
  8
0
100
AcDbLine
 62
7
  6
BYLAYER
 10
12.0674691771
 20
23.5539333731
 11
12.0674691771
 21
23.8397092191
  0
LINE
  5
236
100
AcDbEntity
  8
0
100
AcDbLine
 62
7
  6
BYLAYER
 10
30.6195327546
 20
63.098542755
 11
20.4372374987
 21
57.2198269392
  0
LINE
  5
237
100
AcDbEntity
  8
0
100
AcDbLine
 62
7
  6
BYLAYER
 10
20.7389222316
 20
56.9856716909
 11
30.9213492774
 21
62.8644637575
  0
LINE
  5
238
100
AcDbEntity
  8
0
100
AcDbLine
 62
7
  6
BYLAYER
 10
20.8640539272
 20
56.9733671223
 11
31.0463487215
 21
62.8520826847
  0
LINE
  5
239
100
AcDbEntity
  8
0
100
AcDbLine
 62
7
  6
BYLAYER
 10
20.6475500782
 20
55.9093964607
 11
20.6872801693
 21
55.9323359427
  0
LINE
  5
23A
100
AcDbEntity
  8
0
100
AcDbLine
 62
7
  6
BYLAYER
 10
20.7389557025
 20
56.9856102281
 11
20.7497587082
 21
56.9916787347
  0
LINE
  5
23B
100
AcDbEntity
  8
0
100
AcDbLine
 62
7
  6
BYLAYER
 10
13.1115854565
 20
22.0121484157
 11
13.1115854565
 21
23.2369020414
  0
LWPOLYLINE
  5
23C
100
AcDbEntity
  8
0
100
AcDbPolyline
 62
7
  6
BYLAYER
 90
4
 70
0
 10
20.7497587082
 20
56.9916787347
 10
20.5319188993
 20
56.7443750465
 10
20.4849253425
 20
56.5442359392
 10
20.573213441
 20
56.0588930553
  0
LINE
  5
23D
100
AcDbEntity
  8
0
100
AcDbLine
 62
7
  6
BYLAYER
 10
20.7907964828
 20
55.2194135004
 11
20.7200860991
 21
55.178589085
  0
LINE
  5
23E
100
AcDbEntity
  8
0
100
AcDbLine
 62
7
  6
BYLAYER
 10
21.0029294004
 20
55.0969412741
 11
21.0882002861
 21
55.146172149
  0
LINE
  5
23F
100
AcDbEntity
  8
0
100
AcDbLine
 62
7
  6
BYLAYER
 10
27.0277447526
 20
20.7897478759
 11
27.1123585447
 21
20.7113477357
  0
LINE
  5
240
100
AcDbEntity
  8
0
100
AcDbLine
 62
7
  6
BYLAYER
 10
19.1575196426
 20
13.1065710831
 11
19.1575196426
 21
15.107845642
  0
LINE
  5
241
100
AcDbEntity
  8
0
100
AcDbLine
 62
7
  6
BYLAYER
 10
37.7896628717
 20
58.958916536
 11
27.6073677039
 21
53.0802007711
  0
LINE
  5
242
100
AcDbEntity
  8
0
100
AcDbLine
 62
7
  6
BYLAYER
 10
35.2385966105
 20
56.3429748166
 11
38.2846395996
 21
58.1015969497
  0
LINE
  5
243
100
AcDbEntity
  8
0
100
AcDbLine
 62
7
  6
BYLAYER
 10
28.1023444359
 20
52.2228803615
 11
31.1483834192
 21
53.9815007729
  0
LINE
  5
244
100
AcDbEntity
  8
0
100
AcDbLine
 62
7
  6
BYLAYER
 10
20.8897924332
 20
17.521500116
 11
20.8897924332
 21
18.7462537417
  0
LINE
  5
245
100
AcDbEntity
  8
0
100
AcDbLine
 62
7
  6
BYLAYER
 10
21.9339087126
 20
17.857670718
 11
21.9339087126
 21
18.143446564
  0
LINE
  5
246
100
AcDbEntity
  8
0
100
AcDbLine
 62
7
  6
BYLAYER
 10
23.6298426181
 20
16.8785449719
 11
23.6298426181
 21
15.9395671922
  0
LINE
  5
247
100
AcDbEntity
  8
0
100
AcDbLine
 62
7
  6
BYLAYER
 10
27.0277393849
 20
20.7897840883
 11
27.0277447526
 21
20.7897478759
  0
LWPOLYLINE
  5
248
100
AcDbEntity
  8
0
100
AcDbPolyline
 62
7
  6
BYLAYER
 90
4
 70
0
 10
27.0277261635
 20
20.7897138621
 10
27.0498217173
 20
20.6292375359
 10
27.0766723939
 20
20.3435379579
 10
27.0825199978
 20
20.1474242626
  0
LINE
  5
249
100
AcDbEntity
  8
0
100
AcDbLine
 62
7
  6
BYLAYER
 10
26.1575196426
 20
13.1065710831
 11
26.1575196426
 21
13.6996017658
  0
LINE
  5
24A
100
AcDbEntity
  8
0
100
AcDbLine
 62
7
  6
BYLAYER
 10
27.0825200167
 20
20.1475864838
 11
27.0825199978
 21
20.1474242626
  0
LINE
  5
24B
100
AcDbEntity
  8
0
100
AcDbLine
 62
7
  6
BYLAYER
 10
28.0504105526
 20
44.3218125348
 11
28.1023444791
 21
44.4363488248
  0
LINE
  5
24C
100
AcDbEntity
  8
0
100
AcDbLine
 62
7
  6
BYLAYER
 10
27.1123949338
 20
44.8037725033
 11
27.0726648426
 21
44.7808330214
  0
LINE
  5
24D
100
AcDbEntity
  8
0
100
AcDbLine
 62
7
  6
BYLAYER
 10
29.8637511374
 20
45.4532912139
 11
28.1023444669
 21
44.4363488195
  0
LINE
  5
24E
100
AcDbEntity
  8
0
100
AcDbLine
 62
7
  6
BYLAYER
 10
29.923066348
 20
45.4029841843
 11
28.0505664882
 21
44.3219023394
  0
LINE
  5
24F
100
AcDbEntity
  8
0
100
AcDbLine
 62
7
  6
BYLAYER
 10
30.2094014173
 20
45.1601347256
 11
28.2790828786
 21
44.045671997
  0
LINE
  5
250
100
AcDbEntity
  8
0
100
AcDbLine
 62
7
  6
BYLAYER
 10
28.310094508
 20
43.6553264939
 11
28.1023075081
 21
43.5353615009
  0
LINE
  5
251
100
AcDbEntity
  8
0
100
AcDbLine
 62
7
  6
BYLAYER
 10
30.5301647515
 20
44.8880856108
 11
28.3102426079
 21
43.6064206141
  0
LINE
  5
252
100
AcDbEntity
  8
0
100
AcDbLine
 62
7
  6
BYLAYER
 10
30.6923186912
 20
44.777580565
 11
28.3108596703
 21
43.4026527655
  0
LINE
  5
253
100
AcDbEntity
  8
0
100
AcDbLine
 62
7
  6
BYLAYER
 10
28.3100945075
 20
43.6553266648
 11
28.3108596706
 21
43.40265268
  0
LINE
  5
254
100
AcDbEntity
  8
0
100
AcDbLine
 62
7
  6
BYLAYER
 10
27.1123580951
 20
44.1069106735
 11
27.112358401
 21
20.7113486318
  0
LINE
  5
255
100
AcDbEntity
  8
0
100
AcDbLine
 62
7
  6
BYLAYER
 10
27.1123580147
 20
19.3941479041
 11
27.1123576785
 21
13.4813108494
  0
LINE
  5
256
100
AcDbEntity
  8
0
100
AcDbLine
 62
7
  6
BYLAYER
 10
27.1123949339
 20
52.2228781229
 11
27.1123949338
 21
44.8037725033
  0
LINE
  5
257
100
AcDbEntity
  8
0
100
AcDbLine
 62
7
  6
BYLAYER
 10
28.1023075081
 20
13.6873954302
 11
28.1023075081
 21
43.5353615009
  0
LINE
  5
258
100
AcDbEntity
  8
0
100
AcDbLine
 62
7
  6
BYLAYER
 10
28.1023444669
 20
44.4363488195
 11
28.1023444359
 21
52.2228803615
  0
LINE
  5
259
100
AcDbEntity
  8
0
100
AcDbLine
 62
7
  6
BYLAYER
 10
28.2790828786
 20
43.7087909606
 11
28.2790828786
 21
44.045671997
  0
LWPOLYLINE
  5
25A
100
AcDbEntity
  8
0
100
AcDbPolyline
 62
7
  6
BYLAYER
 90
4
 70
0
 10
27.0825305212
 20
20.1475864749
 10
27.0786319976
 20
19.9915823069
 10
27.0549794829
 20
19.7343073528
 10
27.0291344523
 20
19.5693557811
  0
LWPOLYLINE
  5
25B
100
AcDbEntity
  8
0
100
AcDbPolyline
 62
7
  6
BYLAYER
 90
6
 70
0
 10
27.072664822
 20
44.7808330095
 10
27.1520469103
 20
44.6590426286
 10
27.5002967795
 20
44.3433605719
 10
27.6922809652
 20
44.2709610133
 10
28.0423856209
 20
44.317379856
 10
28.0504341791
 20
44.3219064827
  0
LINE
  5
25C
100
AcDbEntity
  8
0
100
AcDbLine
 62
7
  6
BYLAYER
 10
27.1123580951
 20
44.1069106735
 11
20.7200860991
 21
55.178589085
  0
LINE
  5
25D
100
AcDbEntity
  8
0
100
AcDbLine
 62
7
  6
BYLAYER
 10
21.0029294004
 20
55.0969412741
 11
20.4372416203
 21
56.0767358114
  0
LINE
  5
25E
100
AcDbEntity
  8
0
100
AcDbLine
 62
7
  6
BYLAYER
 10
27.0726648426
 20
44.7808330214
 11
20.6475500782
 21
55.9093964607
  0
LINE
  5
25F
100
AcDbEntity
  8
0
100
AcDbLine
 62
7
  6
BYLAYER
 10
20.6872801694
 20
55.9323359426
 11
27.1123949338
 21
44.8037725033
  0
LINE
  5
260
100
AcDbEntity
  8
0
100
AcDbLine
 62
7
  6
BYLAYER
 10
20.573213441
 20
56.0588930553
 11
20.6475500626
 21
55.9093964512
  0
LINE
  5
261
100
AcDbEntity
  8
0
100
AcDbLine
 62
7
  6
BYLAYER
 10
27.0291964408
 20
19.5695570229
 11
27.0291473367
 21
19.5692814758
  0
LINE
  5
262
100
AcDbEntity
  8
0
100
AcDbLine
 62
7
  6
BYLAYER
 10
27.955417501
 20
44.2667926555
 11
28.3100945075
 21
43.6553266648
  0
LINE
  5
263
100
AcDbEntity
  8
0
100
AcDbLine
 62
7
  6
BYLAYER
 10
28.2790828786
 20
44.045671997
 11
28.1023068548
 21
44.3518553522
  0
LWPOLYLINE
  5
264
100
AcDbEntity
  8
0
100
AcDbPolyline
 62
7
  6
BYLAYER
 90
3
 70
0
 10
36.7982521846
 20
41.1848165331
 10
37.2616603922
 20
40.9476104249
 10
37.4925417205
 20
40.8508721928
  0
LINE
  5
265
100
AcDbEntity
  8
0
100
AcDbLine
 62
7
  6
BYLAYER
 10
36.7983814986
 20
41.1847359076
 11
31.6329191578
 21
44.1669495139
  0
LINE
  5
266
100
AcDbEntity
  8
0
100
AcDbLine
 62
7
  6
BYLAYER
 10
45.3678416704
 20
36.6078296192
 11
37.5896346937
 21
41.0984779189
  0
LWPOLYLINE
  5
267
100
AcDbEntity
  8
0
100
AcDbPolyline
 62
7
  6
BYLAYER
 90
3
 70
0
 10
29.3520265331
 20
45.8873003749
 10
30.5564155418
 20
44.8658215193
 10
31.6317722618
 20
44.1676000021
  0
LINE
  5
268
100
AcDbEntity
  8
0
100
AcDbLine
 62
7
  6
BYLAYER
 10
11.1847255076
 20
24.0635741387
 11
10.3715352716
 21
23.5940813395
  0
LINE
  5
269
100
AcDbEntity
  8
0
100
AcDbLine
 62
7
  6
BYLAYER
 10
12.0674691771
 20
23.5539333731
 11
12.3149618577
 21
23.6968224859
  0
LINE
  5
26A
100
AcDbEntity
  8
0
100
AcDbLine
 62
7
  6
BYLAYER
 10
38.6310392177
 20
19.7864897173
 11
38.6310464894
 21
19.7848536006
  0
LINE
  5
26B
100
AcDbEntity
  8
0
100
AcDbLine
 62
7
  6
BYLAYER
 10
38.2846395996
 20
58.1015969497
 11
38.2846394581
 21
54.9335430865
  0
LINE
  5
26C
100
AcDbEntity
  8
0
100
AcDbLine
 62
7
  6
BYLAYER
 10
38.4260235314
 20
40.6155995225
 11
38.4260235314
 21
19.6477600767
  0
LINE
  5
26D
100
AcDbEntity
  8
0
100
AcDbLine
 62
7
  6
BYLAYER
 10
38.4896628758
 20
54.8151754389
 11
38.4896628758
 21
58.3873648464
  0
LINE
  5
26E
100
AcDbEntity
  8
0
100
AcDbLine
 62
7
  6
BYLAYER
 10
38.6310467238
 20
19.7850988565
 11
38.6310467238
 21
40.497232005
  0
LINE
  5
26F
100
AcDbEntity
  8
0
100
AcDbLine
 62
7
  6
BYLAYER
 10
20.7200860991
 20
55.178589085
 11
6.8890199747
 21
63.163778186
  0
LINE
  5
270
100
AcDbEntity
  8
0
100
AcDbLine
 62
7
  6
BYLAYER
 10
21.0029294004
 20
55.0969412741
 11
7.0304412315
 21
63.1637785834
  0
LINE
  5
271
100
AcDbEntity
  8
0
100
AcDbLine
 62
7
  6
BYLAYER
 10
20.6872801694
 20
55.9323359426
 11
27.1123949339
 21
52.2228781229
  0
LINE
  5
272
100
AcDbEntity
  8
0
100
AcDbLine
 62
7
  6
BYLAYER
 10
7.0304412315
 20
63.8169805171
 11
20.4372416203
 21
56.0767358114
  0
LINE
  5
273
100
AcDbEntity
  8
0
100
AcDbLine
 62
7
  6
BYLAYER
 10
27.6073677039
 20
53.0802007711
 11
20.8640539272
 21
56.9733671223
  0
LINE
  5
274
100
AcDbEntity
  8
0
100
AcDbLine
 62
7
  6
BYLAYER
 10
20.4372374987
 20
57.2198269392
 11
7.5254139175
 21
64.6743031168
  0
LINE
  5
275
100
AcDbEntity
  8
0
100
AcDbLine
 62
7
  6
BYLAYER
 10
20.7390536453
 20
56.9857477245
 11
20.8640541652
 21
56.973367278
  0
LINE
  5
276
100
AcDbEntity
  8
0
100
AcDbLine
 62
7
  6
BYLAYER
 10
50.7177508968
 20
45.8743538472
 11
42.9395439201
 21
50.365002147
  0
LINE
  5
277
100
AcDbEntity
  8
0
100
AcDbLine
 62
7
  6
BYLAYER
 10
21.9339087126
 20
18.1243173326
 11
20.8897924332
 21
17.521500116
  0
LINE
  5
278
100
AcDbEntity
  8
0
100
AcDbLine
 62
7
  6
BYLAYER
 10
41.2944689681
 20
53.1958565204
 11
36.3559383972
 21
56.0470539722
  0
LWPOLYLINE
  5
279
100
AcDbEntity
  8
0
100
AcDbPolyline
 62
7
  6
BYLAYER
 90
3
 70
0
 10
43.461393187
 20
50.810928364
 10
42.3449575832
 20
52.3815330808
 10
41.2930637378
 20
53.1966564436
  0
LINE
  5
27A
100
AcDbEntity
  8
0
100
AcDbLine
 62
7
  6
BYLAYER
 10
43.9703375345
 20
49.8029444384
 11
43.4611778544
 21
50.8113643019
  0
LINE
  5
27B
100
AcDbEntity
  8
0
100
AcDbLine
 62
7
  6
BYLAYER
 10
31.0463487215
 20
62.8520826847
 11
37.7896628717
 21
58.958916536
  0
LINE
  5
27C
100
AcDbEntity
  8
0
100
AcDbLine
 62
7
  6
BYLAYER
 10
17.7077091734
 20
70.5530189325
 11
30.6195327546
 21
63.098542755
  0
LINE
  5
27D
100
AcDbEntity
  8
0
100
AcDbLine
 62
7
  6
BYLAYER
 10
38.1396569373
 20
58.9935860576
 11
31.489800938
 21
62.8327953544
  0
LINE
  5
27E
100
AcDbEntity
  8
0
100
AcDbLine
 62
7
  6
BYLAYER
 10
31.1144976853
 20
63.0495151973
 11
18.057703235
 21
70.5876884517
  0
LINE
  5
27F
100
AcDbEntity
  8
0
100
AcDbLine
 62
7
  6
BYLAYER
 10
30.9211913786
 20
62.8643723645
 11
31.0463487178
 21
62.8520826877
  0
LWPOLYLINE
  5
280
100
AcDbEntity
  8
0
100
AcDbPolyline
 62
7
  6
BYLAYER
 90
4
 70
0
 10
31.4894029527
 20
62.8330256111
 10
31.2763251999
 20
62.9160912851
 10
30.929143746
 20
62.8687736731
 10
30.9214801717
 20
62.8644587998
  0
LWPOLYLINE
  5
281
100
AcDbEntity
  8
0
100
AcDbPolyline
 62
7
  6
BYLAYER
 90
4
 70
0
 10
38.4699290387
 20
19.5040000499
 10
38.5065470026
 20
19.5286010616
 10
38.6275157265
 20
19.7363693348
 10
38.6310273676
 20
19.7864896857
  0
LINE
  5
282
100
AcDbEntity
  8
0
100
AcDbLine
 62
7
  6
BYLAYER
 10
38.4260235314
 20
19.6477600767
 11
28.1023075081
 21
13.6873954302
  0
LINE
  5
283
100
AcDbEntity
  8
0
100
AcDbLine
 62
7
  6
BYLAYER
 10
38.4699076857
 20
19.5039912876
 11
27.8513126442
 21
13.3733790892
  0
LINE
  5
284
100
AcDbEntity
  8
0
100
AcDbLine
 62
7
  6
BYLAYER
 10
27.8509465507
 20
13.3731680046
 11
27.8513350952
 21
13.3733920518
  0
ARC
  5
285
100
AcDbEntity
  8
0
100
AcDbCircle
 62
7
  6
BYLAYER
 10
47.1488757828
 20
70.1929516558
 40
60.2929757048
100
AcDbArc
 50
239.2159727419
 51
239.9981356861
  0
ARC
  5
286
100
AcDbEntity
  8
0
100
AcDbCircle
 62
7
  6
BYLAYER
 10
46.3306760248
 20
68.777975806
 40
58.6584707687
100
AcDbArc
 50
239.9991521771
 51
241.0814999675
  0
ARC
  5
287
100
AcDbEntity
  8
0
100
AcDbCircle
 62
7
  6
BYLAYER
 10
21.1944299821
 20
24.2310473465
 40
8.4384981926
100
AcDbArc
 50
242.9475502117
 51
244.3886733608
  0
ARC
  5
288
100
AcDbEntity
  8
0
100
AcDbCircle
 62
7
  6
BYLAYER
 10
20.9732138381
 20
23.7987499657
 40
7.9528878171
100
AcDbArc
 50
240.0315361379
 51
242.9504433953
  0
ARC
  5
289
100
AcDbEntity
  8
0
100
AcDbCircle
 62
7
  6
BYLAYER
 10
20.611268509
 20
23.1668578817
 40
7.2246795967
100
AcDbArc
 50
236.4963301316
 51
240.0149503179
  0
ARC
  5
28A
100
AcDbEntity
  8
0
100
AcDbCircle
 62
7
  6
BYLAYER
 10
20.3045298362
 20
22.6935682888
 40
6.6607122987
100
AcDbArc
 50
235.1968383546
 51
236.4492156351
  0
ARC
  5
28B
100
AcDbEntity
  8
0
100
AcDbCircle
 62
7
  6
BYLAYER
 10
21.2066733878
 20
20.5423587081
 40
5.7870290385
100
AcDbArc
 50
240.0008572342
 51
240.3248651525
  0
ARC
  5
28C
100
AcDbEntity
  8
0
100
AcDbCircle
 62
7
  6
BYLAYER
 10
21.8159645747
 20
19.9243498459
 40
5.3545452331
100
AcDbArc
 50
8.4518207034
 51
9.4318804163
  0
ARC
  5
28D
100
AcDbEntity
  8
0
100
AcDbCircle
 62
7
  6
BYLAYER
 10
8.6732174419
 20
28.1843687605
 40
4.3499800628
100
AcDbArc
 50
0.0339545314
 51
2.9865910499
  0
ARC
  5
28E
100
AcDbEntity
  8
0
100
AcDbCircle
 62
7
  6
BYLAYER
 10
27.7099607571
 20
25.1056947268
 40
3.6912314647
100
AcDbArc
 50
177.9052194621
 51
180.0147799805
  0
ARC
  5
28F
100
AcDbEntity
  8
0
100
AcDbCircle
 62
7
  6
BYLAYER
 10
13.5479942519
 20
33.2708416915
 40
3.6714595642
100
AcDbArc
 50
177.5652589737
 51
180.0200387129
  0
ARC
  5
290
100
AcDbEntity
  8
0
100
AcDbCircle
 62
7
  6
BYLAYER
 10
21.8594789584
 20
14.5828912038
 40
3.3543664562
100
AcDbArc
 50
240.0071096711
 51
241.2404039195
  0
ARC
  5
291
100
AcDbEntity
  8
0
100
AcDbCircle
 62
7
  6
BYLAYER
 10
23.4702884949
 20
14.5568954281
 40
3.3244893477
100
AcDbArc
 50
299.0747352067
 51
299.9974231369
  0
ARC
  5
292
100
AcDbEntity
  8
0
100
AcDbCircle
 62
7
  6
BYLAYER
 10
23.4950629396
 20
14.513776132
 40
3.2747597164
100
AcDbArc
 50
299.9992097239
 51
300.5045937756
  0
ARC
  5
293
100
AcDbEntity
  8
0
100
AcDbCircle
 62
7
  6
BYLAYER
 10
19.5786872655
 20
18.5494397402
 40
3.1993307042
100
AcDbArc
 50
216.1829219616
 51
220.0256597987
  0
ARC
  5
294
100
AcDbEntity
  8
0
100
AcDbCircle
 62
7
  6
BYLAYER
 10
19.3591112708
 20
18.3870354442
 40
2.9262254746
100
AcDbArc
 50
211.8361596964
 51
216.1544838554
  0
ARC
  5
295
100
AcDbEntity
  8
0
100
AcDbCircle
 62
7
  6
BYLAYER
 10
19.2290061273
 20
18.2877346149
 40
2.7645716902
100
AcDbArc
 50
206.7092261551
 51
211.5179369774
  0
ARC
  5
296
100
AcDbEntity
  8
0
100
AcDbCircle
 62
7
  6
BYLAYER
 10
41.5618323334
 20
48.5870837487
 40
2.6979921637
100
AcDbArc
 50
26.0258014456
 51
26.7854611706
  0
ARC
  5
297
100
AcDbEntity
  8
0
100
AcDbCircle
 62
7
  6
BYLAYER
 10
19.1529703259
 20
18.2575481204
 40
2.6827931468
100
AcDbArc
 50
206.7495616663
 51
211.8090465732
  0
ARC
  5
298
100
AcDbEntity
  8
0
100
AcDbCircle
 62
7
  6
BYLAYER
 10
27.4987963034
 20
14.7094852755
 40
1.296530609
100
AcDbArc
 50
265.7500403864
 51
270.9383114035
  0
ARC
  5
299
100
AcDbEntity
  8
0
100
AcDbCircle
 62
7
  6
BYLAYER
 10
21.6679915825
 20
56.3543088232
 40
1.0676403832
100
AcDbArc
 50
202.2348335624
 51
203.2808668745
  0
ARC
  5
29A
100
AcDbEntity
  8
0
100
AcDbCircle
 62
7
  6
BYLAYER
 10
17.7077091734
 20
69.9814672405
 40
0.7
100
AcDbArc
 50
60.0001377225
 51
120.0001377247
  0
ARC
  5
29B
100
AcDbEntity
  8
0
100
AcDbCircle
 62
7
  6
BYLAYER
 10
7.5254139175
 20
64.1027514248
 40
0.7
100
AcDbArc
 50
119.9846102269
 51
179.999998954
  0
ARC
  5
29C
100
AcDbEntity
  8
0
100
AcDbCircle
 62
7
  6
BYLAYER
 10
37.7896628758
 20
58.3873648464
 40
0.7
100
AcDbArc
 50
0.0001377241
 51
60.0119157488
  0
ARC
  5
29D
100
AcDbEntity
  8
0
100
AcDbCircle
 62
7
  6
BYLAYER
 10
21.2921558439
 20
56.4541380794
 40
0.6901901668
100
AcDbArc
 50
154.5019244145
 51
160.4568957973
  0
ARC
  5
29E
100
AcDbEntity
  8
0
100
AcDbCircle
 62
7
  6
BYLAYER
 10
7.0470962636
 20
25.5003875231
 40
0.3631036797
100
AcDbArc
 50
180.0408691271
 51
181.5962113415
  0
ARC
  5
29F
100
AcDbEntity
  8
0
100
AcDbCircle
 62
7
  6
BYLAYER
 10
7.0154594515
 20
25.5011040997
 40
0.3317890897
100
AcDbArc
 50
190.5256017452
 51
195.4267281958
  0
SPLINE
  5
2A0
100
AcDbEntity
  8
0
100
AcDbSpline
 62
7
  6
BYLAYER
 70
0
 71
3
 72
9
 73
5
 74
0
 42
0.0000001
 43
0.0000001
 44
0.0000000001
 40
0.0
 40
0.0
 40
0.0
 40
0.0
 40
0.4887748368
 40
1.0
 40
1.0
 40
1.0
 40
1.0
 10
16.2344238219
 20
18.3284556936
 30
0.0
 10
14.6259706465
 20
19.2914093989
 30
0.0
 10
11.4239112743
 20
21.4123442663
 30
0.0
 10
8.4043255624
 20
23.7840104725
 30
0.0
 10
6.9073873373
 20
25.0504376087
 30
0.0
  0
SPLINE
  5
2A1
100
AcDbEntity
  8
0
100
AcDbSpline
 62
7
  6
BYLAYER
 70
0
 71
3
 72
17
 73
13
 74
0
 42
0.0000001
 43
0.0000001
 44
0.0000000001
 40
0.0
 40
0.0
 40
0.0
 40
0.0
 40
0.0428570455
 40
0.087485165
 40
0.1353123244
 40
0.1872781392
 40
0.3045378316
 40
0.4381995438
 40
0.5825378192
 40
0.7296849502
 40
0.8713141218
 40
1.0
 40
1.0
 40
1.0
 40
1.0
 10
17.6863706159
 20
55.4851120664
 30
0.0
 10
17.704859245
 20
55.4957868697
 30
0.0
 10
17.7456015971
 20
55.5127658999
 30
0.0
 10
17.8128846549
 20
55.5225795081
 30
0.0
 10
17.8851341019
 20
55.5173070698
 30
0.0
 10
17.9901033147
 20
55.4893376252
 30
0.0
 10
18.12430899
 20
55.4159914267
 30
0.0
 10
18.2725801485
 20
55.2846819889
 30
0.0
 10
18.4036328482
 20
55.1169328558
 30
0.0
 10
18.5068121937
 20
54.9262817223
 30
0.0
 10
18.573736834
 20
54.7283496706
 30
0.0
 10
18.5916858264
 20
54.5935424272
 30
0.0
 10
18.5916858264
 20
54.5294381967
 30
0.0
  0
SPLINE
  5
2A2
100
AcDbEntity
  8
0
100
AcDbSpline
 62
7
  6
BYLAYER
 70
0
 71
3
 72
17
 73
13
 74
0
 42
0.0000001
 43
0.0000001
 44
0.0000000001
 40
0.0
 40
0.0
 40
0.0
 40
0.0
 40
0.0428570455
 40
0.087485165
 40
0.1353123244
 40
0.1872781392
 40
0.3045378316
 40
0.4381995438
 40
0.5825378192
 40
0.7296849502
 40
0.8713141218
 40
1.0
 40
1.0
 40
1.0
 40
1.0
 10
8.493944189
 20
60.7922418751
 30
0.0
 10
8.5124328181
 20
60.8029166785
 30
0.0
 10
8.5531751701
 20
60.8198957087
 30
0.0
 10
8.620458228
 20
60.8297093168
 30
0.0
 10
8.692707675
 20
60.8244368786
 30
0.0
 10
8.7976768878
 20
60.796467434
 30
0.0
 10
8.9318825631
 20
60.7231212355
 30
0.0
 10
9.0801537215
 20
60.5918117977
 30
0.0
 10
9.2112064213
 20
60.4240626646
 30
0.0
 10
9.3143857668
 20
60.233411531
 30
0.0
 10
9.3813104071
 20
60.0354794794
 30
0.0
 10
9.3992593995
 20
59.9006722359
 30
0.0
 10
9.3992593995
 20
59.8365680055
 30
0.0
  0
SPLINE
  5
2A3
100
AcDbEntity
  8
0
100
AcDbSpline
 62
7
  6
BYLAYER
 70
0
 71
3
 72
25
 73
21
 74
0
 42
0.0000001
 43
0.0000001
 44
0.0000000001
 40
0.0
 40
0.0
 40
0.0
 40
0.0
 40
0.0213314403
 40
0.0428922059
 40
0.064897567
 40
0.0875422972
 40
0.1353179222
 40
0.187219505
 40
0.2436560557
 40
0.3046026967
 40
0.3696903176
 40
0.4382864963
 40
0.5095721621
 40
0.582596831
 40
0.6563265918
 40
0.7297041448
 40
0.8016826469
 40
0.8712685625
 40
0.9376311379
 40
1.0
 40
1.0
 40
1.0
 40
1.0
 10
45.5803466784
 20
36.9759074176
 30
0.0
 10
45.5198373462
 20
37.0108335172
 30
0.0
 10
45.4025377249
 20
37.0889589463
 30
0.0
 10
45.2415852167
 20
37.228589135
 30
0.0
 10
45.0959815041
 20
37.3900162437
 30
0.0
 10
44.9204531602
 20
37.6373712783
 30
0.0
 10
44.7447235096
 20
38.0008354948
 30
0.0
 10
44.6108070662
 20
38.4967344279
 30
0.0
 10
44.551099548
 20
39.049904353
 30
0.0
 10
44.5663321314
 20
39.6488507074
 30
0.0
 10
44.6558652494
 20
40.2812513003
 30
0.0
 10
44.8176465177
 20
40.9338851788
 30
0.0
 10
45.0482090766
 20
41.5929933789
 30
0.0
 10
45.3426906721
 20
42.2445566316
 30
0.0
 10
45.6947781881
 20
42.8747113372
 30
0.0
 10
46.0969656638
 20
43.4700208661
 30
0.0
 10
46.5406675861
 20
44.0177580475
 30
0.0
 10
47.0165298785
 20
44.5063892872
 30
0.0
 10
47.5143776034
 20
44.9252608886
 30
0.0
 10
47.8658902102
 20
45.1602299782
 30
0.0
 10
48.0427962836
 20
45.2623661376
 30
0.0
  0
SPLINE
  5
2A4
100
AcDbEntity
  8
0
100
AcDbSpline
 62
7
  6
BYLAYER
 70
0
 71
3
 72
9
 73
5
 74
0
 42
0.0000001
 43
0.0000001
 44
0.0000000001
 40
0.0
 40
0.0
 40
0.0
 40
0.0
 40
0.524145444
 40
1.0
 40
1.0
 40
1.0
 40
1.0
 10
6.8004762151
 20
63.672744143
 30
0.0
 10
6.7792614799
 20
63.6542669202
 30
0.0
 10
6.7417069477
 20
63.6153614258
 30
0.0
 10
6.7138182547
 20
63.5687394829
 30
0.0
 10
6.7038873387
 20
63.5452080759
 30
0.0
  0
SPLINE
  5
2A5
100
AcDbEntity
  8
0
100
AcDbSpline
 62
7
  6
BYLAYER
 70
0
 71
3
 72
9
 73
5
 74
0
 42
0.0000001
 43
0.0000001
 44
0.0000000001
 40
0.0
 40
0.0
 40
0.0
 40
0.0
 40
0.5067351811
 40
1.0
 40
1.0
 40
1.0
 40
1.0
 10
6.7038873387
 20
63.5452080759
 30
0.0
 10
6.6974383404
 20
63.5299271087
 30
0.0
 10
6.6874452421
 20
63.4985129393
 30
0.0
 10
6.6840317234
 20
63.4656943145
 30
0.0
 10
6.6840317284
 20
63.4495491514
 30
0.0
  0
SPLINE
  5
2A6
100
AcDbEntity
  8
0
100
AcDbSpline
 62
7
  6
BYLAYER
 70
0
 71
3
 72
15
 73
11
 74
0
 42
0.0000001
 43
0.0000001
 44
0.0000000001
 40
0.0
 40
0.0
 40
0.0
 40
0.0
 40
0.1080098227
 40
0.2180568998
 40
0.3320013208
 40
0.4513526132
 40
0.5772572309
 40
0.7104996326
 40
0.8514755367
 40
1.0
 40
1.0
 40
1.0
 40
1.0
 10
45.3678449521
 20
36.6078353026
 30
0.0
 10
45.455555443
 20
36.5571964092
 30
0.0
 10
45.6417930598
 20
36.470021291
 30
0.0
 10
45.9431106115
 20
36.3866446375
 30
0.0
 10
46.264340764
 20
36.3508886122
 30
0.0
 10
46.6020251947
 20
36.3625654973
 30
0.0
 10
46.9529437059
 20
36.4214572451
 30
0.0
 10
47.3138875915
 20
36.5266574895
 30
0.0
 10
47.6812951018
 20
36.6771189651
 30
0.0
 10
47.9221857464
 20
36.8031696911
 30
0.0
 10
48.0427962836
 20
36.8728038016
 30
0.0
  0
SPLINE
  5
2A7
100
AcDbEntity
  8
0
100
AcDbSpline
 62
7
  6
BYLAYER
 70
0
 71
3
 72
11
 73
7
 74
0
 42
0.0000001
 43
0.0000001
 44
0.0000000001
 40
0.0
 40
0.0
 40
0.0
 40
0.0
 40
0.2895453772
 40
0.5491366158
 40
0.7822776227
 40
1.0
 40
1.0
 40
1.0
 40
1.0
 10
18.5916858264
 20
54.5294381967
 30
0.0
 10
18.5916858264
 20
54.4914583271
 30
0.0
 10
18.585886528
 20
54.4191883095
 30
0.0
 10
18.5566708932
 20
54.3198753326
 30
0.0
 10
18.507384546
 20
54.2392707159
 30
0.0
 10
18.4610688676
 20
54.2004052468
 30
0.0
 10
18.4363364492
 20
54.1861254589
 30
0.0
  0
SPLINE
  5
2A8
100
AcDbEntity
  8
0
100
AcDbSpline
 62
7
  6
BYLAYER
 70
0
 71
3
 72
11
 73
7
 74
0
 42
0.0000001
 43
0.0000001
 44
0.0000000001
 40
0.0
 40
0.0
 40
0.0
 40
0.0
 40
0.2895453772
 40
0.5491366158
 40
0.7822776227
 40
1.0
 40
1.0
 40
1.0
 40
1.0
 10
9.3992593995
 20
59.8365680055
 30
0.0
 10
9.3992593995
 20
59.7985881358
 30
0.0
 10
9.3934601011
 20
59.7263181183
 30
0.0
 10
9.3642444663
 20
59.6270051413
 30
0.0
 10
9.3149581191
 20
59.5464005246
 30
0.0
 10
9.2686424407
 20
59.5075350555
 30
0.0
 10
9.2439100223
 20
59.4932552676
 30
0.0
  0
SPLINE
  5
2A9
100
AcDbEntity
  8
0
100
AcDbSpline
 62
7
  6
BYLAYER
 70
0
 71
3
 72
9
 73
5
 74
0
 42
0.0000001
 43
0.0000001
 44
0.0000000001
 40
0.0
 40
0.0
 40
0.0
 40
0.0
 40
0.4857505426
 40
1.0
 40
1.0
 40
1.0
 40
1.0
 10
27.236008703
 20
13.3171287694
 30
0.0
 10
25.6611970694
 20
13.8032145548
 30
0.0
 10
22.4772997085
 20
14.9984234474
 30
0.0
 10
19.4352846462
 20
16.5141764559
 30
0.0
 10
17.9100093986
 20
17.361482546
 30
0.0
  0
SPLINE
  5
2AA
100
AcDbEntity
  8
0
100
AcDbSpline
 62
7
  6
BYLAYER
 70
0
 71
3
 72
11
 73
7
 74
0
 42
0.0000001
 43
0.0000001
 44
0.0000000001
 40
0.0
 40
0.0
 40
0.0
 40
0.0
 40
0.2913866385
 40
0.5504090383
 40
0.7832788193
 40
1.0
 40
1.0
 40
1.0
 40
1.0
 10
27.0291964408
 20
19.5695570229
 30
0.0
 10
27.0050756929
 20
19.4350040046
 30
0.0
 10
26.9405522904
 20
19.1834994039
 30
0.0
 10
26.7840261469
 20
18.8482853219
 30
0.0
 10
26.5786049173
 20
18.5830662438
 30
0.0
 10
26.4094573329
 20
18.4524341807
 30
0.0
 10
26.3214082258
 20
18.4015993085
 30
0.0
  0
SPLINE
  5
2AB
100
AcDbEntity
  8
0
100
AcDbSpline
 62
7
  6
BYLAYER
 70
0
 71
3
 72
22
 73
18
 74
0
 42
0.0000001
 43
0.0000001
 44
0.0000000001
 40
0.0
 40
0.0
 40
0.0
 40
0.0
 40
0.0373912077
 40
0.0772423179
 40
0.1210031924
 40
0.1697046852
 40
0.2237154006
 40
0.2828717924
 40
0.3467473046
 40
0.4147198256
 40
0.4860191092
 40
0.5597745635
 40
0.7107598582
 40
0.7861314372
 40
0.8600750201
 40
0.9316835938
 40
1.0
 40
1.0
 40
1.0
 40
1.0
 10
22.2464264691
 20
25.4597168821
 30
0.0
 10
22.3268626064
 20
25.5061564304
 30
0.0
 10
22.5054558194
 20
25.58195628
 30
0.0
 10
22.8041417549
 20
25.6324568643
 30
0.0
 10
23.134620336
 20
25.6188836864
 30
0.0
 10
23.4912384249
 20
25.5389849473
 30
0.0
 10
23.8671857919
 20
25.3927624719
 30
0.0
 10
24.2538429424
 20
25.1810184709
 30
0.0
 10
24.6426040523
 20
24.9075240925
 30
0.0
 10
25.02504448
 20
24.577180359
 30
0.0
 10
25.3931877366
 20
24.1961077956
 30
0.0
 10
25.8585632475
 20
23.6259280799
 30
0.0
 10
26.2597725008
 20
22.9932906595
 30
0.0
 10
26.5844920063
 20
22.3211311634
 30
0.0
 10
26.7835020678
 20
21.8090089289
 30
0.0
 10
26.9342278251
 20
21.2989690918
 30
0.0
 10
27.0028144328
 20
20.9576041269
 30
0.0
 10
27.0277447526
 20
20.7897478759
 30
0.0
  0
SPLINE
  5
2AC
100
AcDbEntity
  8
0
100
AcDbSpline
 62
7
  6
BYLAYER
 70
0
 71
3
 72
14
 73
10
 74
0
 42
0.0000001
 43
0.0000001
 44
0.0000000001
 40
0.0
 40
0.0
 40
0.0
 40
0.0
 40
0.1000535231
 40
0.2038667091
 40
0.4307267273
 40
0.5578949457
 40
0.6951730395
 40
0.8426477558
 40
1.0
 40
1.0
 40
1.0
 40
1.0
 10
12.1792137229
 20
26.5664143989
 30
0.0
 10
12.2365572514
 20
26.5995215029
 30
0.0
 10
12.3477613725
 20
26.67730126
 30
0.0
 10
12.5513746033
 20
26.8783984918
 30
0.0
 10
12.710959877
 20
27.1420744421
 30
0.0
 10
12.8236443025
 20
27.4474611114
 30
0.0
 10
12.8881156008
 20
27.713005402
 30
0.0
 10
12.9270790521
 20
28.0034120321
 30
0.0
 10
12.9353278921
 20
28.2052856118
 30
0.0
 10
12.9353278921
 20
28.3094198846
 30
0.0
  0
SPLINE
  5
2AD
100
AcDbEntity
  8
0
100
AcDbSpline
 62
7
  6
BYLAYER
 70
0
 71
3
 72
23
 73
19
 74
0
 42
0.0000001
 43
0.0000001
 44
0.0000000001
 40
0.0
 40
0.0
 40
0.0
 40
0.0
 40
0.0627572924
 40
0.1301125861
 40
0.2011433607
 40
0.2748564343
 40
0.3501429912
 40
0.4258495245
 40
0.500812621
 40
0.5738882685
 40
0.6439940077
 40
0.7101454997
 40
0.7715033837
 40
0.8274514085
 40
0.8776742884
 40
0.9223574498
 40
0.9625847122
 40
1.0
 40
1.0
 40
1.0
 40
1.0
 10
12.9353278921
 20
28.3094198846
 30
0.0
 10
12.9353278921
 20
28.4788503391
 30
0.0
 10
12.9120969105
 20
28.8303452444
 30
0.0
 10
12.8169501521
 20
29.3658946337
 30
0.0
 10
12.6615354973
 20
29.9179261553
 30
0.0
 10
12.4491057551
 20
30.4734928742
 30
0.0
 10
12.1842115304
 20
31.020070005
 30
0.0
 10
11.8727088581
 20
31.5454045465
 30
0.0
 10
11.5215218927
 20
32.0377947475
 30
0.0
 10
11.1385992435
 20
32.4862908623
 30
0.0
 10
10.7328451041
 20
32.880945482
 30
0.0
 10
10.313947244
 20
33.2129839483
 30
0.0
 10
9.892282238
 20
33.4751645873
 30
0.0
 10
9.4787060043
 20
33.6619922372
 30
0.0
 10
9.0842747767
 20
33.7709500929
 30
0.0
 10
8.7181768983
 20
33.8015586203
 30
0.0
 10
8.3881045706
 20
33.7558614098
 30
0.0
 10
8.1917117392
 20
33.6750381415
 30
0.0
 10
8.1042319662
 20
33.6245319725
 30
0.0
  0
SPLINE
  5
2AE
100
AcDbEntity
  8
0
100
AcDbSpline
 62
7
  6
BYLAYER
 70
0
 71
3
 72
11
 73
7
 74
0
 42
0.0000001
 43
0.0000001
 44
0.0000000001
 40
0.0
 40
0.0
 40
0.0
 40
0.0
 40
0.2749674558
 40
0.5322704522
 40
0.7731297576
 40
1.0
 40
1.0
 40
1.0
 40
1.0
 10
16.5028691529
 20
17.2243394241
 30
0.0
 10
16.3113635597
 20
17.3574857197
 30
0.0
 10
15.9539764929
 20
17.6353621267
 30
0.0
 10
15.4893583147
 20
18.1009505514
 30
0.0
 10
15.1203526914
 20
18.5958036236
 30
0.0
 10
14.937297542
 20
18.9504909799
 30
0.0
 10
14.8654040744
 20
19.129001837
 30
0.0
  0
SPLINE
  5
2AF
100
AcDbEntity
  8
0
100
AcDbSpline
 62
7
  6
BYLAYER
 70
0
 71
3
 72
11
 73
7
 74
0
 42
0.0000001
 43
0.0000001
 44
0.0000000001
 40
0.0
 40
0.0
 40
0.0
 40
0.0
 40
0.2716433077
 40
0.5285759291
 40
0.7708538649
 40
1.0
 40
1.0
 40
1.0
 40
1.0
 10
18.3391094814
 20
15.4967831701
 30
0.0
 10
18.1815144627
 20
15.5877686382
 30
0.0
 10
17.8829172722
 20
15.7793989303
 30
0.0
 10
17.4799514412
 20
16.1041141937
 30
0.0
 10
17.1394088406
 20
16.4553641854
 30
0.0
 10
16.9524826409
 20
16.7116290945
 30
0.0
 10
16.8722735919
 20
16.8425120068
 30
0.0
  0
SPLINE
  5
2B0
100
AcDbEntity
  8
0
100
AcDbSpline
 62
7
  6
BYLAYER
 70
0
 71
3
 72
13
 73
9
 74
0
 42
0.0000001
 43
0.0000001
 44
0.0000000001
 40
0.0
 40
0.0
 40
0.0
 40
0.0
 40
0.2624082596
 40
0.5226845666
 40
0.6490135401
 40
0.7712572069
 40
0.8885439117
 40
1.0
 40
1.0
 40
1.0
 40
1.0
 10
23.8272159833
 20
14.5273942527
 30
0.0
 10
23.335440495
 20
14.4718083775
 30
0.0
 10
22.3467024032
 20
14.4320353526
 30
0.0
 10
21.1242710388
 20
14.5536725311
 30
0.0
 10
20.1851024032
 20
14.7551067927
 30
0.0
 10
19.5231909836
 20
14.9528904562
 30
0.0
 10
18.906665435
 20
15.1961352734
 30
0.0
 10
18.5211562457
 20
15.3916807995
 30
0.0
 10
18.3391094814
 20
15.4967831701
 30
0.0
  0
SPLINE
  5
2B1
100
AcDbEntity
  8
0
100
AcDbSpline
 62
7
  6
BYLAYER
 70
0
 71
3
 72
22
 73
18
 74
0
 42
0.0000001
 43
0.0000001
 44
0.0000000001
 40
0.0
 40
0.0
 40
0.0
 40
0.0
 40
0.0465551891
 40
0.0942236443
 40
0.1442317042
 40
0.1973858426
 40
0.2542264034
 40
0.3149219471
 40
0.3792804641
 40
0.4468209295
 40
0.5168511148
 40
0.5885118444
 40
0.7327764771
 40
0.8035460636
 40
0.8721462559
 40
0.9378682676
 40
1.0
 40
1.0
 40
1.0
 40
1.0
 10
26.1575196426
 20
13.1065710831
 30
0.0
 10
26.1575196426
 20
12.9979400576
 30
0.0
 10
26.1293772597
 20
12.7771629444
 30
0.0
 10
26.006603751
 20
12.4607517107
 30
0.0
 10
25.8103137633
 20
12.1657174086
 30
0.0
 10
25.5482476853
 20
11.8972701304
 30
0.0
 10
25.227589371
 20
11.6586880038
 30
0.0
 10
24.8553363852
 20
11.4525437086
 30
0.0
 10
24.438717001
 20
11.2816816562
 30
0.0
 10
23.9859351986
 20
11.1486212871
 30
0.0
 10
23.5059036327
 20
11.0557128315
 30
0.0
 10
22.8415448486
 20
10.9874193567
 30
0.0
 10
22.1688191366
 20
11.0045381882
 30
0.0
 10
21.5143535862
 20
11.1073429929
 30
0.0
 10
21.0496549745
 20
11.2249306784
 30
0.0
 10
20.6179652709
 20
11.3813710735
 30
0.0
 10
20.3496331916
 20
11.5136720218
 30
0.0
 10
20.2240786765
 20
11.586159315
 30
0.0
  0
SPLINE
  5
2B2
100
AcDbEntity
  8
0
100
AcDbSpline
 62
7
  6
BYLAYER
 70
0
 71
3
 72
13
 73
9
 74
0
 42
0.0000001
 43
0.0000001
 44
0.0000000001
 40
0.0
 40
0.0
 40
0.0
 40
0.0
 40
0.2799238481
 40
0.5356774692
 40
0.6562353822
 40
0.7729635071
 40
0.8870408003
 40
1.0
 40
1.0
 40
1.0
 40
1.0
 10
20.2240786765
 20
11.586159315
 30
0.0
 10
20.0670722754
 20
11.6768049522
 30
0.0
 10
19.7797915135
 20
11.8751944296
 30
0.0
 10
19.4851786873
 20
12.1876224428
 30
0.0
 10
19.3166025313
 20
12.4599537607
 30
0.0
 10
19.2256343642
 20
12.6695213556
 30
0.0
 10
19.1700675793
 20
12.8860818405
 30
0.0
 10
19.1575196426
 20
13.0334123835
 30
0.0
 10
19.1575196426
 20
13.1065710831
 30
0.0
  0
SPLINE
  5
2B3
100
AcDbEntity
  8
0
100
AcDbSpline
 62
7
  6
BYLAYER
 70
0
 71
3
 72
9
 73
5
 74
0
 42
0.0000001
 43
0.0000001
 44
0.0000000001
 40
0.0
 40
0.0
 40
0.0
 40
0.0
 40
0.5097593041
 40
1.0
 40
1.0
 40
1.0
 40
1.0
 10
38.2206413795
 20
40.7136028137
 30
0.0
 10
38.0942752114
 20
40.7160433983
 30
0.0
 10
37.8462170547
 20
40.7396099382
 30
0.0
 10
37.6057952868
 20
40.8067351782
 30
0.0
 10
37.4925415201
 20
40.8508719807
 30
0.0
  0
SPLINE
  5
2B4
100
AcDbEntity
  8
0
100
AcDbSpline
 62
7
  6
BYLAYER
 70
0
 71
3
 72
23
 73
19
 74
0
 42
0.0000001
 43
0.0000001
 44
0.0000000001
 40
0.0
 40
0.0
 40
0.0
 40
0.0
 40
0.0623832617
 40
0.1287488739
 40
0.1983461025
 40
0.2703357081
 40
0.3437237461
 40
0.4174661897
 40
0.4905029305
 40
0.5618020656
 40
0.6304106905
 40
0.6955084077
 40
0.7564659112
 40
0.8129128242
 40
0.8648214874
 40
0.9126037458
 40
0.9571856777
 40
1.0
 40
1.0
 40
1.0
 40
1.0
 10
48.0427962836
 20
36.8728038016
 30
0.0
 10
48.234981987
 20
36.9837616069
 30
0.0
 10
48.6168296929
 20
37.2389853758
 30
0.0
 10
49.1576155536
 20
37.6940162512
 30
0.0
 10
49.6745176485
 20
38.2247963013
 30
0.0
 10
50.1565313982
 20
38.8197750151
 30
0.0
 10
50.593420799
 20
39.4664573613
 30
0.0
 10
50.975881396
 20
40.1509965892
 30
0.0
 10
51.2957791767
 20
40.8587961993
 30
0.0
 10
51.5462762667
 20
41.5747831505
 30
0.0
 10
51.7220099909
 20
42.2837520726
 30
0.0
 10
51.8192407297
 20
42.970734471
 30
0.0
 10
51.8358043725
 20
43.6213793835
 30
0.0
 10
51.7709992712
 20
44.2222676614
 30
0.0
 10
51.625401407
 20
44.7610381533
 30
0.0
 10
51.4005537204
 20
45.2263354384
 30
0.0
 10
51.0996694256
 20
45.6068114147
 30
0.0
 10
50.8496471008
 20
45.7981971362
 30
0.0
 10
50.717747615
 20
45.8743481638
 30
0.0
  0
SPLINE
  5
2B5
100
AcDbEntity
  8
0
100
AcDbSpline
 62
7
  6
BYLAYER
 70
0
 71
3
 72
15
 73
11
 74
0
 42
0.0000001
 43
0.0000001
 44
0.0000000001
 40
0.0
 40
0.0
 40
0.0
 40
0.0
 40
0.1485049714
 40
0.2894885711
 40
0.422744975
 40
0.5486499224
 40
0.6679947206
 40
0.7819384746
 40
0.8919887251
 40
1.0
 40
1.0
 40
1.0
 40
1.0
 10
48.0427962836
 20
45.2623661376
 30
0.0
 10
48.1538108729
 20
45.326460058
 30
0.0
 10
48.3755604809
 20
45.4424837976
 30
0.0
 10
48.7137788913
 20
45.5810004588
 30
0.0
 10
49.0460647498
 20
45.6778604036
 30
0.0
 10
49.3691127182
 20
45.7320727155
 30
0.0
 10
49.6799671932
 20
45.7428235897
 30
0.0
 10
49.9756689769
 20
45.7098809343
 30
0.0
 10
50.2530686674
 20
45.6331744407
 30
0.0
 10
50.4244972119
 20
45.5528843358
 30
0.0
 10
50.5052458887
 20
45.5062760488
 30
0.0
  0
SPLINE
  5
2B6
100
AcDbEntity
  8
0
100
AcDbSpline
 62
7
  6
BYLAYER
 70
0
 71
3
 72
9
 73
5
 74
0
 42
0.0000001
 43
0.0000001
 44
0.0000000001
 40
0.0
 40
0.0
 40
0.0
 40
0.0
 40
0.4717743214
 40
1.0
 40
1.0
 40
1.0
 40
1.0
 10
27.1123578071
 20
13.4813125705
 30
0.0
 10
27.1555709937
 20
13.4629993551
 30
0.0
 10
27.2514375611
 20
13.4341347806
 30
0.0
 10
27.3503091834
 20
13.4204437701
 30
0.0
 10
27.4027124066
 20
13.4165263037
 30
0.0
  0
SPLINE
  5
2B7
100
AcDbEntity
  8
0
100
AcDbSpline
 62
7
  6
BYLAYER
 70
0
 71
3
 72
11
 73
7
 74
0
 42
0.0000001
 43
0.0000001
 44
0.0000000001
 40
0.0
 40
0.0
 40
0.0
 40
0.0
 40
0.245819947
 40
0.4976542701
 40
0.7502761883
 40
1.0
 40
1.0
 40
1.0
 40
1.0
 10
28.1023081368
 20
13.6873939965
 30
0.0
 10
28.064957769
 20
13.6484129633
 30
0.0
 10
27.9823156025
 20
13.5759406002
 30
0.0
 10
27.8409749394
 20
13.489644632
 30
0.0
 10
27.6852533364
 20
13.4302945192
 30
0.0
 10
27.5748640673
 20
13.4140432005
 30
0.0
 10
27.5200275393
 20
13.4131301035
 30
0.0
  0
SPLINE
  5
2B8
100
AcDbEntity
  8
0
100
AcDbSpline
 62
7
  6
BYLAYER
 70
0
 71
3
 72
14
 73
10
 74
0
 42
0.0000001
 43
0.0000001
 44
0.0000000001
 40
0.0
 40
0.0
 40
0.0
 40
0.0
 40
0.3833171712
 40
0.5403840865
 40
0.6735534241
 40
0.7829537392
 40
0.8701046117
 40
0.9393097187
 40
1.0
 40
1.0
 40
1.0
 40
1.0
 10
38.4260235314
 20
19.6477600767
 30
0.0
 10
38.4375044937
 20
19.6308048568
 30
0.0
 10
38.4529491903
 20
19.6063138728
 30
0.0
 10
38.4686368102
 20
19.5738926031
 30
0.0
 10
38.4761697516
 20
19.5538776836
 30
0.0
 10
38.4802774419
 20
19.5366783327
 30
0.0
 10
38.4809118225
 20
19.5223783817
 30
0.0
 10
38.4778132723
 20
19.5108764684
 30
0.0
 10
38.4727137279
 20
19.5056215843
 30
0.0
 10
38.4699105419
 20
19.5039927783
 30
0.0
  0
SPLINE
  5
2B9
100
AcDbEntity
  8
0
100
AcDbSpline
 62
7
  6
BYLAYER
 70
0
 71
3
 72
15
 73
11
 74
0
 42
0.0000001
 43
0.0000001
 44
0.0000000001
 40
0.0
 40
0.0
 40
0.0
 40
0.0
 40
0.1147361207
 40
0.2387229662
 40
0.3692214386
 40
0.5029077767
 40
0.6361885095
 40
0.7655011091
 40
0.887619829
 40
1.0
 40
1.0
 40
1.0
 40
1.0
 10
24.0187294152
 20
25.1047425393
 30
0.0
 10
24.0187294152
 20
24.8701274315
 30
0.0
 10
24.0630085291
 20
24.3815134822
 30
0.0
 10
24.2388436294
 20
23.64516688
 30
0.0
 10
24.5200134251
 20
22.9007435126
 30
0.0
 10
24.8953743105
 20
22.1778277626
 30
0.0
 10
25.3500902615
 20
21.504911092
 30
0.0
 10
25.8662897294
 20
20.9085551583
 30
0.0
 10
26.4234464222
 20
20.4123665363
 30
0.0
 10
26.8272107476
 20
20.148853887
 30
0.0
 10
27.0306662355
 20
20.0420231591
 30
0.0
  0
SPLINE
  5
2BA
100
AcDbEntity
  8
0
100
AcDbSpline
 62
7
  6
BYLAYER
 70
0
 71
3
 72
14
 73
10
 74
0
 42
0.0000001
 43
0.0000001
 44
0.0000000001
 40
0.0
 40
0.0
 40
0.0
 40
0.0
 40
0.2892590167
 40
0.4225597445
 40
0.5485043208
 40
0.6678856809
 40
0.7818651653
 40
0.891952157
 40
1.0
 40
1.0
 40
1.0
 40
1.0
 10
21.4024452175
 20
23.5942391699
 30
0.0
 10
21.4024452175
 20
23.8007744325
 30
0.0
 10
21.4265713848
 20
24.1039702073
 30
0.0
 10
21.519767334
 20
24.4850475249
 30
0.0
 10
21.6145849765
 20
24.7389905029
 30
0.0
 10
21.7354809841
 20
24.96618714
 30
0.0
 10
21.8814296436
 20
25.1644520957
 30
0.0
 10
22.0511597039
 20
25.3315038765
 30
0.0
 10
22.1796244873
 20
25.4211257596
 30
0.0
 10
22.2464323819
 20
25.4597066417
 30
0.0
  0
SPLINE
  5
2BB
100
AcDbEntity
  8
0
100
AcDbSpline
 62
7
  6
BYLAYER
 70
0
 71
3
 72
9
 73
5
 74
0
 42
0.0000001
 43
0.0000001
 44
0.0000000001
 40
0.0
 40
0.0
 40
0.0
 40
0.0
 40
0.4789843717
 40
1.0
 40
1.0
 40
1.0
 40
1.0
 10
27.1123580145
 20
19.3941479047
 30
0.0
 10
27.144294429
 20
19.4879497705
 30
0.0
 10
27.1965306654
 20
19.689088273
 30
0.0
 10
27.2139335951
 20
19.8964514138
 30
0.0
 10
27.2139446996
 20
20.0042360709
 30
0.0
  0
SPLINE
  5
2BC
100
AcDbEntity
  8
0
100
AcDbSpline
 62
7
  6
BYLAYER
 70
0
 71
3
 72
9
 73
5
 74
0
 42
0.0000001
 43
0.0000001
 44
0.0000000001
 40
0.0
 40
0.0
 40
0.0
 40
0.0
 40
0.4835350632
 40
1.0
 40
1.0
 40
1.0
 40
1.0
 10
27.2139446996
 20
20.0042360709
 30
0.0
 10
27.2139297195
 20
20.1195910278
 30
0.0
 10
27.1925517537
 20
20.3583182034
 30
0.0
 10
27.1416098273
 20
20.5916628926
 30
0.0
 10
27.1123580145
 20
20.7113510612
 30
0.0
  0
SPLINE
  5
2BD
100
AcDbEntity
  8
0
100
AcDbSpline
 62
7
  6
BYLAYER
 70
0
 71
3
 72
15
 73
11
 74
0
 42
0.0000001
 43
0.0000001
 44
0.0000000001
 40
0.0
 40
0.0
 40
0.0
 40
0.0
 40
0.1145716978
 40
0.2377350897
 40
0.3670478289
 40
0.4996018542
 40
0.6322103787
 40
0.7616840338
 40
0.8850971601
 40
1.0
 40
1.0
 40
1.0
 40
1.0
 10
25.0858242262
 20
11.6513363212
 30
0.0
 10
24.9184074567
 20
11.5582407784
 30
0.0
 10
24.5545186267
 20
11.3940047884
 30
0.0
 10
23.9647239983
 20
11.2190536379
 30
0.0
 10
23.3286049217
 20
11.1110547271
 30
0.0
 10
22.6687878972
 20
11.0737779681
 30
0.0
 10
22.0085689944
 20
11.1086135021
 30
0.0
 10
21.3712733933
 20
11.2142628783
 30
0.0
 10
20.7795481925
 20
11.3870209071
 30
0.0
 10
20.413985918
 20
11.5498597359
 30
0.0
 10
20.2455738437
 20
11.642298644
 30
0.0
  0
SPLINE
  5
2BE
100
AcDbEntity
  8
0
100
AcDbSpline
 62
7
  6
BYLAYER
 70
0
 71
3
 72
11
 73
7
 74
0
 42
0.0000001
 43
0.0000001
 44
0.0000000001
 40
0.0
 40
0.0
 40
0.0
 40
0.0
 40
0.2616091894
 40
0.5184906915
 40
0.7647559223
 40
1.0
 40
1.0
 40
1.0
 40
1.0
 10
27.1123572839
 20
13.4813109558
 30
0.0
 10
27.1156950955
 20
13.4628194697
 30
0.0
 10
27.125574734
 20
13.4266310484
 30
0.0
 10
27.1514357966
 20
13.3775567442
 30
0.0
 10
27.1884397927
 20
13.3384697395
 30
0.0
 10
27.2198719525
 20
13.3221389521
 30
0.0
 10
27.2360289664
 20
13.3171945958
 30
0.0
  0
SPLINE
  5
2BF
100
AcDbEntity
  8
0
100
AcDbSpline
 62
7
  6
BYLAYER
 70
0
 71
3
 72
11
 73
7
 74
0
 42
0.0000001
 43
0.0000001
 44
0.0000000001
 40
0.0
 40
0.0
 40
0.0
 40
0.0
 40
0.2177582808
 40
0.4509071351
 40
0.7104703186
 40
1.0
 40
1.0
 40
1.0
 40
1.0
 10
17.3577271137
 20
70.5876575681
 30
0.0
 10
17.3808142559
 20
70.6009868609
 30
0.0
 10
17.4338435238
 20
70.6202988231
 30
0.0
 10
17.5219976719
 20
70.6225068397
 30
0.0
 10
17.615898275
 20
70.5997801022
 30
0.0
 10
17.677012562
 20
70.5707412285
 30
0.0
 10
17.7077091734
 20
70.5530189325
 30
0.0
  0
SPLINE
  5
2C0
100
AcDbEntity
  8
0
100
AcDbSpline
 62
7
  6
BYLAYER
 70
0
 71
3
 72
9
 73
5
 74
0
 42
0.0000001
 43
0.0000001
 44
0.0000000001
 40
0.0
 40
0.0
 40
0.0
 40
0.0
 40
0.2456599943
 40
1.0
 40
1.0
 40
1.0
 40
1.0
 10
6.6892532506
 20
25.4404945742
 30
0.0
 10
6.6885214972
 20
25.4445287395
 30
0.0
 10
6.6858281743
 20
25.4610018887
 30
0.0
 10
6.6844851455
 20
25.4776882701
 30
0.0
 10
6.6841334829
 20
25.4902730741
 30
0.0
  0
SPLINE
  5
2C1
100
AcDbEntity
  8
0
100
AcDbSpline
 62
7
  6
BYLAYER
 70
0
 71
3
 72
25
 73
21
 74
0
 42
0.0000001
 43
0.0000001
 44
0.0000000001
 40
0.0
 40
0.0
 40
0.0
 40
0.0
 40
0.0213314403
 40
0.0428922059
 40
0.064897567
 40
0.0875422972
 40
0.1353179222
 40
0.187219505
 40
0.2436560557
 40
0.3046026967
 40
0.3696903176
 40
0.4382864963
 40
0.5095721621
 40
0.582596831
 40
0.6563265918
 40
0.7297041448
 40
0.8016826469
 40
0.8712685625
 40
0.9376311379
 40
1.0
 40
1.0
 40
1.0
 40
1.0
 10
50.5052458887
 20
45.5062760488
 30
0.0
 10
50.5657552209
 20
45.4713499492
 30
0.0
 10
50.6830548422
 20
45.3932245202
 30
0.0
 10
50.8440073504
 20
45.2535943314
 30
0.0
 10
50.9896110631
 20
45.0921672227
 30
0.0
 10
51.1651394069
 20
44.8448121882
 30
0.0
 10
51.3408690575
 20
44.4813479717
 30
0.0
 10
51.4747855009
 20
43.9854490386
 30
0.0
 10
51.5344930192
 20
43.4322791134
 30
0.0
 10
51.5192604357
 20
42.833332759
 30
0.0
 10
51.4297273177
 20
42.2009321661
 30
0.0
 10
51.2679460494
 20
41.5482982876
 30
0.0
 10
51.0373834905
 20
40.8891900875
 30
0.0
 10
50.742901895
 20
40.2376268348
 30
0.0
 10
50.390814379
 20
39.6074721292
 30
0.0
 10
49.9886269033
 20
39.0121626004
 30
0.0
 10
49.544924981
 20
38.4644254189
 30
0.0
 10
49.0690626886
 20
37.9757941792
 30
0.0
 10
48.5712149637
 20
37.5569225778
 30
0.0
 10
48.2197023569
 20
37.3219534882
 30
0.0
 10
48.0427962836
 20
37.2198173289
 30
0.0
  0
SPLINE
  5
2C2
100
AcDbEntity
  8
0
100
AcDbSpline
 62
7
  6
BYLAYER
 70
0
 71
3
 72
15
 73
11
 74
0
 42
0.0000001
 43
0.0000001
 44
0.0000000001
 40
0.0
 40
0.0
 40
0.0
 40
0.0
 40
0.1080098227
 40
0.2180568998
 40
0.3320013208
 40
0.4513526132
 40
0.5772572309
 40
0.7104996326
 40
0.8514755367
 40
1.0
 40
1.0
 40
1.0
 40
1.0
 10
50.717747615
 20
45.8743481638
 30
0.0
 10
50.6300371241
 20
45.9249870573
 30
0.0
 10
50.4437995073
 20
46.0121621755
 30
0.0
 10
50.1424819556
 20
46.095538829
 30
0.0
 10
49.8212518031
 20
46.1312948543
 30
0.0
 10
49.4835673724
 20
46.1196179692
 30
0.0
 10
49.1326488612
 20
46.0607262213
 30
0.0
 10
48.7717049756
 20
45.9555259769
 30
0.0
 10
48.4042974654
 20
45.8050645013
 30
0.0
 10
48.1634068207
 20
45.6790137753
 30
0.0
 10
48.0427962836
 20
45.6093796649
 30
0.0
  0
SPLINE
  5
2C3
100
AcDbEntity
  8
0
100
AcDbSpline
 62
7
  6
BYLAYER
 70
0
 71
3
 72
11
 73
7
 74
0
 42
0.0000001
 43
0.0000001
 44
0.0000000001
 40
0.0
 40
0.0
 40
0.0
 40
0.0
 40
0.2895421522
 40
0.5491196247
 40
0.782256727
 40
1.0
 40
1.0
 40
1.0
 40
1.0
 10
7.0304412315
 20
63.1637785834
 30
0.0
 10
6.9997435246
 20
63.1815015118
 30
0.0
 10
6.9440373209
 20
63.2199122596
 30
0.0
 10
6.8774016028
 20
63.2898677894
 30
0.0
 10
6.8352420344
 20
63.3673161643
 30
0.0
 10
6.8254530787
 20
63.4228928269
 30
0.0
 10
6.8254530846
 20
63.4495494908
 30
0.0
  0
SPLINE
  5
2C4
100
AcDbEntity
  8
0
100
AcDbSpline
 62
7
  6
BYLAYER
 70
0
 71
3
 72
23
 73
19
 74
0
 42
0.0000001
 43
0.0000001
 44
0.0000000001
 40
0.0
 40
0.0
 40
0.0
 40
0.0
 40
0.0428143041
 40
0.0873965503
 40
0.135179258
 40
0.1870882737
 40
0.2435352959
 40
0.3044925597
 40
0.3695895834
 40
0.4381970612
 40
0.5094949082
 40
0.5825306865
 40
0.6562726831
 40
0.7296610308
 40
0.801651327
 40
0.8712493485
 40
0.937616322
 40
1.0
 40
1.0
 40
1.0
 40
1.0
 10
37.5896375213
 20
41.0984828115
 30
0.0
 10
37.4577394321
 20
41.1746361331
 30
0.0
 10
37.2077130663
 20
41.3660176559
 30
0.0
 10
36.906830416
 20
41.7464995041
 30
0.0
 10
36.6819820068
 20
42.2118003192
 30
0.0
 10
36.5363840862
 20
42.7505743553
 30
0.0
 10
36.4715805315
 20
43.3514635861
 30
0.0
 10
36.4881457583
 20
44.0021055212
 30
0.0
 10
36.5853764805
 20
44.6890804084
 30
0.0
 10
36.7611071695
 20
45.3980385323
 30
0.0
 10
37.0115978301
 20
46.1140149102
 30
0.0
 10
37.3314904279
 20
46.8218063613
 30
0.0
 10
37.7139472096
 20
47.5063431948
 30
0.0
 10
38.1508347339
 20
48.1530291665
 30
0.0
 10
38.6328495099
 20
48.7480153106
 30
0.0
 10
39.1497573395
 20
49.2788040674
 30
0.0
 10
39.6905501856
 20
49.7338408361
 30
0.0
 10
40.0724023179
 20
49.9890694171
 30
0.0
 10
40.2645893069
 20
50.1000279646
 30
0.0
  0
SPLINE
  5
2C5
100
AcDbEntity
  8
0
100
AcDbSpline
 62
7
  6
BYLAYER
 70
0
 71
3
 72
17
 73
13
 74
0
 42
0.0000001
 43
0.0000001
 44
0.0000000001
 40
0.0
 40
0.0
 40
0.0
 40
0.0
 40
0.1363944542
 40
0.265621898
 40
0.3886629446
 40
0.5076497464
 40
0.5665247866
 40
0.6254286861
 40
0.6847637131
 40
0.744927547
 40
0.8690301835
 40
1.0
 40
1.0
 40
1.0
 40
1.0
 10
43.4613256207
 20
50.8110415638
 30
0.0
 10
43.3378298388
 20
51.0556230952
 30
0.0
 10
43.0623555299
 20
51.5155880986
 30
0.0
 10
42.5520187122
 20
52.1118983255
 30
0.0
 10
41.9637796813
 20
52.5784979728
 30
0.0
 10
41.4162661961
 20
52.8472866198
 30
0.0
 10
40.9587451314
 20
52.9805904981
 30
0.0
 10
40.6070706171
 20
53.0397770415
 30
0.0
 10
40.2483445302
 20
53.0579703816
 30
0.0
 10
39.7590502262
 20
53.0266451907
 30
0.0
 10
39.1378197175
 20
52.879895416
 30
0.0
 10
38.6697157128
 20
52.6628507784
 30
0.0
 10
38.4418685067
 20
52.531304954
 30
0.0
  0
SPLINE
  5
2C6
100
AcDbEntity
  8
0
100
AcDbSpline
 62
7
  6
BYLAYER
 70
0
 71
3
 72
18
 73
14
 74
0
 42
0.0000001
 43
0.0000001
 44
0.0000000001
 40
0.0
 40
0.0
 40
0.0
 40
0.0
 40
0.1201025747
 40
0.1776189339
 40
0.2340078521
 40
0.2898077922
 40
0.3455829225
 40
0.4019016792
 40
0.4593030499
 40
0.579073785
 40
0.7081155592
 40
0.8482649296
 40
1.0
 40
1.0
 40
1.0
 40
1.0
 10
43.9703304777
 20
49.802936702
 30
0.0
 10
43.8932984934
 20
49.9555236032
 30
0.0
 10
43.7568407211
 20
50.1713641008
 30
0.0
 10
43.5326356385
 20
50.4184370289
 30
0.0
 10
43.3496817231
 20
50.5770681253
 30
0.0
 10
43.1507077984
 20
50.7106434815
 30
0.0
 10
42.9367463366
 20
50.818396099
 30
0.0
 10
42.7089883199
 20
50.8996960813
 30
0.0
 10
42.3842702965
 20
50.9734635999
 30
0.0
 10
41.9452397047
 20
50.9949173559
 30
0.0
 10
41.395031718
 20
50.9109374765
 30
0.0
 10
40.8243038318
 20
50.7212342087
 30
0.0
 10
40.4516060252
 20
50.5346024395
 30
0.0
 10
40.2645893069
 20
50.4266289314
 30
0.0
  0
SPLINE
  5
2C7
100
AcDbEntity
  8
0
100
AcDbSpline
 62
7
  6
BYLAYER
 70
0
 71
3
 72
9
 73
5
 74
0
 42
0.0000001
 43
0.0000001
 44
0.0000000001
 40
0.0
 40
0.0
 40
0.0
 40
0.0
 40
0.4985262906
 40
1.0
 40
1.0
 40
1.0
 40
1.0
 10
37.4925415201
 20
40.8508719807
 30
0.0
 10
37.3836655171
 20
40.8933026988
 30
0.0
 10
37.1728139997
 20
40.9995501188
 30
0.0
 10
36.9876513628
 20
41.1462231356
 30
0.0
 10
36.9032017925
 20
41.2279822542
 30
0.0
  0
SPLINE
  5
2C8
100
AcDbEntity
  8
0
100
AcDbSpline
 62
7
  6
BYLAYER
 70
0
 71
3
 72
10
 73
6
 74
0
 42
0.0000001
 43
0.0000001
 44
0.0000000001
 40
0.0
 40
0.0
 40
0.0
 40
0.0
 40
0.2359571169
 40
0.4799224988
 40
1.0
 40
1.0
 40
1.0
 40
1.0
 10
36.9032017925
 20
41.2279822542
 30
0.0
 10
36.8449579833
 20
41.2843704926
 30
0.0
 10
36.7341809396
 20
41.407321396
 30
0.0
 10
36.5391955336
 20
41.6910509119
 30
0.0
 10
36.4330690523
 20
41.934719486
 30
0.0
 10
36.3792723868
 20
42.1051116456
 30
0.0
  0
SPLINE
  5
2C9
100
AcDbEntity
  8
0
100
AcDbSpline
 62
7
  6
BYLAYER
 70
0
 71
3
 72
22
 73
18
 74
0
 42
0.0000001
 43
0.0000001
 44
0.0000000001
 40
0.0
 40
0.0
 40
0.0
 40
0.0
 40
0.0523920284
 40
0.1065411826
 40
0.1628252877
 40
0.2214695947
 40
0.2825396349
 40
0.3459228128
 40
0.4113513773
 40
0.4784338872
 40
0.5466670824
 40
0.6154349853
 40
0.6840385139
 40
0.7517453136
 40
0.8178285501
 40
0.8816032647
 40
1.0
 40
1.0
 40
1.0
 40
1.0
 10
36.7981450723
 20
41.1848690517
 30
0.0
 10
36.5885842555
 20
41.3058723524
 30
0.0
 10
36.185380164
 20
41.5936751917
 30
0.0
 10
35.6572368417
 20
42.1338142114
 30
0.0
 10
35.2068722971
 20
42.7757224457
 30
0.0
 10
34.8427351833
 20
43.5055563373
 30
0.0
 10
34.5708130351
 20
44.3088880469
 30
0.0
 10
34.3959512919
 20
45.1705162456
 30
0.0
 10
34.3218707772
 20
46.0742964624
 30
0.0
 10
34.3510082121
 20
47.002920025
 30
0.0
 10
34.4821977519
 20
47.9381541336
 30
0.0
 10
34.7125083577
 20
48.8612277749
 30
0.0
 10
35.0376697641
 20
49.7528154643
 30
0.0
 10
35.4518256573
 20
50.5928824741
 30
0.0
 10
35.9462802053
 20
51.3626940977
 30
0.0
 10
36.6765120724
 20
52.2481233059
 30
0.0
 10
37.3358349534
 20
52.7954086343
 30
0.0
 10
37.8094081383
 20
53.0688499983
 30
0.0
  0
SPLINE
  5
2CA
100
AcDbEntity
  8
0
100
AcDbSpline
 62
7
  6
BYLAYER
 70
0
 71
3
 72
9
 73
5
 74
0
 42
0.0000001
 43
0.0000001
 44
0.0000000001
 40
0.0
 40
0.0
 40
0.0
 40
0.0
 40
0.5033504163
 40
1.0
 40
1.0
 40
1.0
 40
1.0
 10
17.910079504
 20
17.3620445807
 30
0.0
 10
17.748824188
 20
17.4517137584
 30
0.0
 10
17.4373155972
 20
17.6460427854
 30
0.0
 10
17.1427832994
 20
17.8648742559
 30
0.0
 10
17.0006889449
 20
17.9786839723
 30
0.0
  0
SPLINE
  5
2CB
100
AcDbEntity
  8
0
100
AcDbSpline
 62
7
  6
BYLAYER
 70
0
 71
3
 72
12
 73
8
 74
0
 42
0.0000001
 43
0.0000001
 44
0.0000000001
 40
0.0
 40
0.0
 40
0.0
 40
0.0
 40
0.1091064462
 40
0.2216894828
 40
0.4626507611
 40
0.7253973425
 40
1.0
 40
1.0
 40
1.0
 40
1.0
 10
27.0825761446
 20
20.1474241746
 30
0.0
 10
27.082541071
 20
20.139950622
 30
0.0
 10
27.0842425136
 20
20.1246950127
 30
0.0
 10
27.0948895028
 20
20.0946216377
 30
0.0
 10
27.1202818613
 20
20.0597697226
 30
0.0
 10
27.1630988321
 20
20.0272171711
 30
0.0
 10
27.1964218641
 20
20.0110946012
 30
0.0
 10
27.2139329036
 20
20.0042261683
 30
0.0
  0
SPLINE
  5
2CC
100
AcDbEntity
  8
0
100
AcDbSpline
 62
7
  6
BYLAYER
 70
0
 71
3
 72
11
 73
7
 74
0
 42
0.0000001
 43
0.0000001
 44
0.0000000001
 40
0.0
 40
0.0
 40
0.0
 40
0.0
 40
0.2177515097
 40
0.4509050595
 40
0.7104768077
 40
1.0
 40
1.0
 40
1.0
 40
1.0
 10
38.1395205078
 20
58.9936271834
 30
0.0
 10
38.1164349453
 20
59.0069370221
 30
0.0
 10
38.0634175476
 20
59.0262128765
 30
0.0
 10
37.9752974652
 20
59.028393926
 30
0.0
 10
37.8814367794
 20
59.005660663
 30
0.0
 10
37.8203468447
 20
58.9766318305
 30
0.0
 10
37.7896628648
 20
58.958916532
 30
0.0
  0
SPLINE
  5
2CD
100
AcDbEntity
  8
0
100
AcDbSpline
 62
7
  6
BYLAYER
 70
0
 71
3
 72
11
 73
7
 74
0
 42
0.0000001
 43
0.0000001
 44
0.0000000001
 40
0.0
 40
0.0
 40
0.0
 40
0.0
 40
0.2307950031
 40
0.4747110147
 40
0.7327477211
 40
1.0
 40
1.0
 40
1.0
 40
1.0
 10
27.0291517835
 20
19.569280259
 30
0.0
 10
27.0263838347
 20
19.5539121537
 30
0.0
 10
27.0265200435
 20
19.5210570606
 30
0.0
 10
27.0425676711
 20
19.4734084037
 30
0.0
 10
27.0721884693
 20
19.4299902512
 30
0.0
 10
27.0981707366
 20
19.4053792153
 30
0.0
 10
27.1123324088
 20
19.3941361029
 30
0.0
  0
SPLINE
  5
2CE
100
AcDbEntity
  8
0
100
AcDbSpline
 62
7
  6
BYLAYER
 70
0
 71
3
 72
23
 73
19
 74
0
 42
0.0000001
 43
0.0000001
 44
0.0000000001
 40
0.0
 40
0.0
 40
0.0
 40
0.0
 40
0.0428151203
 40
0.0873965631
 40
0.1351793596
 40
0.1870895864
 40
0.243535875
 40
0.3044927475
 40
0.3695916417
 40
0.4381996911
 40
0.5094970615
 40
0.5825334311
 40
0.6562759572
 40
0.729665733
 40
0.8016542843
 40
0.8712495748
 40
0.9376219118
 40
1.0
 40
1.0
 40
1.0
 40
1.0
 10
26.3214035427
 20
18.4016074188
 30
0.0
 10
26.2209469112
 20
18.3435863712
 30
0.0
 10
25.9994685762
 20
18.2515787284
 30
0.0
 10
25.6339129317
 20
18.1979828151
 30
0.0
 10
25.2413479555
 20
18.2268659043
 30
0.0
 10
24.8305152792
 20
18.3360479497
 30
0.0
 10
24.4094655726
 20
18.5221277153
 30
0.0
 10
23.9865749542
 20
18.7808265132
 30
0.0
 10
23.5704647318
 20
19.1066145751
 30
0.0
 10
23.1697478586
 20
19.4925462977
 30
0.0
 10
22.792847158
 20
19.9304374039
 30
0.0
 10
22.4477945547
 20
20.4110076493
 30
0.0
 10
22.1419212837
 20
20.9240033395
 30
0.0
 10
21.8817400979
 20
21.4584758197
 30
0.0
 10
21.6728264759
 20
22.0030084137
 30
0.0
 10
21.5195689799
 20
22.5461284638
 30
0.0
 10
21.4253919119
 20
23.0761435704
 30
0.0
 10
21.4024452175
 20
23.4252243534
 30
0.0
 10
21.4024452175
 20
23.5942391699
 30
0.0
  0
SPLINE
  5
2CF
100
AcDbEntity
  8
0
100
AcDbSpline
 62
7
  6
BYLAYER
 70
0
 71
3
 72
14
 73
10
 74
0
 42
0.0000001
 43
0.0000001
 44
0.0000000001
 40
0.0
 40
0.0
 40
0.0
 40
0.0
 40
0.1178494557
 40
0.2420426952
 40
0.3706137091
 40
0.5013584601
 40
0.6319483577
 40
0.7600264065
 40
1.0
 40
1.0
 40
1.0
 40
1.0
 10
26.6906260288
 20
21.844079271
 30
0.0
 10
26.6065619232
 20
21.9062811688
 30
0.0
 10
26.4419800665
 20
22.0451880946
 30
0.0
 10
26.2149998661
 20
22.2839303266
 30
0.0
 10
26.0061198783
 20
22.5533005733
 30
0.0
 10
25.8208626156
 20
22.8460868837
 30
0.0
 10
25.6641544619
 20
23.1547435361
 30
0.0
 10
25.5024356264
 20
23.56689825
 30
0.0
 10
25.4282205639
 20
23.8886815045
 30
0.0
 10
25.4078620598
 20
24.1006484763
 30
0.0
  0
SPLINE
  5
2D0
100
AcDbEntity
  8
0
100
AcDbSpline
 62
7
  6
BYLAYER
 70
0
 71
3
 72
11
 73
7
 74
0
 42
0.0000001
 43
0.0000001
 44
0.0000000001
 40
0.0
 40
0.0
 40
0.0
 40
0.0
 40
0.2592025297
 40
0.5085946767
 40
0.7539077985
 40
1.0
 40
1.0
 40
1.0
 40
1.0
 10
31.4892003748
 20
62.8331078691
 30
0.0
 10
31.4544951966
 20
62.8531318537
 30
0.0
 10
31.3823936738
 20
62.8861673598
 30
0.0
 10
31.2667783589
 20
62.9087618297
 30
0.0
 10
31.1511721275
 20
62.8996407116
 30
0.0
 10
31.0791003515
 20
62.8714333068
 30
0.0
 10
31.0463487358
 20
62.8520826844
 30
0.0
  0
SPLINE
  5
2D1
100
AcDbEntity
  8
0
100
AcDbSpline
 62
7
  6
BYLAYER
 70
0
 71
3
 72
9
 73
5
 74
0
 42
0.0000001
 43
0.0000001
 44
0.0000000001
 40
0.0
 40
0.0
 40
0.0
 40
0.0
 40
0.2552852784
 40
1.0
 40
1.0
 40
1.0
 40
1.0
 10
38.6310464894
 20
19.7848536006
 30
0.0
 10
38.6310435343
 20
19.7833086637
 30
0.0
 10
38.6309226332
 20
19.7772578109
 30
0.0
 10
38.6303551334
 20
19.7712139251
 30
0.0
 10
38.6296590081
 20
19.7667611339
 30
0.0
  0
SPLINE
  5
2D2
100
AcDbEntity
  8
0
100
AcDbSpline
 62
7
  6
BYLAYER
 70
0
 71
3
 72
13
 73
9
 74
0
 42
0.0000001
 43
0.0000001
 44
0.0000000001
 40
0.0
 40
0.0
 40
0.0
 40
0.0
 40
0.1016640178
 40
0.2010120313
 40
0.4165374813
 40
0.5419601534
 40
0.6812275071
 40
1.0
 40
1.0
 40
1.0
 40
1.0
 10
38.6296590081
 20
19.7667611339
 30
0.0
 10
38.6283359
 20
19.7582978246
 30
0.0
 10
38.6236823855
 20
19.7417785689
 30
0.0
 10
38.6053168318
 20
19.711410243
 30
0.0
 10
38.5747548717
 20
19.688331208
 30
0.0
 10
38.5380177762
 20
19.6714400046
 30
0.0
 10
38.4912027828
 20
19.6559961902
 30
0.0
 10
38.4527693629
 20
19.6502280053
 30
0.0
 10
38.4260235314
 20
19.6477600767
 30
0.0
  0
SPLINE
  5
2D3
100
AcDbEntity
  8
0
100
AcDbSpline
 62
7
  6
BYLAYER
 70
0
 71
3
 72
11
 73
7
 74
0
 42
0.0000001
 43
0.0000001
 44
0.0000000001
 40
0.0
 40
0.0
 40
0.0
 40
0.0
 40
0.2384064382
 40
0.4843206943
 40
0.7384071144
 40
1.0
 40
1.0
 40
1.0
 40
1.0
 10
27.8513350051
 20
13.3733920396
 30
0.0
 10
27.8795036248
 20
13.3896532814
 30
0.0
 10
27.933304837
 20
13.4289122459
 30
0.0
 10
28.0024152265
 20
13.5028978366
 30
0.0
 10
28.0598986671
 20
13.5899516865
 30
0.0
 10
28.0896521072
 20
13.6540259784
 30
0.0
 10
28.1023075081
 20
13.6873954302
 30
0.0
  0
SPLINE
  5
2D4
100
AcDbEntity
  8
0
100
AcDbSpline
 62
7
  6
BYLAYER
 70
0
 71
3
 72
13
 73
9
 74
0
 42
0.0000001
 43
0.0000001
 44
0.0000000001
 40
0.0
 40
0.0
 40
0.0
 40
0.0
 40
0.1283219694
 40
0.2259035782
 40
0.346727229
 40
0.4882744992
 40
0.6472037971
 40
1.0
 40
1.0
 40
1.0
 40
1.0
 10
27.5814688999
 20
13.2860963618
 30
0.0
 10
27.5752841806
 20
13.2863870602
 30
0.0
 10
27.5657534824
 20
13.2944423624
 30
0.0
 10
27.5567570658
 20
13.3081280198
 30
0.0
 10
27.5488503424
 20
13.3237616452
 30
0.0
 10
27.5413206646
 20
13.3426193718
 30
0.0
 10
27.531448132
 20
13.3725846733
 30
0.0
 10
27.525384568
 20
13.3965464378
 30
0.0
 10
27.5216732329
 20
13.4131593789
 30
0.0
  0
SPLINE
  5
2D5
100
AcDbEntity
  8
0
100
AcDbSpline
 62
7
  6
BYLAYER
 70
0
 71
3
 72
9
 73
5
 74
0
 42
0.0000001
 43
0.0000001
 44
0.0000000001
 40
0.0
 40
0.0
 40
0.0
 40
0.0
 40
0.4912856295
 40
1.0
 40
1.0
 40
1.0
 40
1.0
 10
16.2343788055
 20
18.3288291963
 30
0.0
 10
16.3529542167
 20
18.2579605425
 30
0.0
 10
16.6039687275
 20
18.1296601374
 30
0.0
 10
16.8658370107
 20
18.0263851123
 30
0.0
 10
17.0006889449
 20
17.9786839723
 30
0.0
  0
SPLINE
  5
2D6
100
AcDbEntity
  8
0
100
AcDbSpline
 62
7
  6
BYLAYER
 70
0
 71
3
 72
11
 73
7
 74
0
 42
0.0000001
 43
0.0000001
 44
0.0000000001
 40
0.0
 40
0.0
 40
0.0
 40
0.0
 40
0.2309929544
 40
0.4730982682
 40
0.7290198015
 40
1.0
 40
1.0
 40
1.0
 40
1.0
 10
29.35203723
 20
45.8873156824
 30
0.0
 10
29.2869568609
 20
45.9517346214
 30
0.0
 10
29.1658908435
 20
46.0964661746
 30
0.0
 10
29.0188145643
 20
46.3464818322
 30
0.0
 10
28.9029922682
 20
46.6294391001
 30
0.0
 10
28.8483111012
 20
46.8315932366
 30
0.0
 10
28.825792358
 20
46.9366293692
 30
0.0
  0
SPLINE
  5
2D7
100
AcDbEntity
  8
0
100
AcDbSpline
 62
7
  6
BYLAYER
 70
0
 71
3
 72
17
 73
13
 74
0
 42
0.0000001
 43
0.0000001
 44
0.0000000001
 40
0.0
 40
0.0
 40
0.0
 40
0.0
 40
0.0428570455
 40
0.087485165
 40
0.1353123244
 40
0.1872781392
 40
0.3045378316
 40
0.4381995438
 40
0.5825378192
 40
0.7296849502
 40
0.8713141218
 40
1.0
 40
1.0
 40
1.0
 40
1.0
 10
18.4363364492
 20
54.1861254589
 30
0.0
 10
18.4178478201
 20
54.1754506555
 30
0.0
 10
18.3771054681
 20
54.1584716253
 30
0.0
 10
18.3098224103
 20
54.1486580172
 30
0.0
 10
18.2375729632
 20
54.1539304554
 30
0.0
 10
18.1326037505
 20
54.1818999
 30
0.0
 10
17.9983980752
 20
54.2552460985
 30
0.0
 10
17.8501269167
 20
54.3865555363
 30
0.0
 10
17.7190742169
 20
54.5543046694
 30
0.0
 10
17.6158948714
 20
54.744955803
 30
0.0
 10
17.5489702311
 20
54.9428878546
 30
0.0
 10
17.5310212387
 20
55.0776950981
 30
0.0
 10
17.5310212387
 20
55.1417993285
 30
0.0
  0
SPLINE
  5
2D8
100
AcDbEntity
  8
0
100
AcDbSpline
 62
7
  6
BYLAYER
 70
0
 71
3
 72
21
 73
17
 74
0
 42
0.0000001
 43
0.0000001
 44
0.0000000001
 40
0.0
 40
0.0
 40
0.0
 40
0.0
 40
0.0428155146
 40
0.087142312
 40
0.1342459233
 40
0.184999026
 40
0.2398668434
 40
0.2989499615
 40
0.3620463082
 40
0.4287272958
 40
0.4983833822
 40
0.5702730912
 40
0.7172742114
 40
0.862748735
 40
0.9328339553
 40
1.0
 40
1.0
 40
1.0
 40
1.0
 10
12.1792078101
 20
26.5664246393
 30
0.0
 10
12.0867178779
 20
26.5130126408
 30
0.0
 10
11.8846930764
 20
26.426580176
 30
0.0
 10
11.5524055839
 20
26.3679205371
 30
0.0
 10
11.1956782513
 20
26.3792845079
 30
0.0
 10
10.8214332693
 20
26.4592104647
 30
0.0
 10
10.436038446
 20
26.6054740951
 30
0.0
 10
10.0460998613
 20
26.8151334559
 30
0.0
 10
9.6582963273
 20
27.0842014538
 30
0.0
 10
9.2794896363
 20
27.4078536562
 30
0.0
 10
8.9164219302
 20
27.780272418
 30
0.0
 10
8.4587926781
 20
28.3367713354
 30
0.0
 10
7.9679612063
 20
29.1064019756
 30
0.0
 10
7.6023177944
 20
29.9381607043
 30
0.0
 10
7.4018215719
 20
30.6150863353
 30
0.0
 10
7.3342616066
 20
30.9513674947
 30
0.0
 10
7.3096470732
 20
31.1170973495
 30
0.0
  0
SPLINE
  5
2D9
100
AcDbEntity
  8
0
100
AcDbSpline
 62
7
  6
BYLAYER
 70
0
 71
3
 72
15
 73
11
 74
0
 42
0.0000001
 43
0.0000001
 44
0.0000000001
 40
0.0
 40
0.0
 40
0.0
 40
0.0
 40
0.118077349
 40
0.2425376266
 40
0.3713558149
 40
0.5022626704
 40
0.6328664867
 40
0.7607546376
 40
0.8837678706
 40
1.0
 40
1.0
 40
1.0
 40
1.0
 10
12.5455568043
 20
30.0110247281
 30
0.0
 10
12.4604562167
 20
30.0741867246
 30
0.0
 10
12.2939428028
 20
30.2153442561
 30
0.0
 10
12.0646657399
 20
30.458052928
 30
0.0
 10
11.8541563621
 20
30.7318806805
 30
0.0
 10
11.6680993085
 20
31.0293538617
 30
0.0
 10
11.5116088102
 20
31.3424608105
 30
0.0
 10
11.3888170219
 20
31.6627251668
 30
0.0
 10
11.3030807462
 20
31.9815106789
 30
0.0
 10
11.2712344954
 20
32.1945141742
 30
0.0
 10
11.2627300618
 20
32.2984897952
 30
0.0
  0
SPLINE
  5
2DA
100
AcDbEntity
  8
0
100
AcDbSpline
 62
7
  6
BYLAYER
 70
0
 71
3
 72
17
 73
13
 74
0
 42
0.0000001
 43
0.0000001
 44
0.0000000001
 40
0.0
 40
0.0
 40
0.0
 40
0.0
 40
0.0428570455
 40
0.087485165
 40
0.1353123244
 40
0.1872781392
 40
0.3045378316
 40
0.4381995438
 40
0.5825378192
 40
0.7296849502
 40
0.8713141218
 40
1.0
 40
1.0
 40
1.0
 40
1.0
 10
9.2439100223
 20
59.4932552676
 30
0.0
 10
9.2254213932
 20
59.4825804643
 30
0.0
 10
9.1846790412
 20
59.4656014341
 30
0.0
 10
9.1173959833
 20
59.4557878259
 30
0.0
 10
9.0451465363
 20
59.4610602642
 30
0.0
 10
8.9401773236
 20
59.4890297088
 30
0.0
 10
8.8059716483
 20
59.5623759073
 30
0.0
 10
8.6577004898
 20
59.6936853451
 30
0.0
 10
8.52664779
 20
59.8614344782
 30
0.0
 10
8.4234684445
 20
60.0520856117
 30
0.0
 10
8.3565438042
 20
60.2500176634
 30
0.0
 10
8.3385948118
 20
60.3848249068
 30
0.0
 10
8.3385948118
 20
60.4489291373
 30
0.0
  0
SPLINE
  5
2DB
100
AcDbEntity
  8
0
100
AcDbSpline
 62
7
  6
BYLAYER
 70
0
 71
3
 72
11
 73
7
 74
0
 42
0.0000001
 43
0.0000001
 44
0.0000000001
 40
0.0
 40
0.0
 40
0.0
 40
0.0
 40
0.2177172101
 40
0.4509427384
 40
0.7102943726
 40
1.0
 40
1.0
 40
1.0
 40
1.0
 10
6.8254139175
 20
64.1027497422
 30
0.0
 10
6.8254141098
 20
64.0760957999
 30
0.0
 10
6.8352838142
 20
64.0205254772
 30
0.0
 10
6.8773807971
 20
63.9430786469
 30
0.0
 10
6.9440100637
 20
63.873098633
 30
0.0
 10
6.9997256521
 20
63.834713764
 30
0.0
 10
7.0304412315
 20
63.8169805171
 30
0.0
  0
SPLINE
  5
2DC
100
AcDbEntity
  8
0
100
AcDbSpline
 62
7
  6
BYLAYER
 70
0
 71
3
 72
11
 73
7
 74
0
 42
0.0000001
 43
0.0000001
 44
0.0000000001
 40
0.0
 40
0.0
 40
0.0
 40
0.0
 40
0.2177434119
 40
0.4508805377
 40
0.710457812
 40
1.0
 40
1.0
 40
1.0
 40
1.0
 10
6.6840317284
 20
63.4495491514
 30
0.0
 10
6.6840317366
 20
63.4228924701
 30
0.0
 10
6.6938206747
 20
63.3673157833
 30
0.0
 10
6.7359802808
 20
63.2898674308
 30
0.0
 10
6.8026159495
 20
63.2199118797
 30
0.0
 10
6.8583221641
 20
63.1815011743
 30
0.0
 10
6.8890198752
 20
63.1637782434
 30
0.0
  0
SPLINE
  5
2DD
100
AcDbEntity
  8
0
100
AcDbSpline
 62
7
  6
BYLAYER
 70
0
 71
3
 72
15
 73
11
 74
0
 42
0.0000001
 43
0.0000001
 44
0.0000000001
 40
0.0
 40
0.0
 40
0.0
 40
0.0
 40
0.1147244038
 40
0.2386951787
 40
0.3691768379
 40
0.5028501488
 40
0.6361259529
 40
0.7654454292
 40
0.8875850463
 40
1.0
 40
1.0
 40
1.0
 40
1.0
 10
9.8765349123
 20
33.2695576297
 30
0.0
 10
9.8765349123
 20
33.0350752338
 30
0.0
 10
9.9207638688
 20
32.5467448937
 30
0.0
 10
10.0964119963
 20
31.8108101721
 30
0.0
 10
10.3772937045
 20
31.0667747677
 30
0.0
 10
10.7522877635
 20
30.3441763294
 30
0.0
 10
11.2065888521
 20
29.6714638006
 30
0.0
 10
11.7223597276
 20
29.0751630133
 30
0.0
 10
12.2791123924
 20
28.5788542784
 30
0.0
 10
12.6826073106
 20
28.315141381
 30
0.0
 10
12.8859464709
 20
28.2081654985
 30
0.0
  0
SPLINE
  5
2DE
100
AcDbEntity
  8
0
100
AcDbSpline
 62
7
  6
BYLAYER
 70
0
 71
3
 72
10
 73
6
 74
0
 42
0.0000001
 43
0.0000001
 44
0.0000000001
 40
0.0
 40
0.0
 40
0.0
 40
0.0
 40
0.2418998511
 40
0.6156811384
 40
1.0
 40
1.0
 40
1.0
 40
1.0
 10
7.2652670209
 20
31.7619504089
 30
0.0
 10
7.2650731332
 20
31.7097897714
 30
0.0
 10
7.2671848364
 20
31.5770231934
 30
0.0
 10
7.2788298805
 20
31.3616044389
 30
0.0
 10
7.2977772322
 20
31.1991137555
 30
0.0
 10
7.3096470732
 20
31.1170973495
 30
0.0
  0
SPLINE
  5
2DF
100
AcDbEntity
  8
0
100
AcDbSpline
 62
7
  6
BYLAYER
 70
0
 71
3
 72
10
 73
6
 74
0
 42
0.0000001
 43
0.0000001
 44
0.0000000001
 40
0.0
 40
0.0
 40
0.0
 40
0.0
 40
0.2409127371
 40
0.6127365952
 40
1.0
 40
1.0
 40
1.0
 40
1.0
 10
7.3096473823
 20
32.3439761838
 30
0.0
 10
7.301537105
 20
32.2977530786
 30
0.0
 10
7.2838976871
 20
32.1796345116
 30
0.0
 10
7.2684164696
 20
31.9852905418
 30
0.0
 10
7.2649872904
 20
31.8373878747
 30
0.0
 10
7.265267023
 20
31.7619504101
 30
0.0
  0
SPLINE
  5
2E0
100
AcDbEntity
  8
0
100
AcDbSpline
 62
7
  6
BYLAYER
 70
0
 71
3
 72
11
 73
7
 74
0
 42
0.0000001
 43
0.0000001
 44
0.0000000001
 40
0.0
 40
0.0
 40
0.0
 40
0.0
 40
0.2151460228
 40
0.4100772154
 40
0.6188347551
 40
1.0
 40
1.0
 40
1.0
 40
1.0
 10
7.3096521101
 20
32.3439794952
 30
0.0
 10
7.2821107644
 20
32.3280751259
 30
0.0
 10
7.2235996055
 20
32.3078942926
 30
0.0
 10
7.1317817225
 20
32.3006510107
 30
0.0
 10
7.0162840813
 20
32.3154888855
 30
0.0
 10
6.9331269991
 20
32.3519862665
 30
0.0
 10
6.8889992433
 20
32.3870224032
 30
0.0
  0
SPLINE
  5
2E1
100
AcDbEntity
  8
0
100
AcDbSpline
 62
7
  6
BYLAYER
 70
0
 71
3
 72
9
 73
5
 74
0
 42
0.0000001
 43
0.0000001
 44
0.0000000001
 40
0.0
 40
0.0
 40
0.0
 40
0.0
 40
0.4763933471
 40
1.0
 40
1.0
 40
1.0
 40
1.0
 10
6.8890198752
 20
32.3870401992
 30
0.0
 10
6.857925147
 20
32.2956696878
 30
0.0
 10
6.8154649656
 20
32.0960182184
 30
0.0
 10
6.804988688
 20
31.8931670649
 30
0.0
 10
6.804990264
 20
31.7870851269
 30
0.0
  0
SPLINE
  5
2E2
100
AcDbEntity
  8
0
100
AcDbSpline
 62
7
  6
BYLAYER
 70
0
 71
3
 72
11
 73
7
 74
0
 42
0.0000001
 43
0.0000001
 44
0.0000000001
 40
0.0
 40
0.0
 40
0.0
 40
0.0
 40
0.2781109731
 40
0.5338110582
 40
0.7717663147
 40
1.0
 40
1.0
 40
1.0
 40
1.0
 10
7.3096473823
 20
32.3439761838
 30
0.0
 10
7.3350580066
 20
32.4857245305
 30
0.0
 10
7.4045768789
 20
32.7548675844
 30
0.0
 10
7.5760699011
 20
33.1188634396
 30
0.0
 10
7.8080338521
 20
33.4162968794
 30
0.0
 10
8.0018986665
 20
33.5654161967
 30
0.0
 10
8.1042366493
 20
33.6245238621
 30
0.0
  0
SPLINE
  5
2E3
100
AcDbEntity
  8
0
100
AcDbSpline
 62
7
  6
BYLAYER
 70
0
 71
3
 72
11
 73
7
 74
0
 42
0.0000001
 43
0.0000001
 44
0.0000000001
 40
0.0
 40
0.0
 40
0.0
 40
0.0
 40
0.2252593139
 40
0.5007168615
 40
0.7766067324
 40
1.0
 40
1.0
 40
1.0
 40
1.0
 10
7.3096509956
 20
31.1170905394
 30
0.0
 10
7.2814702408
 20
31.1008205423
 30
0.0
 10
7.2140706328
 20
31.072880483
 30
0.0
 10
7.1037493556
 20
31.0495294973
 30
0.0
 10
6.9913275047
 20
31.0461270245
 30
0.0
 10
6.919358033
 20
31.0588790954
 30
0.0
 10
6.8890021835
 20
31.0698298718
 30
0.0
  0
SPLINE
  5
2E4
100
AcDbEntity
  8
0
100
AcDbSpline
 62
7
  6
BYLAYER
 70
0
 71
3
 72
29
 73
25
 74
0
 42
0.0000001
 43
0.0000001
 44
0.0000000001
 40
0.0
 40
0.0
 40
0.0
 40
0.0
 40
0.0608418411
 40
0.0890453685
 40
0.115786272
 40
0.1411948722
 40
0.1654628724
 40
0.1888428005
 40
0.2116470287
 40
0.234236539
 40
0.2569885891
 40
0.2802666098
 40
0.3043933261
 40
0.32963322
 40
0.3561805361
 40
0.4135825321
 40
0.4769963327
 40
0.5459494492
 40
0.6194157084
 40
0.6959920041
 40
0.7740513276
 40
0.8518556919
 40
0.9276972794
 40
1.0
 40
1.0
 40
1.0
 40
1.0
 10
20.9781811488
 20
23.5942381501
 30
0.0
 10
20.9781811488
 20
23.8019949961
 30
0.0
 10
21.0010064308
 20
24.1073103385
 30
0.0
 10
21.0881535798
 20
24.4935378712
 30
0.0
 10
21.1770826728
 20
24.7537485048
 30
0.0
 10
21.2905197824
 20
24.9894991099
 30
0.0
 10
21.4277208347
 20
25.1987891477
 30
0.0
 10
21.58756362
 20
25.3797714551
 30
0.0
 10
21.7688938585
 20
25.5305118924
 30
0.0
 10
21.9699247272
 20
25.6496622021
 30
0.0
 10
22.1888361013
 20
25.7359023991
 30
0.0
 10
22.4234387176
 20
25.7886652397
 30
0.0
 10
22.671584652
 20
25.8075508825
 30
0.0
 10
22.9310844732
 20
25.7926097255
 30
0.0
 10
23.298772904
 20
25.7263309117
 30
0.0
 10
23.775751112
 20
25.5548836706
 30
0.0
 10
24.3403097344
 20
25.2317024028
 30
0.0
 10
24.8951213764
 20
24.7966922162
 30
0.0
 10
25.4224642061
 20
24.2640418203
 30
0.0
 10
25.9054933363
 20
23.6510207119
 30
0.0
 10
26.3283997786
 20
22.9776367155
 30
0.0
 10
26.6774268575
 20
22.2658936749
 30
0.0
 10
26.9410578794
 20
21.5392081364
 30
0.0
 10
27.0576683672
 20
21.045380867
 30
0.0
 10
27.098122414
 20
20.8018253231
 30
0.0
  0
SPLINE
  5
2E5
100
AcDbEntity
  8
0
100
AcDbSpline
 62
7
  6
BYLAYER
 70
0
 71
3
 72
29
 73
25
 74
0
 42
0.0000001
 43
0.0000001
 44
0.0000000001
 40
0.0
 40
0.0
 40
0.0
 40
0.0
 40
0.0279410885
 40
0.0544710024
 40
0.0796678495
 40
0.1037182746
 40
0.1268928588
 40
0.1495179515
 40
0.1719553754
 40
0.1945842419
 40
0.2177687946
 40
0.2418323117
 40
0.2934674347
 40
0.3214458666
 40
0.3509308683
 40
0.41433422
 40
0.4832226385
 40
0.5565238925
 40
0.6327977789
 40
0.7103815449
 40
0.7875266785
 40
0.8625040955
 40
0.9337628941
 40
1.0
 40
1.0
 40
1.0
 40
1.0
 10
27.1123580147
 20
19.3941479041
 30
0.0
 10
27.095272411
 20
19.2988391043
 30
0.0
 10
27.0530521001
 20
19.1144589701
 30
0.0
 10
26.9626262566
 20
18.8529928604
 30
0.0
 10
26.8472002143
 20
18.616326298
 30
0.0
 10
26.7076999632
 20
18.4067177671
 30
0.0
 10
26.5451877509
 20
18.2260844588
 30
0.0
 10
26.3610068944
 20
18.076208794
 30
0.0
 10
26.1569020292
 20
17.9585305191
 30
0.0
 10
25.9347980112
 20
17.8744010145
 30
0.0
 10
25.6969282292
 20
17.8243148303
 30
0.0
 10
25.353908101
 20
17.80302801
 30
0.0
 10
24.9940792324
 20
17.8544225529
 30
0.0
 10
24.6325859847
 20
17.966273352
 30
0.0
 10
24.2457377713
 20
18.1285344944
 30
0.0
 10
23.7601109994
 20
18.4139127428
 30
0.0
 10
23.2026289982
 20
18.8607667483
 30
0.0
 10
22.6743330736
 20
19.4055536594
 30
0.0
 10
22.1926756986
 20
20.0301822563
 30
0.0
 10
21.7735291826
 20
20.7139726642
 30
0.0
 10
21.4309032495
 20
21.434166951
 30
0.0
 10
21.176064501
 20
22.1669342791
 30
0.0
 10
21.0176491495
 20
22.8877985423
 30
0.0
 10
20.9781811488
 20
23.3646975382
 30
0.0
 10
20.9781811488
 20
23.5942381501
 30
0.0
  0
SPLINE
  5
2E6
100
AcDbEntity
  8
0
100
AcDbSpline
 62
7
  6
BYLAYER
 70
0
 71
3
 72
9
 73
5
 74
0
 42
0.0000001
 43
0.0000001
 44
0.0000000001
 40
0.0
 40
0.0
 40
0.0
 40
0.0
 40
0.5142861248
 40
1.0
 40
1.0
 40
1.0
 40
1.0
 10
17.9654906299
 20
17.4337214982
 30
0.0
 10
19.4626812345
 20
16.6067436795
 30
0.0
 10
22.4472592919
 20
15.1268625666
 30
0.0
 10
25.56883669
 20
13.9577383763
 30
0.0
 10
27.1123576785
 20
13.4813108494
 30
0.0
  0
SPLINE
  5
2E7
100
AcDbEntity
  8
0
100
AcDbSpline
 62
7
  6
BYLAYER
 70
0
 71
3
 72
9
 73
5
 74
0
 42
0.0000001
 43
0.0000001
 44
0.0000000001
 40
0.0
 40
0.0
 40
0.0
 40
0.0
 40
0.511426085
 40
1.0
 40
1.0
 40
1.0
 40
1.0
 10
6.9516578939
 20
25.1040588046
 30
0.0
 10
8.4507801791
 20
23.8384154261
 30
0.0
 10
11.4739403703
 20
21.4699777397
 30
0.0
 10
14.6805168591
 20
19.3543378716
 30
0.0
 10
16.2907266188
 20
18.3950989058
 30
0.0
  0
SPLINE
  5
2E8
100
AcDbEntity
  8
0
100
AcDbSpline
 62
7
  6
BYLAYER
 70
0
 71
3
 72
12
 73
8
 74
0
 42
0.0000001
 43
0.0000001
 44
0.0000000001
 40
0.0
 40
0.0
 40
0.0
 40
0.0
 40
0.2849827482
 40
0.5445681523
 40
0.7807447999
 40
0.8920284233
 40
1.0
 40
1.0
 40
1.0
 40
1.0
 10
13.0231967409
 20
28.1869466385
 30
0.0
 10
13.0231967409
 20
27.9970558561
 30
0.0
 10
12.9982463124
 20
27.6333148891
 30
0.0
 10
12.8744870395
 20
27.1251321216
 30
0.0
 10
12.6976069048
 20
26.7568813722
 30
0.0
 10
12.5162653607
 20
26.5126368245
 30
0.0
 10
12.4138978439
 20
26.4076203874
 30
0.0
 10
12.3601270967
 20
26.3598223739
 30
0.0
  0
SPLINE
  5
2E9
100
AcDbEntity
  8
0
100
AcDbSpline
 62
7
  6
BYLAYER
 70
0
 71
3
 72
23
 73
19
 74
0
 42
0.0000001
 43
0.0000001
 44
0.0000000001
 40
0.0
 40
0.0
 40
0.0
 40
0.0
 40
0.0434120002
 40
0.087127715
 40
0.1328141165
 40
0.1817931096
 40
0.2349037804
 40
0.2925065749
 40
0.3545631955
 40
0.4207148228
 40
0.490357565
 40
0.5627118324
 40
0.6368702045
 40
0.7118520957
 40
0.7866360381
 40
0.8602043315
 40
0.931641722
 40
1.0
 40
1.0
 40
1.0
 40
1.0
 10
12.3601270967
 20
26.3598223739
 30
0.0
 10
12.2699761258
 20
26.27968517
 30
0.0
 10
12.0686528164
 20
26.1400158981
 30
0.0
 10
11.7191686997
 20
26.0107502685
 30
0.0
 10
11.3340721854
 20
25.9654477004
 30
0.0
 10
10.9226914607
 20
26.003603309
 30
0.0
 10
10.4932552386
 20
26.1228365224
 30
0.0
 10
10.0538187112
 20
26.3198436066
 30
0.0
 10
9.6126708107
 20
26.5903998324
 30
0.0
 10
9.1783312354
 20
26.9290264172
 30
0.0
 10
8.7592900313
 20
27.3288893024
 30
0.0
 10
8.3638994625
 20
27.7819991769
 30
0.0
 10
8.0001024862
 20
28.2792802944
 30
0.0
 10
7.6751975921
 20
28.810702922
 30
0.0
 10
7.3957232635
 20
29.3655245824
 30
0.0
 10
7.1672884313
 20
29.932694681
 30
0.0
 10
6.9946517111
 20
30.5006198632
 30
0.0
 10
6.9169227097
 20
30.8819631807
 30
0.0
 10
6.8890195688
 20
31.0698353622
 30
0.0
  0
SPLINE
  5
2EA
100
AcDbEntity
  8
0
100
AcDbSpline
 62
7
  6
BYLAYER
 70
0
 71
3
 72
9
 73
5
 74
0
 42
0.0000001
 43
0.0000001
 44
0.0000000001
 40
0.0
 40
0.0
 40
0.0
 40
0.0
 40
0.2549783137
 40
1.0
 40
1.0
 40
1.0
 40
1.0
 10
12.9701637383
 20
28.8761648694
 30
0.0
 10
12.9760027543
 20
28.8368507846
 30
0.0
 10
12.9971646851
 20
28.6824144484
 30
0.0
 10
13.0112601978
 20
28.5269878563
 30
0.0
 10
13.0172891687
 20
28.4110124885
 30
0.0
  0
SPLINE
  5
2EB
100
AcDbEntity
  8
0
100
AcDbSpline
 62
7
  6
BYLAYER
 70
0
 71
3
 72
13
 73
9
 74
0
 42
0.0000001
 43
0.0000001
 44
0.0000000001
 40
0.0
 40
0.0
 40
0.0
 40
0.0
 40
0.2795805134
 40
0.5332240461
 40
0.6528590992
 40
0.7694137483
 40
0.8845433302
 40
1.0
 40
1.0
 40
1.0
 40
1.0
 10
6.8890196933
 20
32.3870371953
 30
0.0
 10
6.920801496
 20
32.5643259546
 30
0.0
 10
7.0112759246
 20
32.8984378975
 30
0.0
 10
7.212374648
 20
33.2733515215
 30
0.0
 10
7.4166267283
 20
33.5152004882
 30
0.0
 10
7.5869057208
 20
33.6656026305
 30
0.0
 10
7.7756276462
 20
33.7871418674
 30
0.0
 10
7.9119881161
 20
33.8477632021
 30
0.0
 10
7.9820129753
 20
33.8728440267
 30
0.0
  0
SPLINE
  5
2EC
100
AcDbEntity
  8
0
100
AcDbSpline
 62
7
  6
BYLAYER
 70
0
 71
3
 72
21
 73
17
 74
0
 42
0.0000001
 43
0.0000001
 44
0.0000000001
 40
0.0
 40
0.0
 40
0.0
 40
0.0
 40
0.0431184778
 40
0.088543312
 40
0.1371638808
 40
0.1895232246
 40
0.2458290963
 40
0.3060153848
 40
0.3697950905
 40
0.4367017225
 40
0.50614285
 40
0.5774223325
 40
0.7223329037
 40
0.8651671347
 40
0.9339721004
 40
1.0
 40
1.0
 40
1.0
 40
1.0
 10
7.9820129753
 20
33.8728440267
 30
0.0
 10
8.0871643235
 20
33.9105061163
 30
0.0
 10
8.3123694799
 20
33.9637650384
 30
0.0
 10
8.6695746974
 20
33.9738205834
 30
0.0
 10
9.046299576
 20
33.9168388255
 30
0.0
 10
9.4363028039
 20
33.794297354
 30
0.0
 10
9.8336056896
 20
33.6087580761
 30
0.0
 10
10.2320001592
 20
33.3634249377
 30
0.0
 10
10.6251066858
 20
33.0622902835
 30
0.0
 10
11.0066645227
 20
32.710389917
 30
0.0
 10
11.3704182629
 20
32.3133977642
 30
0.0
 10
11.8260883465
 20
31.7296677545
 30
0.0
 10
12.3135673227
 20
30.9334533164
 30
0.0
 10
12.6769512213
 20
30.0800990821
 30
0.0
 10
12.876966338
 20
29.3885038726
 30
0.0
 10
12.9450366571
 20
29.0453454637
 30
0.0
 10
12.9701637383
 20
28.8761648694
 30
0.0
  0
SPLINE
  5
2ED
100
AcDbEntity
  8
0
100
AcDbSpline
 62
7
  6
BYLAYER
 70
0
 71
3
 72
11
 73
7
 74
0
 42
0.0000001
 43
0.0000001
 44
0.0000000001
 40
0.0
 40
0.0
 40
0.0
 40
0.0
 40
0.2895453772
 40
0.5491366158
 40
0.7822776227
 40
1.0
 40
1.0
 40
1.0
 40
1.0
 10
17.5310212387
 20
55.1417993285
 30
0.0
 10
17.5310212387
 20
55.1797791982
 30
0.0
 10
17.5368205371
 20
55.2520492157
 30
0.0
 10
17.566036172
 20
55.3513621927
 30
0.0
 10
17.6153225191
 20
55.4319668094
 30
0.0
 10
17.6616381976
 20
55.4708322785
 30
0.0
 10
17.6863706159
 20
55.4851120664
 30
0.0
  0
SPLINE
  5
2EE
100
AcDbEntity
  8
0
100
AcDbSpline
 62
7
  6
BYLAYER
 70
0
 71
3
 72
11
 73
7
 74
0
 42
0.0000001
 43
0.0000001
 44
0.0000000001
 40
0.0
 40
0.0
 40
0.0
 40
0.0
 40
0.2895453772
 40
0.5491366158
 40
0.7822776227
 40
1.0
 40
1.0
 40
1.0
 40
1.0
 10
8.3385948118
 20
60.4489291373
 30
0.0
 10
8.3385948118
 20
60.4869090069
 30
0.0
 10
8.3443941102
 20
60.5591790245
 30
0.0
 10
8.373609745
 20
60.6584920014
 30
0.0
 10
8.4228960922
 20
60.7390966181
 30
0.0
 10
8.4692117706
 20
60.7779620872
 30
0.0
 10
8.493944189
 20
60.7922418751
 30
0.0
  0
SPLINE
  5
2EF
100
AcDbEntity
  8
0
100
AcDbSpline
 62
7
  6
BYLAYER
 70
0
 71
3
 72
9
 73
5
 74
0
 42
0.0000001
 43
0.0000001
 44
0.0000000001
 40
0.0
 40
0.0
 40
0.0
 40
0.0
 40
0.2579107489
 40
1.0
 40
1.0
 40
1.0
 40
1.0
 10
20.1826562123
 20
11.6777165446
 30
0.0
 10
20.1495559248
 20
11.6968265721
 30
0.0
 10
20.0225336498
 20
11.7731604562
 30
0.0
 10
19.9009044175
 20
11.8586296526
 30
0.0
 10
19.8151665387
 20
11.9274993708
 30
0.0
  0
SPLINE
  5
2F0
100
AcDbEntity
  8
0
100
AcDbSpline
 62
7
  6
BYLAYER
 70
0
 71
3
 72
9
 73
5
 74
0
 42
0.0000001
 43
0.0000001
 44
0.0000000001
 40
0.0
 40
0.0
 40
0.0
 40
0.0
 40
0.2546562071
 40
1.0
 40
1.0
 40
1.0
 40
1.0
 10
19.8151665387
 20
11.9274993708
 30
0.0
 10
19.80073161
 20
11.9390943564
 30
0.0
 10
19.7445457362
 20
11.9852411109
 30
0.0
 10
19.6904038896
 20
12.0338908024
 30
0.0
 10
19.6514677967
 20
12.0715826961
 30
0.0
  0
SPLINE
  5
2F1
100
AcDbEntity
  8
0
100
AcDbSpline
 62
7
  6
BYLAYER
 70
0
 71
3
 72
9
 73
5
 74
0
 42
0.0000001
 43
0.0000001
 44
0.0000000001
 40
0.0
 40
0.0
 40
0.0
 40
0.0
 40
0.5217007135
 40
1.0
 40
1.0
 40
1.0
 40
1.0
 10
19.6514677967
 20
12.0715826961
 30
0.0
 10
19.5585813018
 20
12.1615010114
 30
0.0
 10
19.3950128337
 20
12.3500661927
 30
0.0
 10
19.2769313893
 20
12.5711474757
 30
0.0
 10
19.2355965883
 20
12.6822307481
 30
0.0
  0
SPLINE
  5
2F2
100
AcDbEntity
  8
0
100
AcDbSpline
 62
7
  6
BYLAYER
 70
0
 71
3
 72
9
 73
5
 74
0
 42
0.0000001
 43
0.0000001
 44
0.0000000001
 40
0.0
 40
0.0
 40
0.0
 40
0.0
 40
0.5054109365
 40
1.0
 40
1.0
 40
1.0
 40
1.0
 10
19.2355965883
 20
12.6822307481
 30
0.0
 10
19.2101448761
 20
12.7506297582
 30
0.0
 10
19.1708959271
 20
12.8904493094
 30
0.0
 10
19.1575359944
 20
13.0351528357
 30
0.0
 10
19.1575359935
 20
13.1065710831
 30
0.0
  0
SPLINE
  5
2F3
100
AcDbEntity
  8
0
100
AcDbSpline
 62
7
  6
BYLAYER
 70
0
 71
3
 72
14
 73
10
 74
0
 42
0.0000001
 43
0.0000001
 44
0.0000000001
 40
0.0
 40
0.0
 40
0.0
 40
0.0
 40
0.1083449082
 40
0.2186880609
 40
0.3328308179
 40
0.4522702898
 40
0.5781679349
 40
0.7113299938
 40
1.0
 40
1.0
 40
1.0
 40
1.0
 10
26.1575038025
 20
13.1065710831
 30
0.0
 10
26.1575048124
 20
13.0411706179
 30
0.0
 10
26.1463328641
 20
12.9088993971
 30
0.0
 10
26.0962413632
 20
12.7134727678
 30
0.0
 10
26.0136791928
 20
12.5221225555
 30
0.0
 10
25.8995432963
 20
12.3367759068
 30
0.0
 10
25.7550681607
 20
12.1590047404
 30
0.0
 10
25.5176125378
 20
11.9281387718
 30
0.0
 10
25.30748656
 20
11.7807334665
 30
0.0
 10
25.1573553481
 20
11.6922809346
 30
0.0
  0
SPLINE
  5
2F4
100
AcDbEntity
  8
0
100
AcDbSpline
 62
7
  6
BYLAYER
 70
0
 71
3
 72
9
 73
5
 74
0
 42
0.0000001
 43
0.0000001
 44
0.0000000001
 40
0.0
 40
0.0
 40
0.0
 40
0.0
 40
0.5234144
 40
1.0
 40
1.0
 40
1.0
 40
1.0
 10
18.313233852
 20
15.5306012574
 30
0.0
 10
18.081878322
 20
15.6641714131
 30
0.0
 10
17.656504625
 20
15.9501334252
 30
0.0
 10
17.2851697057
 20
16.3055471777
 30
0.0
 10
17.1287789985
 20
16.4918522115
 30
0.0
  0
SPLINE
  5
2F5
100
AcDbEntity
  8
0
100
AcDbSpline
 62
7
  6
BYLAYER
 70
0
 71
3
 72
10
 73
6
 74
0
 42
0.0000001
 43
0.0000001
 44
0.0000000001
 40
0.0
 40
0.0
 40
0.0
 40
0.0
 40
0.5105377031
 40
0.7567606177
 40
1.0
 40
1.0
 40
1.0
 40
1.0
 10
35.2385966105
 20
56.3429748166
 30
0.0
 10
35.4371068627
 20
56.3397239844
 30
0.0
 10
35.7328911675
 20
56.3020450754
 30
0.0
 10
36.1024883373
 20
56.1784890896
 30
0.0
 10
36.2740177218
 20
56.094344042
 30
0.0
 10
36.3559362372
 20
56.0470501955
 30
0.0
  0
SPLINE
  5
2F6
100
AcDbEntity
  8
0
100
AcDbSpline
 62
7
  6
BYLAYER
 70
0
 71
3
 72
13
 73
9
 74
0
 42
0.0000001
 43
0.0000001
 44
0.0000000001
 40
0.0
 40
0.0
 40
0.0
 40
0.0
 40
0.2301638762
 40
0.3684122183
 40
0.5131062316
 40
0.6556487761
 40
0.7880247048
 40
1.0
 40
1.0
 40
1.0
 40
1.0
 10
7.2652686606
 20
31.7619500608
 30
0.0
 10
7.233126341
 20
31.743390957
 30
0.0
 10
7.1759490113
 20
31.7232876589
 30
0.0
 10
7.0939806346
 20
31.711464444
 30
0.0
 10
7.0251457889
 20
31.7103255928
 30
0.0
 10
6.9577431226
 20
31.7187772942
 30
0.0
 10
6.8818192603
 20
31.7388865556
 30
0.0
 10
6.8310276492
 20
31.7649459435
 30
0.0
 10
6.80497969
 20
31.7870808084
 30
0.0
  0
SPLINE
  5
2F7
100
AcDbEntity
  8
0
100
AcDbSpline
 62
7
  6
BYLAYER
 70
0
 71
3
 72
9
 73
5
 74
0
 42
0.0000001
 43
0.0000001
 44
0.0000000001
 40
0.0
 40
0.0
 40
0.0
 40
0.0
 40
0.483918289
 40
1.0
 40
1.0
 40
1.0
 40
1.0
 10
6.804990264
 20
31.7870851269
 30
0.0
 10
6.804987051
 20
31.6703986342
 30
0.0
 10
6.8189575537
 20
31.4291754094
 30
0.0
 10
6.859491123
 20
31.1907218921
 30
0.0
 10
6.8890198752
 20
31.0698340649
 30
0.0
  0
SPLINE
  5
2F8
100
AcDbEntity
  8
0
100
AcDbSpline
 62
7
  6
BYLAYER
 70
0
 71
3
 72
9
 73
5
 74
0
 42
0.0000001
 43
0.0000001
 44
0.0000000001
 40
0.0
 40
0.0
 40
0.0
 40
0.0
 40
0.2566698854
 40
1.0
 40
1.0
 40
1.0
 40
1.0
 10
6.8890198752
 20
25.1569966085
 30
0.0
 10
6.8819052991
 20
25.1622126369
 30
0.0
 10
6.8545142899
 20
25.1829745232
 30
0.0
 10
6.8287166557
 20
25.2058640535
 30
0.0
 10
6.8107511642
 20
25.2240289293
 30
0.0
  0
SPLINE
  5
2F9
100
AcDbEntity
  8
0
100
AcDbSpline
 62
7
  6
BYLAYER
 70
0
 71
3
 72
9
 73
5
 74
0
 42
0.0000001
 43
0.0000001
 44
0.0000000001
 40
0.0
 40
0.0
 40
0.0
 40
0.0
 40
0.5226751901
 40
1.0
 40
1.0
 40
1.0
 40
1.0
 10
6.8107511642
 20
25.2240289293
 30
0.0
 10
6.7834359562
 20
25.2516472867
 30
0.0
 10
6.7361942949
 20
25.3099239821
 30
0.0
 10
6.7050480705
 20
25.3786467892
 30
0.0
 10
6.695624252
 20
25.4128462661
 30
0.0
  0
SPLINE
  5
2FA
100
AcDbEntity
  8
0
100
AcDbSpline
 62
7
  6
BYLAYER
 70
0
 71
3
 72
15
 73
11
 74
0
 42
0.0000001
 43
0.0000001
 44
0.0000000001
 40
0.0
 40
0.0
 40
0.0
 40
0.0
 40
0.1030764205
 40
0.2154126589
 40
0.3361133088
 40
0.4636906694
 40
0.5961800656
 40
0.7313217534
 40
0.8667470989
 40
1.0
 40
1.0
 40
1.0
 40
1.0
 10
28.825792358
 20
46.9366293692
 30
0.0
 10
28.7707260338
 20
47.193479066
 30
0.0
 10
28.7057932428
 20
47.7415736297
 30
0.0
 10
28.7319913524
 20
48.6001555129
 30
0.0
 10
28.8760932827
 20
49.5100357304
 30
0.0
 10
29.1340536918
 20
50.4473582742
 30
0.0
 10
29.4991552176
 20
51.3877736329
 30
0.0
 10
29.9617110206
 20
52.3066489648
 30
0.0
 10
30.5095358769
 20
53.1795421683
 30
0.0
 10
30.9278615752
 20
53.7232540389
 30
0.0
 10
31.1483834192
 20
53.9815007729
 30
0.0
  0
SPLINE
  5
2FB
100
AcDbEntity
  8
0
100
AcDbSpline
 62
7
  6
BYLAYER
 70
0
 71
3
 72
11
 73
7
 74
0
 42
0.0000001
 43
0.0000001
 44
0.0000000001
 40
0.0
 40
0.0
 40
0.0
 40
0.0
 40
0.2606900911
 40
0.5210991507
 40
0.7711231403
 40
1.0
 40
1.0
 40
1.0
 40
1.0
 10
27.1123949339
 20
44.8037725033
 30
0.0
 10
27.168275466
 20
44.7288470195
 30
0.0
 10
27.2998610118
 20
44.5933060908
 30
0.0
 10
27.5345570546
 20
44.4421645488
 30
0.0
 10
27.7919095041
 20
44.3635197013
 30
0.0
 10
27.9704569679
 20
44.3794866705
 30
0.0
 10
28.046861207
 20
44.4094309357
 30
0.0
  0
SPLINE
  5
2FC
100
AcDbEntity
  8
0
100
AcDbSpline
 62
7
  6
BYLAYER
 70
0
 71
3
 72
9
 73
5
 74
0
 42
0.0000001
 43
0.0000001
 44
0.0000000001
 40
0.0
 40
0.0
 40
0.0
 40
0.0
 40
0.2520973893
 40
1.0
 40
1.0
 40
1.0
 40
1.0
 10
28.046861207
 20
44.4094309357
 30
0.0
 10
28.0516888664
 20
44.4113229867
 30
0.0
 10
28.0706956302
 20
44.4191862522
 30
0.0
 10
28.0890994571
 20
44.4285253425
 30
0.0
 10
28.1023444514
 20
44.4363488199
 30
0.0
  0
SPLINE
  5
2FD
100
AcDbEntity
  8
0
100
AcDbSpline
 62
7
  6
BYLAYER
 70
0
 71
3
 72
11
 73
7
 74
0
 42
0.0000001
 43
0.0000001
 44
0.0000000001
 40
0.0
 40
0.0
 40
0.0
 40
0.0
 40
0.2520632549
 40
0.5055905266
 40
0.7563952297
 40
1.0
 40
1.0
 40
1.0
 40
1.0
 10
20.6797401893
 20
55.9503098485
 30
0.0
 10
20.6558936956
 20
56.0086385236
 30
0.0
 10
20.6182804379
 20
56.1300024307
 30
0.0
 10
20.590861714
 20
56.317862439
 30
0.0
 10
20.5946935044
 20
56.5056921086
 30
0.0
 10
20.6213365544
 20
56.6276324067
 30
0.0
 10
20.641727465
 20
56.6850176805
 30
0.0
  0
SPLINE
  5
2FE
100
AcDbEntity
  8
0
100
AcDbSpline
 62
7
  6
BYLAYER
 70
0
 71
3
 72
9
 73
5
 74
0
 42
0.0000001
 43
0.0000001
 44
0.0000000001
 40
0.0
 40
0.0
 40
0.0
 40
0.0
 40
0.2601209224
 40
1.0
 40
1.0
 40
1.0
 40
1.0
 10
20.6691903764
 20
56.7512516815
 30
0.0
 10
20.6780796488
 20
56.7698379698
 30
0.0
 10
20.7155205651
 20
56.8395746401
 30
0.0
 10
20.7673298291
 20
56.9024262598
 30
0.0
 10
20.8131619871
 20
56.9389440205
 30
0.0
  0
SPLINE
  5
2FF
100
AcDbEntity
  8
0
100
AcDbSpline
 62
7
  6
BYLAYER
 70
0
 71
3
 72
9
 73
5
 74
0
 42
0.0000001
 43
0.0000001
 44
0.0000000001
 40
0.0
 40
0.0
 40
0.0
 40
0.0
 40
0.2520701521
 40
1.0
 40
1.0
 40
1.0
 40
1.0
 10
20.8131619871
 20
56.9389440205
 30
0.0
 10
20.8172018898
 20
56.9421629001
 30
0.0
 10
20.8334657807
 20
56.9546309462
 30
0.0
 10
20.8507001527
 20
56.9658444785
 30
0.0
 10
20.8640537756
 20
56.9733670087
 30
0.0
  0
SPLINE
  5
300
100
AcDbEntity
  8
0
100
AcDbSpline
 62
7
  6
BYLAYER
 70
0
 71
3
 72
12
 73
8
 74
0
 42
0.0000001
 43
0.0000001
 44
0.0000000001
 40
0.0
 40
0.0
 40
0.0
 40
0.0
 40
0.1116849457
 40
0.2284651037
 40
0.474740494
 40
0.7339675431
 40
1.0
 40
1.0
 40
1.0
 40
1.0
 10
18.1064570846
 20
16.1460715232
 30
0.0
 10
18.2581993757
 20
16.0584650525
 30
0.0
 10
18.57650169
 20
15.8926548157
 30
0.0
 10
19.2619550435
 20
15.5999076464
 30
0.0
 10
20.1988972076
 20
15.3143015129
 30
0.0
 10
21.3938770172
 20
15.1062236186
 30
0.0
 10
22.218658719
 20
15.0585502837
 30
0.0
 10
22.6360205486
 20
15.0577443869
 30
0.0
  0
SPLINE
  5
301
100
AcDbEntity
  8
0
100
AcDbSpline
 62
7
  6
BYLAYER
 70
0
 71
3
 72
11
 73
7
 74
0
 42
0.0000001
 43
0.0000001
 44
0.0000000001
 40
0.0
 40
0.0
 40
0.0
 40
0.0
 40
0.2283667727
 40
0.4789999006
 40
0.7405803413
 40
1.0
 40
1.0
 40
1.0
 40
1.0
 10
37.7896628758
 20
58.9589165384
 30
0.0
 10
37.8381953443
 20
58.9308969385
 30
0.0
 10
37.9327574096
 20
58.8593292422
 30
0.0
 10
38.0555725379
 20
58.7242951868
 30
0.0
 10
38.1591907225
 20
58.564893628
 30
0.0
 10
38.2115457992
 20
58.4475247878
 30
0.0
 10
38.2323835914
 20
58.3873713916
 30
0.0
  0
SPLINE
  5
302
100
AcDbEntity
  8
0
100
AcDbSpline
 62
7
  6
BYLAYER
 70
0
 71
3
 72
11
 73
7
 74
0
 42
0.0000001
 43
0.0000001
 44
0.0000000001
 40
0.0
 40
0.0
 40
0.0
 40
0.0
 40
0.2897054538
 40
0.5490568492
 40
0.782282334
 40
1.0
 40
1.0
 40
1.0
 40
1.0
 10
38.2846394258
 20
58.1015961695
 30
0.0
 10
38.3153547707
 20
58.1193295658
 30
0.0
 10
38.3710698728
 20
58.1577147028
 30
0.0
 10
38.4376982555
 20
58.2276951036
 30
0.0
 10
38.4797941877
 20
58.3051422533
 30
0.0
 10
38.489663068
 20
58.3607126113
 30
0.0
 10
38.4896628758
 20
58.387366529
 30
0.0
  0
SPLINE
  5
303
100
AcDbEntity
  8
0
100
AcDbSpline
 62
7
  6
BYLAYER
 70
0
 71
3
 72
9
 73
5
 74
0
 42
0.0000001
 43
0.0000001
 44
0.0000000001
 40
0.0
 40
0.0
 40
0.0
 40
0.0
 40
0.521096983
 40
1.0
 40
1.0
 40
1.0
 40
1.0
 10
38.2323835914
 20
58.3873713916
 30
0.0
 10
38.2489571854
 20
58.3395276493
 30
0.0
 10
38.2745040762
 20
58.2453848424
 30
0.0
 10
38.2846396498
 20
58.14813079
 30
0.0
 10
38.2846396834
 20
58.1015975527
 30
0.0
  0
SPLINE
  5
304
100
AcDbEntity
  8
0
100
AcDbSpline
 62
7
  6
BYLAYER
 70
0
 71
3
 72
13
 73
9
 74
0
 42
0.0000001
 43
0.0000001
 44
0.0000000001
 40
0.0
 40
0.0
 40
0.0
 40
0.0
 40
0.2759385081
 40
0.4099538791
 40
0.5403316237
 40
0.6661785602
 40
0.786183863
 40
1.0
 40
1.0
 40
1.0
 40
1.0
 10
32.6985152479
 20
56.0195586305
 30
0.0
 10
32.9255907488
 20
56.0852067304
 30
0.0
 10
33.267684104
 20
56.1671719688
 30
0.0
 10
33.7237096977
 20
56.2468183156
 30
0.0
 10
34.0551352205
 20
56.2912218454
 30
0.0
 10
34.3761141804
 20
56.3211493751
 30
0.0
 10
34.769327114
 20
56.3430794449
 30
0.0
 10
35.0554629796
 20
56.3459740634
 30
0.0
 10
35.2385977301
 20
56.3429749085
 30
0.0
  0
SPLINE
  5
305
100
AcDbEntity
  8
0
100
AcDbSpline
 62
7
  6
BYLAYER
 70
0
 71
3
 72
14
 73
10
 74
0
 42
0.0000001
 43
0.0000001
 44
0.0000000001
 40
0.0
 40
0.0
 40
0.0
 40
0.0
 40
0.2682015845
 40
0.3956239431
 40
0.5193644067
 40
0.6404613136
 40
0.7600915263
 40
0.8795149502
 40
1.0
 40
1.0
 40
1.0
 40
1.0
 10
37.8094081363
 20
53.0688499995
 30
0.0
 10
38.0923593988
 20
53.2322106984
 30
0.0
 10
38.5372321033
 20
53.4318089502
 30
0.0
 10
39.1538987919
 20
53.57921164
 30
0.0
 10
39.6063332268
 20
53.6266048499
 30
0.0
 10
40.0515048889
 20
53.6119657429
 30
0.0
 10
40.4851113042
 20
53.5358557566
 30
0.0
 10
40.9026987493
 20
53.3991570918
 30
0.0
 10
41.1660401961
 20
53.2699300484
 30
0.0
 10
41.2931804717
 20
53.1965935696
 30
0.0
  0
SPLINE
  5
306
100
AcDbEntity
  8
0
100
AcDbSpline
 62
7
  6
BYLAYER
 70
0
 71
3
 72
9
 73
5
 74
0
 42
0.0000001
 43
0.0000001
 44
0.0000000001
 40
0.0
 40
0.0
 40
0.0
 40
0.0
 40
0.5002450397
 40
1.0
 40
1.0
 40
1.0
 40
1.0
 10
28.8257850527
 20
46.9366935461
 30
0.0
 10
28.9871563143
 20
46.6498521507
 30
0.0
 10
29.3529046329
 20
46.0997744891
 30
0.0
 10
29.7926085505
 20
45.6072820358
 30
0.0
 10
30.0274517042
 20
45.3771619969
 30
0.0
  0
SPLINE
  5
307
100
AcDbEntity
  8
0
100
AcDbSpline
 62
7
  6
BYLAYER
 70
0
 71
3
 72
9
 73
5
 74
0
 42
0.0000001
 43
0.0000001
 44
0.0000000001
 40
0.0
 40
0.0
 40
0.0
 40
0.0
 40
0.4982946561
 40
1.0
 40
1.0
 40
1.0
 40
1.0
 10
30.0274517042
 20
45.3771619969
 30
0.0
 10
30.2662955738
 20
45.1431217034
 30
0.0
 10
30.7779746078
 20
44.705521678
 30
0.0
 10
31.3402893658
 20
44.3359725885
 30
0.0
 10
31.6318392266
 20
44.1675803646
 30
0.0
  0
SPLINE
  5
308
100
AcDbEntity
  8
0
100
AcDbSpline
 62
7
  6
BYLAYER
 70
0
 71
3
 72
17
 73
13
 74
0
 42
0.0000001
 43
0.0000001
 44
0.0000000001
 40
0.0
 40
0.0
 40
0.0
 40
0.0
 40
0.1145949861
 40
0.2388343885
 40
0.3698813499
 40
0.4368068122
 40
0.5039402054
 40
0.6367859941
 40
0.7651558365
 40
0.8269407821
 40
0.8867731061
 40
1.0
 40
1.0
 40
1.0
 40
1.0
 10
38.4418685137
 20
52.5313049459
 30
0.0
 10
38.0537931711
 20
52.3072240926
 30
0.0
 10
37.3127131947
 20
51.7180032997
 30
0.0
 10
36.4167842713
 20
50.5696475604
 30
0.0
 10
35.850697235
 20
49.4344169062
 30
0.0
 10
35.5207927739
 20
48.4503888403
 30
0.0
 10
35.2790813138
 20
47.4337463426
 30
0.0
 10
35.1507107734
 20
46.1488819135
 30
0.0
 10
35.2553328252
 20
44.8819553051
 30
0.0
 10
35.4815688612
 20
43.9291291765
 30
0.0
 10
35.7855806479
 20
43.0616066115
 30
0.0
 10
36.1156288904
 20
42.460836069
 30
0.0
 10
36.3792725703
 20
42.1051107822
 30
0.0
  0
SPLINE
  5
309
100
AcDbEntity
  8
0
100
AcDbSpline
 62
7
  6
BYLAYER
 70
0
 71
3
 72
10
 73
6
 74
0
 42
0.0000001
 43
0.0000001
 44
0.0000000001
 40
0.0
 40
0.0
 40
0.0
 40
0.0
 40
0.2333116555
 40
0.4800198545
 40
1.0
 40
1.0
 40
1.0
 40
1.0
 10
37.8094082727
 20
53.0688392907
 30
0.0
 10
37.8655242873
 20
53.0364417467
 30
0.0
 10
37.9774552341
 20
52.9635475038
 30
0.0
 10
38.1960225733
 20
52.7918564621
 30
0.0
 10
38.3473252999
 20
52.6404646076
 30
0.0
 10
38.4418657345
 20
52.5313000361
 30
0.0
  0
SPLINE
  5
30A
100
AcDbEntity
  8
0
100
AcDbSpline
 62
7
  6
BYLAYER
 70
0
 71
3
 72
20
 73
16
 74
0
 42
0.0000001
 43
0.0000001
 44
0.0000000001
 40
0.0
 40
0.0
 40
0.0
 40
0.0
 40
0.05787918
 40
0.1188197518
 40
0.1823829248
 40
0.2481291097
 40
0.3839040492
 40
0.5214697759
 40
0.6558672786
 40
0.7204579625
 40
0.7825965612
 40
0.8418617884
 40
0.8979412258
 40
0.9506768953
 40
1.0
 40
1.0
 40
1.0
 40
1.0
 10
40.2645893069
 20
50.4266289314
 30
0.0
 10
40.1017828227
 20
50.332633125
 30
0.0
 10
39.7774293705
 20
50.1222067865
 30
0.0
 10
39.3109295062
 20
49.7560253542
 30
0.0
 10
38.8573703612
 20
49.3353496027
 30
0.0
 10
38.2720766414
 20
48.7029766323
 30
0.0
 10
37.6132943096
 20
47.8154987181
 30
0.0
 10
36.9707474377
 20
46.6533404005
 30
0.0
 10
36.5737383325
 20
45.6305076302
 30
0.0
 10
36.3567731691
 20
44.8098388527
 30
0.0
 10
36.249084099
 20
44.2146814128
 30
0.0
 10
36.1956227873
 20
43.6399183276
 30
0.0
 10
36.1972701544
 20
43.0930313191
 30
0.0
 10
36.2541870906
 20
42.5815174833
 30
0.0
 10
36.3310391831
 20
42.2578804267
 30
0.0
 10
36.3792723868
 20
42.1051116456
 30
0.0
  0
SPLINE
  5
30B
100
AcDbEntity
  8
0
100
AcDbSpline
 62
7
  6
BYLAYER
 70
0
 71
3
 72
15
 73
11
 74
0
 42
0.0000001
 43
0.0000001
 44
0.0000000001
 40
0.0
 40
0.0
 40
0.0
 40
0.0
 40
0.148525535
 40
0.2895002827
 40
0.422741185
 40
0.5486454433
 40
0.6679971669
 40
0.7819416759
 40
0.8919891893
 40
1.0
 40
1.0
 40
1.0
 40
1.0
 10
40.2645893069
 20
50.1000279646
 30
0.0
 10
40.3852007488
 20
50.1696625973
 30
0.0
 10
40.6260909718
 20
50.295714167
 30
0.0
 10
40.9934975219
 20
50.4461743888
 30
0.0
 10
41.3544386976
 20
50.5513741906
 30
0.0
 10
41.7053559684
 20
50.6102654622
 30
0.0
 10
42.043040501
 20
50.6219448468
 30
0.0
 10
42.364271908
 20
50.5861892987
 30
0.0
 10
42.6655904496
 20
50.5028116118
 30
0.0
 10
42.851830667
 20
50.4156381718
 30
0.0
 10
42.9395410925
 20
50.3649972544
 30
0.0
  0
SPLINE
  5
30C
100
AcDbEntity
  8
0
100
AcDbSpline
 62
7
  6
BYLAYER
 70
0
 71
3
 72
23
 73
19
 74
0
 42
0.0000001
 43
0.0000001
 44
0.0000000001
 40
0.0
 40
0.0
 40
0.0
 40
0.0
 40
0.0623832617
 40
0.1287488739
 40
0.1983461025
 40
0.2703357081
 40
0.3437237461
 40
0.4174661897
 40
0.4905029305
 40
0.5618020656
 40
0.6304106905
 40
0.6955084077
 40
0.7564659112
 40
0.8129128242
 40
0.8648214874
 40
0.9126037458
 40
0.9571856777
 40
1.0
 40
1.0
 40
1.0
 40
1.0
 10
48.0427962836
 20
45.6093796649
 30
0.0
 10
47.8506105801
 20
45.4984218596
 30
0.0
 10
47.4687628742
 20
45.2431980906
 30
0.0
 10
46.9279770135
 20
44.7881672152
 30
0.0
 10
46.4110749186
 20
44.2573871651
 30
0.0
 10
45.9290611689
 20
43.6624084514
 30
0.0
 10
45.4921717681
 20
43.0157261051
 30
0.0
 10
45.1097111711
 20
42.3311868772
 30
0.0
 10
44.7898133904
 20
41.6233872671
 30
0.0
 10
44.5393163004
 20
40.9074003159
 30
0.0
 10
44.3635825762
 20
40.1984313938
 30
0.0
 10
44.2663518374
 20
39.5114489955
 30
0.0
 10
44.2497881946
 20
38.8608040829
 30
0.0
 10
44.3145932959
 20
38.2599158051
 30
0.0
 10
44.4601911601
 20
37.7211453131
 30
0.0
 10
44.6850388467
 20
37.255848028
 30
0.0
 10
44.9859231415
 20
36.8753720517
 30
0.0
 10
45.2359454663
 20
36.6839863302
 30
0.0
 10
45.3678449521
 20
36.6078353026
 30
0.0
  0
SPLINE
  5
30D
100
AcDbEntity
  8
0
100
AcDbSpline
 62
7
  6
BYLAYER
 70
0
 71
3
 72
15
 73
11
 74
0
 42
0.0000001
 43
0.0000001
 44
0.0000000001
 40
0.0
 40
0.0
 40
0.0
 40
0.0
 40
0.1485049714
 40
0.2894885711
 40
0.422744975
 40
0.5486499224
 40
0.6679947206
 40
0.7819384746
 40
0.8919887251
 40
1.0
 40
1.0
 40
1.0
 40
1.0
 10
48.0427962836
 20
37.2198173289
 30
0.0
 10
47.9317816942
 20
37.1557234084
 30
0.0
 10
47.7100320862
 20
37.0396996688
 30
0.0
 10
47.3718136759
 20
36.9011830076
 30
0.0
 10
47.0395278173
 20
36.8043230628
 30
0.0
 10
46.7164798489
 20
36.7501107509
 30
0.0
 10
46.4056253739
 20
36.7393598767
 30
0.0
 10
46.1099235903
 20
36.7723025321
 30
0.0
 10
45.8325238997
 20
36.8490090258
 30
0.0
 10
45.6610953552
 20
36.9292991306
 30
0.0
 10
45.5803466784
 20
36.9759074176
 30
0.0
  0
SPLINE
  5
30E
100
AcDbEntity
  8
0
100
AcDbSpline
 62
7
  6
BYLAYER
 70
0
 71
3
 72
11
 73
7
 74
0
 42
0.0000001
 43
0.0000001
 44
0.0000000001
 40
0.0
 40
0.0
 40
0.0
 40
0.0
 40
0.282865304
 40
0.5441156006
 40
0.7829916751
 40
1.0
 40
1.0
 40
1.0
 40
1.0
 10
31.1483836777
 20
53.9815011811
 30
0.0
 10
31.3052011211
 20
54.1651454399
 30
0.0
 10
31.5886987652
 20
54.5337557336
 30
0.0
 10
31.9757505861
 20
55.0786608921
 30
0.0
 10
32.335507149
 20
55.5740574926
 30
0.0
 10
32.5771276072
 20
55.8796005586
 30
0.0
 10
32.6985152479
 20
56.0195586305
 30
0.0
  0
SPLINE
  5
30F
100
AcDbEntity
  8
0
100
AcDbSpline
 62
7
  6
BYLAYER
 70
0
 71
3
 72
11
 73
7
 74
0
 42
0.0000001
 43
0.0000001
 44
0.0000000001
 40
0.0
 40
0.0
 40
0.0
 40
0.0
 40
0.2285485828
 40
0.47927796
 40
0.7407234756
 40
1.0
 40
1.0
 40
1.0
 40
1.0
 10
27.607367878
 20
53.0802008716
 30
0.0
 10
27.5587971117
 20
53.052158705
 30
0.0
 10
27.4641964119
 20
52.9805267729
 30
0.0
 10
27.3413660606
 20
52.8454611097
 30
0.0
 10
27.2377976675
 20
52.6860807679
 30
0.0
 10
27.1854766386
 20
52.5687735416
 30
0.0
 10
27.1646505907
 20
52.5086534476
 30
0.0
  0
SPLINE
  5
310
100
AcDbEntity
  8
0
100
AcDbSpline
 62
7
  6
BYLAYER
 70
0
 71
3
 72
11
 73
7
 74
0
 42
0.0000001
 43
0.0000001
 44
0.0000000001
 40
0.0
 40
0.0
 40
0.0
 40
0.0
 40
0.2594111124
 40
0.5209233258
 40
0.7715359647
 40
1.0
 40
1.0
 40
1.0
 40
1.0
 10
28.0500883356
 20
52.5086555759
 30
0.0
 10
28.0292512383
 20
52.5688069659
 30
0.0
 10
27.9769080971
 20
52.6861609687
 30
0.0
 10
27.873296145
 20
52.8455367726
 30
0.0
 10
27.7504985591
 20
52.9805886497
 30
0.0
 10
27.6559207391
 20
53.0521692008
 30
0.0
 10
27.6073676199
 20
53.0802007226
 30
0.0
  0
SPLINE
  5
311
100
AcDbEntity
  8
0
100
AcDbSpline
 62
7
  6
BYLAYER
 70
0
 71
3
 72
9
 73
5
 74
0
 42
0.0000001
 43
0.0000001
 44
0.0000000001
 40
0.0
 40
0.0
 40
0.0
 40
0.0
 40
0.478902826
 40
1.0
 40
1.0
 40
1.0
 40
1.0
 10
28.1023444275
 20
52.2228800977
 30
0.0
 10
28.1023444384
 20
52.2694135772
 30
0.0
 10
28.0922090754
 20
52.3666682013
 30
0.0
 10
28.0666620284
 20
52.4608115479
 30
0.0
 10
28.0500883356
 20
52.5086555759
 30
0.0
  0
SPLINE
  5
312
100
AcDbEntity
  8
0
100
AcDbSpline
 62
7
  6
BYLAYER
 70
0
 71
3
 72
13
 73
9
 74
0
 42
0.0000001
 43
0.0000001
 44
0.0000000001
 40
0.0
 40
0.0
 40
0.0
 40
0.0
 40
0.1142679296
 40
0.2376436638
 40
0.5000011594
 40
0.7623580305
 40
0.8857328164
 40
1.0
 40
1.0
 40
1.0
 40
1.0
 10
27.1123949339
 20
52.2228781229
 30
0.0
 10
27.1462832888
 20
52.2033131147
 30
0.0
 10
27.2204270848
 20
52.1688146384
 30
0.0
 10
27.384643908
 20
52.118905083
 30
0.0
 10
27.607371026
 20
52.0947180565
 30
0.0
 10
27.8300976506
 20
52.1189063827
 30
0.0
 10
27.9943134598
 20
52.1688165704
 30
0.0
 10
28.0684564593
 20
52.2033153907
 30
0.0
 10
28.1023444514
 20
52.2228805163
 30
0.0
  0
SPLINE
  5
313
100
AcDbEntity
  8
0
100
AcDbSpline
 62
7
  6
BYLAYER
 70
0
 71
3
 72
9
 73
5
 74
0
 42
0.0000001
 43
0.0000001
 44
0.0000000001
 40
0.0
 40
0.0
 40
0.0
 40
0.0
 40
0.5210971945
 40
1.0
 40
1.0
 40
1.0
 40
1.0
 10
27.1646505907
 20
52.5086534476
 30
0.0
 10
27.1480770594
 20
52.460809408
 30
0.0
 10
27.1225302697
 20
52.366666091
 30
0.0
 10
27.1123949339
 20
52.2694115602
 30
0.0
 10
27.1123949339
 20
52.2228781229
 30
0.0
  0
SPLINE
  5
314
100
AcDbEntity
  8
0
100
AcDbSpline
 62
7
  6
BYLAYER
 70
0
 71
3
 72
9
 73
5
 74
0
 42
0.0000001
 43
0.0000001
 44
0.0000000001
 40
0.0
 40
0.0
 40
0.0
 40
0.0
 40
0.4789028057
 40
1.0
 40
1.0
 40
1.0
 40
1.0
 10
7.0304412315
 20
63.8169805171
 30
0.0
 10
7.0304412315
 20
63.8635139543
 30
0.0
 10
7.0405765673
 20
63.9607684852
 30
0.0
 10
7.066123357
 20
64.0549118021
 30
0.0
 10
7.0826968883
 20
64.1027558417
 30
0.0
  0
SPLINE
  5
315
100
AcDbEntity
  8
0
100
AcDbSpline
 62
7
  6
BYLAYER
 70
0
 71
3
 72
11
 73
7
 74
0
 42
0.0000001
 43
0.0000001
 44
0.0000000001
 40
0.0
 40
0.0
 40
0.0
 40
0.0
 40
0.2895187544
 40
0.5490915358
 40
0.782248506
 40
1.0
 40
1.0
 40
1.0
 40
1.0
 10
7.5254139175
 20
64.6743031168
 30
0.0
 10
7.4947338463
 20
64.6920158634
 30
0.0
 10
7.433651599
 20
64.7210412554
 30
0.0
 10
7.3398030467
 20
64.7437755468
 30
0.0
 10
7.251693025
 20
64.741603248
 30
0.0
 10
7.1986785306
 20
64.7223387416
 30
0.0
 10
7.1755930569
 20
64.7090349546
 30
0.0
  0
SPLINE
  5
316
100
AcDbEntity
  8
0
100
AcDbSpline
 62
7
  6
BYLAYER
 70
0
 71
3
 72
11
 73
7
 74
0
 42
0.0000001
 43
0.0000001
 44
0.0000000001
 40
0.0
 40
0.0
 40
0.0
 40
0.0
 40
0.2594200334
 40
0.5210006693
 40
0.7716336985
 40
1.0
 40
1.0
 40
1.0
 40
1.0
 10
7.0826968883
 20
64.1027558417
 30
0.0
 10
7.1035345033
 20
64.1629093272
 30
0.0
 10
7.1558891167
 20
64.2802783694
 30
0.0
 10
7.2595064058
 20
64.4396804015
 30
0.0
 10
7.3823204691
 20
64.5747150314
 30
0.0
 10
7.4768818012
 20
64.6462832536
 30
0.0
 10
7.5254139175
 20
64.6743031168
 30
0.0
  0
SPLINE
  5
317
100
AcDbEntity
  8
0
100
AcDbSpline
 62
7
  6
BYLAYER
 70
0
 71
3
 72
11
 73
7
 74
0
 42
0.0000001
 43
0.0000001
 44
0.0000000001
 40
0.0
 40
0.0
 40
0.0
 40
0.0
 40
0.2895301661
 40
0.5490934225
 40
0.7822420821
 40
1.0
 40
1.0
 40
1.0
 40
1.0
 10
17.7077091734
 20
70.5530189325
 30
0.0
 10
17.7384053497
 20
70.5707412724
 30
0.0
 10
17.7995187549
 20
70.5997803119
 30
0.0
 10
17.8934181125
 20
70.6225075702
 30
0.0
 10
17.9815711913
 20
70.6203003414
 30
0.0
 10
18.0345999307
 20
70.6009890384
 30
0.0
 10
18.0576868617
 20
70.5876600918
 30
0.0
  0
ELLIPSE
  5
318
100
AcDbEntity
  8
0
100
AcDbEllipse
 62
7
  6
BYLAYER
 10
9.5533228768
 20
60.5378822955
 30
0.0
 11
-0.3769544651
 21
0.6483893478
 31
0.0
 40
0.5753379947
 41
1.2493159405
 42
1.8849137513
  0
ELLIPSE
  5
319
100
AcDbEntity
  8
0
100
AcDbEllipse
 62
7
  6
BYLAYER
 10
18.7457493037
 20
55.2307524867
 30
0.0
 11
-0.3769544651
 21
0.6483893478
 31
0.0
 40
0.5753379947
 41
1.2493159405
 42
1.8849137513
  0
ELLIPSE
  5
31A
100
AcDbEntity
  8
0
100
AcDbEllipse
 62
7
  6
BYLAYER
 10
20.9322143063
 20
56.3625067191
 30
0.0
 11
-0.4949789459
 21
0.8573189856
 31
0.0
 40
0.5773470039
 41
-0.0000043201
 42
1.5707920067
  0
ELLIPSE
  5
31B
100
AcDbEntity
  8
0
100
AcDbEllipse
 62
7
  6
BYLAYER
 10
27.6073307005
 20
44.392681721
 30
0.0
 11
-0.4949789459
 21
0.8573189856
 31
0.0
 40
0.5773470039
 41
1.5707920067
 42
3.1415883335
  0
ELLIPSE
  5
31C
100
AcDbEntity
  8
0
100
AcDbEllipse
 62
7
  6
BYLAYER
 10
31.1145095622
 20
62.2412225348
 30
0.0
 11
-0.4949789459
 21
0.8573189856
 31
0.0
 40
0.5773470039
 41
5.2394289427
 42
6.2831809871
  0
ENDSEC
  0
SECTION
  2
OBJECTS
  0
DICTIONARY
  5
C
100
AcDbDictionary
280
0
281
1
  3
ACAD_GROUP
350
D
  3
ACAD_MLINESTYLE
350
17
  3
ACAD_LAYOUT
350
1A
  3
ACAD_PLOTSETTINGS
350
19
  3
ACAD_PLOTSTYLENAME
350
E
  0
DICTIONARY
  5
D
102
{ACAD_REACTORS
330
C
102
}
100
AcDbDictionary
280
0
281
1
  0
ACDBDICTIONARYWDFLT
  5
E
102
{ACAD_REACTORS
330
C
102
}
100
AcDbDictionary
281
1
  3
Normal
350
F
100
AcDbDictionaryWithDefault
340
F
  0
DICTIONARY
  5
17
102
{ACAD_REACTORS
330
C
102
}
100
AcDbDictionary
280
0
281
1
  3
Standard
350
18
  0
DICTIONARY
  5
19
102
{ACAD_REACTORS
330
C
102
}
100
AcDbDictionary
281
1
  0
DICTIONARY
  5
1A
102
{ACAD_REACTORS
330
C
102
}
100
AcDbDictionary
281
1
  3
Model
350
31D
  3
Layout1
350
31E
  0
ACDBPLACEHOLDER
  5
F
102
{ACAD_REACTORS
330
E
102
}
  0
MLINESTYLE
  5
18
102
{ACAD_REACTORS
330
17
102
}
100
AcDbMlineStyle
  2
STANDARD
 70
0
  3

 62
256
 51
90.0
 52
90.0
 71
2
 49
0.5
 62
256
  6
BYLAYER
 49
-0.5
 62
256
  6
BYLAYER
  0
LAYOUT
  5
31D
102
{ACAD_REACTORS
330
1A
102
}
100
AcDbPlotSettings
  1

  2
none_device
  4

  6

 40
0.0
 41
0.0
 42
0.0
 43
0.0
 44
210.0
 45
297.0
 46
0.0
 47
0.0
 48
0.0
 49
0.0
140
0.0
141
0.0
142
1.0
143
1.0
 70
1024
 72
1
 73
0
 74
0
  7

 75
0
147
1.0
148
0.0
149
0.0
100
AcDbLayout
  1
Model
 70
0
 71
0
 10
0.0
 20
0.0
 11
210.0
 21
297.0
 12
0.0
 22
0.0
 32
0.0
 14
0.0
 24
0.0
 34
0.0
 15
0.0
 25
0.0
 35
0.0
146
0.0
 13
0.0
 23
0.0
 33
0.0
 16
1.0
 26
0.0
 36
0.0
 17
0.0
 27
1.0
 37
0.0
 76
0
330
211
345
0
346
0
  0
LAYOUT
  5
31E
102
{ACAD_REACTORS
330
1A
102
}
100
AcDbPlotSettings
  1

  2
none_device
  4

  6

 40
0.0
 41
0.0
 42
0.0
 43
0.0
 44
210.0
 45
297.0
 46
0.0
 47
0.0
 48
0.0
 49
0.0
140
0.0
141
0.0
142
1.0
143
1.0
 70
0
 72
1
 73
0
 74
0
  7

 75
0
147
1.0
148
0.0
149
0.0
100
AcDbLayout
  1
Layout1
 70
0
 71
1
 10
0.0
 20
0.0
 11
210.0
 21
297.0
 12
0.0
 22
0.0
 32
0.0
 14
0.0
 24
0.0
 34
0.0
 15
0.0
 25
0.0
 35
0.0
146
0.0
 13
0.0
 23
0.0
 33
0.0
 16
1.0
 26
0.0
 36
0.0
 17
0.0
 27
1.0
 37
0.0
 76
0
330
212
345
0
346
0
  0
ENDSEC
  0
EOF
