999
DXF file: C:\Users\sesa63760\Dev\_Creo\CAD\MCADID0004139_3D-CAD\drw0001_5.dxf
999
Pro/ENGINEER 2019471 by Parametric Technology Corporation
  0
SECTION
  2
HEADER
  9
$ACADVER
  1
AC1024
  9
$DWGCODEPAGE
  3
ANSI_1252
  9
$EXTMAX
 10
54.6927082259
 20
77.3511159195
 30
0.0
  9
$EXTMIN
 10
0.0
 20
0.0
 30
0.0
  9
$LIMMIN
 10
0.0
 20
0.0
  9
$LIMMAX
 10
54.6927082259
 20
77.3511159195
  9
$VIEWCTR
 10
27.346354113
 20
38.6755579598
  9
$VIEWSIZE
 40
77.3511159195
  9
$CLAYER
  8
0
  9
$LTSCALE
 40
5.0421468155
  9
$CELTYPE
  6
BYLAYER
  9
$DIMSCALE
 40
1.0
  9
$DIMASZ
 40
0.6511036694
  9
$DIMEXO
 40
1.0
  9
$DIMDLI
 40
3.4836650725
  9
$DIMEXE
 40
1.0
  9
$DIMCEN
 40
0.8250785698
  9
$DIMLFAC
 40
1.0
  9
$DIMBLK
  1
_FILLED
  9
$DIMALT
 70
0
  9
$DIMALTF
 40
0.0393700787
  9
$DIMTXT
 40
0.9115451371
  9
$DIMTOL
 70
1
  9
$DIMLIM
 70
0
  9
$DIMTFAC
 40
1.0
  9
$DIMTP
 40
0.01
  9
$DIMTM
 40
0.01
  9
$DIMGAP
 40
0.625
  9
$DIMDSEP
 70
46
  9
$AUNITS
 70
0
  9
$PDMODE
 70
3
  9
$PDSIZE
 40
0.3125
  9
$HANDSEED
  5
329
  9
$TILEMODE
 70
1
  9
$MEASUREMENT
 70
1
  9
$INSUNITS
 70
4
  0
ENDSEC
  0
SECTION
  2
CLASSES
  0
CLASS
  1
ACDBDICTIONARYWDFLT
  2
AcDbDictionaryWithDefault
  3
AutoCAD 2000
 90
0
 91
1
280
0
281
0
  0
CLASS
  1
ACDBPLACEHOLDER
  2
AcDbPlaceHolder
  3
AutoCAD 2000
 90
0
 91
1
280
0
281
0
  0
CLASS
  1
LAYOUT
  2
AcDbLayout
  3
AutoCAD 2000
 90
0
 91
0
280
0
281
0
  0
ENDSEC
  0
SECTION
  2
TABLES
  0
TABLE
  2
VPORT
  5
8
100
AcDbSymbolTable
 70
2
  0
VPORT
  5
1F4
100
AcDbSymbolTableRecord
100
AcDbViewportTableRecord
  2
*ACTIVE
 70
0
 10
0.0
 20
0.0
 11
1.0
 21
1.0
 12
27.346354113
 22
38.6755579598
 13
0.0
 23
0.0
 14
1.0
 24
1.0
 15
0.0
 25
0.0
 16
0.0
 26
0.0
 36
1.0
 17
0.0
 27
0.0
 37
0.0
 40
77.3511159195
 41
0.7070707071
 42
50.0
 43
0.0
 44
0.0
 50
0.0
 51
0.0
 71
0
 72
100
 73
1
 74
1
 75
0
 76
0
 77
0
 78
0
  0
ENDTAB
  0
TABLE
  2
LTYPE
  5
5
100
AcDbSymbolTable
 70
6
  0
LTYPE
  5
14
100
AcDbSymbolTableRecord
100
AcDbLinetypeTableRecord
  2
BYBLOCK
 70
0
  3

 72
65
 73
0
 40
0.0
  0
LTYPE
  5
15
100
AcDbSymbolTableRecord
100
AcDbLinetypeTableRecord
  2
BYLAYER
 70
0
  3

 72
65
 73
0
 40
0.0
  0
LTYPE
  5
16
100
AcDbSymbolTableRecord
100
AcDbLinetypeTableRecord
  2
CONTINUOUS
 70
64
  3
Solid line
 72
65
 73
0
 40
0.0
  0
LTYPE
  5
1F5
100
AcDbSymbolTableRecord
100
AcDbLinetypeTableRecord
  2
CENTER
 70
64
  3
____ _ ____ _ ____ _ ____ _ ____ _ ____ _ ____
 72
65
 73
4
 40
0.6
 49
0.375
 74
0
 49
-0.075
 74
0
 49
0.075
 74
0
 49
-0.075
 74
0
  0
LTYPE
  5
1F6
100
AcDbSymbolTableRecord
100
AcDbLinetypeTableRecord
  2
HIDDEN
 70
64
  3
- - - - - - - - - - - - - - - - - - - -
 72
65
 73
2
 40
0.2
 49
0.1
 74
0
 49
-0.1
 74
0
  0
LTYPE
  5
1F7
100
AcDbSymbolTableRecord
100
AcDbLinetypeTableRecord
  2
PHANTOM
 70
64
  3
_____ _ _ _____ _ _ _____ _ _ _____
 72
65
 73
6
 40
0.8
 49
0.45
 74
0
 49
-0.05
 74
0
 49
0.1
 74
0
 49
-0.05
 74
0
 49
0.1
 74
0
 49
-0.05
 74
0
  0
LTYPE
  5
1F8
100
AcDbSymbolTableRecord
100
AcDbLinetypeTableRecord
  2
DOT
 70
64
  3
. . . . . . . . . . . . . . . . . . . .
 72
65
 73
2
 40
0.2
 49
0.1
 74
0
 49
-0.1
 74
0
  0
LTYPE
  5
1F9
100
AcDbSymbolTableRecord
100
AcDbLinetypeTableRecord
  2
DASHED
 70
64
  3
- - - - - - - - - - - - - - - - - - - -
 72
65
 73
2
 40
0.2
 49
0.1
 74
0
 49
-0.1
 74
0
  0
ENDTAB
  0
TABLE
  2
LAYER
  5
2
100
AcDbSymbolTable
 70
36
  0
LAYER
  5
10
100
AcDbSymbolTableRecord
100
AcDbLayerTableRecord
  2
0
 70
0
 62
7
  6
CONTINUOUS
370
-3
390
F
  0
LAYER
  5
1FA
100
AcDbSymbolTableRecord
100
AcDbLayerTableRecord
  2
DEFAULT_1
 70
0
 62
7
  6
CENTER
370
-3
390
F
  0
LAYER
  5
1FB
100
AcDbSymbolTableRecord
100
AcDbLayerTableRecord
  2
DEFAULT_2
 70
0
 62
7
  6
HIDDEN
370
-3
390
F
  0
LAYER
  5
1FC
100
AcDbSymbolTableRecord
100
AcDbLayerTableRecord
  2
DEFAULT_3
 70
0
 62
7
  6
PHANTOM
370
-3
390
F
  0
LAYER
  5
1FD
100
AcDbSymbolTableRecord
100
AcDbLayerTableRecord
  2
00_COMPONENTS
 70
0
 62
7
  6
CONTINUOUS
370
-3
390
F
  0
LAYER
  5
1FE
100
AcDbSymbolTableRecord
100
AcDbLayerTableRecord
  2
01_1_DEFAULT_DATUMS
 70
0
 62
7
  6
CONTINUOUS
370
-3
390
F
  0
LAYER
  5
1FF
100
AcDbSymbolTableRecord
100
AcDbLayerTableRecord
  2
01_PLANES
 70
0
 62
7
  6
CONTINUOUS
370
-3
390
F
  0
LAYER
  5
200
100
AcDbSymbolTableRecord
100
AcDbLayerTableRecord
  2
02_COORD_SYS
 70
0
 62
7
  6
CONTINUOUS
370
-3
390
F
  0
LAYER
  5
201
100
AcDbSymbolTableRecord
100
AcDbLayerTableRecord
  2
03_AXES
 70
0
 62
7
  6
CONTINUOUS
370
-3
390
F
  0
LAYER
  5
202
100
AcDbSymbolTableRecord
100
AcDbLayerTableRecord
  2
04_POINTS
 70
0
 62
7
  6
CONTINUOUS
370
-3
390
F
  0
LAYER
  5
203
100
AcDbSymbolTableRecord
100
AcDbLayerTableRecord
  2
05_CURVES
 70
0
 62
7
  6
CONTINUOUS
370
-3
390
F
  0
LAYER
  5
204
100
AcDbSymbolTableRecord
100
AcDbLayerTableRecord
  2
06_SURFS
 70
0
 62
7
  6
CONTINUOUS
370
-3
390
F
  0
LAYER
  5
205
100
AcDbSymbolTableRecord
100
AcDbLayerTableRecord
  2
07_COSMETICS
 70
0
 62
7
  6
CONTINUOUS
370
-3
390
F
  0
LAYER
  5
206
100
AcDbSymbolTableRecord
100
AcDbLayerTableRecord
  2
10_NOTES
 70
0
 62
7
  6
CONTINUOUS
370
-3
390
F
  0
LAYER
  5
207
100
AcDbSymbolTableRecord
100
AcDbLayerTableRecord
  2
11_NOTES_PUB
 70
0
 62
7
  6
CONTINUOUS
370
-3
390
F
  0
LAYER
  5
208
100
AcDbSymbolTableRecord
100
AcDbLayerTableRecord
  2
13_REF_GTOL
 70
0
 62
7
  6
CONTINUOUS
370
-3
390
F
  0
LAYER
  5
209
100
AcDbSymbolTableRecord
100
AcDbLayerTableRecord
  2
16_MISC
 70
0
 62
7
  6
CONTINUOUS
370
-3
390
F
  0
LAYER
  5
20A
100
AcDbSymbolTableRecord
100
AcDbLayerTableRecord
  2
17_NO_PRINT
 70
0
 62
7
  6
CONTINUOUS
370
-3
390
F
  0
LAYER
  5
20B
100
AcDbSymbolTableRecord
100
AcDbLayerTableRecord
  2
18_DATUM_CAMS_JOINTS
 70
0
 62
7
  6
CONTINUOUS
370
-3
390
F
  0
LAYER
  5
20C
100
AcDbSymbolTableRecord
100
AcDbLayerTableRecord
  2
19_DATUM_FUNCTIONAL
 70
0
 62
7
  6
CONTINUOUS
370
-3
390
F
  0
LAYER
  5
20D
100
AcDbSymbolTableRecord
100
AcDbLayerTableRecord
  2
20_DATUM_KINEMATIC_SCHEME
 70
0
 62
7
  6
CONTINUOUS
370
-3
390
F
  0
ENDTAB
  0
TABLE
  2
STYLE
  5
3
100
AcDbSymbolTable
 70
1
  0
STYLE
  5
11
100
AcDbSymbolTableRecord
100
AcDbTextStyleTableRecord
  2
STANDARD
 70
0
 40
0.0
 41
1.0
 50
0.0
 71
0
 42
0.2
  3
ARIAL.TTF
  4

  0
STYLE
  5
20E
100
AcDbSymbolTableRecord
100
AcDbTextStyleTableRecord
  2
TEXTSTYLE_1
 70
0
 40
0.0
 41
0.8
 50
0.0
 71
0
 42
0.2
  3
gdt
  4

  0
ENDTAB
  0
TABLE
  2
VIEW
  5
6
100
AcDbSymbolTable
 70
0
  0
ENDTAB
  0
TABLE
  2
UCS
  5
7
100
AcDbSymbolTable
 70
0
  0
ENDTAB
  0
TABLE
  2
APPID
  5
9
100
AcDbSymbolTable
 70
1
  0
APPID
  5
20F
100
AcDbSymbolTableRecord
100
AcDbRegAppTableRecord
  2
ACAD
 70
0
  0
ENDTAB
  0
TABLE
  2
BLOCK_RECORD
  5
1
100
AcDbSymbolTable
 70
0
  0
BLOCK_RECORD
  5
210
100
AcDbSymbolTableRecord
100
AcDbBlockTableRecord
  2
*Model_Space
  0
BLOCK_RECORD
  5
211
100
AcDbSymbolTableRecord
100
AcDbBlockTableRecord
  2
*Paper_Space
  0
BLOCK_RECORD
  5
212
100
AcDbSymbolTableRecord
100
AcDbBlockTableRecord
  2
_FILLED
  0
ENDTAB
  0
TABLE
  2
DIMSTYLE
  5
A
100
AcDbSymbolTable
 70
1
100
AcDbDimStyleTable
 71
0
  0
DIMSTYLE
105
213
100
AcDbSymbolTableRecord
100
AcDbDimStyleTableRecord
  2
STANDARD
 70
0
  3

  4

 40
1.0
 41
0.6511036694
 42
1.0
 43
0.38
 44
1.0
 45
0.0
 46
0.0
 47
0.01
 48
0.01
140
0.9115451371
141
0.09
142
0.0
143
25.4
144
1.0
145
0.0
146
1.0
147
0.625
 71
1
 72
0
 73
0
 74
0
 75
0
 76
0
 77
1
 78
8
 79
2
170
0
171
1
172
0
173
0
174
0
175
0
176
0
177
0
178
0
270
2
179
2
271
2
272
2
273
2
274
2
275
0
280
0
281
0
282
0
283
1
284
8
285
0
286
0
287
3
288
0
340
11
278
46
341
212
342
212
343
212
344
212
  0
ENDTAB
  0
ENDSEC
  0
SECTION
  2
BLOCKS
  0
BLOCK
  5
20
100
AcDbEntity
  8
0
100
AcDbBlockBegin
  2
*Model_Space
 70
0
 10
0.0
 20
0.0
 30
0.0
  3
*Model_Space
  1

  0
ENDBLK
  5
21
100
AcDbEntity
  8
0
100
AcDbBlockEnd
  0
BLOCK
  5
1C
100
AcDbEntity
  8
0
100
AcDbBlockBegin
  2
*Paper_Space
 70
0
 10
0.0
 20
0.0
 30
0.0
  3
*Paper_Space
  1

  0
ENDBLK
  5
1D
100
AcDbEntity
  8
0
100
AcDbBlockEnd
  0
BLOCK
  5
214
100
AcDbEntity
  8
0
100
AcDbBlockBegin
  2
_FILLED
 70
64
 10
0.0
 20
0.0
  3
_FILLED
  1

  0
SOLID
  5
215
100
AcDbEntity
  8
0
  6
BYBLOCK
 62
0
100
AcDbTrace
 10
0.0
 20
0.0
 11
-1.0
 21
0.25
 12
-1.0
 22
-0.25
 13
-1.0
 23
-0.25
  0
ENDBLK
  5
216
100
AcDbEntity
  8
0
  6
BYBLOCK
 62
0
100
AcDbBlockEnd
  0
ENDSEC
  0
SECTION
  2
ENTITIES
  0
LINE
  5
217
100
AcDbEntity
  8
0
100
AcDbLine
 62
7
  6
BYLAYER
 10
32.9165837343
 20
6.2960210632
 11
23.2909568744
 21
6.2960210632
  0
LINE
  5
218
100
AcDbEntity
  8
0
100
AcDbLine
 62
7
  6
BYLAYER
 10
23.1144275333
 20
6.4080029006
 11
33.0931130755
 21
6.4080029006
  0
LINE
  5
219
100
AcDbEntity
  8
0
100
AcDbLine
 62
7
  6
BYLAYER
 10
22.9537703043
 20
6.7490800786
 11
33.2537703045
 21
6.7490800785
  0
LINE
  5
21A
100
AcDbEntity
  8
0
100
AcDbLine
 62
7
  6
BYLAYER
 10
33.3479213986
 20
8.4943517904
 11
22.8596192102
 21
8.4943517904
  0
LINE
  5
21B
100
AcDbEntity
  8
0
100
AcDbLine
 62
7
  6
BYLAYER
 10
22.7037703044
 20
8.6502006962
 11
33.5037703044
 21
8.6502006962
  0
LINE
  5
21C
100
AcDbEntity
  8
0
100
AcDbLine
 62
7
  6
BYLAYER
 10
22.7037703044
 20
9.1937701946
 11
33.5037703044
 21
9.1937701946
  0
LINE
  5
21D
100
AcDbEntity
  8
0
100
AcDbLine
 62
7
  6
BYLAYER
 10
22.8047222889
 20
9.2939017454
 11
33.4028183199
 21
9.2939017454
  0
LINE
  5
21E
100
AcDbEntity
  8
0
100
AcDbLine
 62
7
  6
BYLAYER
 10
22.8047222891
 20
10.3981022814
 11
33.4028183197
 21
10.3981022814
  0
LINE
  5
21F
100
AcDbEntity
  8
0
100
AcDbLine
 62
7
  6
BYLAYER
 10
22.1037703045
 20
11.1038608235
 11
34.1037703043
 21
11.1038608236
  0
LWPOLYLINE
  5
220
100
AcDbEntity
  8
0
100
AcDbPolyline
 62
7
  6
BYLAYER
 90
3
 70
0
 10
16.6176403719
 20
70.2962126699
 10
16.6891105477
 20
70.4031212525
 10
16.8108255379
 20
70.4444488669
  0
LINE
  5
221
100
AcDbEntity
  8
0
100
AcDbLine
 62
7
  6
BYLAYER
 10
22.8047222891
 20
10.3981022814
 11
22.1037703045
 21
11.1038608235
  0
LINE
  5
222
100
AcDbEntity
  8
0
100
AcDbLine
 62
7
  6
BYLAYER
 10
22.1037703044
 20
16.8214089772
 11
34.1037703044
 21
16.8214089772
  0
LINE
  5
223
100
AcDbEntity
  8
0
100
AcDbLine
 62
7
  6
BYLAYER
 10
21.6037703044
 20
17.2956877869
 11
34.6037703044
 21
17.2956877869
  0
LINE
  5
224
100
AcDbEntity
  8
0
100
AcDbLine
 62
7
  6
BYLAYER
 10
16.8319997292
 20
71.0962126826
 11
16.6037703044
 21
70.2444488733
  0
LINE
  5
225
100
AcDbEntity
  8
0
100
AcDbLine
 62
7
  6
BYLAYER
 10
17.025184904
 20
71.1858702288
 11
16.8422177555
 21
70.5030275345
  0
LINE
  5
226
100
AcDbEntity
  8
0
100
AcDbLine
 62
7
  6
BYLAYER
 10
17.0251848942
 20
71.0962126815
 11
16.8366752373
 21
70.3926850643
  0
LINE
  5
227
100
AcDbEntity
  8
0
100
AcDbLine
 62
7
  6
BYLAYER
 10
31.9813942129
 20
20.2444488731
 11
24.2264200364
 21
20.2444488731
  0
LINE
  5
228
100
AcDbEntity
  8
0
100
AcDbLine
 62
7
  6
BYLAYER
 10
21.6037703044
 20
20.2956877869
 11
34.6037703044
 21
20.2956877869
  0
LINE
  5
229
100
AcDbEntity
  8
0
100
AcDbLine
 62
7
  6
BYLAYER
 10
23.1144275333
 20
6.4080029006
 11
22.9537703044
 21
6.7490800783
  0
LWPOLYLINE
  5
22A
100
AcDbEntity
  8
0
100
AcDbPolyline
 62
7
  6
BYLAYER
 90
7
 70
0
 10
16.6037702294
 20
70.0442979352
 10
16.6142268968
 20
70.1082722151
 10
16.6427864771
 20
70.163126463
 10
16.6858793683
 20
70.2060091068
 10
16.7334463447
 20
70.2316398513
 10
16.771165153
 20
70.2417809451
 10
16.803701645
 20
70.2444491948
  0
LINE
  5
22B
100
AcDbEntity
  8
0
100
AcDbLine
 62
7
  6
BYLAYER
 10
35.5644345178
 20
70.2712613629
 11
35.7111466433
 21
70.4178111685
  0
LINE
  5
22C
100
AcDbEntity
  8
0
100
AcDbLine
 62
7
  6
BYLAYER
 10
39.4037703045
 20
22.0444488732
 11
16.8037703045
 21
22.0444488732
  0
LINE
  5
22D
100
AcDbEntity
  8
0
100
AcDbLine
 62
7
  6
BYLAYER
 10
39.4037703045
 20
22.1030275175
 11
16.8037703045
 21
22.1030275175
  0
LINE
  5
22E
100
AcDbEntity
  8
0
100
AcDbLine
 62
7
  6
BYLAYER
 10
16.8037703045
 20
22.2391436947
 11
39.4037703045
 21
22.2391436947
  0
LINE
  5
22F
100
AcDbEntity
  8
0
100
AcDbLine
 62
7
  6
BYLAYER
 10
33.4028183199
 20
9.2939017454
 11
33.5037703044
 21
9.1937701946
  0
LINE
  5
230
100
AcDbEntity
  8
0
100
AcDbLine
 62
7
  6
BYLAYER
 10
24.2264200361
 20
20.2444488727
 11
23.4264200353
 21
21.0444488735
  0
LINE
  5
231
100
AcDbEntity
  8
0
100
AcDbLine
 62
7
  6
BYLAYER
 10
16.7347181845
 20
70.1745176089
 11
16.7466972468
 21
64.8725962652
  0
LINE
  5
232
100
AcDbEntity
  8
0
100
AcDbLine
 62
7
  6
BYLAYER
 10
16.6037703045
 20
70.2444488732
 11
16.6037703045
 21
22.244448866
  0
LINE
  5
233
100
AcDbEntity
  8
0
100
AcDbLine
 62
7
  6
BYLAYER
 10
16.8037703045
 20
22.0444488732
 11
16.8037703045
 21
70.2444488732
  0
LINE
  5
234
100
AcDbEntity
  8
0
100
AcDbLine
 62
7
  6
BYLAYER
 10
16.8366752373
 20
70.3926850642
 11
16.8366752373
 21
70.2444488732
  0
LWPOLYLINE
  5
235
100
AcDbEntity
  8
0
100
AcDbPolyline
 62
7
  6
BYLAYER
 90
10
 70
0
 10
16.6037703044
 20
70.0444511529
 10
16.6053475942
 20
70.0695170301
 10
16.6086322281
 20
70.0882700524
 10
16.6152158705
 20
70.111105884
 10
16.6283098026
 20
70.1404320028
 10
16.6394494174
 20
70.1584499805
 10
16.6547332889
 20
70.1778201189
 10
16.6846911116
 20
70.2051344005
 10
16.7449050877
 20
70.2355805907
 10
16.8037340133
 20
70.2444489814
  0
LWPOLYLINE
  5
236
100
AcDbEntity
  8
0
100
AcDbPolyline
 62
7
  6
BYLAYER
 90
3
 70
0
 10
35.6434891296
 20
70.3926815061
 10
35.5724429837
 20
70.2861019478
 10
35.4503058096
 20
70.2444488732
  0
LINE
  5
237
100
AcDbEntity
  8
0
100
AcDbLine
 62
7
  6
BYLAYER
 10
17.0251848945
 20
71.2444488732
 11
17.0251848944
 21
71.0962126826
  0
LINE
  5
238
100
AcDbEntity
  8
0
100
AcDbLine
 62
7
  6
BYLAYER
 10
17.8037703052
 20
64.3192920176
 11
17.8037703052
 21
27.1731738149
  0
LWPOLYLINE
  5
239
100
AcDbEntity
  8
0
100
AcDbPolyline
 62
7
  6
BYLAYER
 90
4
 70
0
 10
20.1900551382
 20
27.1462678396
 10
20.6289125569
 20
25.0545976281
 10
21.1057706824
 20
22.7609869147
 10
21.6037703346
 20
20.2956877894
  0
LINE
  5
23A
100
AcDbEntity
  8
0
100
AcDbLine
 62
7
  6
BYLAYER
 10
20.1037703044
 20
27.9733794385
 11
20.1037703044
 21
28.1147622875
  0
LINE
  5
23B
100
AcDbEntity
  8
0
100
AcDbLine
 62
7
  6
BYLAYER
 10
20.1823557161
 20
71.2444488732
 11
20.1823557147
 21
71.0962126814
  0
LINE
  5
23C
100
AcDbEntity
  8
0
100
AcDbLine
 62
7
  6
BYLAYER
 10
20.3708653655
 20
70.3926850707
 11
20.3708653655
 21
70.2444488732
  0
LINE
  5
23D
100
AcDbEntity
  8
0
100
AcDbLine
 62
7
  6
BYLAYER
 10
39.4037703052
 20
30.0444488733
 11
39.6037703045
 21
30.0444488733
  0
LINE
  5
23E
100
AcDbEntity
  8
0
100
AcDbLine
 62
7
  6
BYLAYER
 10
21.6037703044
 20
20.2956877869
 11
21.6037703044
 21
17.2956877869
  0
LINE
  5
23F
100
AcDbEntity
  8
0
100
AcDbLine
 62
7
  6
BYLAYER
 10
22.1037703044
 20
16.8214089772
 11
22.1037703044
 21
11.1038608236
  0
LINE
  5
240
100
AcDbEntity
  8
0
100
AcDbLine
 62
7
  6
BYLAYER
 10
22.7037703044
 20
9.1937701946
 11
22.7037703044
 21
8.6502006966
  0
LINE
  5
241
100
AcDbEntity
  8
0
100
AcDbLine
 62
7
  6
BYLAYER
 10
22.8047222891
 20
10.3981022814
 11
22.8047222891
 21
9.2939017456
  0
LINE
  5
242
100
AcDbEntity
  8
0
100
AcDbLine
 62
7
  6
BYLAYER
 10
22.9537703044
 20
8.4943517904
 11
22.9537703044
 21
6.7490800786
  0
LINE
  5
243
100
AcDbEntity
  8
0
100
AcDbLine
 62
7
  6
BYLAYER
 10
23.4264200352
 20
38.044687787
 11
23.4264200352
 21
67.2446877869
  0
LINE
  5
244
100
AcDbEntity
  8
0
100
AcDbLine
 62
7
  6
BYLAYER
 10
39.4037703045
 20
34.0944488733
 11
16.8037703045
 21
34.0944488733
  0
LINE
  5
245
100
AcDbEntity
  8
0
100
AcDbLine
 62
7
  6
BYLAYER
 10
32.7812207327
 20
21.0442753923
 11
32.2037703047
 21
22.0444488732
  0
LINE
  5
246
100
AcDbEntity
  8
0
100
AcDbLine
 62
7
  6
BYLAYER
 10
24.0037703053
 20
38.0446877875
 11
24.0037703053
 21
67.2446877867
  0
LINE
  5
247
100
AcDbEntity
  8
0
100
AcDbLine
 62
7
  6
BYLAYER
 10
24.226420036
 20
38.044687787
 11
24.226420036
 21
67.2446877869
  0
LINE
  5
248
100
AcDbEntity
  8
0
100
AcDbLine
 62
7
  6
BYLAYER
 10
25.50333393
 20
70.1444488732
 11
25.50333393
 21
70.0444488732
  0
LINE
  5
249
100
AcDbEntity
  8
0
100
AcDbLine
 62
7
  6
BYLAYER
 10
25.60333393
 20
70.7223754197
 11
25.60333393
 21
70.0444488732
  0
LINE
  5
24A
100
AcDbEntity
  8
0
100
AcDbLine
 62
7
  6
BYLAYER
 10
16.8037703037
 20
34.9858702295
 11
39.4037703052
 21
34.9858702295
  0
LINE
  5
24B
100
AcDbEntity
  8
0
100
AcDbLine
 62
7
  6
BYLAYER
 10
39.6037703045
 20
35.1272915858
 11
16.6037703045
 21
35.1272915858
  0
LINE
  5
24C
100
AcDbEntity
  8
0
100
AcDbLine
 62
7
  6
BYLAYER
 10
27.1858296445
 20
70.694448874
 11
27.1858296445
 21
70.8944488732
  0
LINE
  5
24D
100
AcDbEntity
  8
0
100
AcDbLine
 62
7
  6
BYLAYER
 10
27.2706416854
 20
70.6944488736
 11
27.2706416854
 21
70.8944488732
  0
LINE
  5
24E
100
AcDbEntity
  8
0
100
AcDbLine
 62
7
  6
BYLAYER
 10
27.3445639896
 20
70.6944488736
 11
27.3445639896
 21
70.8944488732
  0
LINE
  5
24F
100
AcDbEntity
  8
0
100
AcDbLine
 62
7
  6
BYLAYER
 10
27.439620021
 20
70.694448874
 11
27.4396200211
 21
70.8944488732
  0
LINE
  5
250
100
AcDbEntity
  8
0
100
AcDbLine
 62
7
  6
BYLAYER
 10
27.4626918734
 20
70.8944488732
 11
27.4626918734
 21
70.694448874
  0
LINE
  5
251
100
AcDbEntity
  8
0
100
AcDbLine
 62
7
  6
BYLAYER
 10
27.4829951029
 20
70.694448874
 11
27.4829951032
 21
70.8944488732
  0
LINE
  5
252
100
AcDbEntity
  8
0
100
AcDbLine
 62
7
  6
BYLAYER
 10
27.5512877858
 20
70.694448874
 11
27.5512877854
 21
70.8944488732
  0
LINE
  5
253
100
AcDbEntity
  8
0
100
AcDbLine
 62
7
  6
BYLAYER
 10
27.5632851497
 20
70.694448874
 11
27.5632851495
 21
70.8944488732
  0
LINE
  5
254
100
AcDbEntity
  8
0
100
AcDbLine
 62
7
  6
BYLAYER
 10
27.6491412796
 20
70.694448874
 11
27.6491412804
 21
70.8944488732
  0
LINE
  5
255
100
AcDbEntity
  8
0
100
AcDbLine
 62
7
  6
BYLAYER
 10
27.6841816571
 20
70.694448874
 11
27.6841816568
 21
70.8944488732
  0
LINE
  5
256
100
AcDbEntity
  8
0
100
AcDbLine
 62
7
  6
BYLAYER
 10
27.7875435546
 20
70.6944488736
 11
27.7875435546
 21
70.8944488732
  0
LINE
  5
257
100
AcDbEntity
  8
0
100
AcDbLine
 62
7
  6
BYLAYER
 10
27.9979588469
 20
70.694448874
 11
27.9979588467
 21
70.8944488732
  0
LINE
  5
258
100
AcDbEntity
  8
0
100
AcDbLine
 62
7
  6
BYLAYER
 10
28.0551770406
 20
70.694448874
 11
28.0551770409
 21
70.8944488732
  0
LINE
  5
259
100
AcDbEntity
  8
0
100
AcDbLine
 62
7
  6
BYLAYER
 10
28.0644057817
 20
70.694448874
 11
28.0644057826
 21
70.8944488732
  0
LINE
  5
25A
100
AcDbEntity
  8
0
100
AcDbLine
 62
7
  6
BYLAYER
 10
28.0809021569
 20
70.694448874
 11
28.0809021562
 21
70.8944488732
  0
LINE
  5
25B
100
AcDbEntity
  8
0
100
AcDbLine
 62
7
  6
BYLAYER
 10
28.0957835012
 20
70.6944488741
 11
28.0957835005
 21
70.8944488733
  0
LINE
  5
25C
100
AcDbEntity
  8
0
100
AcDbLine
 62
7
  6
BYLAYER
 10
28.1037703044
 20
33.6301951812
 11
28.1037703044
 21
20.2956909382
  0
LINE
  5
25D
100
AcDbEntity
  8
0
100
AcDbLine
 62
7
  6
BYLAYER
 10
28.1160867311
 20
70.8944488732
 11
28.1160867311
 21
70.694448874
  0
LINE
  5
25E
100
AcDbEntity
  8
0
100
AcDbLine
 62
7
  6
BYLAYER
 10
35.8319997291
 20
71.0962126825
 11
35.6434900719
 21
70.3926850642
  0
LINE
  5
25F
100
AcDbEntity
  8
0
100
AcDbLine
 62
7
  6
BYLAYER
 10
36.0251848944
 20
71.1858702296
 11
35.842217741
 21
70.5030275169
  0
LINE
  5
260
100
AcDbEntity
  8
0
100
AcDbLine
 62
7
  6
BYLAYER
 10
36.0251848945
 20
71.0962126825
 11
35.8366752374
 21
70.3926850643
  0
LINE
  5
261
100
AcDbEntity
  8
0
100
AcDbLine
 62
7
  6
BYLAYER
 10
32.7811205727
 20
38.044687787
 11
23.4264200353
 21
38.044687787
  0
LINE
  5
262
100
AcDbEntity
  8
0
100
AcDbLine
 62
7
  6
BYLAYER
 10
39.4037703052
 20
38.3581573722
 11
39.6037703045
 21
38.3581573722
  0
LINE
  5
263
100
AcDbEntity
  8
0
100
AcDbLine
 62
7
  6
BYLAYER
 10
39.4037703045
 20
38.3944488733
 11
16.8037703045
 21
38.3944488733
  0
LINE
  5
264
100
AcDbEntity
  8
0
100
AcDbLine
 62
7
  6
BYLAYER
 10
28.4455527821
 20
70.694448874
 11
28.4455527818
 21
70.8944488732
  0
LINE
  5
265
100
AcDbEntity
  8
0
100
AcDbLine
 62
7
  6
BYLAYER
 10
28.4566272707
 20
70.8944488732
 11
28.4566272707
 21
70.694448874
  0
LINE
  5
266
100
AcDbEntity
  8
0
100
AcDbLine
 62
7
  6
BYLAYER
 10
28.4880049901
 20
70.6944488736
 11
28.4880049901
 21
70.8944488732
  0
LINE
  5
267
100
AcDbEntity
  8
0
100
AcDbLine
 62
7
  6
BYLAYER
 10
28.5230742063
 20
70.694448874
 11
28.5230742062
 21
70.8944488732
  0
LINE
  5
268
100
AcDbEntity
  8
0
100
AcDbLine
 62
7
  6
BYLAYER
 10
28.5421084849
 20
70.694448874
 11
28.5421084845
 21
70.8944488732
  0
LINE
  5
269
100
AcDbEntity
  8
0
100
AcDbLine
 62
7
  6
BYLAYER
 10
28.5470689307
 20
70.8944488732
 11
28.5470689302
 21
70.6944488741
  0
LINE
  5
26A
100
AcDbEntity
  8
0
100
AcDbLine
 62
7
  6
BYLAYER
 10
28.6033642524
 20
70.8944488732
 11
28.6033642524
 21
70.694448874
  0
LINE
  5
26B
100
AcDbEntity
  8
0
100
AcDbLine
 62
7
  6
BYLAYER
 10
28.6679654386
 20
70.6944488736
 11
28.6679654386
 21
70.8944488732
  0
LINE
  5
26C
100
AcDbEntity
  8
0
100
AcDbLine
 62
7
  6
BYLAYER
 10
28.7759417074
 20
70.6944488736
 11
28.7759417074
 21
70.8944488732
  0
LINE
  5
26D
100
AcDbEntity
  8
0
100
AcDbLine
 62
7
  6
BYLAYER
 10
28.8433115151
 20
70.6944488736
 11
28.8433115151
 21
70.8944488732
  0
LINE
  5
26E
100
AcDbEntity
  8
0
100
AcDbLine
 62
7
  6
BYLAYER
 10
28.8486324632
 20
70.8944488732
 11
28.8486324632
 21
70.694448874
  0
LINE
  5
26F
100
AcDbEntity
  8
0
100
AcDbLine
 62
7
  6
BYLAYER
 10
28.8857637255
 20
70.6944488736
 11
28.8857637255
 21
70.8944488732
  0
LINE
  5
270
100
AcDbEntity
  8
0
100
AcDbLine
 62
7
  6
BYLAYER
 10
28.9522106601
 20
70.694448874
 11
28.9522106601
 21
70.8944488732
  0
LINE
  5
271
100
AcDbEntity
  8
0
100
AcDbLine
 62
7
  6
BYLAYER
 10
30.60333393
 20
70.7223754197
 11
30.60333393
 21
70.0444488732
  0
LINE
  5
272
100
AcDbEntity
  8
0
100
AcDbLine
 62
7
  6
BYLAYER
 10
30.70333393
 20
70.1444488732
 11
30.70333393
 21
70.0444488732
  0
LINE
  5
273
100
AcDbEntity
  8
0
100
AcDbLine
 62
7
  6
BYLAYER
 10
20.1823557144
 20
71.0962126825
 11
20.3708653716
 21
70.3926850641
  0
LINE
  5
274
100
AcDbEntity
  8
0
100
AcDbLine
 62
7
  6
BYLAYER
 10
20.1823557143
 20
71.1858702301
 11
20.3653228628
 21
70.5030275358
  0
LINE
  5
275
100
AcDbEntity
  8
0
100
AcDbLine
 62
7
  6
BYLAYER
 10
20.37554088
 20
71.0962126814
 11
20.5640505369
 21
70.3926850643
  0
LINE
  5
276
100
AcDbEntity
  8
0
100
AcDbLine
 62
7
  6
BYLAYER
 10
31.9811205735
 20
38.044687787
 11
31.9811205735
 21
67.2446877869
  0
LINE
  5
277
100
AcDbEntity
  8
0
100
AcDbLine
 62
7
  6
BYLAYER
 10
32.2037703046
 20
67.2446877867
 11
32.2037703046
 21
38.0446877875
  0
LINE
  5
278
100
AcDbEntity
  8
0
100
AcDbLine
 62
7
  6
BYLAYER
 10
32.7811205726
 20
38.044687787
 11
32.7811205726
 21
67.2446877869
  0
LINE
  5
279
100
AcDbEntity
  8
0
100
AcDbLine
 62
7
  6
BYLAYER
 10
24.0037703051
 20
22.0444488732
 11
23.4264200353
 21
21.0444488735
  0
LINE
  5
27A
100
AcDbEntity
  8
0
100
AcDbLine
 62
7
  6
BYLAYER
 10
33.2537703044
 20
8.4943517904
 11
33.2537703044
 21
6.7490800785
  0
LINE
  5
27B
100
AcDbEntity
  8
0
100
AcDbLine
 62
7
  6
BYLAYER
 10
33.4028183197
 20
10.3981022814
 11
33.4028183197
 21
9.2939017456
  0
LINE
  5
27C
100
AcDbEntity
  8
0
100
AcDbLine
 62
7
  6
BYLAYER
 10
33.5037703044
 20
9.1937701946
 11
33.5037703044
 21
8.6502006965
  0
LINE
  5
27D
100
AcDbEntity
  8
0
100
AcDbLine
 62
7
  6
BYLAYER
 10
34.1037703044
 20
16.8214089772
 11
34.1037703044
 21
11.1038608236
  0
LINE
  5
27E
100
AcDbEntity
  8
0
100
AcDbLine
 62
7
  6
BYLAYER
 10
34.6037703044
 20
20.2956877869
 11
34.6037703044
 21
17.2956877869
  0
LINE
  5
27F
100
AcDbEntity
  8
0
100
AcDbLine
 62
7
  6
BYLAYER
 10
35.836675237
 20
70.3926850641
 11
35.836675237
 21
70.2444488732
  0
LINE
  5
280
100
AcDbEntity
  8
0
100
AcDbLine
 62
7
  6
BYLAYER
 10
36.0251848943
 20
71.2444488732
 11
36.0251848939
 21
71.0962126822
  0
LINE
  5
281
100
AcDbEntity
  8
0
100
AcDbLine
 62
7
  6
BYLAYER
 10
36.1037703044
 20
27.973397362
 11
36.1037703044
 21
28.1147622875
  0
LINE
  5
282
100
AcDbEntity
  8
0
100
AcDbLine
 62
7
  6
BYLAYER
 10
38.4037703048
 20
64.3192920167
 11
38.4037703047
 21
27.1726432978
  0
LINE
  5
283
100
AcDbEntity
  8
0
100
AcDbLine
 62
7
  6
BYLAYER
 10
39.1823557155
 20
71.2444488732
 11
39.1823557146
 21
71.0962126862
  0
LINE
  5
284
100
AcDbEntity
  8
0
100
AcDbLine
 62
7
  6
BYLAYER
 10
39.3708653716
 20
70.3926850642
 11
39.3708653716
 21
70.2444488732
  0
LINE
  5
285
100
AcDbEntity
  8
0
100
AcDbLine
 62
7
  6
BYLAYER
 10
39.4037703045
 20
70.2444488732
 11
39.4037703045
 21
22.0444488732
  0
LINE
  5
286
100
AcDbEntity
  8
0
100
AcDbLine
 62
7
  6
BYLAYER
 10
39.6037703045
 20
70.2444488725
 11
39.6037703045
 21
22.2444488735
  0
LINE
  5
287
100
AcDbEntity
  8
0
100
AcDbLine
 62
7
  6
BYLAYER
 10
39.4608441727
 20
64.8725959283
 11
39.4728225732
 21
70.1745178288
  0
LWPOLYLINE
  5
288
100
AcDbEntity
  8
0
100
AcDbPolyline
 62
7
  6
BYLAYER
 90
4
 70
0
 10
34.6037703042
 20
20.2956877872
 10
35.1018269687
 20
22.7597255936
 10
35.5790314688
 20
25.0547167321
 10
36.0176746696
 20
27.1471716752
  0
LINE
  5
289
100
AcDbEntity
  8
0
100
AcDbLine
 62
7
  6
BYLAYER
 10
32.7812207327
 20
21.0442753923
 11
31.9813942131
 21
20.2444488727
  0
LINE
  5
28A
100
AcDbEntity
  8
0
100
AcDbLine
 62
7
  6
BYLAYER
 10
33.0931130755
 20
6.4080029006
 11
33.2537703044
 21
6.7490800783
  0
LINE
  5
28B
100
AcDbEntity
  8
0
100
AcDbLine
 62
7
  6
BYLAYER
 10
22.8047222889
 20
9.2939017454
 11
22.7037703044
 21
9.1937701946
  0
LWPOLYLINE
  5
28C
100
AcDbEntity
  8
0
100
AcDbPolyline
 62
7
  6
BYLAYER
 90
3
 70
0
 10
20.4964010039
 20
70.4178071298
 10
20.6431387904
 20
70.2712424976
 10
20.7431252747
 20
70.2444488732
  0
LINE
  5
28D
100
AcDbEntity
  8
0
100
AcDbLine
 62
7
  6
BYLAYER
 10
39.4037703052
 20
59.0444488732
 11
39.6037703045
 21
59.0444488732
  0
LINE
  5
28E
100
AcDbEntity
  8
0
100
AcDbLine
 62
7
  6
BYLAYER
 10
39.1823557144
 20
71.0962126824
 11
39.3708653715
 21
70.3926850642
  0
LINE
  5
28F
100
AcDbEntity
  8
0
100
AcDbLine
 62
7
  6
BYLAYER
 10
39.1823557145
 20
71.1858702297
 11
39.3653228679
 21
70.503027517
  0
LINE
  5
290
100
AcDbEntity
  8
0
100
AcDbLine
 62
7
  6
BYLAYER
 10
39.3755408718
 20
71.0962127118
 11
39.6037703047
 21
70.2444488727
  0
LINE
  5
291
100
AcDbEntity
  8
0
100
AcDbLine
 62
7
  6
BYLAYER
 10
33.4028183197
 20
10.3981022814
 11
34.1037703043
 21
11.1038608236
  0
LINE
  5
292
100
AcDbEntity
  8
0
100
AcDbLine
 62
7
  6
BYLAYER
 10
39.4037703045
 20
62.0944488732
 11
16.8037703045
 21
62.0944488732
  0
LINE
  5
293
100
AcDbEntity
  8
0
100
AcDbLine
 62
7
  6
BYLAYER
 10
39.4037703052
 20
62.1444488746
 11
39.6037703045
 21
62.1444488746
  0
LINE
  5
294
100
AcDbEntity
  8
0
100
AcDbLine
 62
7
  6
BYLAYER
 10
39.6037703045
 20
64.2444488732
 11
16.6037703045
 21
64.2444488732
  0
LINE
  5
295
100
AcDbEntity
  8
0
100
AcDbLine
 62
7
  6
BYLAYER
 10
39.6037703045
 20
66.2444488732
 11
16.6037703045
 21
66.2444488732
  0
LWPOLYLINE
  5
296
100
AcDbEntity
  8
0
100
AcDbPolyline
 62
7
  6
BYLAYER
 90
3
 70
0
 10
20.757235702
 20
70.2444488732
 10
20.6354617305
 20
70.28582175
 10
20.5640505994
 20
70.3926848029
  0
LINE
  5
297
100
AcDbEntity
  8
0
100
AcDbLine
 62
7
  6
BYLAYER
 10
39.5184708265
 20
70.4030899704
 11
39.5899002397
 21
70.2962126599
  0
LINE
  5
298
100
AcDbEntity
  8
0
100
AcDbLine
 62
7
  6
BYLAYER
 10
35.4644153231
 20
70.2444488732
 11
35.5644345351
 21
70.2712613926
  0
LINE
  5
299
100
AcDbEntity
  8
0
100
AcDbLine
 62
7
  6
BYLAYER
 10
35.7111465887
 20
70.4178111294
 11
35.8108255307
 21
70.4444488554
  0
LINE
  5
29A
100
AcDbEntity
  8
0
100
AcDbLine
 62
7
  6
BYLAYER
 10
23.4264200355
 20
67.2446877869
 11
32.7811205727
 21
67.2446877869
  0
LINE
  5
29B
100
AcDbEntity
  8
0
100
AcDbLine
 62
7
  6
BYLAYER
 10
39.4037703045
 20
68.3944488732
 11
16.8037703045
 21
68.3944488732
  0
LINE
  5
29C
100
AcDbEntity
  8
0
100
AcDbLine
 62
7
  6
BYLAYER
 10
20.3967150684
 20
70.4444488732
 11
20.4964010039
 21
70.4178071298
  0
LINE
  5
29D
100
AcDbEntity
  8
0
100
AcDbLine
 62
7
  6
BYLAYER
 10
26.10333393
 20
70.8944488732
 11
25.6859691123
 21
70.8208561951
  0
LINE
  5
29E
100
AcDbEntity
  8
0
100
AcDbLine
 62
7
  6
BYLAYER
 10
16.6037703045
 20
70.0444488732
 11
39.6037703045
 21
70.0444488732
  0
LINE
  5
29F
100
AcDbEntity
  8
0
100
AcDbLine
 62
7
  6
BYLAYER
 10
25.50333393
 20
70.1444488732
 11
30.70333393
 21
70.1444488732
  0
LINE
  5
2A0
100
AcDbEntity
  8
0
100
AcDbLine
 62
7
  6
BYLAYER
 10
39.4723817806
 20
70.175310946
 11
16.7351588281
 21
70.175310946
  0
LINE
  5
2A1
100
AcDbEntity
  8
0
100
AcDbLine
 62
7
  6
BYLAYER
 10
39.4037703052
 20
70.2444488732
 11
16.8037703037
 21
70.2444488732
  0
LINE
  5
2A2
100
AcDbEntity
  8
0
100
AcDbLine
 62
7
  6
BYLAYER
 10
39.3708653716
 20
70.3926850642
 11
35.8366752378
 21
70.3926850642
  0
LINE
  5
2A3
100
AcDbEntity
  8
0
100
AcDbLine
 62
7
  6
BYLAYER
 10
20.3708653655
 20
70.3926850642
 11
16.8366752378
 21
70.3926850642
  0
LINE
  5
2A4
100
AcDbEntity
  8
0
100
AcDbLine
 62
7
  6
BYLAYER
 10
39.3967150747
 20
70.4444488732
 11
35.8108255307
 21
70.4444488732
  0
LINE
  5
2A5
100
AcDbEntity
  8
0
100
AcDbLine
 62
7
  6
BYLAYER
 10
20.3967150685
 20
70.4444488732
 11
16.8108255378
 21
70.4444488732
  0
LINE
  5
2A6
100
AcDbEntity
  8
0
100
AcDbLine
 62
7
  6
BYLAYER
 10
39.3653228046
 20
70.503027517
 11
35.8422177409
 21
70.503027517
  0
LINE
  5
2A7
100
AcDbEntity
  8
0
100
AcDbLine
 62
7
  6
BYLAYER
 10
20.3653228679
 20
70.503027517
 11
16.8422177657
 21
70.503027517
  0
LINE
  5
2A8
100
AcDbEntity
  8
0
100
AcDbLine
 62
7
  6
BYLAYER
 10
28.9522106601
 20
70.6944488732
 11
27.1858296445
 21
70.6944488732
  0
LINE
  5
2A9
100
AcDbEntity
  8
0
100
AcDbLine
 62
7
  6
BYLAYER
 10
25.60333393
 20
70.7223754197
 11
30.60333393
 21
70.7223754197
  0
LINE
  5
2AA
100
AcDbEntity
  8
0
100
AcDbLine
 62
7
  6
BYLAYER
 10
25.6859691123
 20
70.820856195
 11
30.5206987478
 21
70.820856195
  0
LINE
  5
2AB
100
AcDbEntity
  8
0
100
AcDbLine
 62
7
  6
BYLAYER
 10
26.10333393
 20
70.8944488732
 11
30.10333393
 21
70.8944488732
  0
LINE
  5
2AC
100
AcDbEntity
  8
0
100
AcDbLine
 62
7
  6
BYLAYER
 10
39.1823557149
 20
71.0962126822
 11
36.0251848939
 21
71.0962126822
  0
LINE
  5
2AD
100
AcDbEntity
  8
0
100
AcDbLine
 62
7
  6
BYLAYER
 10
20.1823557149
 20
71.0962126823
 11
17.0251848944
 21
71.0962126823
  0
LINE
  5
2AE
100
AcDbEntity
  8
0
100
AcDbLine
 62
7
  6
BYLAYER
 10
39.1823557144
 20
71.185870229
 11
36.0251848943
 21
71.185870229
  0
LINE
  5
2AF
100
AcDbEntity
  8
0
100
AcDbLine
 62
7
  6
BYLAYER
 10
20.1823557145
 20
71.1858702295
 11
17.0251848944
 21
71.1858702295
  0
LINE
  5
2B0
100
AcDbEntity
  8
0
100
AcDbLine
 62
7
  6
BYLAYER
 10
39.1823557144
 20
71.2444488732
 11
36.0251848943
 21
71.2444488732
  0
LINE
  5
2B1
100
AcDbEntity
  8
0
100
AcDbLine
 62
7
  6
BYLAYER
 10
20.1823557148
 20
71.2444488732
 11
17.0251848938
 21
71.2444488732
  0
LWPOLYLINE
  5
2B2
100
AcDbEntity
  8
0
100
AcDbPolyline
 62
7
  6
BYLAYER
 90
7
 70
0
 10
39.4038385994
 20
70.2444491898
 10
39.4359166368
 20
70.2418576953
 10
39.4733498251
 20
70.231915382
 10
39.5209829638
 20
70.2065016399
 10
39.5687625399
 20
70.1574784844
 10
39.5957090764
 20
70.1006753233
 10
39.6037703313
 20
70.0443580417
  0
LWPOLYLINE
  5
2B3
100
AcDbEntity
  8
0
100
AcDbPolyline
 62
7
  6
BYLAYER
 90
9
 70
0
 10
39.4038076716
 20
70.2444489923
 10
39.4680140115
 20
70.2338459239
 10
39.5333566855
 20
70.1967879702
 10
39.5672479872
 20
70.1596633098
 10
39.5829611264
 20
70.1332719735
 10
39.5923389752
 20
70.1110655483
 10
39.5976504381
 20
70.0935430427
 10
39.6017115933
 20
70.0730711994
 10
39.6037703046
 20
70.0444463504
  0
LINE
  5
2B4
100
AcDbEntity
  8
0
100
AcDbLine
 62
7
  6
BYLAYER
 10
30.10333393
 20
70.8944488732
 11
30.5206987478
 21
70.8208561951
  0
LINE
  5
2B5
100
AcDbEntity
  8
0
100
AcDbLine
 62
7
  6
BYLAYER
 10
39.3967150785
 20
70.4444488554
 11
39.5184708144
 21
70.4030899716
  0
ARC
  5
2B6
100
AcDbEntity
  8
0
100
AcDbCircle
 62
7
  6
BYLAYER
 10
21.6294914947
 20
16.8214089772
 40
0.4742788097
100
AcDbArc
 50
0.0
 51
90.0
  0
ARC
  5
2B7
100
AcDbEntity
  8
0
100
AcDbCircle
 62
7
  6
BYLAYER
 10
16.8037703045
 20
22.2444488732
 40
0.2
100
AcDbArc
 50
180.0
 51
270.0
  0
ARC
  5
2B8
100
AcDbEntity
  8
0
100
AcDbCircle
 62
7
  6
BYLAYER
 10
16.8037703045
 20
33.8944488733
 40
0.2
100
AcDbArc
 50
90.0
 51
179.999999894
  0
ARC
  5
2B9
100
AcDbEntity
  8
0
100
AcDbCircle
 62
7
  6
BYLAYER
 10
16.8037703045
 20
38.5944488733
 40
0.2
100
AcDbArc
 50
180.000000106
 51
270.0
  0
ARC
  5
2BA
100
AcDbEntity
  8
0
100
AcDbCircle
 62
7
  6
BYLAYER
 10
23.2909568744
 20
6.4911533329
 40
0.1951322697
100
AcDbArc
 50
205.2217936783
 51
270.0
  0
ARC
  5
2BB
100
AcDbEntity
  8
0
100
AcDbCircle
 62
7
  6
BYLAYER
 10
22.8596192102
 20
8.6502006962
 40
0.1558489058
100
AcDbArc
 50
180.0
 51
270.0
  0
ARC
  5
2BC
100
AcDbEntity
  8
0
100
AcDbCircle
 62
7
  6
BYLAYER
 10
16.8037703045
 20
61.8944488732
 40
0.2
100
AcDbArc
 50
90.0
 51
179.999999894
  0
ARC
  5
2BD
100
AcDbEntity
  8
0
100
AcDbCircle
 62
7
  6
BYLAYER
 10
16.5981854855
 20
71.4741053081
 40
1.1074055765
100
AcDbArc
 50
281.5139749251
 51
282.4365895857
  0
ARC
  5
2BE
100
AcDbEntity
  8
0
100
AcDbCircle
 62
7
  6
BYLAYER
 10
16.9882338666
 20
70.9101864871
 40
0.2781490448
100
AcDbArc
 50
82.365909476
 51
84.3115974466
  0
ARC
  5
2BF
100
AcDbEntity
  8
0
100
AcDbCircle
 62
7
  6
BYLAYER
 10
16.8108255405
 20
70.2444488732
 40
0.2
100
AcDbArc
 50
90.000000487
 51
165.0
  0
ARC
  5
2C0
100
AcDbEntity
  8
0
100
AcDbCircle
 62
7
  6
BYLAYER
 10
16.8037703045
 20
70.0444488732
 40
0.2
100
AcDbArc
 50
90.0
 51
180.0000002111
  0
ARC
  5
2C1
100
AcDbEntity
  8
0
100
AcDbCircle
 62
7
  6
BYLAYER
 10
17.0251848944
 20
71.0444488732
 40
0.2
100
AcDbArc
 50
90.0
 51
164.9999999009
  0
ARC
  5
2C2
100
AcDbEntity
  8
0
100
AcDbCircle
 62
7
  6
BYLAYER
 10
16.8037703045
 20
68.5944488732
 40
0.2
100
AcDbArc
 50
180.000000106
 51
270.0
  0
ARC
  5
2C3
100
AcDbEntity
  8
0
100
AcDbCircle
 62
7
  6
BYLAYER
 10
20.74312523
 20
70.4444488732
 40
0.2
100
AcDbArc
 50
209.9999999996
 51
270.0
  0
ARC
  5
2C4
100
AcDbEntity
  8
0
100
AcDbCircle
 62
7
  6
BYLAYER
 10
20.3967150684
 20
70.2444488732
 40
0.2
100
AcDbArc
 50
30.000000001
 51
90.0
  0
ARC
  5
2C5
100
AcDbEntity
  8
0
100
AcDbCircle
 62
7
  6
BYLAYER
 10
20.7572357021
 20
70.4444488732
 40
0.2
100
AcDbArc
 50
194.9999999934
 51
270.0
  0
ARC
  5
2C6
100
AcDbEntity
  8
0
100
AcDbCircle
 62
7
  6
BYLAYER
 10
20.1823557145
 20
71.0444488732
 40
0.2
100
AcDbArc
 50
15.0000000926
 51
90.0
  0
ARC
  5
2C7
100
AcDbEntity
  8
0
100
AcDbCircle
 62
7
  6
BYLAYER
 10
28.103770304
 20
41.5306461026
 40
25.008253711
100
AcDbArc
 50
65.6780085545
 51
114.3219914408
  0
ARC
  5
2C8
100
AcDbEntity
  8
0
100
AcDbCircle
 62
7
  6
BYLAYER
 10
28.1036552776
 20
49.9611694242
 40
25.0076063296
100
AcDbArc
 50
245.6776350577
 51
294.3219958529
  0
ARC
  5
2C9
100
AcDbEntity
  8
0
100
AcDbCircle
 62
7
  6
BYLAYER
 10
25.40333393
 20
70.1444488732
 40
0.1
100
AcDbArc
 50
0.0
 51
90.0
  0
ARC
  5
2CA
100
AcDbEntity
  8
0
100
AcDbCircle
 62
7
  6
BYLAYER
 10
25.70333393
 20
70.7223754197
 40
0.1
100
AcDbArc
 50
100.000000002
 51
180.0
  0
ARC
  5
2CB
100
AcDbEntity
  8
0
100
AcDbCircle
 62
7
  6
BYLAYER
 10
34.5780491141
 20
16.8214089772
 40
0.4742788097
100
AcDbArc
 50
90.0
 51
180.0
  0
ARC
  5
2CC
100
AcDbEntity
  8
0
100
AcDbCircle
 62
7
  6
BYLAYER
 10
39.4037847181
 20
22.3849663029
 40
0.2819388281
100
AcDbArc
 50
269.9970708578
 51
275.4021330455
  0
ARC
  5
2CD
100
AcDbEntity
  8
0
100
AcDbCircle
 62
7
  6
BYLAYER
 10
39.4037703045
 20
22.2444488732
 40
0.2
100
AcDbArc
 50
270.0
 51
0.0000000619
  0
ARC
  5
2CE
100
AcDbEntity
  8
0
100
AcDbCircle
 62
7
  6
BYLAYER
 10
39.4037703045
 20
33.8944488733
 40
0.2
100
AcDbArc
 50
0.0
 51
90.0
  0
ARC
  5
2CF
100
AcDbEntity
  8
0
100
AcDbCircle
 62
7
  6
BYLAYER
 10
39.4037703045
 20
38.5944488733
 40
0.2
100
AcDbArc
 50
270.0
 51
360.0
  0
ARC
  5
2D0
100
AcDbEntity
  8
0
100
AcDbCircle
 62
7
  6
BYLAYER
 10
32.9165837343
 20
6.4911533329
 40
0.1951322697
100
AcDbArc
 50
270.0
 51
334.7782063217
  0
ARC
  5
2D1
100
AcDbEntity
  8
0
100
AcDbCircle
 62
7
  6
BYLAYER
 10
33.3479213986
 20
8.6502006962
 40
0.1558489058
100
AcDbArc
 50
270.0
 51
360.0
  0
ARC
  5
2D2
100
AcDbEntity
  8
0
100
AcDbCircle
 62
7
  6
BYLAYER
 10
28.1037773271
 20
49.9616706094
 40
25.0081075145
100
AcDbArc
 50
269.9999839094
 51
294.3221174956
  0
ARC
  5
2D3
100
AcDbEntity
  8
0
100
AcDbCircle
 62
7
  6
BYLAYER
 10
29.192998272
 20
69.8803598712
 40
13.4159385311
100
AcDbArc
 50
201.9200384843
 51
202.5606245866
  0
ARC
  5
2D4
100
AcDbEntity
  8
0
100
AcDbCircle
 62
7
  6
BYLAYER
 10
30.80333393
 20
70.1444488732
 40
0.1
100
AcDbArc
 50
90.0
 51
180.0
  0
ARC
  5
2D5
100
AcDbEntity
  8
0
100
AcDbCircle
 62
7
  6
BYLAYER
 10
30.50333393
 20
70.7223754197
 40
0.1
100
AcDbArc
 50
0.0
 51
79.999999998
  0
ARC
  5
2D6
100
AcDbEntity
  8
0
100
AcDbCircle
 62
7
  6
BYLAYER
 10
35.4644153788
 20
70.4444488732
 40
0.2
100
AcDbArc
 50
269.9999983929
 51
330.0
  0
ARC
  5
2D7
100
AcDbEntity
  8
0
100
AcDbCircle
 62
7
  6
BYLAYER
 10
35.8108255404
 20
70.2444488732
 40
0.2
100
AcDbArc
 50
90.0
 51
150.0000000019
  0
ARC
  5
2D8
100
AcDbEntity
  8
0
100
AcDbCircle
 62
7
  6
BYLAYER
 10
35.4503049067
 20
70.4444488732
 40
0.2
100
AcDbArc
 50
270.0000000229
 51
345.0
  0
ARC
  5
2D9
100
AcDbEntity
  8
0
100
AcDbCircle
 62
7
  6
BYLAYER
 10
36.0251848943
 20
71.0444488732
 40
0.2
100
AcDbArc
 50
90.000000076
 51
164.9999999513
  0
ARC
  5
2DA
100
AcDbEntity
  8
0
100
AcDbCircle
 62
7
  6
BYLAYER
 10
39.4037703045
 20
61.8944488732
 40
0.2
100
AcDbArc
 50
0.0
 51
90.0
  0
ARC
  5
2DB
100
AcDbEntity
  8
0
100
AcDbCircle
 62
7
  6
BYLAYER
 10
39.609350627
 20
71.4740848451
 40
1.1073846277
100
AcDbArc
 50
257.5634096297
 51
258.4860416595
  0
ARC
  5
2DC
100
AcDbEntity
  8
0
100
AcDbCircle
 62
7
  6
BYLAYER
 10
39.3967150685
 20
70.2444488732
 40
0.2
100
AcDbArc
 50
14.9999965588
 51
90.0
  0
ARC
  5
2DD
100
AcDbEntity
  8
0
100
AcDbCircle
 62
7
  6
BYLAYER
 10
39.4037703045
 20
70.0444488732
 40
0.2
100
AcDbArc
 50
359.9999998881
 51
90.0
  0
ARC
  5
2DE
100
AcDbEntity
  8
0
100
AcDbCircle
 62
7
  6
BYLAYER
 10
39.4037703045
 20
68.5944488732
 40
0.2
100
AcDbArc
 50
270.0
 51
360.0
  0
ARC
  5
2DF
100
AcDbEntity
  8
0
100
AcDbCircle
 62
7
  6
BYLAYER
 10
39.1823557144
 20
71.0444488732
 40
0.2
100
AcDbArc
 50
14.9999997492
 51
90.0
  0
SPLINE
  5
2E0
100
AcDbEntity
  8
0
100
AcDbSpline
 62
7
  6
BYLAYER
 70
0
 71
3
 72
43
 73
39
 74
0
 42
0.0000001
 43
0.0000001
 44
0.0000000001
 40
0.0
 40
0.0
 40
0.0
 40
0.0
 40
0.0034891294
 40
0.0172187419
 40
0.0309232797
 40
0.0445976779
 40
0.0516860442
 40
0.0591760512
 40
0.0658348707
 40
0.071838034
 40
0.0792126224
 40
0.0875686965
 40
0.095314978
 40
0.1018858908
 40
0.1085994543
 40
0.1163138342
 40
0.1244564853
 40
0.1316976438
 40
0.1447575695
 40
0.159180574
 40
0.1753509759
 40
0.1905453291
 40
0.219562269
 40
0.2483173726
 40
0.2768204225
 40
0.3050834135
 40
0.3580265216
 40
0.4102392984
 40
0.512826307
 40
0.6053443859
 40
0.6966750343
 40
0.7784043191
 40
0.8189586804
 40
0.8592416092
 40
0.8914282301
 40
0.9247159757
 40
0.9623900136
 40
1.0
 40
1.0
 40
1.0
 40
1.0
 10
39.6037680185
 20
70.1455436911
 30
0.0
 10
39.6036316212
 20
70.1459120021
 30
0.0
 10
39.6029569557
 20
70.1477290311
 30
0.0
 10
39.6017315023
 20
70.1509871179
 30
0.0
 10
39.6000726332
 20
70.1553069971
 30
0.0
 10
39.598657674
 20
70.1589196508
 30
0.0
 10
39.5974802579
 20
70.1618739706
 30
0.0
 10
39.5965845254
 20
70.1640903975
 30
0.0
 10
39.5957321428
 20
70.1661925796
 30
0.0
 10
39.594879391
 20
70.1682805965
 30
0.0
 10
39.5939393351
 20
70.1705392764
 30
0.0
 10
39.5929152281
 20
70.1729754751
 30
0.0
 10
39.5919197392
 20
70.1753255552
 30
0.0
 10
39.5909912901
 20
70.1775032482
 30
0.0
 10
39.5900471213
 20
70.1796702565
 30
0.0
 10
39.5890267759
 20
70.1819970358
 30
0.0
 10
39.5879774144
 20
70.1843759387
 30
0.0
 10
39.5866729439
 20
70.187299963
 30
0.0
 10
39.5850450707
 20
70.1908536744
 30
0.0
 10
39.582968452
 20
70.1953071749
 30
0.0
 10
39.5807744139
 20
70.1999710601
 30
0.0
 10
39.5778141758
 20
70.2060895994
 30
0.0
 10
39.5741320801
 20
70.2134320273
 30
0.0
 10
39.5696348049
 20
70.2220400679
 30
0.0
 10
39.5650273924
 20
70.2304932561
 30
0.0
 10
39.5589252836
 20
70.241230384
 30
0.0
 10
39.551163269
 20
70.2540916433
 30
0.0
 10
39.5383655255
 20
70.2736679013
 30
0.0
 10
39.521829232
 20
70.2961051645
 30
0.0
 10
39.5006157905
 20
70.3204316341
 30
0.0
 10
39.4790362103
 20
70.3411919421
 30
0.0
 10
39.4599989376
 20
70.3559608742
 30
0.0
 10
39.4446923261
 20
70.3660003617
 30
0.0
 10
39.4336759382
 20
70.3723867673
 30
0.0
 10
39.4229804578
 20
70.3776258295
 30
0.0
 10
39.4123047627
 20
70.3822160115
 30
0.0
 10
39.4006795894
 20
70.3860308073
 30
0.0
 10
39.3924580307
 20
70.3881252879
 30
0.0
 10
39.3883095731
 20
70.3889700291
 30
0.0
  0
SPLINE
  5
2E1
100
AcDbEntity
  8
0
100
AcDbSpline
 62
7
  6
BYLAYER
 70
0
 71
3
 72
11
 73
7
 74
0
 42
0.0000001
 43
0.0000001
 44
0.0000000001
 40
0.0
 40
0.0
 40
0.0
 40
0.0
 40
0.0930550273
 40
0.3002129913
 40
0.6113890464
 40
1.0
 40
1.0
 40
1.0
 40
1.0
 10
35.6434900719
 20
70.3926850642
 30
0.0
 10
35.6418725193
 20
70.3866482753
 30
0.0
 10
35.6647205699
 20
70.3705760926
 30
0.0
 10
35.7032261006
 20
70.3746406762
 30
0.0
 10
35.7653036355
 20
70.3777523066
 30
0.0
 10
35.8112376551
 20
70.3868430032
 30
0.0
 10
35.8366752372
 20
70.3926850641
 30
0.0
  0
SPLINE
  5
2E2
100
AcDbEntity
  8
0
100
AcDbSpline
 62
7
  6
BYLAYER
 70
0
 71
3
 72
18
 73
14
 74
0
 42
0.0000001
 43
0.0000001
 44
0.0000000001
 40
0.0
 40
0.0
 40
0.0
 40
0.0
 40
0.2054603159
 40
0.3959010198
 40
0.5663836096
 40
0.7126906474
 40
0.8310609633
 40
0.8789062554
 40
0.9188036847
 40
0.950549807
 40
0.9741878066
 40
0.9901071322
 40
1.0
 40
1.0
 40
1.0
 40
1.0
 10
39.3883092836
 20
70.3889851133
 30
0.0
 10
39.3885425235
 20
70.3789420915
 30
0.0
 10
39.3891239551
 20
70.3595929045
 30
0.0
 10
39.3903844527
 20
70.3319277986
 30
0.0
 10
39.391976825
 20
70.3071764931
 30
0.0
 10
39.3938477938
 20
70.2859804669
 30
0.0
 10
39.3956940596
 20
70.2708060366
 30
0.0
 10
39.3973448674
 20
70.2608627906
 30
0.0
 10
39.3985334465
 20
70.2551402999
 30
0.0
 10
39.3997243408
 20
70.2506341183
 30
0.0
 10
39.400972004
 20
70.2473623711
 30
0.0
 10
39.4021178136
 20
70.2452404374
 30
0.0
 10
39.4032866048
 20
70.2444488738
 30
0.0
 10
39.4037703044
 20
70.2444488732
 30
0.0
  0
SPLINE
  5
2E3
100
AcDbEntity
  8
0
100
AcDbSpline
 62
7
  6
BYLAYER
 70
0
 71
3
 72
13
 73
9
 74
0
 42
0.0000001
 43
0.0000001
 44
0.0000000001
 40
0.0
 40
0.0
 40
0.0
 40
0.0
 40
0.2889962882
 40
0.553254082
 40
0.6741633374
 40
0.7877151943
 40
0.8954549438
 40
1.0
 40
1.0
 40
1.0
 40
1.0
 10
35.842217741
 20
70.5030275171
 30
0.0
 10
35.8201603592
 20
70.5059826459
 30
0.0
 10
35.7770707696
 20
70.5066932028
 30
0.0
 10
35.7259593357
 20
70.4933828275
 30
0.0
 10
35.6924199594
 20
70.4742588162
 30
0.0
 10
35.6723537995
 20
70.4568720266
 30
0.0
 10
35.6573929572
 20
70.4364564506
 30
0.0
 10
35.6511162243
 20
70.4211462523
 30
0.0
 10
35.6490325757
 20
70.4133699699
 30
0.0
  0
SPLINE
  5
2E4
100
AcDbEntity
  8
0
100
AcDbSpline
 62
7
  6
BYLAYER
 70
0
 71
3
 72
10
 73
6
 74
0
 42
0.0000001
 43
0.0000001
 44
0.0000000001
 40
0.0
 40
0.0
 40
0.0
 40
0.0
 40
0.1111038265
 40
0.4480632315
 40
1.0
 40
1.0
 40
1.0
 40
1.0
 10
35.8108255345
 20
70.4444488732
 30
0.0
 10
35.8120224303
 20
70.4465996901
 30
0.0
 10
35.8168078628
 20
70.4552961494
 30
0.0
 10
35.8272037999
 20
70.474859816
 30
0.0
 10
35.8364179173
 20
70.4922632276
 30
0.0
 10
35.8422177409
 20
70.503027517
 30
0.0
  0
SPLINE
  5
2E5
100
AcDbEntity
  8
0
100
AcDbSpline
 62
7
  6
BYLAYER
 70
0
 71
3
 72
10
 73
6
 74
0
 42
0.0000001
 43
0.0000001
 44
0.0000000001
 40
0.0
 40
0.0
 40
0.0
 40
0.0
 40
0.5521785377
 40
0.8894903912
 40
1.0
 40
1.0
 40
1.0
 40
1.0
 10
39.3653228046
 20
70.503027517
 30
0.0
 10
39.3711175599
 20
70.4922543303
 30
0.0
 10
39.3803280462
 20
70.4748342052
 30
0.0
 10
39.3907047297
 20
70.4552595811
 30
0.0
 10
39.3955149476
 20
70.4465828694
 30
0.0
 10
39.3967150777
 20
70.4444488732
 30
0.0
  0
SPLINE
  5
2E6
100
AcDbEntity
  8
0
100
AcDbSpline
 62
7
  6
BYLAYER
 70
0
 71
3
 72
13
 73
9
 74
0
 42
0.0000001
 43
0.0000001
 44
0.0000000001
 40
0.0
 40
0.0
 40
0.0
 40
0.0
 40
0.2889962887
 40
0.5532540812
 40
0.674163336
 40
0.7877151924
 40
0.8954549428
 40
1.0
 40
1.0
 40
1.0
 40
1.0
 10
39.3653228674
 20
70.503027517
 30
0.0
 10
39.3873802493
 20
70.5059826459
 30
0.0
 10
39.4304698391
 20
70.5066932028
 30
0.0
 10
39.4815812731
 20
70.4933828275
 30
0.0
 10
39.5151206494
 20
70.4742588162
 30
0.0
 10
39.5351868094
 20
70.4568720266
 30
0.0
 10
39.5501476518
 20
70.4364564504
 30
0.0
 10
39.5564243847
 20
70.4211462518
 30
0.0
 10
39.5585080333
 20
70.4133699692
 30
0.0
  0
SPLINE
  5
2E7
100
AcDbEntity
  8
0
100
AcDbSpline
 62
7
  6
BYLAYER
 70
0
 71
3
 72
10
 73
6
 74
0
 42
0.0000001
 43
0.0000001
 44
0.0000000001
 40
0.0
 40
0.0
 40
0.0
 40
0.0
 40
0.1105913602
 40
0.4479828178
 40
1.0
 40
1.0
 40
1.0
 40
1.0
 10
39.3967150747
 20
70.4444488732
 30
0.0
 10
39.3955140078
 20
70.4465844197
 30
0.0
 10
39.3907019298
 20
70.4552641825
 30
0.0
 10
39.3803253442
 20
70.4748388506
 30
0.0
 10
39.3711163393
 20
70.4922577048
 30
0.0
 10
39.3653228674
 20
70.503027517
 30
0.0
  0
SPLINE
  5
2E8
100
AcDbEntity
  8
0
100
AcDbSpline
 62
7
  6
BYLAYER
 70
0
 71
3
 72
10
 73
6
 74
0
 42
0.0000001
 43
0.0000001
 44
0.0000000001
 40
0.0
 40
0.0
 40
0.0
 40
0.0
 40
0.2859961694
 40
0.6207363704
 40
1.0
 40
1.0
 40
1.0
 40
1.0
 10
39.3755408798
 20
71.0962126822
 30
0.0
 10
39.3698797548
 20
71.1173402886
 30
0.0
 10
39.3400441738
 20
71.15894402
 30
0.0
 10
39.2668162866
 20
71.1886779827
 30
0.0
 10
39.2111048273
 20
71.1897218804
 30
0.0
 10
39.1823557145
 20
71.1858702297
 30
0.0
  0
SPLINE
  5
2E9
100
AcDbEntity
  8
0
100
AcDbSpline
 62
7
  6
BYLAYER
 70
0
 71
3
 72
10
 73
6
 74
0
 42
0.0000001
 43
0.0000001
 44
0.0000000001
 40
0.0
 40
0.0
 40
0.0
 40
0.0
 40
0.5232441782
 40
0.876586805
 40
1.0
 40
1.0
 40
1.0
 40
1.0
 10
35.6434900682
 20
70.3926850502
 30
0.0
 10
35.6412936447
 20
70.3844878817
 30
0.0
 10
35.6398618673
 20
70.370132521
 30
0.0
 10
35.6369496269
 20
70.3545326857
 30
0.0
 10
35.6386221557
 20
70.3461818368
 30
0.0
 10
35.6376204658
 20
70.3444489146
 30
0.0
  0
SPLINE
  5
2EA
100
AcDbEntity
  8
0
100
AcDbSpline
 62
7
  6
BYLAYER
 70
0
 71
3
 72
10
 73
6
 74
0
 42
0.0000001
 43
0.0000001
 44
0.0000000001
 40
0.0
 40
0.0
 40
0.0
 40
0.0
 40
0.5521786886
 40
0.8890183698
 40
1.0
 40
1.0
 40
1.0
 40
1.0
 10
35.8422178044
 20
70.503027517
 30
0.0
 10
35.8364160344
 20
70.4922581827
 30
0.0
 10
35.8271996885
 20
70.4748528845
 30
0.0
 10
35.8168035578
 20
70.4552893151
 30
0.0
 10
35.8120210028
 20
70.4465973849
 30
0.0
 10
35.8108255307
 20
70.4444488732
 30
0.0
  0
SPLINE
  5
2EB
100
AcDbEntity
  8
0
100
AcDbSpline
 62
7
  6
BYLAYER
 70
0
 71
3
 72
11
 73
7
 74
0
 42
0.0000001
 43
0.0000001
 44
0.0000000001
 40
0.0
 40
0.0
 40
0.0
 40
0.0
 40
0.2481502415
 40
0.5032927425
 40
0.7562533149
 40
1.0
 40
1.0
 40
1.0
 40
1.0
 10
35.8319997291
 20
71.0962126824
 30
0.0
 10
35.8369289716
 20
71.1146088657
 30
0.0
 10
35.8591466455
 20
71.1491121818
 30
0.0
 10
35.9110414266
 20
71.1781380256
 30
0.0
 10
35.9682168388
 20
71.1896812085
 30
0.0
 10
36.0066433923
 20
71.1883543199
 30
0.0
 10
36.0251848943
 20
71.1858702297
 30
0.0
  0
SPLINE
  5
2EC
100
AcDbEntity
  8
0
100
AcDbSpline
 62
7
  6
BYLAYER
 70
0
 71
3
 72
11
 73
7
 74
0
 42
0.0000001
 43
0.0000001
 44
0.0000000001
 40
0.0
 40
0.0
 40
0.0
 40
0.0
 40
0.4138124938
 40
0.7263113447
 40
0.9149608464
 40
1.0
 40
1.0
 40
1.0
 40
1.0
 10
35.8366752374
 20
70.3926850643
 30
0.0
 10
35.809441651
 20
70.3868023515
 30
0.0
 10
35.7614064733
 20
70.3773308026
 30
0.0
 10
35.6993823664
 20
70.3747557562
 30
0.0
 10
35.6608083805
 20
70.3709268406
 30
0.0
 10
35.6420081708
 20
70.3871545338
 30
0.0
 10
35.6434900719
 20
70.3926850641
 30
0.0
  0
SPLINE
  5
2ED
100
AcDbEntity
  8
0
100
AcDbSpline
 62
7
  6
BYLAYER
 70
0
 71
3
 72
12
 73
8
 74
0
 42
0.0000001
 43
0.0000001
 44
0.0000000001
 40
0.0
 40
0.0
 40
0.0
 40
0.0
 40
0.2687343516
 40
0.4770105022
 40
0.6614430273
 40
0.8304584949
 40
1.0
 40
1.0
 40
1.0
 40
1.0
 10
39.6037788815
 20
70.1460729002
 30
0.0
 10
39.5924876795
 20
70.1740466745
 30
0.0
 10
39.5712505465
 20
70.2233490508
 30
0.0
 10
39.5313753235
 20
70.2864328372
 30
0.0
 10
39.4889859793
 20
70.3333624938
 30
0.0
 10
39.4430104009
 20
70.3707377129
 30
0.0
 10
39.4068250597
 20
70.3845834613
 30
0.0
 10
39.3883092858
 20
70.3889850809
 30
0.0
  0
SPLINE
  5
2EE
100
AcDbEntity
  8
0
100
AcDbSpline
 62
7
  6
BYLAYER
 70
0
 71
3
 72
18
 73
14
 74
0
 42
0.0000001
 43
0.0000001
 44
0.0000000001
 40
0.0
 40
0.0
 40
0.0
 40
0.0
 40
0.2054735222
 40
0.3958956875
 40
0.5664023924
 40
0.7126810957
 40
0.8310815516
 40
0.8789087593
 40
0.9187917101
 40
0.9505593972
 40
0.9742154467
 40
0.9901165593
 40
1.0
 40
1.0
 40
1.0
 40
1.0
 10
39.3883091852
 20
70.3889851078
 30
0.0
 10
39.3885424477
 20
70.3789413032
 30
0.0
 10
39.3891227244
 20
70.3595920667
 30
0.0
 10
39.3903851299
 20
70.3319257638
 30
0.0
 10
39.3919755472
 20
70.3071750894
 30
0.0
 10
39.3938488042
 20
70.2859777167
 30
0.0
 10
39.3956930305
 20
70.2708036481
 30
0.0
 10
39.3973445743
 20
70.2608604436
 30
0.0
 10
39.3985340524
 20
70.2551386942
 30
0.0
 10
39.3997246884
 20
70.25063094
 30
0.0
 10
39.4009705145
 20
70.2473579473
 30
0.0
 10
39.4021176074
 20
70.2452354793
 30
0.0
 10
39.4032870061
 20
70.2444488731
 30
0.0
 10
39.4037702514
 20
70.2444488732
 30
0.0
  0
SPLINE
  5
2EF
100
AcDbEntity
  8
0
100
AcDbSpline
 62
7
  6
BYLAYER
 70
0
 71
3
 72
10
 73
6
 74
0
 42
0.0000001
 43
0.0000001
 44
0.0000000001
 40
0.0
 40
0.0
 40
0.0
 40
0.0
 40
0.2868466892
 40
0.6220395712
 40
1.0
 40
1.0
 40
1.0
 40
1.0
 10
16.6037703045
 20
35.1272915853
 30
0.0
 10
16.6037703045
 20
35.1042410336
 30
0.0
 10
16.6231439958
 20
35.0537874321
 30
0.0
 10
16.6902867681
 20
35.00472148
 30
0.0
 10
16.7469757388
 20
34.9899870702
 30
0.0
 10
16.7772126692
 20
34.9871225944
 30
0.0
  0
SPLINE
  5
2F0
100
AcDbEntity
  8
0
100
AcDbSpline
 62
7
  6
BYLAYER
 70
0
 71
3
 72
10
 73
6
 74
0
 42
0.0000001
 43
0.0000001
 44
0.0000000001
 40
0.0
 40
0.0
 40
0.0
 40
0.0
 40
0.3327867429
 40
0.66622907
 40
1.0
 40
1.0
 40
1.0
 40
1.0
 10
16.7772126692
 20
34.9871225944
 30
0.0
 10
16.7801509869
 20
34.9868574406
 30
0.0
 10
16.7860384758
 20
34.9863743718
 30
0.0
 10
16.7948959948
 20
34.9859647965
 30
0.0
 10
16.8008113222
 20
34.985870229
 30
0.0
 10
16.8037703045
 20
34.985870229
 30
0.0
  0
SPLINE
  5
2F1
100
AcDbEntity
  8
0
100
AcDbSpline
 62
7
  6
BYLAYER
 70
0
 71
3
 72
10
 73
6
 74
0
 42
0.0000001
 43
0.0000001
 44
0.0000000001
 40
0.0
 40
0.0
 40
0.0
 40
0.0
 40
0.3598597385
 40
0.6978588111
 40
1.0
 40
1.0
 40
1.0
 40
1.0
 10
39.4037703045
 20
34.9858702295
 30
0.0
 10
39.4274242083
 20
34.9858702295
 30
0.0
 10
39.4735408377
 20
34.9916165292
 30
0.0
 10
39.5351379839
 20
35.0166644888
 30
0.0
 10
39.5680571603
 20
35.0446635819
 30
0.0
 10
39.5800527878
 20
35.060491563
 30
0.0
  0
SPLINE
  5
2F2
100
AcDbEntity
  8
0
100
AcDbSpline
 62
7
  6
BYLAYER
 70
0
 71
3
 72
10
 73
6
 74
0
 42
0.0000001
 43
0.0000001
 44
0.0000000001
 40
0.0
 40
0.0
 40
0.0
 40
0.0
 40
0.346149729
 40
0.677190911
 40
1.0
 40
1.0
 40
1.0
 40
1.0
 10
39.5800527878
 20
35.060491563
 30
0.0
 10
39.585072131
 20
35.0671144821
 30
0.0
 10
39.5937260853
 20
35.0810294189
 30
0.0
 10
39.6019153824
 20
35.1037859629
 30
0.0
 10
39.6037703045
 20
35.1195418806
 30
0.0
 10
39.6037703045
 20
35.1272915858
 30
0.0
  0
SPLINE
  5
2F3
100
AcDbEntity
  8
0
100
AcDbSpline
 62
7
  6
BYLAYER
 70
0
 71
3
 72
24
 73
20
 74
0
 42
0.0000001
 43
0.0000001
 44
0.0000000001
 40
0.0
 40
0.0
 40
0.0
 40
0.0
 40
0.0681915551
 40
0.1353344356
 40
0.2002481355
 40
0.261799765
 40
0.3202871799
 40
0.375177057
 40
0.4267433152
 40
0.4759477834
 40
0.5242643094
 40
0.5733483448
 40
0.6246717055
 40
0.6792648414
 40
0.7375235015
 40
0.7990102615
 40
0.8640298661
 40
0.9314371013
 40
1.0
 40
1.0
 40
1.0
 40
1.0
 10
28.1037703048
 20
33.7716165376
 30
0.0
 10
28.5942830902
 20
33.7716165376
 30
0.0
 10
29.5689908197
 20
33.7083929987
 30
0.0
 10
30.9857117918
 20
33.4260247436
 30
0.0
 10
32.3053481413
 20
32.9659706409
 30
0.0
 10
33.4868003895
 20
32.3424980732
 30
0.0
 10
34.4915594741
 20
31.5739236527
 30
0.0
 10
35.2851526479
 20
30.6808056013
 30
0.0
 10
35.834314118
 20
29.6934398975
 30
0.0
 10
36.1151828486
 20
28.6463271165
 30
0.0
 10
36.11455382
 20
27.5794246853
 30
0.0
 10
35.8335671712
 20
26.5351500543
 30
0.0
 10
35.2869562349
 20
25.5519596417
 30
0.0
 10
34.4981498473
 20
24.6621312357
 30
0.0
 10
33.4981456902
 20
23.8944123876
 30
0.0
 10
32.3190187966
 20
23.2694189245
 30
0.0
 10
30.9979749145
 20
22.8066202823
 30
0.0
 10
29.5762550537
 20
22.5217735385
 30
0.0
 10
28.596954224
 20
22.4579080386
 30
0.0
 10
28.1037703048
 20
22.4579080386
 30
0.0
  0
SPLINE
  5
2F4
100
AcDbEntity
  8
0
100
AcDbSpline
 62
7
  6
BYLAYER
 70
0
 71
3
 72
24
 73
20
 74
0
 42
0.0000001
 43
0.0000001
 44
0.0000000001
 40
0.0
 40
0.0
 40
0.0
 40
0.0
 40
0.0681915551
 40
0.1353344356
 40
0.2002481355
 40
0.261799765
 40
0.3202871799
 40
0.375177057
 40
0.4267433152
 40
0.4759477834
 40
0.5242643094
 40
0.5733483448
 40
0.6246717055
 40
0.6792648414
 40
0.7375235015
 40
0.7990102615
 40
0.8640298661
 40
0.9314371013
 40
1.0
 40
1.0
 40
1.0
 40
1.0
 10
28.1037703048
 20
22.4579080386
 30
0.0
 10
27.6132575194
 20
22.4579080386
 30
0.0
 10
26.63854979
 20
22.5211315776
 30
0.0
 10
25.221828818
 20
22.8034998327
 30
0.0
 10
23.9021924687
 20
23.2635539355
 30
0.0
 10
22.7207402207
 20
23.8870265032
 30
0.0
 10
21.7159811362
 20
24.6556009237
 30
0.0
 10
20.9223879625
 20
25.5487189751
 30
0.0
 10
20.3732264926
 20
26.5360846788
 30
0.0
 10
20.0923577621
 20
27.5831974598
 30
0.0
 10
20.0929867906
 20
28.6500998908
 30
0.0
 10
20.3739734394
 20
29.6943745218
 30
0.0
 10
20.9205843756
 20
30.6775649343
 30
0.0
 10
21.709390763
 20
31.5673933402
 30
0.0
 10
22.70939492
 20
32.3351121883
 30
0.0
 10
23.8885218135
 20
32.9601056514
 30
0.0
 10
25.2095656954
 20
33.4229042937
 30
0.0
 10
26.631285556
 20
33.7077510375
 30
0.0
 10
27.6105863857
 20
33.7716165376
 30
0.0
 10
28.1037703048
 20
33.7716165376
 30
0.0
  0
SPLINE
  5
2F5
100
AcDbEntity
  8
0
100
AcDbSpline
 62
7
  6
BYLAYER
 70
0
 71
3
 72
10
 73
6
 74
0
 42
0.0000001
 43
0.0000001
 44
0.0000000001
 40
0.0
 40
0.0
 40
0.0
 40
0.0
 40
0.358435969
 40
0.6976985539
 40
1.0
 40
1.0
 40
1.0
 40
1.0
 10
16.8037703045
 20
22.1030275176
 30
0.0
 10
16.7802100394
 20
22.1030275176
 30
0.0
 10
16.7341081483
 20
22.1087497902
 30
0.0
 10
16.6724854954
 20
22.1337546376
 30
0.0
 10
16.6394897841
 20
22.1618125104
 30
0.0
 10
16.6274878211
 20
22.1776488511
 30
0.0
  0
SPLINE
  5
2F6
100
AcDbEntity
  8
0
100
AcDbSpline
 62
7
  6
BYLAYER
 70
0
 71
3
 72
10
 73
6
 74
0
 42
0.0000001
 43
0.0000001
 44
0.0000000001
 40
0.0
 40
0.0
 40
0.0
 40
0.0
 40
0.3461497256
 40
0.6771909098
 40
1.0
 40
1.0
 40
1.0
 40
1.0
 10
16.6274878211
 20
22.1776488511
 30
0.0
 10
16.622468478
 20
22.1842717701
 30
0.0
 10
16.6138145237
 20
22.1981867068
 30
0.0
 10
16.6056252265
 20
22.2209432508
 30
0.0
 10
16.6037703045
 20
22.2366991686
 30
0.0
 10
16.6037703045
 20
22.2444488738
 30
0.0
  0
SPLINE
  5
2F7
100
AcDbEntity
  8
0
100
AcDbSpline
 62
7
  6
BYLAYER
 70
0
 71
3
 72
11
 73
7
 74
0
 42
0.0000001
 43
0.0000001
 44
0.0000000001
 40
0.0
 40
0.0
 40
0.0
 40
0.0
 40
0.0767111961
 40
0.2935058839
 40
0.617761794
 40
1.0
 40
1.0
 40
1.0
 40
1.0
 10
16.6037703045
 20
22.244448866
 30
0.0
 10
16.6037704425
 20
22.2393301789
 30
0.0
 10
16.635081221
 20
22.2467919946
 30
0.0
 10
16.6656810252
 20
22.2374843211
 30
0.0
 10
16.7326434781
 20
22.2405149813
 30
0.0
 10
16.7782647999
 20
22.239143695
 30
0.0
 10
16.8037703045
 20
22.239143695
 30
0.0
  0
SPLINE
  5
2F8
100
AcDbEntity
  8
0
100
AcDbSpline
 62
7
  6
BYLAYER
 70
0
 71
3
 72
12
 73
8
 74
0
 42
0.0000001
 43
0.0000001
 44
0.0000000001
 40
0.0
 40
0.0
 40
0.0
 40
0.0
 40
0.2558901609
 40
0.5111337114
 40
0.7445829017
 40
0.9247622679
 40
1.0
 40
1.0
 40
1.0
 40
1.0
 10
39.4037703045
 20
22.239143695
 30
0.0
 10
39.4208451573
 20
22.239143695
 30
0.0
 10
39.4552086426
 20
22.2390652292
 30
0.0
 10
39.5037699294
 20
22.2404360649
 30
0.0
 10
39.5518846435
 20
22.2387288226
 30
0.0
 10
39.5762576502
 20
22.2460824876
 30
0.0
 10
39.6037703049
 20
22.2394284648
 30
0.0
 10
39.6037703045
 20
22.2444488735
 30
0.0
  0
SPLINE
  5
2F9
100
AcDbEntity
  8
0
100
AcDbSpline
 62
7
  6
BYLAYER
 70
0
 71
3
 72
10
 73
6
 74
0
 42
0.0000001
 43
0.0000001
 44
0.0000000001
 40
0.0
 40
0.0
 40
0.0
 40
0.0
 40
0.2868466904
 40
0.6220395714
 40
1.0
 40
1.0
 40
1.0
 40
1.0
 10
39.6037703045
 20
22.2444488729
 30
0.0
 10
39.6037703045
 20
22.2213983211
 30
0.0
 10
39.5843966131
 20
22.1709447196
 30
0.0
 10
39.5172538407
 20
22.1218787675
 30
0.0
 10
39.4605648701
 20
22.1071443578
 30
0.0
 10
39.4303279397
 20
22.104279882
 30
0.0
  0
SPLINE
  5
2FA
100
AcDbEntity
  8
0
100
AcDbSpline
 62
7
  6
BYLAYER
 70
0
 71
3
 72
11
 73
7
 74
0
 42
0.0000001
 43
0.0000001
 44
0.0000000001
 40
0.0
 40
0.0
 40
0.0
 40
0.0
 40
0.0767248655
 40
0.2934724758
 40
0.6176547042
 40
1.0
 40
1.0
 40
1.0
 40
1.0
 10
39.6037703045
 20
64.7383874722
 30
0.0
 10
39.603768923
 20
64.7332678733
 30
0.0
 10
39.5724639122
 20
64.7407297305
 30
0.0
 10
39.5418658268
 20
64.7314240059
 30
0.0
 10
39.4749065726
 20
64.7344539193
 30
0.0
 10
39.4292829543
 20
64.7330822936
 30
0.0
 10
39.4037703045
 20
64.7330822936
 30
0.0
  0
SPLINE
  5
2FB
100
AcDbEntity
  8
0
100
AcDbSpline
 62
7
  6
BYLAYER
 70
0
 71
3
 72
10
 73
6
 74
0
 42
0.0000001
 43
0.0000001
 44
0.0000000001
 40
0.0
 40
0.0
 40
0.0
 40
0.0
 40
0.3805683761
 40
0.7120178695
 40
1.0
 40
1.0
 40
1.0
 40
1.0
 10
39.4608441727
 20
64.8725959283
 30
0.0
 10
39.4866423676
 20
64.8670038247
 30
0.0
 10
39.5338305288
 20
64.849351898
 30
0.0
 10
39.5874684177
 20
64.8020044455
 30
0.0
 10
39.6016117195
 20
64.7583708932
 30
0.0
 10
39.6013716083
 20
64.7383970656
 30
0.0
  0
SPLINE
  5
2FC
100
AcDbEntity
  8
0
100
AcDbSpline
 62
7
  6
BYLAYER
 70
0
 71
3
 72
9
 73
5
 74
0
 42
0.0000001
 43
0.0000001
 44
0.0000000001
 40
0.0
 40
0.0
 40
0.0
 40
0.0
 40
0.2770926912
 40
1.0
 40
1.0
 40
1.0
 40
1.0
 10
39.4038141656
 20
64.733187774
 30
0.0
 10
39.4091150091
 20
64.7459876565
 30
0.0
 10
39.4281885877
 20
64.7922044775
 30
0.0
 10
39.4471227172
 20
64.8384797045
 30
0.0
 10
39.4605854576
 20
64.8720228142
 30
0.0
  0
SPLINE
  5
2FD
100
AcDbEntity
  8
0
100
AcDbSpline
 62
7
  6
BYLAYER
 70
0
 71
3
 72
10
 73
6
 74
0
 42
0.0000001
 43
0.0000001
 44
0.0000000001
 40
0.0
 40
0.0
 40
0.0
 40
0.0
 40
0.3764994212
 40
0.7077338906
 40
1.0
 40
1.0
 40
1.0
 40
1.0
 10
39.4728225732
 20
70.1745178288
 30
0.0
 10
39.4970067913
 20
70.1685689257
 30
0.0
 10
39.541299263
 20
70.1508593976
 30
0.0
 10
39.5918462625
 20
70.1053090644
 30
0.0
 10
39.6059034878
 20
70.0637942682
 30
0.0
 10
39.6061538612
 20
70.044462719
 30
0.0
  0
SPLINE
  5
2FE
100
AcDbEntity
  8
0
100
AcDbSpline
 62
7
  6
BYLAYER
 70
0
 71
3
 72
10
 73
6
 74
0
 42
0.0000001
 43
0.0000001
 44
0.0000000001
 40
0.0
 40
0.0
 40
0.0
 40
0.0
 40
0.2663786062
 40
0.5990634585
 40
1.0
 40
1.0
 40
1.0
 40
1.0
 10
39.4037703047
 20
70.2444488732
 30
0.0
 10
39.4128564576
 20
70.2444488732
 30
0.0
 10
39.4333125202
 20
70.2368632701
 30
0.0
 10
39.4562218459
 20
70.2106323738
 30
0.0
 10
39.4673816777
 20
70.1880400299
 30
0.0
 10
39.4723817806
 20
70.175310946
 30
0.0
  0
SPLINE
  5
2FF
100
AcDbEntity
  8
0
100
AcDbSpline
 62
7
  6
BYLAYER
 70
0
 71
3
 72
10
 73
6
 74
0
 42
0.0000001
 43
0.0000001
 44
0.0000000001
 40
0.0
 40
0.0
 40
0.0
 40
0.0
 40
0.400937643
 40
0.7336218174
 40
1.0
 40
1.0
 40
1.0
 40
1.0
 10
16.7351588281
 20
70.175310946
 30
0.0
 10
16.7401589509
 20
70.1880400626
 30
0.0
 10
16.7513187857
 20
70.2106324237
 30
0.0
 10
16.7742281392
 20
70.236863297
 30
0.0
 10
16.7946841655
 20
70.2444488732
 30
0.0
 10
16.803770304
 20
70.2444488732
 30
0.0
  0
SPLINE
  5
300
100
AcDbEntity
  8
0
100
AcDbSpline
 62
7
  6
BYLAYER
 70
0
 71
3
 72
10
 73
6
 74
0
 42
0.0000001
 43
0.0000001
 44
0.0000000001
 40
0.0
 40
0.0
 40
0.0
 40
0.0
 40
0.3753606923
 40
0.707366329
 40
1.0
 40
1.0
 40
1.0
 40
1.0
 10
16.7347181845
 20
70.1745176089
 30
0.0
 10
16.7106073086
 20
70.1685867914
 30
0.0
 10
16.6663401832
 20
70.150907588
 30
0.0
 10
16.6157391122
 20
70.1054077192
 30
0.0
 10
16.6016372436
 20
70.0638184559
 30
0.0
 10
16.6013865003
 20
70.0444627617
 30
0.0
  0
SPLINE
  5
301
100
AcDbEntity
  8
0
100
AcDbSpline
 62
7
  6
BYLAYER
 70
0
 71
3
 72
41
 73
37
 74
0
 42
0.0000001
 43
0.0000001
 44
0.0000000001
 40
0.0
 40
0.0
 40
0.0
 40
0.0
 40
0.0376106084
 40
0.0752852984
 40
0.10857362
 40
0.1407607981
 40
0.1810444486
 40
0.221599497
 40
0.3033302098
 40
0.3946635626
 40
0.4871821533
 40
0.5897709055
 40
0.6949116428
 40
0.7231746796
 40
0.7516782685
 40
0.7804342797
 40
0.8094517449
 40
0.8246464345
 40
0.8408172966
 40
0.8552405172
 40
0.8683004675
 40
0.8755417635
 40
0.8836845831
 40
0.8913990936
 40
0.8981127464
 40
0.9046837781
 40
0.9124301936
 40
0.9207864119
 40
0.9281611327
 40
0.9341644097
 40
0.9408233481
 40
0.9483134804
 40
0.9554019691
 40
0.9690766084
 40
0.9827813878
 40
1.0
 40
1.0
 40
1.0
 40
1.0
 10
16.8192310214
 20
70.3889697936
 30
0.0
 10
16.8150825702
 20
70.388125054
 30
0.0
 10
16.8068610209
 20
70.3860305773
 30
0.0
 10
16.7952358592
 20
70.3822157882
 30
0.0
 10
16.7845601712
 20
70.377625613
 30
0.0
 10
16.7738646955
 20
70.3723865572
 30
0.0
 10
16.7628483119
 20
70.3660001598
 30
0.0
 10
16.7475417113
 20
70.3559606889
 30
0.0
 10
16.7285043052
 20
70.3411916725
 30
0.0
 10
16.7069249411
 20
70.3204314896
 30
0.0
 10
16.6857109009
 20
70.296104386
 30
0.0
 10
16.6656382072
 20
70.2688686463
 30
0.0
 10
16.6515183961
 20
70.2463384132
 30
0.0
 10
16.6425133312
 20
70.2304932988
 30
0.0
 10
16.6379058981
 20
70.2220400699
 30
0.0
 10
16.633408593
 20
70.2134320089
 30
0.0
 10
16.6297264676
 20
70.2060895355
 30
0.0
 10
16.6267662181
 20
70.1999709736
 30
0.0
 10
16.6245721714
 20
70.1953070695
 30
0.0
 10
16.6224955553
 20
70.190853579
 30
0.0
 10
16.6208676923
 20
70.1872998939
 30
0.0
 10
16.6195632298
 20
70.1843758887
 30
0.0
 10
16.6185138668
 20
70.1819969843
 30
0.0
 10
16.6174935218
 20
70.1796702073
 30
0.0
 10
16.6165493545
 20
70.1775032034
 30
0.0
 10
16.6156209066
 20
70.1753255146
 30
0.0
 10
16.6146254178
 20
70.1729754361
 30
0.0
 10
16.613601311
 20
70.1705392391
 30
0.0
 10
16.6126612547
 20
70.1682805597
 30
0.0
 10
16.6118085025
 20
70.1661925427
 30
0.0
 10
16.6109561199
 20
70.1640903615
 30
0.0
 10
16.6100603875
 20
70.1618739367
 30
0.0
 10
16.6088829728
 20
70.1589196192
 30
0.0
 10
16.6074680065
 20
70.1553069697
 30
0.0
 10
16.6056683896
 20
70.1506204755
 30
0.0
 10
16.6044457049
 20
70.147361379
 30
0.0
 10
16.6037726192
 20
70.1455438176
 30
0.0
  0
SPLINE
  5
302
100
AcDbEntity
  8
0
100
AcDbSpline
 62
7
  6
BYLAYER
 70
0
 71
3
 72
11
 73
7
 74
0
 42
0.0000001
 43
0.0000001
 44
0.0000000001
 40
0.0
 40
0.0
 40
0.0
 40
0.0
 40
0.4101455204
 40
0.7221565439
 40
0.914895331
 40
1.0
 40
1.0
 40
1.0
 40
1.0
 10
20.3708653692
 20
70.3926850731
 30
0.0
 10
20.3977745248
 20
70.3866445401
 30
0.0
 10
20.4453543819
 20
70.3770280417
 30
0.0
 10
20.5076247241
 20
70.3746517562
 30
0.0
 10
20.5458274432
 20
70.3712358133
 30
0.0
 10
20.5655316463
 20
70.3871574886
 30
0.0
 10
20.5640505369
 20
70.3926850643
 30
0.0
  0
SPLINE
  5
303
100
AcDbEntity
  8
0
100
AcDbSpline
 62
7
  6
BYLAYER
 70
0
 71
3
 72
13
 73
9
 74
0
 42
0.0000001
 43
0.0000001
 44
0.0000000001
 40
0.0
 40
0.0
 40
0.0
 40
0.0
 40
0.2458160563
 40
0.4500713308
 40
0.6187101912
 40
0.7558394151
 40
0.8789455636
 40
1.0
 40
1.0
 40
1.0
 40
1.0
 10
20.1823557143
 20
71.1858702301
 30
0.0
 10
20.2011268276
 20
71.1883850823
 30
0.0
 10
20.2361019196
 20
71.1895443311
 30
0.0
 10
20.2833468901
 20
71.1809636863
 30
0.0
 10
20.3198509274
 20
71.1655085301
 30
0.0
 10
20.3467088796
 20
71.1457299941
 30
0.0
 10
20.3655304704
 20
71.1227675986
 30
0.0
 10
20.3731269808
 20
71.1052214782
 30
0.0
 10
20.375540883
 20
71.0962126702
 30
0.0
  0
SPLINE
  5
304
100
AcDbEntity
  8
0
100
AcDbSpline
 62
7
  6
BYLAYER
 70
0
 71
3
 72
11
 73
7
 74
0
 42
0.0000001
 43
0.0000001
 44
0.0000000001
 40
0.0
 40
0.0
 40
0.0
 40
0.0
 40
0.3850609134
 40
0.6812141994
 40
0.888092149
 40
1.0
 40
1.0
 40
1.0
 40
1.0
 10
20.1823557147
 20
71.0962126815
 30
0.0
 10
20.2072547601
 20
71.1024374428
 30
0.0
 10
20.2516320763
 20
71.11166555
 30
0.0
 10
20.3115051657
 20
71.1160611059
 30
0.0
 10
20.3510442924
 20
71.1148920895
 30
0.0
 10
20.3736103591
 20
71.1034174836
 30
0.0
 10
20.37554088
 20
71.0962126814
 30
0.0
  0
SPLINE
  5
305
100
AcDbEntity
  8
0
100
AcDbSpline
 62
7
  6
BYLAYER
 70
0
 71
3
 72
15
 73
11
 74
0
 42
0.0000001
 43
0.0000001
 44
0.0000000001
 40
0.0
 40
0.0
 40
0.0
 40
0.0
 40
0.2460643183
 40
0.4515975927
 40
0.6164017284
 40
0.750483002
 40
0.8408759749
 40
0.9085605419
 40
0.9557003402
 40
1.0
 40
1.0
 40
1.0
 40
1.0
 10
17.0251848942
 20
71.0962126815
 30
0.0
 10
17.0092013063
 20
71.1002085784
 30
0.0
 10
16.979631437
 20
71.1066451188
 30
0.0
 10
16.9387929288
 20
71.1128120515
 30
0.0
 10
16.905096579
 20
71.1155038512
 30
0.0
 10
16.8789865905
 20
71.1153614226
 30
0.0
 10
16.8595135192
 20
71.1130742796
 30
0.0
 10
16.8461881265
 20
71.1093904063
 30
0.0
 10
16.8366996027
 20
71.1043314708
 30
0.0
 10
16.8327674204
 20
71.0990777451
 30
0.0
 10
16.8319997289
 20
71.0962126815
 30
0.0
  0
SPLINE
  5
306
100
AcDbEntity
  8
0
100
AcDbSpline
 62
7
  6
BYLAYER
 70
0
 71
3
 72
13
 73
9
 74
0
 42
0.0000001
 43
0.0000001
 44
0.0000000001
 40
0.0
 40
0.0
 40
0.0
 40
0.0
 40
0.1045450569
 40
0.2122848068
 40
0.3258366638
 40
0.4467459189
 40
0.7110037116
 40
1.0
 40
1.0
 40
1.0
 40
1.0
 10
16.6490325751
 20
70.4133699674
 30
0.0
 10
16.6511162237
 20
70.4211462499
 30
0.0
 10
16.6573929567
 20
70.4364564484
 30
0.0
 10
16.672353799
 20
70.4568720246
 30
0.0
 10
16.692419959
 20
70.4742588144
 30
0.0
 10
16.7259593352
 20
70.4933828259
 30
0.0
 10
16.7770707692
 20
70.5066932015
 30
0.0
 10
16.8201603589
 20
70.5059826447
 30
0.0
 10
16.8422177408
 20
70.5030275159
 30
0.0
  0
SPLINE
  5
307
100
AcDbEntity
  8
0
100
AcDbSpline
 62
7
  6
BYLAYER
 70
0
 71
3
 72
10
 73
6
 74
0
 42
0.0000001
 43
0.0000001
 44
0.0000000001
 40
0.0
 40
0.0
 40
0.0
 40
0.0
 40
0.285996159
 40
0.6207363459
 40
1.0
 40
1.0
 40
1.0
 40
1.0
 10
16.8319997293
 20
71.0962126828
 30
0.0
 10
16.8376608544
 20
71.1173402893
 30
0.0
 10
16.8674964355
 20
71.1589440206
 30
0.0
 10
16.9407243256
 20
71.1886779844
 30
0.0
 10
16.9964357883
 20
71.189721881
 30
0.0
 10
17.025184904
 20
71.1858702288
 30
0.0
  0
SPLINE
  5
308
100
AcDbEntity
  8
0
100
AcDbSpline
 62
7
  6
BYLAYER
 70
0
 71
3
 72
10
 73
6
 74
0
 42
0.0000001
 43
0.0000001
 44
0.0000000001
 40
0.0
 40
0.0
 40
0.0
 40
0.0
 40
0.3849829014
 40
0.7100899077
 40
1.0
 40
1.0
 40
1.0
 40
1.0
 10
16.8433960724
 20
71.1077134407
 30
0.0
 10
16.8414692141
 20
71.1067899969
 30
0.0
 10
16.8380296717
 20
71.1048039375
 30
0.0
 10
16.8339766319
 20
71.1009061605
 30
0.0
 10
16.8324161801
 20
71.0977668984
 30
0.0
 10
16.8319997292
 20
71.0962126826
 30
0.0
  0
SPLINE
  5
309
100
AcDbEntity
  8
0
100
AcDbSpline
 62
7
  6
BYLAYER
 70
0
 71
3
 72
18
 73
14
 74
0
 42
0.0000001
 43
0.0000001
 44
0.0000000001
 40
0.0
 40
0.0
 40
0.0
 40
0.0
 40
0.0098928511
 40
0.0258121662
 40
0.0494501592
 40
0.0811962775
 40
0.1210937047
 40
0.1689389963
 40
0.2873093147
 40
0.4336163588
 40
0.6040989577
 40
0.7945396724
 40
1.0
 40
1.0
 40
1.0
 40
1.0
 10
16.8037703045
 20
70.2444488732
 30
0.0
 10
16.8042540033
 20
70.2444488735
 30
0.0
 10
16.805422793
 20
70.2452404375
 30
0.0
 10
16.8065685999
 20
70.2473623702
 30
0.0
 10
16.8078162614
 20
70.2506341169
 30
0.0
 10
16.8090071541
 20
70.2551402981
 30
0.0
 10
16.810195732
 20
70.2608627884
 30
0.0
 10
16.8118465385
 20
70.2708060342
 30
0.0
 10
16.8136928038
 20
70.2859804641
 30
0.0
 10
16.8155637733
 20
70.3071764902
 30
0.0
 10
16.8171561476
 20
70.3319277956
 30
0.0
 10
16.8184166485
 20
70.3595929017
 30
0.0
 10
16.818998083
 20
70.3789420888
 30
0.0
 10
16.8192313245
 20
70.3889851107
 30
0.0
  0
SPLINE
  5
30A
100
AcDbEntity
  8
0
100
AcDbSpline
 62
7
  6
BYLAYER
 70
0
 71
3
 72
11
 73
7
 74
0
 42
0.0000001
 43
0.0000001
 44
0.0000000001
 40
0.0
 40
0.0
 40
0.0
 40
0.0
 40
0.093285263
 40
0.302212772
 40
0.6145982312
 40
1.0
 40
1.0
 40
1.0
 40
1.0
 10
20.5640505369
 20
70.3926850642
 30
0.0
 10
20.5656719533
 20
70.3866338559
 30
0.0
 10
20.5426160301
 20
70.3705142525
 30
0.0
 10
20.5039539176
 20
70.3746468737
 30
0.0
 10
20.4418890527
 20
70.3778558227
 30
0.0
 10
20.3960812178
 20
70.3868504614
 30
0.0
 10
20.3708653716
 20
70.3926850641
 30
0.0
  0
SPLINE
  5
30B
100
AcDbEntity
  8
0
100
AcDbSpline
 62
7
  6
BYLAYER
 70
0
 71
3
 72
10
 73
6
 74
0
 42
0.0000001
 43
0.0000001
 44
0.0000000001
 40
0.0
 40
0.0
 40
0.0
 40
0.0
 40
0.1423221843
 40
0.5097877616
 40
1.0
 40
1.0
 40
1.0
 40
1.0
 10
20.5699130439
 20
70.3444449325
 30
0.0
 10
20.5697725282
 20
70.3467495088
 30
0.0
 10
20.5692997123
 20
70.3550044488
 30
0.0
 10
20.5682769164
 20
70.3711862655
 30
0.0
 10
20.566108574
 20
70.3850047815
 30
0.0
 10
20.5640505363
 20
70.3926850661
 30
0.0
  0
SPLINE
  5
30C
100
AcDbEntity
  8
0
100
AcDbSpline
 62
7
  6
BYLAYER
 70
0
 71
3
 72
13
 73
9
 74
0
 42
0.0000001
 43
0.0000001
 44
0.0000000001
 40
0.0
 40
0.0
 40
0.0
 40
0.0
 40
0.1045450563
 40
0.2122848057
 40
0.3258366626
 40
0.446745918
 40
0.7110037118
 40
1.0
 40
1.0
 40
1.0
 40
1.0
 10
20.5585080331
 20
70.4133699699
 30
0.0
 10
20.5564243845
 20
70.4211462523
 30
0.0
 10
20.5501476516
 20
70.4364564506
 30
0.0
 10
20.5351868093
 20
70.4568720266
 30
0.0
 10
20.5151206494
 20
70.4742588162
 30
0.0
 10
20.4815812731
 20
70.4933828275
 30
0.0
 10
20.4304698392
 20
70.5066932028
 30
0.0
 10
20.3873802496
 20
70.5059826459
 30
0.0
 10
20.3653228678
 20
70.5030275171
 30
0.0
  0
SPLINE
  5
30D
100
AcDbEntity
  8
0
100
AcDbSpline
 62
7
  6
BYLAYER
 70
0
 71
3
 72
10
 73
6
 74
0
 42
0.0000001
 43
0.0000001
 44
0.0000000001
 40
0.0
 40
0.0
 40
0.0
 40
0.0
 40
0.1121117388
 40
0.4499832103
 40
1.0
 40
1.0
 40
1.0
 40
1.0
 10
20.3967150718
 20
70.4444488732
 30
0.0
 10
20.3942314025
 20
70.4444488732
 30
0.0
 10
20.3925488788
 20
70.458493162
 30
0.0
 10
20.3790806029
 20
70.472836249
 30
0.0
 10
20.3711074747
 20
70.4923033469
 30
0.0
 10
20.3653228679
 20
70.503027517
 30
0.0
  0
SPLINE
  5
30E
100
AcDbEntity
  8
0
100
AcDbSpline
 62
7
  6
BYLAYER
 70
0
 71
3
 72
10
 73
6
 74
0
 42
0.0000001
 43
0.0000001
 44
0.0000000001
 40
0.0
 40
0.0
 40
0.0
 40
0.0
 40
0.5499944901
 40
0.8883455102
 40
1.0
 40
1.0
 40
1.0
 40
1.0
 10
16.8422177657
 20
70.503027517
 30
0.0
 10
16.8364401853
 20
70.4923000406
 30
0.0
 10
16.828465198
 20
70.4728211491
 30
0.0
 10
16.8150347469
 20
70.4584619011
 30
0.0
 10
16.8132990936
 20
70.4444488732
 30
0.0
 10
16.8108255397
 20
70.4444488732
 30
0.0
  0
SPLINE
  5
30F
100
AcDbEntity
  8
0
100
AcDbSpline
 62
7
  6
BYLAYER
 70
0
 71
3
 72
10
 73
6
 74
0
 42
0.0000001
 43
0.0000001
 44
0.0000000001
 40
0.0
 40
0.0
 40
0.0
 40
0.0
 40
0.3791658214
 40
0.7138857262
 40
1.0
 40
1.0
 40
1.0
 40
1.0
 10
20.1823557143
 20
71.1858702301
 30
0.0
 10
20.2110973545
 20
71.1897208797
 30
0.0
 10
20.2667988744
 20
71.1886788351
 30
0.0
 10
20.3400292414
 20
71.1589566737
 30
0.0
 10
20.3698774283
 20
71.1173489709
 30
0.0
 10
20.3755408796
 20
71.0962126828
 30
0.0
  0
SPLINE
  5
310
100
AcDbEntity
  8
0
100
AcDbSpline
 62
7
  6
BYLAYER
 70
0
 71
3
 72
10
 73
6
 74
0
 42
0.0000001
 43
0.0000001
 44
0.0000000001
 40
0.0
 40
0.0
 40
0.0
 40
0.0
 40
0.1778364184
 40
0.5186079653
 40
1.0
 40
1.0
 40
1.0
 40
1.0
 10
20.3755408797
 20
71.0962126826
 30
0.0
 10
20.3733281322
 20
71.1044707686
 30
0.0
 10
20.3454074154
 20
71.1162449389
 30
0.0
 10
20.2997443895
 20
71.1157566415
 30
0.0
 10
20.2594817758
 20
71.1116333017
 30
0.0
 10
20.2366734713
 20
71.1077134407
 30
0.0
  0
SPLINE
  5
311
100
AcDbEntity
  8
0
100
AcDbSpline
 62
7
  6
BYLAYER
 70
0
 71
3
 72
10
 73
6
 74
0
 42
0.0000001
 43
0.0000001
 44
0.0000000001
 40
0.0
 40
0.0
 40
0.0
 40
0.0
 40
0.3265844585
 40
0.6608495607
 40
1.0
 40
1.0
 40
1.0
 40
1.0
 10
20.2366734713
 20
71.1077134407
 30
0.0
 10
20.2307153797
 20
71.1066894763
 30
0.0
 10
20.2186865497
 20
71.1044544505
 30
0.0
 10
20.2005761632
 20
71.1006155558
 30
0.0
 10
20.1884463189
 20
71.0977353337
 30
0.0
 10
20.1823557144
 20
71.0962126825
 30
0.0
  0
SPLINE
  5
312
100
AcDbEntity
  8
0
100
AcDbSpline
 62
7
  6
BYLAYER
 70
0
 71
3
 72
10
 73
6
 74
0
 42
0.0000001
 43
0.0000001
 44
0.0000000001
 40
0.0
 40
0.0
 40
0.0
 40
0.0
 40
0.5502449441
 40
0.8879988219
 40
1.0
 40
1.0
 40
1.0
 40
1.0
 10
20.3653228433
 20
70.503027517
 30
0.0
 10
20.3711093515
 20
70.4922986292
 30
0.0
 10
20.3790836706
 20
70.4728285718
 30
0.0
 10
20.3925531141
 20
70.4584862166
 30
0.0
 10
20.3942338485
 20
70.4444488678
 30
0.0
 10
20.3967150685
 20
70.4444488732
 30
0.0
  0
SPLINE
  5
313
100
AcDbEntity
  8
0
100
AcDbSpline
 62
7
  6
BYLAYER
 70
0
 71
3
 72
10
 73
6
 74
0
 42
0.0000001
 43
0.0000001
 44
0.0000000001
 40
0.0
 40
0.0
 40
0.0
 40
0.0
 40
0.1117271175
 40
0.4501566972
 40
1.0
 40
1.0
 40
1.0
 40
1.0
 10
16.8108255378
 20
70.4444488732
 30
0.0
 10
16.8133007006
 20
70.4444488683
 30
0.0
 10
16.815037525
 20
70.4584665161
 30
0.0
 10
16.8284672426
 20
70.472826203
 30
0.0
 10
16.8364414197
 20
70.4923031677
 30
0.0
 10
16.8422177415
 20
70.503027517
 30
0.0
  0
SPLINE
  5
314
100
AcDbEntity
  8
0
100
AcDbSpline
 62
7
  6
BYLAYER
 70
0
 71
3
 72
12
 73
8
 74
0
 42
0.0000001
 43
0.0000001
 44
0.0000000001
 40
0.0
 40
0.0
 40
0.0
 40
0.0
 40
0.1692416346
 40
0.3468273881
 40
0.5395418964
 40
0.7512734745
 40
1.0
 40
1.0
 40
1.0
 40
1.0
 10
16.8192313706
 20
70.3889850975
 30
0.0
 10
16.800694331
 20
70.3847081444
 30
0.0
 10
16.7637182682
 20
70.3701214979
 30
0.0
 10
16.7162372767
 20
70.3314851206
 30
0.0
 10
16.6730390166
 20
70.2820578934
 30
0.0
 10
16.6341185719
 20
70.2193940605
 30
0.0
 10
16.6139134867
 20
70.1715904164
 30
0.0
 10
16.6037674983
 20
70.1455375782
 30
0.0
  0
SPLINE
  5
315
100
AcDbEntity
  8
0
100
AcDbSpline
 62
7
  6
BYLAYER
 70
0
 71
3
 72
18
 73
14
 74
0
 42
0.0000001
 43
0.0000001
 44
0.0000000001
 40
0.0
 40
0.0
 40
0.0
 40
0.0
 40
0.0098834384
 40
0.0257845496
 40
0.0494405987
 40
0.0812082856
 40
0.1210912366
 40
0.1689184444
 40
0.2873189009
 40
0.433597605
 40
0.604104311
 40
0.7945264775
 40
1.0
 40
1.0
 40
1.0
 40
1.0
 10
16.8037703639
 20
70.2444488732
 30
0.0
 10
16.8042536091
 20
70.2444488731
 30
0.0
 10
16.8054230075
 20
70.2452354794
 30
0.0
 10
16.8065701001
 20
70.2473579473
 30
0.0
 10
16.807815926
 20
70.2506309401
 30
0.0
 10
16.8090065619
 20
70.2551386943
 30
0.0
 10
16.8101960399
 20
70.2608604437
 30
0.0
 10
16.8118475836
 20
70.2708036483
 30
0.0
 10
16.8136918099
 20
70.285977717
 30
0.0
 10
16.815565067
 20
70.3071750899
 30
0.0
 10
16.8171554846
 20
70.3319257646
 30
0.0
 10
16.8184178906
 20
70.3595920677
 30
0.0
 10
16.8189981676
 20
70.3789413044
 30
0.0
 10
16.8192314303
 20
70.388985109
 30
0.0
  0
SPLINE
  5
316
100
AcDbEntity
  8
0
100
AcDbSpline
 62
7
  6
BYLAYER
 70
0
 71
3
 72
11
 73
7
 74
0
 42
0.0000001
 43
0.0000001
 44
0.0000000001
 40
0.0
 40
0.0
 40
0.0
 40
0.0
 40
0.382342714
 40
0.7065251491
 40
0.9232740046
 40
1.0
 40
1.0
 40
1.0
 40
1.0
 10
16.8037703045
 20
64.7330849118
 30
0.0
 10
16.7782578271
 20
64.7330849118
 30
0.0
 10
16.7326336395
 20
64.7344565279
 30
0.0
 10
16.6656769898
 20
64.7314266059
 30
0.0
 10
16.6350738073
 20
64.7407323882
 30
0.0
 10
16.6037740283
 20
64.7332704097
 30
0.0
 10
16.6037703045
 20
64.7383900828
 30
0.0
  0
SPLINE
  5
317
100
AcDbEntity
  8
0
100
AcDbSpline
 62
7
  6
BYLAYER
 70
0
 71
3
 72
10
 73
6
 74
0
 42
0.0000001
 43
0.0000001
 44
0.0000000001
 40
0.0
 40
0.0
 40
0.0
 40
0.0
 40
0.3819782318
 40
0.7125138358
 40
1.0
 40
1.0
 40
1.0
 40
1.0
 10
16.7466972468
 20
64.8725962652
 30
0.0
 10
16.7208031993
 20
64.8669834563
 30
0.0
 10
16.6735776921
 20
64.8492913314
 30
0.0
 10
16.6200129406
 20
64.8018732085
 30
0.0
 10
16.6059297142
 20
64.7583378986
 30
0.0
 10
16.6061692414
 20
64.7383982636
 30
0.0
  0
SPLINE
  5
318
100
AcDbEntity
  8
0
100
AcDbSpline
 62
7
  6
BYLAYER
 70
0
 71
3
 72
19
 73
15
 74
0
 42
0.0000001
 43
0.0000001
 44
0.0000000001
 40
0.0
 40
0.0
 40
0.0
 40
0.0
 40
0.0919366584
 40
0.1838486675
 40
0.2760747167
 40
0.3689931811
 40
0.4341599112
 40
0.5000276725
 40
0.5667228195
 40
0.6343001178
 40
0.7239534769
 40
0.8149784758
 40
0.9071026192
 40
1.0
 40
1.0
 40
1.0
 40
1.0
 10
16.7469018309
 20
64.8721579358
 30
0.0
 10
17.4093867582
 20
65.1450552668
 30
0.0
 10
18.7485791098
 20
65.6568198602
 30
0.0
 10
20.802152692
 20
66.3034199221
 30
0.0
 10
22.9027598291
 20
66.8108473662
 30
0.0
 10
24.8305035303
 20
67.1236988155
 30
0.0
 10
26.5696487457
 20
67.2814155268
 30
0.0
 10
28.1108617355
 20
67.3286144329
 30
0.0
 10
29.6708571183
 20
67.2801777214
 30
0.0
 10
31.4096039991
 20
67.1192632229
 30
0.0
 10
33.3207478768
 20
66.8055209094
 30
0.0
 10
35.3895260901
 20
66.3078082592
 30
0.0
 10
37.4432241791
 20
65.6622525404
 30
0.0
 10
38.7912314474
 20
65.1479058087
 30
0.0
 10
39.4606385907
 20
64.8721551973
 30
0.0
  0
SPLINE
  5
319
100
AcDbEntity
  8
0
100
AcDbSpline
 62
7
  6
BYLAYER
 70
0
 71
3
 72
19
 73
15
 74
0
 42
0.0000001
 43
0.0000001
 44
0.0000000001
 40
0.0
 40
0.0
 40
0.0
 40
0.0
 40
0.0920205866
 40
0.1839732526
 40
0.2761983079
 40
0.3690806003
 40
0.4342069555
 40
0.5000276358
 40
0.5666751238
 40
0.6342109072
 40
0.7238298904
 40
0.8148536581
 40
0.9070181171
 40
1.0
 40
1.0
 40
1.0
 40
1.0
 10
16.8037265287
 20
64.7331905145
 30
0.0
 10
17.4632484134
 20
65.0061302915
 30
0.0
 10
18.7962101394
 20
65.5179987203
 30
0.0
 10
20.8400674205
 20
66.1649159226
 30
0.0
 10
22.9301783715
 20
66.6726296934
 30
0.0
 10
24.8479846441
 20
66.985689314
 30
0.0
 10
26.5779122936
 20
67.1435040873
 30
0.0
 10
28.110823131
 20
67.1907312986
 30
0.0
 10
29.6624190668
 20
67.1422653632
 30
0.0
 10
31.3919486258
 20
66.9812508278
 30
0.0
 10
33.2932309376
 20
66.6673045328
 30
0.0
 10
35.3516862766
 20
66.1693079617
 30
0.0
 10
37.3956701701
 20
65.5234326563
 30
0.0
 10
38.737403211
 20
65.0089803875
 30
0.0
 10
39.4038141674
 20
64.7331877733
 30
0.0
  0
SPLINE
  5
31A
100
AcDbEntity
  8
0
100
AcDbSpline
 62
7
  6
BYLAYER
 70
0
 71
3
 72
19
 73
15
 74
0
 42
0.0000001
 43
0.0000001
 44
0.0000000001
 40
0.0
 40
0.0
 40
0.0
 40
0.0
 40
0.0892378794
 40
0.1788767116
 40
0.2711577741
 40
0.3632039244
 40
0.4446094966
 40
0.5258137008
 40
0.6078476513
 40
0.6885722654
 40
0.7687654286
 40
0.8477199718
 40
0.9252198615
 40
1.0
 40
1.0
 40
1.0
 40
1.0
 10
21.571796014
 20
31.2393492958
 30
0.0
 10
21.5960173
 20
30.9144602483
 30
0.0
 10
21.6422659102
 20
30.2630480117
 30
0.0
 10
21.7049614547
 20
29.2750800834
 30
0.0
 10
21.7603688483
 20
28.2764061905
 30
0.0
 10
21.8060261694
 20
27.3073290882
 30
0.0
 10
21.8423125916
 20
26.3783279577
 30
0.0
 10
21.8705277815
 20
25.4856180142
 30
0.0
 10
21.8925645379
 20
24.5952218381
 30
0.0
 10
21.9087001943
 20
23.7083919909
 30
0.0
 10
21.9196818976
 20
22.8327286096
 30
0.0
 10
21.9269081615
 20
21.9688016377
 30
0.0
 10
21.9321145888
 20
21.1246238167
 30
0.0
 10
21.9354017862
 20
20.5686877203
 30
0.0
 10
21.9373288775
 20
20.2956863332
 30
0.0
  0
SPLINE
  5
31B
100
AcDbEntity
  8
0
100
AcDbSpline
 62
7
  6
BYLAYER
 70
0
 71
3
 72
16
 73
12
 74
0
 42
0.0000001
 43
0.0000001
 44
0.0000000001
 40
0.0
 40
0.0
 40
0.0
 40
0.0
 40
0.133853232
 40
0.266757775
 40
0.3977978061
 40
0.5261348122
 40
0.65102107
 40
0.7120002861
 40
0.7719066173
 40
0.8882814587
 40
1.0
 40
1.0
 40
1.0
 40
1.0
 10
28.1037703044
 20
33.630219987
 30
0.0
 10
27.7858031732
 20
33.6302199876
 30
0.0
 10
27.1517996668
 20
33.6034294356
 30
0.0
 10
26.213323566
 20
33.4838582694
 30
0.0
 10
25.301451068
 20
33.2860080352
 30
0.0
 10
24.4290453681
 20
33.0132518877
 30
0.0
 10
23.7396481979
 20
32.723848778
 30
0.0
 10
23.2196827004
 20
32.4578467314
 30
0.0
 10
22.7316963834
 20
32.1753986079
 30
0.0
 10
22.1677379384
 20
31.7855897253
 30
0.0
 10
21.7594524518
 20
31.4270058687
 30
0.0
 10
21.5717960138
 20
31.2393492956
 30
0.0
  0
LINE
  5
31C
100
AcDbEntity
  8
0
100
AcDbLine
 62
7
  6
BYLAYER
 10
20.1056605955
 20
27.8500885295
 11
21.6037701392
 21
20.2956886199
  0
SPLINE
  5
31D
100
AcDbEntity
  8
0
100
AcDbSpline
 62
7
  6
BYLAYER
 70
0
 71
3
 72
14
 73
10
 74
0
 42
0.0000001
 43
0.0000001
 44
0.0000000001
 40
0.0
 40
0.0
 40
0.0
 40
0.0
 40
0.2662304507
 40
0.3942295905
 40
0.5191927032
 40
0.6416105201
 40
0.7620976737
 40
0.8813226703
 40
1.0
 40
1.0
 40
1.0
 40
1.0
 10
21.5717916306
 20
31.2394080887
 30
0.0
 10
21.3335450463
 20
31.001160875
 30
0.0
 10
21.0087535627
 20
30.6177600636
 30
0.0
 10
20.6591851374
 20
30.0604771228
 30
0.0
 10
20.4473829219
 20
29.6342623114
 30
0.0
 10
20.284635451
 20
29.1971500375
 30
0.0
 10
20.171596183
 20
28.752058388
 30
0.0
 10
20.1088822151
 20
28.301950074
 30
0.0
 10
20.1010317535
 20
28.0002110837
 30
0.0
 10
20.1056605955
 20
27.8500885295
 30
0.0
  0
SPLINE
  5
31E
100
AcDbEntity
  8
0
100
AcDbSpline
 62
7
  6
BYLAYER
 70
0
 71
3
 72
25
 73
21
 74
0
 42
0.0000001
 43
0.0000001
 44
0.0000000001
 40
0.0
 40
0.0
 40
0.0
 40
0.0
 40
0.0513955272
 40
0.0772984189
 40
0.1034014669
 40
0.1563812781
 40
0.2107347216
 40
0.2385421972
 40
0.2668036107
 40
0.3247468655
 40
0.384693496
 40
0.4466836317
 40
0.5107008269
 40
0.5766305516
 40
0.6442935119
 40
0.7134775582
 40
0.783945945
 40
0.855407345
 40
0.9275370455
 40
1.0
 40
1.0
 40
1.0
 40
1.0
 10
20.1057244238
 20
27.8497666673
 30
0.0
 10
20.1113620183
 20
27.6669228535
 30
0.0
 10
20.1390363356
 20
27.3920589145
 30
0.0
 10
20.2126860936
 20
27.0312797914
 30
0.0
 10
20.3115464859
 20
26.6706572353
 30
0.0
 10
20.4819010507
 20
26.2258426402
 30
0.0
 10
20.7093119109
 20
25.8005587089
 30
0.0
 10
20.9248887706
 20
25.471709091
 30
0.0
 10
21.1666324717
 20
25.1455275251
 30
0.0
 10
21.5109259698
 20
24.7541280889
 30
0.0
 10
21.9816205199
 20
24.3186288335
 30
0.0
 10
22.5092221432
 20
23.9173805232
 30
0.0
 10
23.0892089954
 20
23.5547190732
 30
0.0
 10
23.7156781237
 20
23.2332496545
 30
0.0
 10
24.3827175707
 20
22.9557270403
 30
0.0
 10
25.084342183
 20
22.7249730433
 30
0.0
 10
25.8142869202
 20
22.5438682263
 30
0.0
 10
26.565546217
 20
22.4132878281
 30
0.0
 10
27.3310375329
 20
22.334170776
 30
0.0
 10
27.8458548776
 20
22.3163877541
 30
0.0
 10
28.1037703044
 20
22.3163877541
 30
0.0
  0
LINE
  5
31F
100
AcDbEntity
  8
0
100
AcDbLine
 62
7
  6
BYLAYER
 10
36.1018695598
 20
27.8500358161
 11
34.6037703044
 21
20.2956877869
  0
SPLINE
  5
320
100
AcDbEntity
  8
0
100
AcDbSpline
 62
7
  6
BYLAYER
 70
0
 71
3
 72
25
 73
21
 74
0
 42
0.0000001
 43
0.0000001
 44
0.0000000001
 40
0.0
 40
0.0
 40
0.0
 40
0.0
 40
0.0724626463
 40
0.1445920237
 40
0.216053102
 40
0.2865211844
 40
0.3557049592
 40
0.4233676947
 40
0.4892972541
 40
0.5533143549
 40
0.6153044764
 40
0.6752511785
 40
0.7331945923
 40
0.7614561174
 40
0.789263725
 40
0.8436174891
 40
0.8965976818
 40
0.9227009363
 40
0.9486040411
 40
1.0
 40
1.0
 40
1.0
 40
1.0
 10
28.1037703044
 20
22.3164520449
 30
0.0
 10
28.3616872036
 20
22.3164520449
 30
0.0
 10
28.8765074353
 20
22.3342354638
 30
0.0
 10
29.6420028822
 20
22.4133542911
 30
0.0
 10
30.3932659745
 20
22.5439375887
 30
0.0
 10
31.1232141713
 20
22.7250463809
 30
0.0
 10
31.8248419026
 20
22.9558053792
 30
0.0
 10
32.491884138
 20
23.2333339379
 30
0.0
 10
33.1183557353
 20
23.5548101633
 30
0.0
 10
33.6983447441
 20
23.9174792014
 30
0.0
 10
34.2259482101
 20
24.3187357931
 30
0.0
 10
34.6966443159
 20
24.7542439133
 30
0.0
 10
35.0409387641
 20
25.1456510455
 30
0.0
 10
35.2826831382
 20
25.4718389278
 30
0.0
 10
35.4982607698
 20
25.8006951235
 30
0.0
 10
35.7256724063
 20
26.2259874342
 30
0.0
 10
35.8960275021
 20
26.6708103374
 30
0.0
 10
35.9948883149
 20
27.0314395902
 30
0.0
 10
36.0685384886
 20
27.3922254604
 30
0.0
 10
36.09621309
 20
27.6670944126
 30
0.0
 10
36.1018508721
 20
27.8499415814
 30
0.0
  0
SPLINE
  5
321
100
AcDbEntity
  8
0
100
AcDbSpline
 62
7
  6
BYLAYER
 70
0
 71
3
 72
23
 73
19
 74
0
 42
0.0000001
 43
0.0000001
 44
0.0000000001
 40
0.0
 40
0.0
 40
0.0
 40
0.0
 40
0.051546884
 40
0.1034936533
 40
0.1563060965
 40
0.2104041647
 40
0.266156724
 40
0.3238129061
 40
0.3835115824
 40
0.4453180532
 40
0.5092344231
 40
0.5751534399
 40
0.6428948561
 40
0.7122413157
 40
0.7829477954
 40
0.8547077844
 40
0.9271771218
 40
1.0
 40
1.0
 40
1.0
 40
1.0
 10
36.1018902571
 20
27.8501401848
 30
0.0
 10
36.1076748436
 20
28.0377447111
 30
0.0
 10
36.0923508569
 20
28.4157668436
 30
0.0
 10
35.9897970726
 20
28.9773431655
 30
0.0
 10
35.8092175934
 20
29.5287010472
 30
0.0
 10
35.5521162151
 20
30.0640993372
 30
0.0
 10
35.2203189747
 20
30.5776697402
 30
0.0
 10
34.8184383708
 20
31.0649515376
 30
0.0
 10
34.3508507119
 20
31.5215457877
 30
0.0
 10
33.8219278887
 20
31.9429120211
 30
0.0
 10
33.2363914244
 20
32.3242995812
 30
0.0
 10
32.6006000789
 20
32.6628034118
 30
0.0
 10
31.9208938808
 20
32.9553672089
 30
0.0
 10
31.2036993539
 20
33.1988483914
 30
0.0
 10
30.4557642674
 20
33.3900356519
 30
0.0
 10
29.6846906319
 20
33.5279582399
 30
0.0
 10
28.8981634478
 20
33.6115699141
 30
0.0
 10
28.368934624
 20
33.630375304
 30
0.0
 10
28.1037703044
 20
33.6303753074
 30
0.0
  0
SPLINE
  5
322
100
AcDbEntity
  8
0
100
AcDbSpline
 62
7
  6
BYLAYER
 70
0
 71
3
 72
11
 73
7
 74
0
 42
0.0000001
 43
0.0000001
 44
0.0000000001
 40
0.0
 40
0.0
 40
0.0
 40
0.0
 40
0.3850609131
 40
0.6812141992
 40
0.8880921489
 40
1.0
 40
1.0
 40
1.0
 40
1.0
 10
39.1823557147
 20
71.0962126815
 30
0.0
 10
39.2072547601
 20
71.1024374428
 30
0.0
 10
39.2516320763
 20
71.11166555
 30
0.0
 10
39.3115051657
 20
71.1160611059
 30
0.0
 10
39.3510442924
 20
71.1148920895
 30
0.0
 10
39.3736103591
 20
71.1034174837
 30
0.0
 10
39.37554088
 20
71.0962126814
 30
0.0
  0
SPLINE
  5
323
100
AcDbEntity
  8
0
100
AcDbSpline
 62
7
  6
BYLAYER
 70
0
 71
3
 72
10
 73
6
 74
0
 42
0.0000001
 43
0.0000001
 44
0.0000000001
 40
0.0
 40
0.0
 40
0.0
 40
0.0
 40
0.3265844556
 40
0.6608495578
 40
1.0
 40
1.0
 40
1.0
 40
1.0
 10
35.9708671374
 20
71.1077134407
 30
0.0
 10
35.9768252291
 20
71.1066894764
 30
0.0
 10
35.988854059
 20
71.1044544505
 30
0.0
 10
36.0069644456
 20
71.1006155559
 30
0.0
 10
36.0190942899
 20
71.0977353337
 30
0.0
 10
36.0251848945
 20
71.0962126825
 30
0.0
  0
SPLINE
  5
324
100
AcDbEntity
  8
0
100
AcDbSpline
 62
7
  6
BYLAYER
 70
0
 71
3
 72
10
 73
6
 74
0
 42
0.0000001
 43
0.0000001
 44
0.0000000001
 40
0.0
 40
0.0
 40
0.0
 40
0.0
 40
0.1778364174
 40
0.5186079644
 40
1.0
 40
1.0
 40
1.0
 40
1.0
 10
35.8319997291
 20
71.0962126826
 30
0.0
 10
35.8342124766
 20
71.1044707686
 30
0.0
 10
35.8621331933
 20
71.1162449389
 30
0.0
 10
35.9077962192
 20
71.1157566415
 30
0.0
 10
35.9480588329
 20
71.1116333017
 30
0.0
 10
35.9708671374
 20
71.1077134407
 30
0.0
  0
SPLINE
  5
325
100
AcDbEntity
  8
0
100
AcDbSpline
 62
7
  6
BYLAYER
 70
0
 71
3
 72
15
 73
11
 74
0
 42
0.0000001
 43
0.0000001
 44
0.0000000001
 40
0.0
 40
0.0
 40
0.0
 40
0.0
 40
0.2460643183
 40
0.4515975933
 40
0.6164017287
 40
0.7504830022
 40
0.840875976
 40
0.908560542
 40
0.9557003402
 40
1.0
 40
1.0
 40
1.0
 40
1.0
 10
39.1823557144
 20
71.0962126824
 30
0.0
 10
39.1983393023
 20
71.1002085793
 30
0.0
 10
39.2279091717
 20
71.1066451197
 30
0.0
 10
39.2687476799
 20
71.1128120524
 30
0.0
 10
39.3024440297
 20
71.1155038521
 30
0.0
 10
39.3285540182
 20
71.1153614235
 30
0.0
 10
39.3480270896
 20
71.1130742805
 30
0.0
 10
39.3613524822
 20
71.1093904071
 30
0.0
 10
39.370841006
 20
71.1043314717
 30
0.0
 10
39.3747731882
 20
71.099077746
 30
0.0
 10
39.3755408797
 20
71.0962126824
 30
0.0
  0
SPLINE
  5
326
100
AcDbEntity
  8
0
100
AcDbSpline
 62
7
  6
BYLAYER
 70
0
 71
3
 72
11
 73
7
 74
0
 42
0.0000001
 43
0.0000001
 44
0.0000000001
 40
0.0
 40
0.0
 40
0.0
 40
0.0
 40
0.3850609149
 40
0.6812142003
 40
0.8880921496
 40
1.0
 40
1.0
 40
1.0
 40
1.0
 10
36.0251848943
 20
71.0962126824
 30
0.0
 10
36.0002858489
 20
71.1024374437
 30
0.0
 10
35.9559085327
 20
71.1116655509
 30
0.0
 10
35.8960354432
 20
71.1160611068
 30
0.0
 10
35.8564963167
 20
71.1148920903
 30
0.0
 10
35.8339302501
 20
71.1034174846
 30
0.0
 10
35.8319997291
 20
71.0962126825
 30
0.0
  0
ENDSEC
  0
SECTION
  2
OBJECTS
  0
DICTIONARY
  5
C
100
AcDbDictionary
280
0
281
1
  3
ACAD_GROUP
350
D
  3
ACAD_MLINESTYLE
350
17
  3
ACAD_LAYOUT
350
1A
  3
ACAD_PLOTSETTINGS
350
19
  3
ACAD_PLOTSTYLENAME
350
E
  0
DICTIONARY
  5
D
102
{ACAD_REACTORS
330
C
102
}
100
AcDbDictionary
280
0
281
1
  0
ACDBDICTIONARYWDFLT
  5
E
102
{ACAD_REACTORS
330
C
102
}
100
AcDbDictionary
281
1
  3
Normal
350
F
100
AcDbDictionaryWithDefault
340
F
  0
DICTIONARY
  5
17
102
{ACAD_REACTORS
330
C
102
}
100
AcDbDictionary
280
0
281
1
  3
Standard
350
18
  0
DICTIONARY
  5
19
102
{ACAD_REACTORS
330
C
102
}
100
AcDbDictionary
281
1
  0
DICTIONARY
  5
1A
102
{ACAD_REACTORS
330
C
102
}
100
AcDbDictionary
281
1
  3
Model
350
327
  3
Layout1
350
328
  0
ACDBPLACEHOLDER
  5
F
102
{ACAD_REACTORS
330
E
102
}
  0
MLINESTYLE
  5
18
102
{ACAD_REACTORS
330
17
102
}
100
AcDbMlineStyle
  2
STANDARD
 70
0
  3

 62
256
 51
90.0
 52
90.0
 71
2
 49
0.5
 62
256
  6
BYLAYER
 49
-0.5
 62
256
  6
BYLAYER
  0
LAYOUT
  5
327
102
{ACAD_REACTORS
330
1A
102
}
100
AcDbPlotSettings
  1

  2
none_device
  4

  6

 40
0.0
 41
0.0
 42
0.0
 43
0.0
 44
210.0
 45
297.0
 46
0.0
 47
0.0
 48
0.0
 49
0.0
140
0.0
141
0.0
142
1.0
143
1.0
 70
1024
 72
1
 73
0
 74
0
  7

 75
0
147
1.0
148
0.0
149
0.0
100
AcDbLayout
  1
Model
 70
0
 71
0
 10
0.0
 20
0.0
 11
210.0
 21
297.0
 12
0.0
 22
0.0
 32
0.0
 14
0.0
 24
0.0
 34
0.0
 15
0.0
 25
0.0
 35
0.0
146
0.0
 13
0.0
 23
0.0
 33
0.0
 16
1.0
 26
0.0
 36
0.0
 17
0.0
 27
1.0
 37
0.0
 76
0
330
210
345
0
346
0
  0
LAYOUT
  5
328
102
{ACAD_REACTORS
330
1A
102
}
100
AcDbPlotSettings
  1

  2
none_device
  4

  6

 40
0.0
 41
0.0
 42
0.0
 43
0.0
 44
210.0
 45
297.0
 46
0.0
 47
0.0
 48
0.0
 49
0.0
140
0.0
141
0.0
142
1.0
143
1.0
 70
0
 72
1
 73
0
 74
0
  7

 75
0
147
1.0
148
0.0
149
0.0
100
AcDbLayout
  1
Layout1
 70
0
 71
1
 10
0.0
 20
0.0
 11
210.0
 21
297.0
 12
0.0
 22
0.0
 32
0.0
 14
0.0
 24
0.0
 34
0.0
 15
0.0
 25
0.0
 35
0.0
146
0.0
 13
0.0
 23
0.0
 33
0.0
 16
1.0
 26
0.0
 36
0.0
 17
0.0
 27
1.0
 37
0.0
 76
0
330
211
345
0
346
0
  0
ENDSEC
  0
EOF
