999
DXF file: C:\Vinayak\New 2D genarating\updateCreo8 with 3dPdf\CAD\NSYS3D8830_3D-CAD\drw0001_4.dxf
999
Pro/ENGINEER 2021284 by Parametric Technology Corporation
  0
SECTION
  2
HEADER
  9
$ACADVER
  1
AC1024
  9
$DWGCODEPAGE
  3
ANSI_1252
  9
$EXTMAX
 10
995.9944270289
 20
1408.6206896552
 30
0.0
  9
$EXTMIN
 10
0.0
 20
0.0
 30
0.0
  9
$LIMMIN
 10
0.0
 20
0.0
  9
$LIMMAX
 10
995.9944270289
 20
1408.6206896552
  9
$VIEWCTR
 10
497.9972135145
 20
704.3103448276
  9
$VIEWSIZE
 40
1408.6206896552
  9
$CLAYER
  8
0
  9
$LTSCALE
 40
91.8212005109
  9
$CELTYPE
  6
BYLAYER
  9
$DIMSCALE
 40
1.0
  9
$DIMASZ
 40
11.8570765122
  9
$DIMEXO
 40
1.0
  9
$DIMDLI
 40
63.4401021711
  9
$DIMEXE
 40
1.0
  9
$DIMCEN
 40
15.0252873563
  9
$DIMLFAC
 40
1.0
  9
$DIMBLK
  1
_FILLED
  9
$DIMALT
 70
0
  9
$DIMALTF
 40
0.0393700787
  9
$DIMTXT
 40
16.5999071171
  9
$DIMTOL
 70
1
  9
$DIMLIM
 70
0
  9
$DIMTFAC
 40
1.0
  9
$DIMTP
 40
0.01
  9
$DIMTM
 40
0.01
  9
$DIMGAP
 40
0.625
  9
$DIMDSEP
 70
46
  9
$AUNITS
 70
0
  9
$PDMODE
 70
3
  9
$PDSIZE
 40
0.3125
  9
$HANDSEED
  5
520
  9
$TILEMODE
 70
1
  9
$MEASUREMENT
 70
1
  9
$INSUNITS
 70
4
  0
ENDSEC
  0
SECTION
  2
CLASSES
  0
CLASS
  1
ACDBDICTIONARYWDFLT
  2
AcDbDictionaryWithDefault
  3
AutoCAD 2000
 90
0
 91
1
280
0
281
0
  0
CLASS
  1
ACDBPLACEHOLDER
  2
AcDbPlaceHolder
  3
AutoCAD 2000
 90
0
 91
1
280
0
281
0
  0
CLASS
  1
LAYOUT
  2
AcDbLayout
  3
AutoCAD 2000
 90
0
 91
0
280
0
281
0
  0
ENDSEC
  0
SECTION
  2
TABLES
  0
TABLE
  2
VPORT
  5
8
100
AcDbSymbolTable
 70
2
  0
VPORT
  5
1F4
100
AcDbSymbolTableRecord
100
AcDbViewportTableRecord
  2
*ACTIVE
 70
0
 10
0.0
 20
0.0
 11
1.0
 21
1.0
 12
497.9972135145
 22
704.3103448276
 13
0.0
 23
0.0
 14
1.0
 24
1.0
 15
0.0
 25
0.0
 16
0.0
 26
0.0
 36
1.0
 17
0.0
 27
0.0
 37
0.0
 40
1408.6206896552
 41
0.7070707071
 42
50.0
 43
0.0
 44
0.0
 50
0.0
 51
0.0
 71
0
 72
100
 73
1
 74
1
 75
0
 76
0
 77
0
 78
0
  0
ENDTAB
  0
TABLE
  2
LTYPE
  5
5
100
AcDbSymbolTable
 70
6
  0
LTYPE
  5
14
100
AcDbSymbolTableRecord
100
AcDbLinetypeTableRecord
  2
BYBLOCK
 70
0
  3

 72
65
 73
0
 40
0.0
  0
LTYPE
  5
15
100
AcDbSymbolTableRecord
100
AcDbLinetypeTableRecord
  2
BYLAYER
 70
0
  3

 72
65
 73
0
 40
0.0
  0
LTYPE
  5
16
100
AcDbSymbolTableRecord
100
AcDbLinetypeTableRecord
  2
CONTINUOUS
 70
64
  3
Solid line
 72
65
 73
0
 40
0.0
  0
LTYPE
  5
1F5
100
AcDbSymbolTableRecord
100
AcDbLinetypeTableRecord
  2
CENTER
 70
64
  3
____ _ ____ _ ____ _ ____ _ ____ _ ____ _ ____
 72
65
 73
4
 40
0.6
 49
0.375
 74
0
 49
-0.075
 74
0
 49
0.075
 74
0
 49
-0.075
 74
0
  0
LTYPE
  5
1F6
100
AcDbSymbolTableRecord
100
AcDbLinetypeTableRecord
  2
HIDDEN
 70
64
  3
- - - - - - - - - - - - - - - - - - - -
 72
65
 73
2
 40
0.2
 49
0.1
 74
0
 49
-0.1
 74
0
  0
LTYPE
  5
1F7
100
AcDbSymbolTableRecord
100
AcDbLinetypeTableRecord
  2
PHANTOM
 70
64
  3
_____ _ _ _____ _ _ _____ _ _ _____
 72
65
 73
6
 40
0.8
 49
0.45
 74
0
 49
-0.05
 74
0
 49
0.1
 74
0
 49
-0.05
 74
0
 49
0.1
 74
0
 49
-0.05
 74
0
  0
LTYPE
  5
1F8
100
AcDbSymbolTableRecord
100
AcDbLinetypeTableRecord
  2
DOT
 70
64
  3
. . . . . . . . . . . . . . . . . . . .
 72
65
 73
2
 40
0.2
 49
0.1
 74
0
 49
-0.1
 74
0
  0
LTYPE
  5
1F9
100
AcDbSymbolTableRecord
100
AcDbLinetypeTableRecord
  2
DASHED
 70
64
  3
- - - - - - - - - - - - - - - - - - - -
 72
65
 73
2
 40
0.2
 49
0.1
 74
0
 49
-0.1
 74
0
  0
ENDTAB
  0
TABLE
  2
LAYER
  5
2
100
AcDbSymbolTable
 70
36
  0
LAYER
  5
10
100
AcDbSymbolTableRecord
100
AcDbLayerTableRecord
  2
0
 70
0
 62
7
  6
CONTINUOUS
370
-3
390
F
  0
LAYER
  5
1FA
100
AcDbSymbolTableRecord
100
AcDbLayerTableRecord
  2
DEFAULT_1
 70
0
 62
7
  6
CENTER
370
-3
390
F
  0
LAYER
  5
1FB
100
AcDbSymbolTableRecord
100
AcDbLayerTableRecord
  2
DEFAULT_2
 70
0
 62
8
  6
HIDDEN
370
-3
390
F
  0
LAYER
  5
1FC
100
AcDbSymbolTableRecord
100
AcDbLayerTableRecord
  2
DEFAULT_3
 70
0
 62
7
  6
PHANTOM
370
-3
390
F
  0
LAYER
  5
1FD
100
AcDbSymbolTableRecord
100
AcDbLayerTableRecord
  2
00_COMPONENTS
 70
0
 62
7
  6
CONTINUOUS
370
-3
390
F
  0
LAYER
  5
1FE
100
AcDbSymbolTableRecord
100
AcDbLayerTableRecord
  2
00_COMPONENTS_1
 70
0
 62
7
  6
CONTINUOUS
370
-3
390
F
  0
LAYER
  5
1FF
100
AcDbSymbolTableRecord
100
AcDbLayerTableRecord
  2
00_COMPONENTS_10
 70
0
 62
7
  6
CONTINUOUS
370
-3
390
F
  0
LAYER
  5
200
100
AcDbSymbolTableRecord
100
AcDbLayerTableRecord
  2
00_COMPONENTS_11
 70
0
 62
7
  6
CONTINUOUS
370
-3
390
F
  0
LAYER
  5
201
100
AcDbSymbolTableRecord
100
AcDbLayerTableRecord
  2
00_COMPONENTS_12
 70
0
 62
7
  6
CONTINUOUS
370
-3
390
F
  0
LAYER
  5
202
100
AcDbSymbolTableRecord
100
AcDbLayerTableRecord
  2
00_COMPONENTS_14
 70
0
 62
7
  6
CONTINUOUS
370
-3
390
F
  0
LAYER
  5
203
100
AcDbSymbolTableRecord
100
AcDbLayerTableRecord
  2
00_COMPONENTS_15
 70
0
 62
7
  6
CONTINUOUS
370
-3
390
F
  0
LAYER
  5
204
100
AcDbSymbolTableRecord
100
AcDbLayerTableRecord
  2
00_COMPONENTS_16
 70
0
 62
7
  6
CONTINUOUS
370
-3
390
F
  0
LAYER
  5
205
100
AcDbSymbolTableRecord
100
AcDbLayerTableRecord
  2
00_COMPONENTS_17
 70
0
 62
7
  6
CONTINUOUS
370
-3
390
F
  0
LAYER
  5
206
100
AcDbSymbolTableRecord
100
AcDbLayerTableRecord
  2
00_COMPONENTS_18
 70
0
 62
7
  6
CONTINUOUS
370
-3
390
F
  0
LAYER
  5
207
100
AcDbSymbolTableRecord
100
AcDbLayerTableRecord
  2
00_COMPONENTS_19
 70
0
 62
7
  6
CONTINUOUS
370
-3
390
F
  0
LAYER
  5
208
100
AcDbSymbolTableRecord
100
AcDbLayerTableRecord
  2
00_COMPONENTS_2
 70
0
 62
7
  6
CONTINUOUS
370
-3
390
F
  0
LAYER
  5
209
100
AcDbSymbolTableRecord
100
AcDbLayerTableRecord
  2
00_COMPONENTS_20
 70
0
 62
7
  6
CONTINUOUS
370
-3
390
F
  0
LAYER
  5
20A
100
AcDbSymbolTableRecord
100
AcDbLayerTableRecord
  2
00_COMPONENTS_21
 70
0
 62
7
  6
CONTINUOUS
370
-3
390
F
  0
LAYER
  5
20B
100
AcDbSymbolTableRecord
100
AcDbLayerTableRecord
  2
00_COMPONENTS_22
 70
0
 62
7
  6
CONTINUOUS
370
-3
390
F
  0
LAYER
  5
20C
100
AcDbSymbolTableRecord
100
AcDbLayerTableRecord
  2
00_COMPONENTS_23
 70
0
 62
7
  6
CONTINUOUS
370
-3
390
F
  0
LAYER
  5
20D
100
AcDbSymbolTableRecord
100
AcDbLayerTableRecord
  2
00_COMPONENTS_24
 70
0
 62
7
  6
CONTINUOUS
370
-3
390
F
  0
LAYER
  5
20E
100
AcDbSymbolTableRecord
100
AcDbLayerTableRecord
  2
00_COMPONENTS_26
 70
0
 62
7
  6
CONTINUOUS
370
-3
390
F
  0
LAYER
  5
20F
100
AcDbSymbolTableRecord
100
AcDbLayerTableRecord
  2
00_COMPONENTS_27
 70
0
 62
7
  6
CONTINUOUS
370
-3
390
F
  0
LAYER
  5
210
100
AcDbSymbolTableRecord
100
AcDbLayerTableRecord
  2
00_COMPONENTS_29
 70
0
 62
7
  6
CONTINUOUS
370
-3
390
F
  0
LAYER
  5
211
100
AcDbSymbolTableRecord
100
AcDbLayerTableRecord
  2
00_COMPONENTS_3
 70
0
 62
7
  6
CONTINUOUS
370
-3
390
F
  0
LAYER
  5
212
100
AcDbSymbolTableRecord
100
AcDbLayerTableRecord
  2
00_COMPONENTS_30
 70
0
 62
7
  6
CONTINUOUS
370
-3
390
F
  0
LAYER
  5
213
100
AcDbSymbolTableRecord
100
AcDbLayerTableRecord
  2
00_COMPONENTS_31
 70
0
 62
7
  6
CONTINUOUS
370
-3
390
F
  0
LAYER
  5
214
100
AcDbSymbolTableRecord
100
AcDbLayerTableRecord
  2
00_COMPONENTS_32
 70
0
 62
7
  6
CONTINUOUS
370
-3
390
F
  0
LAYER
  5
215
100
AcDbSymbolTableRecord
100
AcDbLayerTableRecord
  2
00_COMPONENTS_33
 70
0
 62
7
  6
CONTINUOUS
370
-3
390
F
  0
LAYER
  5
216
100
AcDbSymbolTableRecord
100
AcDbLayerTableRecord
  2
00_COMPONENTS_35
 70
0
 62
7
  6
CONTINUOUS
370
-3
390
F
  0
LAYER
  5
217
100
AcDbSymbolTableRecord
100
AcDbLayerTableRecord
  2
00_COMPONENTS_37
 70
0
 62
7
  6
CONTINUOUS
370
-3
390
F
  0
LAYER
  5
218
100
AcDbSymbolTableRecord
100
AcDbLayerTableRecord
  2
00_COMPONENTS_38
 70
0
 62
7
  6
CONTINUOUS
370
-3
390
F
  0
LAYER
  5
219
100
AcDbSymbolTableRecord
100
AcDbLayerTableRecord
  2
00_COMPONENTS_4
 70
0
 62
7
  6
CONTINUOUS
370
-3
390
F
  0
LAYER
  5
21A
100
AcDbSymbolTableRecord
100
AcDbLayerTableRecord
  2
00_COMPONENTS_40
 70
0
 62
7
  6
CONTINUOUS
370
-3
390
F
  0
LAYER
  5
21B
100
AcDbSymbolTableRecord
100
AcDbLayerTableRecord
  2
00_COMPONENTS_41
 70
0
 62
7
  6
CONTINUOUS
370
-3
390
F
  0
LAYER
  5
21C
100
AcDbSymbolTableRecord
100
AcDbLayerTableRecord
  2
00_COMPONENTS_42
 70
0
 62
7
  6
CONTINUOUS
370
-3
390
F
  0
LAYER
  5
21D
100
AcDbSymbolTableRecord
100
AcDbLayerTableRecord
  2
00_COMPONENTS_43
 70
0
 62
7
  6
CONTINUOUS
370
-3
390
F
  0
LAYER
  5
21E
100
AcDbSymbolTableRecord
100
AcDbLayerTableRecord
  2
00_COMPONENTS_44
 70
0
 62
7
  6
CONTINUOUS
370
-3
390
F
  0
LAYER
  5
21F
100
AcDbSymbolTableRecord
100
AcDbLayerTableRecord
  2
00_COMPONENTS_46
 70
0
 62
7
  6
CONTINUOUS
370
-3
390
F
  0
LAYER
  5
220
100
AcDbSymbolTableRecord
100
AcDbLayerTableRecord
  2
00_COMPONENTS_48
 70
0
 62
7
  6
CONTINUOUS
370
-3
390
F
  0
LAYER
  5
221
100
AcDbSymbolTableRecord
100
AcDbLayerTableRecord
  2
00_COMPONENTS_5
 70
0
 62
7
  6
CONTINUOUS
370
-3
390
F
  0
LAYER
  5
222
100
AcDbSymbolTableRecord
100
AcDbLayerTableRecord
  2
00_COMPONENTS_50
 70
0
 62
7
  6
CONTINUOUS
370
-3
390
F
  0
LAYER
  5
223
100
AcDbSymbolTableRecord
100
AcDbLayerTableRecord
  2
00_COMPONENTS_52
 70
0
 62
7
  6
CONTINUOUS
370
-3
390
F
  0
LAYER
  5
224
100
AcDbSymbolTableRecord
100
AcDbLayerTableRecord
  2
00_COMPONENTS_53
 70
0
 62
7
  6
CONTINUOUS
370
-3
390
F
  0
LAYER
  5
225
100
AcDbSymbolTableRecord
100
AcDbLayerTableRecord
  2
00_COMPONENTS_54
 70
0
 62
7
  6
CONTINUOUS
370
-3
390
F
  0
LAYER
  5
226
100
AcDbSymbolTableRecord
100
AcDbLayerTableRecord
  2
00_COMPONENTS_55
 70
0
 62
7
  6
CONTINUOUS
370
-3
390
F
  0
LAYER
  5
227
100
AcDbSymbolTableRecord
100
AcDbLayerTableRecord
  2
00_COMPONENTS_6
 70
0
 62
7
  6
CONTINUOUS
370
-3
390
F
  0
LAYER
  5
228
100
AcDbSymbolTableRecord
100
AcDbLayerTableRecord
  2
00_COMPONENTS_7
 70
0
 62
7
  6
CONTINUOUS
370
-3
390
F
  0
LAYER
  5
229
100
AcDbSymbolTableRecord
100
AcDbLayerTableRecord
  2
00_COMPONENTS_8
 70
0
 62
7
  6
CONTINUOUS
370
-3
390
F
  0
LAYER
  5
22A
100
AcDbSymbolTableRecord
100
AcDbLayerTableRecord
  2
00_COMPONENTS_9
 70
0
 62
7
  6
CONTINUOUS
370
-3
390
F
  0
LAYER
  5
22B
100
AcDbSymbolTableRecord
100
AcDbLayerTableRecord
  2
01_1_DEFAULT_DATUMS
 70
0
 62
7
  6
CONTINUOUS
370
-3
390
F
  0
LAYER
  5
22C
100
AcDbSymbolTableRecord
100
AcDbLayerTableRecord
  2
01_PLANES
 70
0
 62
7
  6
CONTINUOUS
370
-3
390
F
  0
LAYER
  5
22D
100
AcDbSymbolTableRecord
100
AcDbLayerTableRecord
  2
02_COORD_SYS
 70
0
 62
7
  6
CONTINUOUS
370
-3
390
F
  0
LAYER
  5
22E
100
AcDbSymbolTableRecord
100
AcDbLayerTableRecord
  2
03_AXES
 70
0
 62
7
  6
CONTINUOUS
370
-3
390
F
  0
LAYER
  5
22F
100
AcDbSymbolTableRecord
100
AcDbLayerTableRecord
  2
04_POINTS
 70
0
 62
7
  6
CONTINUOUS
370
-3
390
F
  0
LAYER
  5
230
100
AcDbSymbolTableRecord
100
AcDbLayerTableRecord
  2
05_CURVES
 70
0
 62
7
  6
CONTINUOUS
370
-3
390
F
  0
LAYER
  5
231
100
AcDbSymbolTableRecord
100
AcDbLayerTableRecord
  2
06_SURFS
 70
0
 62
7
  6
CONTINUOUS
370
-3
390
F
  0
LAYER
  5
232
100
AcDbSymbolTableRecord
100
AcDbLayerTableRecord
  2
07_COSMETICS
 70
0
 62
7
  6
CONTINUOUS
370
-3
390
F
  0
LAYER
  5
233
100
AcDbSymbolTableRecord
100
AcDbLayerTableRecord
  2
10_NOTES
 70
0
 62
7
  6
CONTINUOUS
370
-3
390
F
  0
LAYER
  5
234
100
AcDbSymbolTableRecord
100
AcDbLayerTableRecord
  2
11_NOTES_PUB
 70
0
 62
7
  6
CONTINUOUS
370
-3
390
F
  0
LAYER
  5
235
100
AcDbSymbolTableRecord
100
AcDbLayerTableRecord
  2
13_REF_GTOL
 70
0
 62
7
  6
CONTINUOUS
370
-3
390
F
  0
LAYER
  5
236
100
AcDbSymbolTableRecord
100
AcDbLayerTableRecord
  2
16_MISC
 70
0
 62
7
  6
CONTINUOUS
370
-3
390
F
  0
LAYER
  5
237
100
AcDbSymbolTableRecord
100
AcDbLayerTableRecord
  2
17_NO_PRINT
 70
0
 62
7
  6
CONTINUOUS
370
-3
390
F
  0
LAYER
  5
238
100
AcDbSymbolTableRecord
100
AcDbLayerTableRecord
  2
18_DATUM_CAMS_JOINTS
 70
0
 62
7
  6
CONTINUOUS
370
-3
390
F
  0
LAYER
  5
239
100
AcDbSymbolTableRecord
100
AcDbLayerTableRecord
  2
19_DATUM_FUNCTIONAL
 70
0
 62
7
  6
CONTINUOUS
370
-3
390
F
  0
LAYER
  5
23A
100
AcDbSymbolTableRecord
100
AcDbLayerTableRecord
  2
20_DATUM_KINEMATIC_SCHEME
 70
0
 62
7
  6
CONTINUOUS
370
-3
390
F
  0
ENDTAB
  0
TABLE
  2
STYLE
  5
3
100
AcDbSymbolTable
 70
1
  0
STYLE
  5
11
100
AcDbSymbolTableRecord
100
AcDbTextStyleTableRecord
  2
STANDARD
 70
0
 40
0.0
 41
0.8
 50
0.0
 71
0
 42
0.2
  3
txt
  4

  0
STYLE
  5
23B
100
AcDbSymbolTableRecord
100
AcDbTextStyleTableRecord
  2
TEXTSTYLE_1
 70
0
 40
0.0
 41
0.8
 50
0.0
 71
0
 42
0.2
  3
gdt
  4

  0
ENDTAB
  0
TABLE
  2
VIEW
  5
6
100
AcDbSymbolTable
 70
0
  0
ENDTAB
  0
TABLE
  2
UCS
  5
7
100
AcDbSymbolTable
 70
0
  0
ENDTAB
  0
TABLE
  2
APPID
  5
9
100
AcDbSymbolTable
 70
1
  0
APPID
  5
23C
100
AcDbSymbolTableRecord
100
AcDbRegAppTableRecord
  2
ACAD
 70
0
  0
ENDTAB
  0
TABLE
  2
BLOCK_RECORD
  5
1
100
AcDbSymbolTable
 70
0
  0
BLOCK_RECORD
  5
23D
100
AcDbSymbolTableRecord
100
AcDbBlockTableRecord
  2
*Model_Space
  0
BLOCK_RECORD
  5
23E
100
AcDbSymbolTableRecord
100
AcDbBlockTableRecord
  2
*Paper_Space
  0
BLOCK_RECORD
  5
23F
100
AcDbSymbolTableRecord
100
AcDbBlockTableRecord
  2
_FILLED
  0
ENDTAB
  0
TABLE
  2
DIMSTYLE
  5
A
100
AcDbSymbolTable
 70
1
100
AcDbDimStyleTable
 71
0
  0
DIMSTYLE
105
240
100
AcDbSymbolTableRecord
100
AcDbDimStyleTableRecord
  2
STANDARD
 70
0
  3

  4

 40
1.0
 41
11.8570765122
 42
1.0
 43
0.38
 44
1.0
 45
0.0
 46
0.0
 47
0.01
 48
0.01
140
16.5999071171
141
0.09
142
0.0
143
25.4
144
1.0
145
0.0
146
1.0
147
0.625
 71
1
 72
0
 73
0
 74
0
 75
0
 76
0
 77
1
 78
8
 79
2
170
0
171
1
172
0
173
0
174
0
175
0
176
0
177
0
178
0
270
2
179
2
271
2
272
2
273
2
274
2
275
0
280
0
281
0
282
0
283
1
284
8
285
0
286
0
287
3
288
0
340
11
278
46
341
23F
342
23F
343
23F
344
23F
  0
ENDTAB
  0
ENDSEC
  0
SECTION
  2
BLOCKS
  0
BLOCK
  5
20
100
AcDbEntity
  8
0
100
AcDbBlockBegin
  2
*Model_Space
 70
0
 10
0.0
 20
0.0
 30
0.0
  3
*Model_Space
  1

  0
ENDBLK
  5
21
100
AcDbEntity
  8
0
100
AcDbBlockEnd
  0
BLOCK
  5
1C
100
AcDbEntity
  8
0
100
AcDbBlockBegin
  2
*Paper_Space
 70
0
 10
0.0
 20
0.0
 30
0.0
  3
*Paper_Space
  1

  0
ENDBLK
  5
1D
100
AcDbEntity
  8
0
100
AcDbBlockEnd
  0
BLOCK
  5
241
100
AcDbEntity
  8
0
100
AcDbBlockBegin
  2
_FILLED
 70
64
 10
0.0
 20
0.0
  3
_FILLED
  1

  0
SOLID
  5
242
100
AcDbEntity
  8
0
  6
BYBLOCK
 62
0
100
AcDbTrace
 10
0.0
 20
0.0
 11
-1.0
 21
0.25
 12
-1.0
 22
-0.25
 13
-1.0
 23
-0.25
  0
ENDBLK
  5
243
100
AcDbEntity
  8
0
  6
BYBLOCK
 62
0
100
AcDbBlockEnd
  0
ENDSEC
  0
SECTION
  2
ENTITIES
  0
LINE
  5
244
100
AcDbEntity
  8
00_COMPONENTS_1
100
AcDbLine
 62
7
  6
CONTINUOUS
 10
144.2182276334
 20
299.7402689762
 11
144.2125644338
 21
299.7467745903
  0
LINE
  5
245
100
AcDbEntity
  8
00_COMPONENTS_1
100
AcDbLine
 62
7
  6
CONTINUOUS
 10
190.2182276334
 20
299.7402689762
 11
190.2125644338
 21
299.7467745903
  0
LINE
  5
246
100
AcDbEntity
  8
00_COMPONENTS_1
100
AcDbLine
 62
7
  6
CONTINUOUS
 10
877.7459681769
 20
299.760819107
 11
877.7494839745
 21
299.7615292029
  0
LINE
  5
247
100
AcDbEntity
  8
00_COMPONENTS_1
100
AcDbLine
 62
7
  6
CONTINUOUS
 10
831.7459681769
 20
299.760819107
 11
831.7494839745
 21
299.7615292029
  0
LINE
  5
248
100
AcDbEntity
  8
00_COMPONENTS_1
100
AcDbLine
 62
7
  6
CONTINUOUS
 10
877.7462000396
 20
299.7616061709
 11
877.7497106407
 21
299.7623001875
  0
LINE
  5
249
100
AcDbEntity
  8
00_COMPONENTS_1
100
AcDbLine
 62
7
  6
CONTINUOUS
 10
831.7462000396
 20
299.7616061709
 11
831.7497106407
 21
299.7623001875
  0
LINE
  5
24A
100
AcDbEntity
  8
00_COMPONENTS_1
100
AcDbLine
 62
7
  6
CONTINUOUS
 10
144.1111277985
 20
299.7614417223
 11
144.1067853538
 21
299.7623001875
  0
LINE
  5
24B
100
AcDbEntity
  8
00_COMPONENTS_1
100
AcDbLine
 62
7
  6
CONTINUOUS
 10
190.1111277985
 20
299.7614417223
 11
190.1067853538
 21
299.7623001875
  0
LINE
  5
24C
100
AcDbEntity
  8
00_COMPONENTS_1
100
AcDbLine
 62
7
  6
CONTINUOUS
 10
144.1069523327
 20
299.7677087728
 11
144.1120575786
 21
299.766696823
  0
LINE
  5
24D
100
AcDbEntity
  8
00_COMPONENTS_1
100
AcDbLine
 62
7
  6
CONTINUOUS
 10
190.1069523327
 20
299.7677087728
 11
190.1120575786
 21
299.766696823
  0
LINE
  5
24E
100
AcDbEntity
  8
00_COMPONENTS_1
100
AcDbLine
 62
7
  6
CONTINUOUS
 10
144.1113607823
 20
299.7606512318
 11
144.1070120199
 21
299.7615292029
  0
LINE
  5
24F
100
AcDbEntity
  8
00_COMPONENTS_1
100
AcDbLine
 62
7
  6
CONTINUOUS
 10
190.1113607823
 20
299.7606512318
 11
190.1070120199
 21
299.7615292029
  0
LINE
  5
250
100
AcDbEntity
  8
00_COMPONENTS_1
100
AcDbLine
 62
7
  6
CONTINUOUS
 10
144.1073444635
 20
299.7663596855
 11
144.1124628372
 21
299.7653067123
  0
LINE
  5
251
100
AcDbEntity
  8
00_COMPONENTS_1
100
AcDbLine
 62
7
  6
CONTINUOUS
 10
190.1073444635
 20
299.7663596855
 11
190.1124628372
 21
299.7653067123
  0
LINE
  5
252
100
AcDbEntity
  8
00_COMPONENTS_1
100
AcDbLine
 62
7
  6
CONTINUOUS
 10
711.7459681769
 20
299.760819107
 11
711.7494839745
 21
299.7615292029
  0
LINE
  5
253
100
AcDbEntity
  8
00_COMPONENTS_1
100
AcDbLine
 62
7
  6
CONTINUOUS
 10
711.7462000396
 20
299.7616061709
 11
711.7497106407
 21
299.7623001875
  0
LINE
  5
254
100
AcDbEntity
  8
00_COMPONENTS_1
100
AcDbLine
 62
7
  6
CONTINUOUS
 10
877.5808400727
 20
299.7352519287
 11
877.5895157107
 21
299.7359884083
  0
LINE
  5
255
100
AcDbEntity
  8
00_COMPONENTS_1
100
AcDbLine
 62
7
  6
CONTINUOUS
 10
831.5808400727
 20
299.7352519287
 11
831.5895157107
 21
299.7359884083
  0
LINE
  5
256
100
AcDbEntity
  8
00_COMPONENTS_1
100
AcDbLine
 62
7
  6
CONTINUOUS
 10
711.5808400727
 20
299.7352519287
 11
711.5895157107
 21
299.7359884083
  0
LINE
  5
257
100
AcDbEntity
  8
00_COMPONENTS_1
100
AcDbLine
 62
7
  6
CONTINUOUS
 10
144.2182276334
 20
299.7402689762
 11
144.2372264768
 21
299.738562054
  0
LINE
  5
258
100
AcDbEntity
  8
00_COMPONENTS_1
100
AcDbLine
 62
7
  6
CONTINUOUS
 10
190.2182276334
 20
299.7402689762
 11
190.2372264768
 21
299.738562054
  0
LINE
  5
259
100
AcDbEntity
  8
00_COMPONENTS_1
100
AcDbLine
 62
7
  6
CONTINUOUS
 10
310.2182276334
 20
299.7402689762
 11
310.2372264768
 21
299.738562054
  0
LINE
  5
25A
100
AcDbEntity
  8
00_COMPONENTS_1
100
AcDbLine
 62
7
  6
CONTINUOUS
 10
310.1111277985
 20
299.7614417223
 11
310.1067853538
 21
299.7623001875
  0
LINE
  5
25B
100
AcDbEntity
  8
00_COMPONENTS_1
100
AcDbLine
 62
7
  6
CONTINUOUS
 10
310.1069523327
 20
299.7677087728
 11
310.1120575786
 21
299.766696823
  0
LINE
  5
25C
100
AcDbEntity
  8
00_COMPONENTS_1
100
AcDbLine
 62
7
  6
CONTINUOUS
 10
310.1113607823
 20
299.7606512318
 11
310.1070120199
 21
299.7615292029
  0
LINE
  5
25D
100
AcDbEntity
  8
00_COMPONENTS_1
100
AcDbLine
 62
7
  6
CONTINUOUS
 10
310.1073444635
 20
299.7663596855
 11
310.1124628372
 21
299.7653067123
  0
LINE
  5
25E
100
AcDbEntity
  8
00_COMPONENTS_1
100
AcDbLine
 62
7
  6
CONTINUOUS
 10
310.2182276334
 20
299.7402689762
 11
310.2125644338
 21
299.7467745903
  0
LINE
  5
25F
100
AcDbEntity
  8
00_COMPONENTS_1
100
AcDbLine
 62
7
  6
CONTINUOUS
 10
145.7504182254
 20
299.7402689762
 11
145.7497472913
 21
299.762307433
  0
LINE
  5
260
100
AcDbEntity
  8
00_COMPONENTS_1
100
AcDbLine
 62
7
  6
CONTINUOUS
 10
145.7504182254
 20
299.7402689762
 11
145.7505457002
 21
299.7352519287
  0
LINE
  5
261
100
AcDbEntity
  8
00_COMPONENTS_55
100
AcDbLine
 62
7
  6
CONTINUOUS
 10
110.9282479972
 20
301.7647480713
 11
110.9282479972
 21
1098.7647480713
  0
LINE
  5
262
100
AcDbEntity
  8
00_COMPONENTS_55
100
AcDbLine
 62
7
  6
CONTINUOUS
 10
112.4282479972
 20
300.2647480713
 11
112.4282479972
 21
301.7647480713
  0
LINE
  5
263
100
AcDbEntity
  8
00_COMPONENTS_55
100
AcDbLine
 62
7
  6
CONTINUOUS
 10
112.4282479972
 20
1098.7647480713
 11
112.4282479972
 21
1100.2647480713
  0
LINE
  5
264
100
AcDbEntity
  8
00_COMPONENTS_46
100
AcDbLine
 62
7
  6
CONTINUOUS
 10
113.0848141956
 20
302.7647480713
 11
113.0848141956
 21
1096.7647480713
  0
LINE
  5
265
100
AcDbEntity
  8
00_COMPONENTS_55
100
AcDbLine
 62
7
  6
CONTINUOUS
 10
114.1282479972
 20
1097.0647480713
 11
114.1282479972
 21
1096.7647480713
  0
LINE
  5
266
100
AcDbEntity
  8
00_COMPONENTS_46
100
AcDbLine
 62
7
  6
CONTINUOUS
 10
114.4493695993
 20
1096.7647480713
 11
114.4493695993
 21
302.7647480713
  0
LINE
  5
267
100
AcDbEntity
  8
00_COMPONENTS_46
100
AcDbLine
 62
7
  6
CONTINUOUS
 10
114.5848141956
 20
1098.2647480713
 11
114.5848141956
 21
1096.7647480713
  0
LINE
  5
268
100
AcDbEntity
  8
00_COMPONENTS_46
100
AcDbLine
 62
7
  6
CONTINUOUS
 10
114.5848141956
 20
301.2647480713
 11
114.5848141956
 21
302.7647480713
  0
LINE
  5
269
100
AcDbEntity
  8
00_COMPONENTS_46
100
AcDbLine
 62
7
  6
CONTINUOUS
 10
115.3097342538
 20
1098.2647480713
 11
115.3097342538
 21
1096.7647480713
  0
LINE
  5
26A
100
AcDbEntity
  8
00_COMPONENTS_46
100
AcDbLine
 62
7
  6
CONTINUOUS
 10
115.3097342538
 20
301.2647480713
 11
115.3097342538
 21
302.7647480713
  0
LINE
  5
26B
100
AcDbEntity
  8
00_COMPONENTS_46
100
AcDbLine
 62
7
  6
CONTINUOUS
 10
121.1299107675
 20
301.2647480713
 11
121.1299107675
 21
302.7647480713
  0
LINE
  5
26C
100
AcDbEntity
  8
00_COMPONENTS_46
100
AcDbLine
 62
7
  6
CONTINUOUS
 10
121.1299107675
 20
1096.7647480713
 11
121.1299107675
 21
1098.2647480713
  0
LINE
  5
26D
100
AcDbEntity
  8
00_COMPONENTS_46
100
AcDbLine
 62
7
  6
CONTINUOUS
 10
122.2583257237
 20
303.1691233292
 11
122.2583257237
 21
1096.3603728134
  0
LINE
  5
26E
100
AcDbEntity
  8
00_COMPONENTS_46
100
AcDbLine
 62
7
  6
CONTINUOUS
 10
123.1903285856
 20
1096.9001926676
 11
123.1903285856
 21
1096.0398280131
  0
LINE
  5
26F
100
AcDbEntity
  8
00_COMPONENTS_46
100
AcDbLine
 62
7
  6
CONTINUOUS
 10
123.1903285856
 20
302.629303475
 11
123.1903285856
 21
303.4896681295
  0
LINE
  5
270
100
AcDbEntity
  8
00_COMPONENTS_46
100
AcDbLine
 62
7
  6
CONTINUOUS
 10
124.09377032
 20
1095.0647480713
 11
124.09377032
 21
304.4647480713
  0
LINE
  5
271
100
AcDbEntity
  8
00_COMPONENTS_1
100
AcDbLine
 62
7
  6
CONTINUOUS
 10
591.7459681769
 20
299.760819107
 11
591.7494839745
 21
299.7615292029
  0
LINE
  5
272
100
AcDbEntity
  8
00_COMPONENTS_1
100
AcDbLine
 62
7
  6
CONTINUOUS
 10
545.7459681769
 20
299.760819107
 11
545.7494839745
 21
299.7615292029
  0
LINE
  5
273
100
AcDbEntity
  8
00_COMPONENTS_1
100
AcDbLine
 62
7
  6
CONTINUOUS
 10
477.7459681769
 20
299.760819107
 11
477.7494839745
 21
299.7615292029
  0
LINE
  5
274
100
AcDbEntity
  8
00_COMPONENTS_1
100
AcDbLine
 62
7
  6
CONTINUOUS
 10
431.7459681769
 20
299.760819107
 11
431.7494839745
 21
299.7615292029
  0
LINE
  5
275
100
AcDbEntity
  8
00_COMPONENTS_1
100
AcDbLine
 62
7
  6
CONTINUOUS
 10
591.7462000396
 20
299.7616061709
 11
591.7497106407
 21
299.7623001875
  0
LINE
  5
276
100
AcDbEntity
  8
00_COMPONENTS_1
100
AcDbLine
 62
7
  6
CONTINUOUS
 10
545.7462000396
 20
299.7616061709
 11
545.7497106407
 21
299.7623001875
  0
LINE
  5
277
100
AcDbEntity
  8
00_COMPONENTS_1
100
AcDbLine
 62
7
  6
CONTINUOUS
 10
477.7462000396
 20
299.7616061709
 11
477.7497106407
 21
299.7623001875
  0
LINE
  5
278
100
AcDbEntity
  8
00_COMPONENTS_1
100
AcDbLine
 62
7
  6
CONTINUOUS
 10
431.7462000396
 20
299.7616061709
 11
431.7497106407
 21
299.7623001875
  0
LINE
  5
279
100
AcDbEntity
  8
00_COMPONENTS_1
100
AcDbLine
 62
7
  6
CONTINUOUS
 10
591.5808400727
 20
299.7352519287
 11
591.5895157107
 21
299.7359884083
  0
LINE
  5
27A
100
AcDbEntity
  8
00_COMPONENTS_1
100
AcDbLine
 62
7
  6
CONTINUOUS
 10
545.5808400727
 20
299.7352519287
 11
545.5895157107
 21
299.7359884083
  0
LINE
  5
27B
100
AcDbEntity
  8
00_COMPONENTS_1
100
AcDbLine
 62
7
  6
CONTINUOUS
 10
477.5808400727
 20
299.7352519287
 11
477.5895157107
 21
299.7359884083
  0
LINE
  5
27C
100
AcDbEntity
  8
00_COMPONENTS_1
100
AcDbLine
 62
7
  6
CONTINUOUS
 10
431.5808400727
 20
299.7352519287
 11
431.5895157107
 21
299.7359884083
  0
LINE
  5
27D
100
AcDbEntity
  8
00_COMPONENTS_1
100
AcDbLine
 62
7
  6
CONTINUOUS
 10
311.5808400727
 20
299.7352519287
 11
311.5895157107
 21
299.7359884083
  0
LINE
  5
27E
100
AcDbEntity
  8
00_COMPONENTS_1
100
AcDbLine
 62
7
  6
CONTINUOUS
 10
878.9903544355
 20
299.940406664
 11
878.9250098665
 21
299.940406664
  0
LINE
  5
27F
100
AcDbEntity
  8
00_COMPONENTS_1
100
AcDbLine
 62
7
  6
CONTINUOUS
 10
877.4432479972
 20
299.940406664
 11
876.4132479972
 21
299.940406664
  0
LINE
  5
280
100
AcDbEntity
  8
00_COMPONENTS_1
100
AcDbLine
 62
7
  6
CONTINUOUS
 10
874.9314861279
 20
299.940406664
 11
874.866141559
 21
299.940406664
  0
LINE
  5
281
100
AcDbEntity
  8
00_COMPONENTS_1
100
AcDbLine
 62
7
  6
CONTINUOUS
 10
832.9903544355
 20
299.940406664
 11
832.9250098665
 21
299.940406664
  0
LINE
  5
282
100
AcDbEntity
  8
00_COMPONENTS_1
100
AcDbLine
 62
7
  6
CONTINUOUS
 10
831.4432479972
 20
299.940406664
 11
830.4132479972
 21
299.940406664
  0
LINE
  5
283
100
AcDbEntity
  8
00_COMPONENTS_1
100
AcDbLine
 62
7
  6
CONTINUOUS
 10
828.9314861279
 20
299.940406664
 11
828.866141559
 21
299.940406664
  0
LINE
  5
284
100
AcDbEntity
  8
00_COMPONENTS_1
100
AcDbLine
 62
7
  6
CONTINUOUS
 10
712.9903544355
 20
299.940406664
 11
712.9250098665
 21
299.940406664
  0
LINE
  5
285
100
AcDbEntity
  8
00_COMPONENTS_1
100
AcDbLine
 62
7
  6
CONTINUOUS
 10
711.4432479972
 20
299.940406664
 11
710.4132479972
 21
299.940406664
  0
LINE
  5
286
100
AcDbEntity
  8
00_COMPONENTS_1
100
AcDbLine
 62
7
  6
CONTINUOUS
 10
708.9314861279
 20
299.940406664
 11
708.866141559
 21
299.940406664
  0
LINE
  5
287
100
AcDbEntity
  8
00_COMPONENTS_1
100
AcDbLine
 62
7
  6
CONTINUOUS
 10
592.9903544355
 20
299.940406664
 11
592.9250098665
 21
299.940406664
  0
LINE
  5
288
100
AcDbEntity
  8
00_COMPONENTS_1
100
AcDbLine
 62
7
  6
CONTINUOUS
 10
591.4432479972
 20
299.940406664
 11
590.4132479972
 21
299.940406664
  0
LINE
  5
289
100
AcDbEntity
  8
00_COMPONENTS_1
100
AcDbLine
 62
7
  6
CONTINUOUS
 10
588.9314861279
 20
299.940406664
 11
588.866141559
 21
299.940406664
  0
LINE
  5
28A
100
AcDbEntity
  8
00_COMPONENTS_1
100
AcDbLine
 62
7
  6
CONTINUOUS
 10
546.9903544355
 20
299.940406664
 11
546.9250098665
 21
299.940406664
  0
LINE
  5
28B
100
AcDbEntity
  8
00_COMPONENTS_1
100
AcDbLine
 62
7
  6
CONTINUOUS
 10
545.4432479972
 20
299.940406664
 11
544.4132479972
 21
299.940406664
  0
LINE
  5
28C
100
AcDbEntity
  8
00_COMPONENTS_1
100
AcDbLine
 62
7
  6
CONTINUOUS
 10
542.9314861279
 20
299.940406664
 11
542.866141559
 21
299.940406664
  0
LINE
  5
28D
100
AcDbEntity
  8
00_COMPONENTS_1
100
AcDbLine
 62
7
  6
CONTINUOUS
 10
478.9903544355
 20
299.940406664
 11
478.9250098665
 21
299.940406664
  0
LINE
  5
28E
100
AcDbEntity
  8
00_COMPONENTS_1
100
AcDbLine
 62
7
  6
CONTINUOUS
 10
477.4432479972
 20
299.940406664
 11
476.4132479972
 21
299.940406664
  0
LINE
  5
28F
100
AcDbEntity
  8
00_COMPONENTS_1
100
AcDbLine
 62
7
  6
CONTINUOUS
 10
474.9314861279
 20
299.940406664
 11
474.866141559
 21
299.940406664
  0
LINE
  5
290
100
AcDbEntity
  8
00_COMPONENTS_1
100
AcDbLine
 62
7
  6
CONTINUOUS
 10
432.9903544355
 20
299.940406664
 11
432.9250098665
 21
299.940406664
  0
LINE
  5
291
100
AcDbEntity
  8
00_COMPONENTS_1
100
AcDbLine
 62
7
  6
CONTINUOUS
 10
431.4432479972
 20
299.940406664
 11
430.4132479972
 21
299.940406664
  0
LINE
  5
292
100
AcDbEntity
  8
00_COMPONENTS_1
100
AcDbLine
 62
7
  6
CONTINUOUS
 10
428.9314861279
 20
299.940406664
 11
428.866141559
 21
299.940406664
  0
LINE
  5
293
100
AcDbEntity
  8
00_COMPONENTS_1
100
AcDbLine
 62
7
  6
CONTINUOUS
 10
312.9903544355
 20
299.940406664
 11
312.9250098665
 21
299.940406664
  0
LINE
  5
294
100
AcDbEntity
  8
00_COMPONENTS_1
100
AcDbLine
 62
7
  6
CONTINUOUS
 10
311.4432479972
 20
299.940406664
 11
310.4132479972
 21
299.940406664
  0
LINE
  5
295
100
AcDbEntity
  8
00_COMPONENTS_1
100
AcDbLine
 62
7
  6
CONTINUOUS
 10
308.9314861279
 20
299.940406664
 11
308.866141559
 21
299.940406664
  0
LINE
  5
296
100
AcDbEntity
  8
00_COMPONENTS_1
100
AcDbLine
 62
7
  6
CONTINUOUS
 10
192.9903544355
 20
299.940406664
 11
192.9250098665
 21
299.940406664
  0
LINE
  5
297
100
AcDbEntity
  8
00_COMPONENTS_1
100
AcDbLine
 62
7
  6
CONTINUOUS
 10
191.4432479972
 20
299.940406664
 11
190.4132479972
 21
299.940406664
  0
LINE
  5
298
100
AcDbEntity
  8
00_COMPONENTS_1
100
AcDbLine
 62
7
  6
CONTINUOUS
 10
188.9314861279
 20
299.940406664
 11
188.866141559
 21
299.940406664
  0
LINE
  5
299
100
AcDbEntity
  8
00_COMPONENTS_1
100
AcDbLine
 62
7
  6
CONTINUOUS
 10
146.9903544355
 20
299.940406664
 11
146.9250098665
 21
299.940406664
  0
LINE
  5
29A
100
AcDbEntity
  8
00_COMPONENTS_1
100
AcDbLine
 62
7
  6
CONTINUOUS
 10
145.4432479972
 20
299.940406664
 11
144.4132479972
 21
299.940406664
  0
LINE
  5
29B
100
AcDbEntity
  8
00_COMPONENTS_1
100
AcDbLine
 62
7
  6
CONTINUOUS
 10
142.9314861279
 20
299.940406664
 11
142.866141559
 21
299.940406664
  0
LINE
  5
29C
100
AcDbEntity
  8
00_COMPONENTS_55
100
AcDbLine
 62
7
  6
CONTINUOUS
 10
909.4282479972
 20
300.2647480713
 11
112.4282479972
 21
300.2647480713
  0
LINE
  5
29D
100
AcDbEntity
  8
00_COMPONENTS_46
100
AcDbLine
 62
7
  6
CONTINUOUS
 10
114.5848141956
 20
301.2647480713
 11
908.5848141956
 21
301.2647480713
  0
LINE
  5
29E
100
AcDbEntity
  8
00_COMPONENTS_55
100
AcDbLine
 62
7
  6
CONTINUOUS
 10
910.9282479972
 20
301.7647480713
 11
909.4282479972
 21
301.7647480713
  0
LINE
  5
29F
100
AcDbEntity
  8
00_COMPONENTS_55
100
AcDbLine
 62
7
  6
CONTINUOUS
 10
112.4282479972
 20
301.7647480713
 11
110.9282479972
 21
301.7647480713
  0
LINE
  5
2A0
100
AcDbEntity
  8
00_COMPONENTS_46
100
AcDbLine
 62
7
  6
CONTINUOUS
 10
903.7945231626
 20
302.7647480713
 11
902.0397176237
 21
302.7647480713
  0
LINE
  5
2A1
100
AcDbEntity
  8
00_COMPONENTS_46
100
AcDbLine
 62
7
  6
CONTINUOUS
 10
121.1299107675
 20
302.7647480713
 11
119.3751052286
 21
302.7647480713
  0
LINE
  5
2A2
100
AcDbEntity
  8
00_COMPONENTS_46
100
AcDbLine
 62
7
  6
CONTINUOUS
 10
113.0848141956
 20
302.7647480713
 11
118.514740574
 21
302.7647480713
  0
LINE
  5
2A3
100
AcDbEntity
  8
00_COMPONENTS_46
100
AcDbLine
 62
7
  6
CONTINUOUS
 10
904.6548878173
 20
302.7647480713
 11
910.0848141956
 21
302.7647480713
  0
LINE
  5
2A4
100
AcDbEntity
  8
00_COMPONENTS_46
100
AcDbLine
 62
7
  6
CONTINUOUS
 10
900.9113026675
 20
303.1691233292
 11
900.050938013
 21
303.1691233292
  0
LINE
  5
2A5
100
AcDbEntity
  8
00_COMPONENTS_46
100
AcDbLine
 62
7
  6
CONTINUOUS
 10
123.1186903782
 20
303.1691233292
 11
122.2583257237
 21
303.1691233292
  0
LINE
  5
2A6
100
AcDbEntity
  8
00_COMPONENTS_46
100
AcDbLine
 62
7
  6
CONTINUOUS
 10
124.09377032
 20
304.4647480713
 11
899.0758580712
 21
304.4647480713
  0
LINE
  5
2A7
100
AcDbEntity
  8
00_COMPONENTS_1
100
AcDbLine
 62
7
  6
CONTINUOUS
 10
430.2182276334
 20
299.7402689762
 11
430.2372264768
 21
299.738562054
  0
LINE
  5
2A8
100
AcDbEntity
  8
00_COMPONENTS_1
100
AcDbLine
 62
7
  6
CONTINUOUS
 10
476.2182276334
 20
299.7402689762
 11
476.2372264768
 21
299.738562054
  0
LINE
  5
2A9
100
AcDbEntity
  8
00_COMPONENTS_1
100
AcDbLine
 62
7
  6
CONTINUOUS
 10
544.2182276334
 20
299.7402689762
 11
544.2372264768
 21
299.738562054
  0
LINE
  5
2AA
100
AcDbEntity
  8
00_COMPONENTS_1
100
AcDbLine
 62
7
  6
CONTINUOUS
 10
590.2182276334
 20
299.7402689762
 11
590.2372264768
 21
299.738562054
  0
LINE
  5
2AB
100
AcDbEntity
  8
00_COMPONENTS_1
100
AcDbLine
 62
7
  6
CONTINUOUS
 10
710.2182276334
 20
299.7402689762
 11
710.2372264768
 21
299.738562054
  0
LINE
  5
2AC
100
AcDbEntity
  8
00_COMPONENTS_1
100
AcDbLine
 62
7
  6
CONTINUOUS
 10
430.1111277985
 20
299.7614417223
 11
430.1067853538
 21
299.7623001875
  0
LINE
  5
2AD
100
AcDbEntity
  8
00_COMPONENTS_1
100
AcDbLine
 62
7
  6
CONTINUOUS
 10
476.1111277985
 20
299.7614417223
 11
476.1067853538
 21
299.7623001875
  0
LINE
  5
2AE
100
AcDbEntity
  8
00_COMPONENTS_1
100
AcDbLine
 62
7
  6
CONTINUOUS
 10
544.1111277985
 20
299.7614417223
 11
544.1067853538
 21
299.7623001875
  0
LINE
  5
2AF
100
AcDbEntity
  8
00_COMPONENTS_1
100
AcDbLine
 62
7
  6
CONTINUOUS
 10
590.1111277985
 20
299.7614417223
 11
590.1067853538
 21
299.7623001875
  0
LINE
  5
2B0
100
AcDbEntity
  8
00_COMPONENTS_1
100
AcDbLine
 62
7
  6
CONTINUOUS
 10
430.1069523327
 20
299.7677087728
 11
430.1120575786
 21
299.766696823
  0
LINE
  5
2B1
100
AcDbEntity
  8
00_COMPONENTS_1
100
AcDbLine
 62
7
  6
CONTINUOUS
 10
476.1069523327
 20
299.7677087728
 11
476.1120575786
 21
299.766696823
  0
LINE
  5
2B2
100
AcDbEntity
  8
00_COMPONENTS_1
100
AcDbLine
 62
7
  6
CONTINUOUS
 10
544.1069523327
 20
299.7677087728
 11
544.1120575786
 21
299.766696823
  0
LINE
  5
2B3
100
AcDbEntity
  8
00_COMPONENTS_1
100
AcDbLine
 62
7
  6
CONTINUOUS
 10
590.1069523327
 20
299.7677087728
 11
590.1120575786
 21
299.766696823
  0
LINE
  5
2B4
100
AcDbEntity
  8
00_COMPONENTS_1
100
AcDbLine
 62
7
  6
CONTINUOUS
 10
430.1113607823
 20
299.7606512318
 11
430.1070120199
 21
299.7615292029
  0
LINE
  5
2B5
100
AcDbEntity
  8
00_COMPONENTS_1
100
AcDbLine
 62
7
  6
CONTINUOUS
 10
476.1113607823
 20
299.7606512318
 11
476.1070120199
 21
299.7615292029
  0
LINE
  5
2B6
100
AcDbEntity
  8
00_COMPONENTS_1
100
AcDbLine
 62
7
  6
CONTINUOUS
 10
544.1113607823
 20
299.7606512318
 11
544.1070120199
 21
299.7615292029
  0
LINE
  5
2B7
100
AcDbEntity
  8
00_COMPONENTS_1
100
AcDbLine
 62
7
  6
CONTINUOUS
 10
590.1113607823
 20
299.7606512318
 11
590.1070120199
 21
299.7615292029
  0
LINE
  5
2B8
100
AcDbEntity
  8
00_COMPONENTS_1
100
AcDbLine
 62
7
  6
CONTINUOUS
 10
430.1073444635
 20
299.7663596855
 11
430.1124628372
 21
299.7653067123
  0
LINE
  5
2B9
100
AcDbEntity
  8
00_COMPONENTS_1
100
AcDbLine
 62
7
  6
CONTINUOUS
 10
476.1073444635
 20
299.7663596855
 11
476.1124628372
 21
299.7653067123
  0
LINE
  5
2BA
100
AcDbEntity
  8
00_COMPONENTS_1
100
AcDbLine
 62
7
  6
CONTINUOUS
 10
544.1073444635
 20
299.7663596855
 11
544.1124628372
 21
299.7653067123
  0
LINE
  5
2BB
100
AcDbEntity
  8
00_COMPONENTS_1
100
AcDbLine
 62
7
  6
CONTINUOUS
 10
590.1073444635
 20
299.7663596855
 11
590.1124628372
 21
299.7653067123
  0
LINE
  5
2BC
100
AcDbEntity
  8
00_COMPONENTS_1
100
AcDbLine
 62
7
  6
CONTINUOUS
 10
144.4132479972
 20
299.7406471818
 11
144.4132479972
 21
299.940406664
  0
LINE
  5
2BD
100
AcDbEntity
  8
00_COMPONENTS_1
100
AcDbLine
 62
7
  6
CONTINUOUS
 10
145.4432479972
 20
299.940406664
 11
145.4432479972
 21
299.7406471818
  0
LINE
  5
2BE
100
AcDbEntity
  8
00_COMPONENTS_15
100
AcDbLine
 62
7
  6
CONTINUOUS
 10
155.0239257895
 20
711.7501908441
 11
155.0239257895
 21
703.325715958
  0
LINE
  5
2BF
100
AcDbEntity
  8
00_COMPONENTS_15
100
AcDbLine
 62
7
  6
CONTINUOUS
 10
155.0239437645
 20
696.2037619239
 11
155.0239657552
 21
678.1797925764
  0
LINE
  5
2C0
100
AcDbEntity
  8
00_COMPONENTS_15
100
AcDbLine
 62
7
  6
CONTINUOUS
 10
155.1456969962
 20
711.7502120273
 11
155.1456969962
 21
703.5735656992
  0
LINE
  5
2C1
100
AcDbEntity
  8
00_COMPONENTS_15
100
AcDbLine
 62
7
  6
CONTINUOUS
 10
160.023921664
 20
713.1787715524
 11
160.023921664
 21
710.1829054001
  0
LINE
  5
2C2
100
AcDbEntity
  8
00_COMPONENTS_15
100
AcDbLine
 62
7
  6
CONTINUOUS
 10
160.0239181242
 20
689.3465927208
 11
160.0239119804
 21
676.7507038159
  0
LINE
  5
2C3
100
AcDbEntity
  8
00_COMPONENTS_15
100
AcDbLine
 62
7
  6
CONTINUOUS
 10
160.1456969962
 20
713.1788030898
 11
160.1456969962
 21
710.2378039061
  0
LINE
  5
2C4
100
AcDbEntity
  8
00_COMPONENTS_15
100
AcDbLine
 62
7
  6
CONTINUOUS
 10
160.1456969962
 20
689.2916922031
 11
160.1456969962
 21
676.7507021292
  0
LINE
  5
2C5
100
AcDbEntity
  8
00_COMPONENTS_15
100
AcDbLine
 62
7
  6
CONTINUOUS
 10
165.023931395
 20
676.7506931925
 11
165.023931395
 21
689.2916923511
  0
LINE
  5
2C6
100
AcDbEntity
  8
00_COMPONENTS_15
100
AcDbLine
 62
7
  6
CONTINUOUS
 10
165.023931395
 20
710.2378039058
 11
165.023931395
 21
713.1788030898
  0
LINE
  5
2C7
100
AcDbEntity
  8
00_COMPONENTS_15
100
AcDbLine
 62
7
  6
CONTINUOUS
 10
165.1457050464
 20
676.7507184347
 11
165.1457050464
 21
689.3465897828
  0
LINE
  5
2C8
100
AcDbEntity
  8
00_COMPONENTS_15
100
AcDbLine
 62
7
  6
CONTINUOUS
 10
165.1457001695
 20
710.1829091862
 11
165.1457001695
 21
713.1787750181
  0
LINE
  5
2C9
100
AcDbEntity
  8
00_COMPONENTS_15
100
AcDbLine
 62
7
  6
CONTINUOUS
 10
170.023931395
 20
678.1792841153
 11
170.023931395
 21
695.9559304434
  0
LINE
  5
2CA
100
AcDbEntity
  8
00_COMPONENTS_15
100
AcDbLine
 62
7
  6
CONTINUOUS
 10
170.1457026017
 20
678.1793052985
 11
170.1457026017
 21
696.203780174
  0
LINE
  5
2CB
100
AcDbEntity
  8
00_COMPONENTS_15
100
AcDbLine
 62
7
  6
CONTINUOUS
 10
170.1456846267
 20
703.3257342176
 11
170.145662636
 21
711.7497035662
  0
LINE
  5
2CC
100
AcDbEntity
  8
00_COMPONENTS_15
100
AcDbLine
 62
7
  6
CONTINUOUS
 10
155.1456969962
 20
695.9559316064
 11
155.1441688395
 21
678.1792841153
  0
LINE
  5
2CD
100
AcDbEntity
  8
00_COMPONENTS_15
100
AcDbLine
 62
7
  6
CONTINUOUS
 10
170.023931395
 20
703.5735645362
 11
170.025459867
 21
711.7502120273
  0
LINE
  5
2CE
100
AcDbEntity
  8
00_COMPONENTS_1
100
AcDbLine
 62
7
  6
CONTINUOUS
 10
144.1059685987
 20
299.7359781666
 11
144.1059502943
 21
299.7352519287
  0
LINE
  5
2CF
100
AcDbEntity
  8
00_COMPONENTS_1
100
AcDbLine
 62
7
  6
CONTINUOUS
 10
144.1059685987
 20
299.7359781666
 11
144.1069347048
 21
299.767712267
  0
LINE
  5
2D0
100
AcDbEntity
  8
00_COMPONENTS_1
100
AcDbLine
 62
7
  6
CONTINUOUS
 10
311.7459681769
 20
299.760819107
 11
311.7494839745
 21
299.7615292029
  0
LINE
  5
2D1
100
AcDbEntity
  8
00_COMPONENTS_1
100
AcDbLine
 62
7
  6
CONTINUOUS
 10
311.7462000396
 20
299.7616061709
 11
311.7497106407
 21
299.7623001875
  0
LINE
  5
2D2
100
AcDbEntity
  8
00_COMPONENTS_46
100
AcDbLine
 62
7
  6
CONTINUOUS
 10
122.2583257237
 20
303.1691233292
 11
118.514740574
 21
302.7647480713
  0
LINE
  5
2D3
100
AcDbEntity
  8
00_COMPONENTS_1
100
AcDbLine
 62
7
  6
CONTINUOUS
 10
191.5808400727
 20
299.7352519287
 11
191.5895157107
 21
299.7359884083
  0
LINE
  5
2D4
100
AcDbEntity
  8
00_COMPONENTS_1
100
AcDbLine
 62
7
  6
CONTINUOUS
 10
145.5808400727
 20
299.7352519287
 11
145.5895157107
 21
299.7359884083
  0
LINE
  5
2D5
100
AcDbEntity
  8
00_COMPONENTS_1
100
AcDbLine
 62
7
  6
CONTINUOUS
 10
830.2182276334
 20
299.7402689762
 11
830.2372264768
 21
299.738562054
  0
LINE
  5
2D6
100
AcDbEntity
  8
00_COMPONENTS_1
100
AcDbLine
 62
7
  6
CONTINUOUS
 10
876.2182276334
 20
299.7402689762
 11
876.2372264768
 21
299.738562054
  0
LINE
  5
2D7
100
AcDbEntity
  8
00_COMPONENTS_46
100
AcDbLine
 62
7
  6
CONTINUOUS
 10
904.6548878173
 20
302.7647480713
 11
900.9113026675
 21
303.1691233292
  0
LINE
  5
2D8
100
AcDbEntity
  8
00_COMPONENTS_1
100
AcDbLine
 62
7
  6
CONTINUOUS
 10
710.1111277985
 20
299.7614417223
 11
710.1067853538
 21
299.7623001875
  0
LINE
  5
2D9
100
AcDbEntity
  8
00_COMPONENTS_1
100
AcDbLine
 62
7
  6
CONTINUOUS
 10
710.1069523327
 20
299.7677087728
 11
710.1120575786
 21
299.766696823
  0
LINE
  5
2DA
100
AcDbEntity
  8
00_COMPONENTS_1
100
AcDbLine
 62
7
  6
CONTINUOUS
 10
710.1113607823
 20
299.7606512318
 11
710.1070120199
 21
299.7615292029
  0
LINE
  5
2DB
100
AcDbEntity
  8
00_COMPONENTS_1
100
AcDbLine
 62
7
  6
CONTINUOUS
 10
710.1073444635
 20
299.7663596855
 11
710.1124628372
 21
299.7653067123
  0
LINE
  5
2DC
100
AcDbEntity
  8
00_COMPONENTS_1
100
AcDbLine
 62
7
  6
CONTINUOUS
 10
191.7504182254
 20
299.7402689762
 11
191.7497472913
 21
299.762307433
  0
LINE
  5
2DD
100
AcDbEntity
  8
00_COMPONENTS_1
100
AcDbLine
 62
7
  6
CONTINUOUS
 10
191.7504182254
 20
299.7402689762
 11
191.7505457002
 21
299.7352519287
  0
LINE
  5
2DE
100
AcDbEntity
  8
00_COMPONENTS_1
100
AcDbLine
 62
7
  6
CONTINUOUS
 10
190.4132479972
 20
299.7406471818
 11
190.4132479972
 21
299.940406664
  0
LINE
  5
2DF
100
AcDbEntity
  8
00_COMPONENTS_1
100
AcDbLine
 62
7
  6
CONTINUOUS
 10
191.4432479972
 20
299.940406664
 11
191.4432479972
 21
299.7406471818
  0
LINE
  5
2E0
100
AcDbEntity
  8
00_COMPONENTS_1
100
AcDbLine
 62
7
  6
CONTINUOUS
 10
190.1059685987
 20
299.7359781666
 11
190.1059502943
 21
299.7352519287
  0
LINE
  5
2E1
100
AcDbEntity
  8
00_COMPONENTS_1
100
AcDbLine
 62
7
  6
CONTINUOUS
 10
190.1059685987
 20
299.7359781666
 11
190.1069347048
 21
299.767712267
  0
LINE
  5
2E2
100
AcDbEntity
  8
00_COMPONENTS_15
100
AcDbLine
 62
7
  6
CONTINUOUS
 10
151.0435267409
 20
673.0144125144
 11
150.9638777034
 21
672.8629282795
  0
LINE
  5
2E3
100
AcDbEntity
  8
00_COMPONENTS_15
100
AcDbLine
 62
7
  6
CONTINUOUS
 10
174.1261016504
 20
716.9150836282
 11
174.2057506879
 21
717.0665678631
  0
LINE
  5
2E4
100
AcDbEntity
  8
00_COMPONENTS_1
100
AcDbLine
 62
7
  6
CONTINUOUS
 10
191.7459681769
 20
299.760819107
 11
191.7494839745
 21
299.7615292029
  0
LINE
  5
2E5
100
AcDbEntity
  8
00_COMPONENTS_1
100
AcDbLine
 62
7
  6
CONTINUOUS
 10
145.7459681769
 20
299.760819107
 11
145.7494839745
 21
299.7615292029
  0
LINE
  5
2E6
100
AcDbEntity
  8
00_COMPONENTS_1
100
AcDbLine
 62
7
  6
CONTINUOUS
 10
191.7462000396
 20
299.7616061709
 11
191.7497106407
 21
299.7623001875
  0
LINE
  5
2E7
100
AcDbEntity
  8
00_COMPONENTS_1
100
AcDbLine
 62
7
  6
CONTINUOUS
 10
145.7462000396
 20
299.7616061709
 11
145.7497106407
 21
299.7623001875
  0
LINE
  5
2E8
100
AcDbEntity
  8
00_COMPONENTS_1
100
AcDbLine
 62
7
  6
CONTINUOUS
 10
830.1111277985
 20
299.7614417223
 11
830.1067853538
 21
299.7623001875
  0
LINE
  5
2E9
100
AcDbEntity
  8
00_COMPONENTS_1
100
AcDbLine
 62
7
  6
CONTINUOUS
 10
876.1111277985
 20
299.7614417223
 11
876.1067853538
 21
299.7623001875
  0
LINE
  5
2EA
100
AcDbEntity
  8
00_COMPONENTS_1
100
AcDbLine
 62
7
  6
CONTINUOUS
 10
830.1069523327
 20
299.7677087728
 11
830.1120575786
 21
299.766696823
  0
LINE
  5
2EB
100
AcDbEntity
  8
00_COMPONENTS_1
100
AcDbLine
 62
7
  6
CONTINUOUS
 10
876.1069523327
 20
299.7677087728
 11
876.1120575786
 21
299.766696823
  0
LINE
  5
2EC
100
AcDbEntity
  8
00_COMPONENTS_1
100
AcDbLine
 62
7
  6
CONTINUOUS
 10
830.1113607823
 20
299.7606512318
 11
830.1070120199
 21
299.7615292029
  0
LINE
  5
2ED
100
AcDbEntity
  8
00_COMPONENTS_1
100
AcDbLine
 62
7
  6
CONTINUOUS
 10
876.1113607823
 20
299.7606512318
 11
876.1070120199
 21
299.7615292029
  0
LINE
  5
2EE
100
AcDbEntity
  8
00_COMPONENTS_1
100
AcDbLine
 62
7
  6
CONTINUOUS
 10
830.1073444635
 20
299.7663596855
 11
830.1124628372
 21
299.7653067123
  0
LINE
  5
2EF
100
AcDbEntity
  8
00_COMPONENTS_1
100
AcDbLine
 62
7
  6
CONTINUOUS
 10
876.1073444635
 20
299.7663596855
 11
876.1124628372
 21
299.7653067123
  0
LINE
  5
2F0
100
AcDbEntity
  8
00_COMPONENTS_1
100
AcDbLine
 62
7
  6
CONTINUOUS
 10
430.2182276334
 20
299.7402689762
 11
430.2125644338
 21
299.7467745903
  0
LINE
  5
2F1
100
AcDbEntity
  8
00_COMPONENTS_15
100
AcDbLine
 62
7
  6
CONTINUOUS
 10
150.9638693185
 20
717.0665634544
 11
151.0435184135
 21
716.9150792497
  0
LINE
  5
2F2
100
AcDbEntity
  8
00_COMPONENTS_15
100
AcDbLine
 62
7
  6
CONTINUOUS
 10
174.2057576802
 20
672.862931956
 11
174.1261085948
 21
673.0144161657
  0
LINE
  5
2F3
100
AcDbEntity
  8
00_COMPONENTS_15
100
AcDbLine
 62
7
  6
CONTINUOUS
 10
168.2081247747
 20
706.0995070215
 11
168.075372319
 21
705.9499590293
  0
LINE
  5
2F4
100
AcDbEntity
  8
00_COMPONENTS_15
100
AcDbLine
 62
7
  6
CONTINUOUS
 10
156.9615036165
 20
693.4299891211
 11
157.0942560723
 21
693.5795371135
  0
LINE
  5
2F5
100
AcDbEntity
  8
00_COMPONENTS_15
100
AcDbLine
 62
7
  6
CONTINUOUS
 10
156.9615037069
 20
706.0995071018
 11
157.0942561605
 21
705.9499591076
  0
LINE
  5
2F6
100
AcDbEntity
  8
00_COMPONENTS_15
100
AcDbLine
 62
7
  6
CONTINUOUS
 10
168.2081246843
 20
693.4299890408
 11
168.0753722307
 21
693.579537035
  0
LINE
  5
2F7
100
AcDbEntity
  8
00_COMPONENTS_1
100
AcDbLine
 62
7
  6
CONTINUOUS
 10
476.2182276334
 20
299.7402689762
 11
476.2125644338
 21
299.7467745903
  0
LINE
  5
2F8
100
AcDbEntity
  8
00_COMPONENTS_1
100
AcDbLine
 62
7
  6
CONTINUOUS
 10
544.2182276334
 20
299.7402689762
 11
544.2125644338
 21
299.7467745903
  0
LINE
  5
2F9
100
AcDbEntity
  8
00_COMPONENTS_1
100
AcDbLine
 62
7
  6
CONTINUOUS
 10
311.7504182254
 20
299.7402689762
 11
311.7497472913
 21
299.762307433
  0
LINE
  5
2FA
100
AcDbEntity
  8
00_COMPONENTS_1
100
AcDbLine
 62
7
  6
CONTINUOUS
 10
311.7504182254
 20
299.7402689762
 11
311.7505457002
 21
299.7352519287
  0
LINE
  5
2FB
100
AcDbEntity
  8
00_COMPONENTS_1
100
AcDbLine
 62
7
  6
CONTINUOUS
 10
310.4132479972
 20
299.7406471818
 11
310.4132479972
 21
299.940406664
  0
LINE
  5
2FC
100
AcDbEntity
  8
00_COMPONENTS_1
100
AcDbLine
 62
7
  6
CONTINUOUS
 10
311.4432479972
 20
299.940406664
 11
311.4432479972
 21
299.7406471818
  0
LINE
  5
2FD
100
AcDbEntity
  8
00_COMPONENTS_1
100
AcDbLine
 62
7
  6
CONTINUOUS
 10
310.1059685987
 20
299.7359781666
 11
310.1059502943
 21
299.7352519287
  0
LINE
  5
2FE
100
AcDbEntity
  8
00_COMPONENTS_1
100
AcDbLine
 62
7
  6
CONTINUOUS
 10
310.1059685987
 20
299.7359781666
 11
310.1069347048
 21
299.767712267
  0
LINE
  5
2FF
100
AcDbEntity
  8
00_COMPONENTS_1
100
AcDbLine
 62
7
  6
CONTINUOUS
 10
590.2182276334
 20
299.7402689762
 11
590.2125644338
 21
299.7467745903
  0
LINE
  5
300
100
AcDbEntity
  8
00_COMPONENTS_15
100
AcDbLine
 62
7
  6
CONTINUOUS
 10
168.5865640748
 20
705.6244395921
 11
168.5163478622
 21
705.5904507868
  0
LINE
  5
301
100
AcDbEntity
  8
00_COMPONENTS_15
100
AcDbLine
 62
7
  6
CONTINUOUS
 10
156.5830643164
 20
693.9050565506
 11
156.6532805291
 21
693.9390453559
  0
LINE
  5
302
100
AcDbEntity
  8
00_COMPONENTS_15
100
AcDbLine
 62
7
  6
CONTINUOUS
 10
168.5163479263
 20
693.9390448565
 11
168.5865640059
 21
693.9050561156
  0
LINE
  5
303
100
AcDbEntity
  8
00_COMPONENTS_15
100
AcDbLine
 62
7
  6
CONTINUOUS
 10
156.6532804649
 20
705.5904512862
 11
156.5830643853
 21
705.624440027
  0
LINE
  5
304
100
AcDbEntity
  8
00_COMPONENTS_1
100
AcDbLine
 62
7
  6
CONTINUOUS
 10
710.2182276334
 20
299.7402689762
 11
710.2125644338
 21
299.7467745903
  0
LINE
  5
305
100
AcDbEntity
  8
00_COMPONENTS_1
100
AcDbLine
 62
7
  6
CONTINUOUS
 10
431.7504182254
 20
299.7402689762
 11
431.7497472913
 21
299.762307433
  0
LINE
  5
306
100
AcDbEntity
  8
00_COMPONENTS_1
100
AcDbLine
 62
7
  6
CONTINUOUS
 10
431.7504182254
 20
299.7402689762
 11
431.7505457002
 21
299.7352519287
  0
LINE
  5
307
100
AcDbEntity
  8
00_COMPONENTS_1
100
AcDbLine
 62
7
  6
CONTINUOUS
 10
430.4132479972
 20
299.7406471818
 11
430.4132479972
 21
299.940406664
  0
LINE
  5
308
100
AcDbEntity
  8
00_COMPONENTS_1
100
AcDbLine
 62
7
  6
CONTINUOUS
 10
431.4432479972
 20
299.940406664
 11
431.4432479972
 21
299.7406471818
  0
LINE
  5
309
100
AcDbEntity
  8
00_COMPONENTS_1
100
AcDbLine
 62
7
  6
CONTINUOUS
 10
430.1059685987
 20
299.7359781666
 11
430.1059502943
 21
299.7352519287
  0
LINE
  5
30A
100
AcDbEntity
  8
00_COMPONENTS_15
100
AcDbLine
 62
7
  6
CONTINUOUS
 10
174.4662854825
 20
680.217002565
 11
177.1527248183
 21
679.7343245255
  0
LINE
  5
30B
100
AcDbEntity
  8
00_COMPONENTS_1
100
AcDbLine
 62
7
  6
CONTINUOUS
 10
477.7504182254
 20
299.7402689762
 11
477.7497472913
 21
299.762307433
  0
LINE
  5
30C
100
AcDbEntity
  8
00_COMPONENTS_1
100
AcDbLine
 62
7
  6
CONTINUOUS
 10
477.7504182254
 20
299.7402689762
 11
477.7505457002
 21
299.7352519287
  0
LINE
  5
30D
100
AcDbEntity
  8
00_COMPONENTS_1
100
AcDbLine
 62
7
  6
CONTINUOUS
 10
476.4132479972
 20
299.7406471818
 11
476.4132479972
 21
299.940406664
  0
LINE
  5
30E
100
AcDbEntity
  8
00_COMPONENTS_1
100
AcDbLine
 62
7
  6
CONTINUOUS
 10
477.4432479972
 20
299.940406664
 11
477.4432479972
 21
299.7406471818
  0
LINE
  5
30F
100
AcDbEntity
  8
00_COMPONENTS_1
100
AcDbLine
 62
7
  6
CONTINUOUS
 10
430.1059685987
 20
299.7359781666
 11
430.1069347048
 21
299.767712267
  0
LINE
  5
310
100
AcDbEntity
  8
00_COMPONENTS_15
100
AcDbLine
 62
7
  6
CONTINUOUS
 10
155.0335822517
 20
678.1792841153
 11
155.0271549669
 21
678.1798063478
  0
LINE
  5
311
100
AcDbEntity
  8
00_COMPONENTS_15
100
AcDbLine
 62
7
  6
CONTINUOUS
 10
150.7033429088
 20
709.7124935776
 11
148.016903573
 21
710.1951716171
  0
LINE
  5
312
100
AcDbEntity
  8
00_COMPONENTS_1
100
AcDbLine
 62
7
  6
CONTINUOUS
 10
476.1059685987
 20
299.7359781666
 11
476.1059502943
 21
299.7352519287
  0
LINE
  5
313
100
AcDbEntity
  8
00_COMPONENTS_1
100
AcDbLine
 62
7
  6
CONTINUOUS
 10
476.1059685987
 20
299.7359781666
 11
476.1069347048
 21
299.767712267
  0
LINE
  5
314
100
AcDbEntity
  8
00_COMPONENTS_15
100
AcDbLine
 62
7
  6
CONTINUOUS
 10
155.0271549669
 20
678.1798063478
 11
155.0239547605
 21
678.1797924808
  0
LINE
  5
315
100
AcDbEntity
  8
00_COMPONENTS_7
100
AcDbLine
 62
7
  6
CONTINUOUS
 10
154.9410876442
 20
698.1600176817
 11
157.7817044844
 21
698.1604601989
  0
LINE
  5
316
100
AcDbEntity
  8
00_COMPONENTS_7
100
AcDbLine
 62
7
  6
CONTINUOUS
 10
170.228540747
 20
701.3694784609
 11
167.3879241959
 21
701.3690648548
  0
LINE
  5
317
100
AcDbEntity
  8
00_COMPONENTS_15
100
AcDbLine
 62
7
  6
CONTINUOUS
 10
165.023931395
 20
676.7506931925
 11
165.1457050464
 21
676.7506931925
  0
LINE
  5
318
100
AcDbEntity
  8
00_COMPONENTS_15
100
AcDbLine
 62
7
  6
CONTINUOUS
 10
160.0239181242
 20
676.7506966026
 11
160.1456969962
 21
676.7507021292
  0
LINE
  5
319
100
AcDbEntity
  8
00_COMPONENTS_15
100
AcDbLine
 62
7
  6
CONTINUOUS
 10
170.023931395
 20
678.1792841153
 11
170.1457026017
 21
678.1792841153
  0
LINE
  5
31A
100
AcDbEntity
  8
00_COMPONENTS_7
100
AcDbLine
 62
7
  6
CONTINUOUS
 10
167.3879239068
 20
698.1604601989
 11
170.228540747
 21
698.1600176817
  0
LINE
  5
31B
100
AcDbEntity
  8
00_COMPONENTS_7
100
AcDbLine
 62
7
  6
CONTINUOUS
 10
157.7817041953
 20
701.3690648548
 11
154.9410876442
 21
701.3694784609
  0
LINE
  5
31C
100
AcDbEntity
  8
00_COMPONENTS_15
100
AcDbLine
 62
7
  6
CONTINUOUS
 10
170.1360461394
 20
711.7502120273
 11
170.1424734243
 21
711.7496897948
  0
LINE
  5
31D
100
AcDbEntity
  8
00_COMPONENTS_55
100
AcDbLine
 62
7
  6
CONTINUOUS
 10
114.1282479972
 20
1097.0647480713
 11
114.5065310829
 21
1096.6864649632
  0
LINE
  5
31E
100
AcDbEntity
  8
00_COMPONENTS_1
100
AcDbLine
 62
7
  6
CONTINUOUS
 10
830.2182276334
 20
299.7402689762
 11
830.2125644338
 21
299.7467745903
  0
LINE
  5
31F
100
AcDbEntity
  8
00_COMPONENTS_1
100
AcDbLine
 62
7
  6
CONTINUOUS
 10
545.7504182254
 20
299.7402689762
 11
545.7497472913
 21
299.762307433
  0
LINE
  5
320
100
AcDbEntity
  8
00_COMPONENTS_1
100
AcDbLine
 62
7
  6
CONTINUOUS
 10
545.7504182254
 20
299.7402689762
 11
545.7505457002
 21
299.7352519287
  0
LINE
  5
321
100
AcDbEntity
  8
00_COMPONENTS_1
100
AcDbLine
 62
7
  6
CONTINUOUS
 10
544.4132479972
 20
299.7406471818
 11
544.4132479972
 21
299.940406664
  0
LINE
  5
322
100
AcDbEntity
  8
00_COMPONENTS_1
100
AcDbLine
 62
7
  6
CONTINUOUS
 10
545.4432479972
 20
299.940406664
 11
545.4432479972
 21
299.7406471818
  0
LINE
  5
323
100
AcDbEntity
  8
00_COMPONENTS_15
100
AcDbLine
 62
7
  6
CONTINUOUS
 10
170.1424734243
 20
711.7496897948
 11
170.1456736307
 21
711.7497036618
  0
LINE
  5
324
100
AcDbEntity
  8
00_COMPONENTS_15
100
AcDbLine
 62
7
  6
CONTINUOUS
 10
155.1456969962
 20
711.7502120273
 11
155.0239257895
 21
711.7502120273
  0
LINE
  5
325
100
AcDbEntity
  8
00_COMPONENTS_15
100
AcDbLine
 62
7
  6
CONTINUOUS
 10
165.1457001695
 20
713.1788030898
 11
165.023931395
 21
713.1788030898
  0
LINE
  5
326
100
AcDbEntity
  8
00_COMPONENTS_15
100
AcDbLine
 62
7
  6
CONTINUOUS
 10
160.1456969962
 20
713.1788030898
 11
160.0239216641
 21
713.1788030898
  0
LINE
  5
327
100
AcDbEntity
  8
00_COMPONENTS_1
100
AcDbLine
 62
7
  6
CONTINUOUS
 10
876.2182276334
 20
299.7402689762
 11
876.2125644338
 21
299.7467745903
  0
LINE
  5
328
100
AcDbEntity
  8
00_COMPONENTS_1
100
AcDbLine
 62
7
  6
CONTINUOUS
 10
591.7504182254
 20
299.7402689762
 11
591.7497472913
 21
299.762307433
  0
LINE
  5
329
100
AcDbEntity
  8
00_COMPONENTS_1
100
AcDbLine
 62
7
  6
CONTINUOUS
 10
591.7504182254
 20
299.7402689762
 11
591.7505457002
 21
299.7352519287
  0
LINE
  5
32A
100
AcDbEntity
  8
00_COMPONENTS_1
100
AcDbLine
 62
7
  6
CONTINUOUS
 10
590.4132479972
 20
299.7406471818
 11
590.4132479972
 21
299.940406664
  0
LINE
  5
32B
100
AcDbEntity
  8
00_COMPONENTS_1
100
AcDbLine
 62
7
  6
CONTINUOUS
 10
544.1059685987
 20
299.7359781666
 11
544.1059502943
 21
299.7352519287
  0
LINE
  5
32C
100
AcDbEntity
  8
00_COMPONENTS_1
100
AcDbLine
 62
7
  6
CONTINUOUS
 10
544.1059685987
 20
299.7359781666
 11
544.1069347048
 21
299.767712267
  0
LINE
  5
32D
100
AcDbEntity
  8
00_COMPONENTS_15
100
AcDbLine
 62
7
  6
CONTINUOUS
 10
148.0169038816
 20
679.7343228079
 11
150.7033431285
 21
680.2170008877
  0
LINE
  5
32E
100
AcDbEntity
  8
00_COMPONENTS_15
100
AcDbLine
 62
7
  6
CONTINUOUS
 10
177.1527245097
 20
710.1951733347
 11
174.4662852627
 21
709.7124952549
  0
LINE
  5
32F
100
AcDbEntity
  8
00_COMPONENTS_1
100
AcDbLine
 62
7
  6
CONTINUOUS
 10
591.4432479972
 20
299.940406664
 11
591.4432479972
 21
299.7406471818
  0
LINE
  5
330
100
AcDbEntity
  8
00_COMPONENTS_1
100
AcDbLine
 62
7
  6
CONTINUOUS
 10
590.1059685987
 20
299.7359781666
 11
590.1059502943
 21
299.7352519287
  0
LINE
  5
331
100
AcDbEntity
  8
00_COMPONENTS_1
100
AcDbLine
 62
7
  6
CONTINUOUS
 10
590.1059685987
 20
299.7359781666
 11
590.1069347048
 21
299.767712267
  0
LINE
  5
332
100
AcDbEntity
  8
00_COMPONENTS_1
100
AcDbLine
 62
7
  6
CONTINUOUS
 10
711.7504182254
 20
299.7402689762
 11
711.7497472913
 21
299.762307433
  0
LINE
  5
333
100
AcDbEntity
  8
00_COMPONENTS_1
100
AcDbLine
 62
7
  6
CONTINUOUS
 10
711.7504182254
 20
299.7402689762
 11
711.7505457002
 21
299.7352519287
  0
LINE
  5
334
100
AcDbEntity
  8
00_COMPONENTS_1
100
AcDbLine
 62
7
  6
CONTINUOUS
 10
710.4132479972
 20
299.7406471818
 11
710.4132479972
 21
299.940406664
  0
LINE
  5
335
100
AcDbEntity
  8
00_COMPONENTS_1
100
AcDbLine
 62
7
  6
CONTINUOUS
 10
711.4432479972
 20
299.940406664
 11
711.4432479972
 21
299.7406471818
  0
LINE
  5
336
100
AcDbEntity
  8
00_COMPONENTS_1
100
AcDbLine
 62
7
  6
CONTINUOUS
 10
710.1059685987
 20
299.7359781666
 11
710.1059502943
 21
299.7352519287
  0
LINE
  5
337
100
AcDbEntity
  8
00_COMPONENTS_1
100
AcDbLine
 62
7
  6
CONTINUOUS
 10
710.1059685987
 20
299.7359781666
 11
710.1069347048
 21
299.767712267
  0
LINE
  5
338
100
AcDbEntity
  8
00_COMPONENTS_1
100
AcDbLine
 62
7
  6
CONTINUOUS
 10
831.7504182254
 20
299.7402689762
 11
831.7497472913
 21
299.762307433
  0
LINE
  5
339
100
AcDbEntity
  8
00_COMPONENTS_1
100
AcDbLine
 62
7
  6
CONTINUOUS
 10
831.7504182254
 20
299.7402689762
 11
831.7505457002
 21
299.7352519287
  0
LINE
  5
33A
100
AcDbEntity
  8
00_COMPONENTS_1
100
AcDbLine
 62
7
  6
CONTINUOUS
 10
830.4132479972
 20
299.7406471818
 11
830.4132479972
 21
299.940406664
  0
LINE
  5
33B
100
AcDbEntity
  8
00_COMPONENTS_1
100
AcDbLine
 62
7
  6
CONTINUOUS
 10
831.4432479972
 20
299.940406664
 11
831.4432479972
 21
299.7406471818
  0
LINE
  5
33C
100
AcDbEntity
  8
00_COMPONENTS_1
100
AcDbLine
 62
7
  6
CONTINUOUS
 10
830.1059685987
 20
299.7359781666
 11
830.1059502943
 21
299.7352519287
  0
LINE
  5
33D
100
AcDbEntity
  8
00_COMPONENTS_1
100
AcDbLine
 62
7
  6
CONTINUOUS
 10
830.1059685987
 20
299.7359781666
 11
830.1069347048
 21
299.767712267
  0
LINE
  5
33E
100
AcDbEntity
  8
00_COMPONENTS_1
100
AcDbLine
 62
7
  6
CONTINUOUS
 10
877.7504182254
 20
299.7402689762
 11
877.7497472913
 21
299.762307433
  0
LINE
  5
33F
100
AcDbEntity
  8
00_COMPONENTS_1
100
AcDbLine
 62
7
  6
CONTINUOUS
 10
877.7504182254
 20
299.7402689762
 11
877.7505457002
 21
299.7352519287
  0
LINE
  5
340
100
AcDbEntity
  8
00_COMPONENTS_1
100
AcDbLine
 62
7
  6
CONTINUOUS
 10
876.4132479972
 20
299.7406471818
 11
876.4132479972
 21
299.940406664
  0
LINE
  5
341
100
AcDbEntity
  8
00_COMPONENTS_1
100
AcDbLine
 62
7
  6
CONTINUOUS
 10
877.4432479972
 20
299.940406664
 11
877.4432479972
 21
299.7406471818
  0
LINE
  5
342
100
AcDbEntity
  8
00_COMPONENTS_1
100
AcDbLine
 62
7
  6
CONTINUOUS
 10
876.1059685987
 20
299.7359781666
 11
876.1059502943
 21
299.7352519287
  0
LINE
  5
343
100
AcDbEntity
  8
00_COMPONENTS_1
100
AcDbLine
 62
7
  6
CONTINUOUS
 10
876.1059685987
 20
299.7359781666
 11
876.1069347048
 21
299.767712267
  0
LINE
  5
344
100
AcDbEntity
  8
00_COMPONENTS_46
100
AcDbLine
 62
7
  6
CONTINUOUS
 10
900.9113026675
 20
1096.3603728134
 11
904.6548878172
 21
1096.7647480713
  0
LINE
  5
345
100
AcDbEntity
  8
00_COMPONENTS_46
100
AcDbLine
 62
7
  6
CONTINUOUS
 10
118.5147405739
 20
1096.7647480713
 11
122.2583257237
 21
1096.3603728134
  0
LINE
  5
346
100
AcDbEntity
  8
00_COMPONENTS_46
100
AcDbLine
 62
7
  6
CONTINUOUS
 10
899.0758580712
 20
304.4647480713
 11
899.0758580712
 21
1095.0647480713
  0
LINE
  5
347
100
AcDbEntity
  8
00_COMPONENTS_46
100
AcDbLine
 62
7
  6
CONTINUOUS
 10
899.9792998056
 20
1096.9001926676
 11
899.9792998056
 21
1096.0398280131
  0
LINE
  5
348
100
AcDbEntity
  8
00_COMPONENTS_46
100
AcDbLine
 62
7
  6
CONTINUOUS
 10
899.9792998056
 20
302.629303475
 11
899.9792998056
 21
303.4896681295
  0
LINE
  5
349
100
AcDbEntity
  8
00_COMPONENTS_46
100
AcDbLine
 62
7
  6
CONTINUOUS
 10
900.9113026675
 20
1096.3603728134
 11
900.9113026675
 21
303.1691233292
  0
LINE
  5
34A
100
AcDbEntity
  8
00_COMPONENTS_46
100
AcDbLine
 62
7
  6
CONTINUOUS
 10
902.0397176237
 20
1098.2647480713
 11
902.0397176237
 21
1096.7647480713
  0
LINE
  5
34B
100
AcDbEntity
  8
00_COMPONENTS_46
100
AcDbLine
 62
7
  6
CONTINUOUS
 10
902.0397176237
 20
302.7647480713
 11
902.0397176237
 21
301.2647480713
  0
LINE
  5
34C
100
AcDbEntity
  8
00_COMPONENTS_46
100
AcDbLine
 62
7
  6
CONTINUOUS
 10
907.8598941374
 20
1098.2647480713
 11
907.8598941374
 21
1096.7647480713
  0
LINE
  5
34D
100
AcDbEntity
  8
00_COMPONENTS_46
100
AcDbLine
 62
7
  6
CONTINUOUS
 10
907.8598941374
 20
301.2647480713
 11
907.8598941374
 21
302.7647480713
  0
LINE
  5
34E
100
AcDbEntity
  8
00_COMPONENTS_46
100
AcDbLine
 62
7
  6
CONTINUOUS
 10
908.5848141956
 20
1098.2647480713
 11
908.5848141956
 21
1096.7647480713
  0
LINE
  5
34F
100
AcDbEntity
  8
00_COMPONENTS_46
100
AcDbLine
 62
7
  6
CONTINUOUS
 10
908.5848141956
 20
301.2647480713
 11
908.5848141956
 21
302.7647480713
  0
LINE
  5
350
100
AcDbEntity
  8
00_COMPONENTS_46
100
AcDbLine
 62
7
  6
CONTINUOUS
 10
908.7202587919
 20
302.7647480713
 11
908.7202587919
 21
1096.7647480713
  0
LINE
  5
351
100
AcDbEntity
  8
00_COMPONENTS_55
100
AcDbLine
 62
7
  6
CONTINUOUS
 10
909.4282479972
 20
1100.2647480713
 11
909.4282479972
 21
1098.7647480713
  0
LINE
  5
352
100
AcDbEntity
  8
00_COMPONENTS_55
100
AcDbLine
 62
7
  6
CONTINUOUS
 10
909.4282479972
 20
301.7647480713
 11
909.4282479972
 21
300.2647480713
  0
LINE
  5
353
100
AcDbEntity
  8
00_COMPONENTS_46
100
AcDbLine
 62
7
  6
CONTINUOUS
 10
910.0848141956
 20
1096.7647480713
 11
910.0848141956
 21
302.7647480713
  0
LINE
  5
354
100
AcDbEntity
  8
00_COMPONENTS_55
100
AcDbLine
 62
7
  6
CONTINUOUS
 10
910.9282479972
 20
1098.7647480713
 11
910.9282479972
 21
301.7647480713
  0
LINE
  5
355
100
AcDbEntity
  8
00_COMPONENTS_46
100
AcDbLine
 62
7
  6
CONTINUOUS
 10
899.0758580712
 20
1095.0647480713
 11
124.09377032
 21
1095.0647480713
  0
LINE
  5
356
100
AcDbEntity
  8
00_COMPONENTS_46
100
AcDbLine
 62
7
  6
CONTINUOUS
 10
122.2583257237
 20
1096.3603728135
 11
123.1186903782
 21
1096.3603728135
  0
LINE
  5
357
100
AcDbEntity
  8
00_COMPONENTS_46
100
AcDbLine
 62
7
  6
CONTINUOUS
 10
900.050938013
 20
1096.3603728135
 11
900.9113026675
 21
1096.3603728135
  0
LINE
  5
358
100
AcDbEntity
  8
00_COMPONENTS_46
100
AcDbLine
 62
7
  6
CONTINUOUS
 10
910.0848141956
 20
1096.7647480713
 11
904.6548878172
 21
1096.7647480713
  0
LINE
  5
359
100
AcDbEntity
  8
00_COMPONENTS_46
100
AcDbLine
 62
7
  6
CONTINUOUS
 10
113.0848141956
 20
1096.7647480713
 11
118.5147405739
 21
1096.7647480713
  0
LINE
  5
35A
100
AcDbEntity
  8
00_COMPONENTS_46
100
AcDbLine
 62
7
  6
CONTINUOUS
 10
119.3751052286
 20
1096.7647480713
 11
121.1299107675
 21
1096.7647480713
  0
LINE
  5
35B
100
AcDbEntity
  8
00_COMPONENTS_46
100
AcDbLine
 62
7
  6
CONTINUOUS
 10
902.0397176237
 20
1096.7647480713
 11
903.7945231626
 21
1096.7647480713
  0
LINE
  5
35C
100
AcDbEntity
  8
00_COMPONENTS_55
100
AcDbLine
 62
7
  6
CONTINUOUS
 10
114.4493696002
 20
1097.0647480704
 11
114.1282479972
 21
1097.0647480713
  0
LINE
  5
35D
100
AcDbEntity
  8
00_COMPONENTS_46
100
AcDbLine
 62
7
  6
CONTINUOUS
 10
114.5848141956
 20
1098.2647480713
 11
908.5848141956
 21
1098.2647480713
  0
LINE
  5
35E
100
AcDbEntity
  8
00_COMPONENTS_55
100
AcDbLine
 62
7
  6
CONTINUOUS
 10
110.9282479972
 20
1098.7647480713
 11
112.4282479972
 21
1098.7647480713
  0
LINE
  5
35F
100
AcDbEntity
  8
00_COMPONENTS_55
100
AcDbLine
 62
7
  6
CONTINUOUS
 10
909.4282479972
 20
1098.7647480713
 11
910.9282479972
 21
1098.7647480713
  0
LINE
  5
360
100
AcDbEntity
  8
00_COMPONENTS_55
100
AcDbLine
 62
7
  6
CONTINUOUS
 10
112.4282479972
 20
1100.2647480713
 11
909.4282479972
 21
1100.2647480713
  0
ARC
  5
361
100
AcDbEntity
  8
00_COMPONENTS_55
100
AcDbCircle
 62
7
  6
CONTINUOUS
 10
104.6970257186
 20
305.2364131873
 40
9.4828490603
100
AcDbArc
 50
335.8949189002
 51
337.415940808
  0
ARC
  5
362
100
AcDbEntity
  8
00_COMPONENTS_46
100
AcDbCircle
 62
7
  6
CONTINUOUS
 10
43.0491178827
 20
341.7878643704
 40
89.2258409821
100
AcDbArc
 50
334.8144075215
 51
335.2727316342
  0
ARC
  5
363
100
AcDbEntity
  8
00_COMPONENTS_55
100
AcDbCircle
 62
7
  6
CONTINUOUS
 10
80.1424673064
 20
314.4379258828
 40
35.7089382831
100
AcDbArc
 50
340.3505027953
 51
340.8334808609
  0
ARC
  5
364
100
AcDbEntity
  8
00_COMPONENTS_55
100
AcDbCircle
 62
7
  6
CONTINUOUS
 10
121.2972186741
 20
280.1130625099
 40
24.4148462371
100
AcDbArc
 50
109.8695594793
 51
110.1438312332
  0
ARC
  5
365
100
AcDbEntity
  8
00_COMPONENTS_1
100
AcDbCircle
 62
7
  6
CONTINUOUS
 10
144.9282479972
 20
307.5155293213
 40
7.85078125
100
AcDbArc
 50
285.228108912
 51
292.5424971353
  0
ARC
  5
366
100
AcDbEntity
  8
00_COMPONENTS_1
100
AcDbCircle
 62
7
  6
CONTINUOUS
 10
144.9282479972
 20
307.5155293213
 40
7.85078125
100
AcDbArc
 50
247.4575028647
 51
254.771891088
  0
ARC
  5
367
100
AcDbEntity
  8
00_COMPONENTS_1
100
AcDbCircle
 62
7
  6
CONTINUOUS
 10
190.9282479972
 20
307.5155293213
 40
7.85078125
100
AcDbArc
 50
285.228108912
 51
292.5424971354
  0
ARC
  5
368
100
AcDbEntity
  8
00_COMPONENTS_1
100
AcDbCircle
 62
7
  6
CONTINUOUS
 10
190.9282479972
 20
307.5155293213
 40
7.85078125
100
AcDbArc
 50
247.4575028646
 51
254.771891088
  0
ARC
  5
369
100
AcDbEntity
  8
00_COMPONENTS_1
100
AcDbCircle
 62
7
  6
CONTINUOUS
 10
144.9282479972
 20
307.5155293213
 40
7.8338714079
100
AcDbArc
 50
277.035724314
 51
284.7669642634
  0
ARC
  5
36A
100
AcDbEntity
  8
00_COMPONENTS_1
100
AcDbCircle
 62
7
  6
CONTINUOUS
 10
144.9282479972
 20
307.5155293213
 40
7.8338714079
100
AcDbArc
 50
255.2330357366
 51
262.964275686
  0
ARC
  5
36B
100
AcDbEntity
  8
00_COMPONENTS_1
100
AcDbCircle
 62
7
  6
CONTINUOUS
 10
190.9282479972
 20
307.5155293213
 40
7.8338714079
100
AcDbArc
 50
277.035724314
 51
284.7669642634
  0
ARC
  5
36C
100
AcDbEntity
  8
00_COMPONENTS_1
100
AcDbCircle
 62
7
  6
CONTINUOUS
 10
190.9282479972
 20
307.5155293213
 40
7.8338714079
100
AcDbArc
 50
255.2330357366
 51
262.964275686
  0
ARC
  5
36D
100
AcDbEntity
  8
00_COMPONENTS_1
100
AcDbCircle
 62
7
  6
CONTINUOUS
 10
144.928644006
 20
307.5409564942
 40
7.8329698838
100
AcDbArc
 50
264.9359013644
 51
265.15473716
  0
ARC
  5
36E
100
AcDbEntity
  8
00_COMPONENTS_1
100
AcDbCircle
 62
7
  6
CONTINUOUS
 10
190.928644006
 20
307.5409564942
 40
7.8329698838
100
AcDbArc
 50
264.9359013644
 51
265.15473716
  0
ARC
  5
36F
100
AcDbEntity
  8
00_COMPONENTS_1
100
AcDbCircle
 62
7
  6
CONTINUOUS
 10
190.9278582421
 20
307.5408821895
 40
7.8328953166
100
AcDbArc
 50
274.8456460972
 51
275.2036328879
  0
ARC
  5
370
100
AcDbEntity
  8
00_COMPONENTS_1
100
AcDbCircle
 62
7
  6
CONTINUOUS
 10
144.9278582427
 20
307.5408821821
 40
7.8328953092
100
AcDbArc
 50
274.8456460971
 51
275.2036328881
  0
ARC
  5
371
100
AcDbEntity
  8
00_COMPONENTS_1
100
AcDbCircle
 62
7
  6
CONTINUOUS
 10
145.1665787895
 20
304.898799671
 40
5.2406021026
100
AcDbArc
 50
258.3961318339
 51
260.1162604875
  0
ARC
  5
372
100
AcDbEntity
  8
00_COMPONENTS_1
100
AcDbCircle
 62
7
  6
CONTINUOUS
 10
191.1665787895
 20
304.8987996711
 40
5.2406021027
100
AcDbArc
 50
258.3961318339
 51
260.1162604875
  0
ARC
  5
373
100
AcDbEntity
  8
00_COMPONENTS_1
100
AcDbCircle
 62
7
  6
CONTINUOUS
 10
144.7107709495
 20
304.8936220371
 40
5.2361530935
100
AcDbArc
 50
280.2028306771
 51
281.402602375
  0
ARC
  5
374
100
AcDbEntity
  8
00_COMPONENTS_1
100
AcDbCircle
 62
7
  6
CONTINUOUS
 10
190.7107709496
 20
304.8936220367
 40
5.236153093
100
AcDbArc
 50
280.202830677
 51
281.4026023751
  0
ARC
  5
375
100
AcDbEntity
  8
00_COMPONENTS_1
100
AcDbCircle
 62
7
  6
CONTINUOUS
 10
191.1456019658
 20
304.8929643811
 40
5.2354840357
100
AcDbArc
 50
258.6065941212
 51
259.7972201015
  0
ARC
  5
376
100
AcDbEntity
  8
00_COMPONENTS_1
100
AcDbCircle
 62
7
  6
CONTINUOUS
 10
145.1456019655
 20
304.8929643793
 40
5.2354840339
100
AcDbArc
 50
258.606594121
 51
259.7972201017
  0
ARC
  5
377
100
AcDbEntity
  8
00_COMPONENTS_1
100
AcDbCircle
 62
7
  6
CONTINUOUS
 10
144.1903844751
 20
303.6670450797
 40
3.932717712
100
AcDbArc
 50
271.2424173978
 51
273.2486398698
  0
ARC
  5
378
100
AcDbEntity
  8
00_COMPONENTS_1
100
AcDbCircle
 62
7
  6
CONTINUOUS
 10
145.6661115193
 20
303.6670450797
 40
3.932717712
100
AcDbArc
 50
266.7513601302
 51
268.7575826022
  0
ARC
  5
379
100
AcDbEntity
  8
00_COMPONENTS_1
100
AcDbCircle
 62
7
  6
CONTINUOUS
 10
190.1903844751
 20
303.66704508
 40
3.9327177123
100
AcDbArc
 50
271.2424173978
 51
273.2486398697
  0
ARC
  5
37A
100
AcDbEntity
  8
00_COMPONENTS_1
100
AcDbCircle
 62
7
  6
CONTINUOUS
 10
191.6661115193
 20
303.66704508
 40
3.9327177123
100
AcDbArc
 50
266.7513601303
 51
268.7575826022
  0
ARC
  5
37B
100
AcDbEntity
  8
00_COMPONENTS_1
100
AcDbCircle
 62
7
  6
CONTINUOUS
 10
144.190644534
 20
303.6386099181
 40
3.9042767202
100
AcDbArc
 50
266.7410506153
 51
268.7570032812
  0
ARC
  5
37C
100
AcDbEntity
  8
00_COMPONENTS_1
100
AcDbCircle
 62
7
  6
CONTINUOUS
 10
145.6658514604
 20
303.6386099182
 40
3.9042767202
100
AcDbArc
 50
271.2429967188
 51
273.2589493847
  0
ARC
  5
37D
100
AcDbEntity
  8
00_COMPONENTS_1
100
AcDbCircle
 62
7
  6
CONTINUOUS
 10
190.190644534
 20
303.6386099182
 40
3.9042767202
100
AcDbArc
 50
266.7410506153
 51
268.7570032812
  0
ARC
  5
37E
100
AcDbEntity
  8
00_COMPONENTS_1
100
AcDbCircle
 62
7
  6
CONTINUOUS
 10
191.6658514604
 20
303.6386099182
 40
3.9042767202
100
AcDbArc
 50
271.2429967188
 51
273.2589493847
  0
ARC
  5
37F
100
AcDbEntity
  8
00_COMPONENTS_1
100
AcDbCircle
 62
7
  6
CONTINUOUS
 10
144.723189999
 20
302.7272152039
 40
3.0542529807
100
AcDbArc
 50
255.8034602072
 51
258.3410378324
  0
ARC
  5
380
100
AcDbEntity
  8
00_COMPONENTS_1
100
AcDbCircle
 62
7
  6
CONTINUOUS
 10
190.723189999
 20
302.7272152039
 40
3.0542529807
100
AcDbArc
 50
255.8034602072
 51
258.3410378324
  0
ARC
  5
381
100
AcDbEntity
  8
00_COMPONENTS_15
100
AcDbCircle
 62
7
  6
CONTINUOUS
 10
149.9210688539
 20
688.171278671
 40
7.9926529918
100
AcDbArc
 50
275.6167067491
 51
276.385931237
  0
ARC
  5
382
100
AcDbEntity
  8
00_COMPONENTS_15
100
AcDbCircle
 62
7
  6
CONTINUOUS
 10
159.4878753309
 20
680.4546632545
 40
3.7619302676
100
AcDbArc
 50
279.108080427
 51
280.0705889127
  0
ARC
  5
383
100
AcDbEntity
  8
00_COMPONENTS_15
100
AcDbCircle
 62
7
  6
CONTINUOUS
 10
160.6804440798
 20
680.2830720199
 40
3.5928678258
100
AcDbArc
 50
259.4716633116
 51
260.4342044475
  0
ARC
  5
384
100
AcDbEntity
  8
00_COMPONENTS_15
100
AcDbCircle
 62
7
  6
CONTINUOUS
 10
150.0132649865
 20
679.7752696184
 40
2.373892441
100
AcDbArc
 50
310.675354582
 51
312.5204124782
  0
ARC
  5
385
100
AcDbEntity
  8
00_COMPONENTS_15
100
AcDbCircle
 62
7
  6
CONTINUOUS
 10
92.3848141956
 20
694.9647480713
 40
86.2
100
AcDbArc
 50
346.803771047
 51
13.1962289686
  0
ARC
  5
386
100
AcDbEntity
  8
00_COMPONENTS_15
100
AcDbCircle
 62
7
  6
CONTINUOUS
 10
92.3848141956
 20
694.9647480713
 40
86.1252835857
100
AcDbArc
 50
349.8142305213
 51
10.1857701553
  0
ARC
  5
387
100
AcDbEntity
  8
00_COMPONENTS_15
100
AcDbCircle
 62
7
  6
CONTINUOUS
 10
149.9211449127
 20
701.7551443304
 40
7.9957007963
100
AcDbArc
 50
83.6169726534
 51
84.385928819
  0
ARC
  5
388
100
AcDbEntity
  8
00_COMPONENTS_15
100
AcDbCircle
 62
7
  6
CONTINUOUS
 10
161.613709274
 20
700.2418866038
 40
7.2756627478
100
AcDbArc
 50
152.7469624494
 51
154.921734819
  0
ARC
  5
389
100
AcDbEntity
  8
00_COMPONENTS_15
100
AcDbCircle
 62
7
  6
CONTINUOUS
 10
161.6121270303
 20
699.2868569916
 40
7.2739110049
100
AcDbArc
 50
205.0787225114
 51
207.2534668384
  0
ARC
  5
38A
100
AcDbEntity
  8
00_COMPONENTS_15
100
AcDbCircle
 62
7
  6
CONTINUOUS
 10
161.793565868
 20
693.1095450341
 40
4.1583015833
100
AcDbArc
 50
244.8132621786
 51
246.6539147466
  0
ARC
  5
38B
100
AcDbEntity
  8
00_COMPONENTS_7
100
AcDbCircle
 62
7
  6
CONTINUOUS
 10
167.6739124862
 20
685.6860089868
 40
20.2013871603
100
AcDbArc
 50
129.0718594826
 51
129.2599877366
  0
ARC
  5
38C
100
AcDbEntity
  8
00_COMPONENTS_15
100
AcDbCircle
 62
7
  6
CONTINUOUS
 10
175.2484834782
 20
688.1743518099
 40
7.9957007939
100
AcDbArc
 50
263.6169726534
 51
264.3859288192
  0
ARC
  5
38D
100
AcDbEntity
  8
00_COMPONENTS_15
100
AcDbCircle
 62
7
  6
CONTINUOUS
 10
170.6842624198
 20
682.3853281075
 40
4.2575635743
100
AcDbArc
 50
261.0775877072
 51
261.9652525379
  0
ARC
  5
38E
100
AcDbEntity
  8
00_COMPONENTS_15
100
AcDbCircle
 62
7
  6
CONTINUOUS
 10
165.6817145802
 20
680.4544745237
 40
3.7617486924
100
AcDbArc
 50
259.9294458203
 51
260.8922895121
  0
ARC
  5
38F
100
AcDbEntity
  8
00_COMPONENTS_15
100
AcDbCircle
 62
7
  6
CONTINUOUS
 10
169.4866611302
 20
681.8344459174
 40
3.7140826585
100
AcDbArc
 50
279.3358965961
 51
280.2209598191
  0
ARC
  5
390
100
AcDbEntity
  8
00_COMPONENTS_15
100
AcDbCircle
 62
7
  6
CONTINUOUS
 10
164.4892723148
 20
680.282662932
 40
3.5924587384
100
AcDbArc
 50
279.5656829952
 51
280.5291031257
  0
ARC
  5
391
100
AcDbEntity
  8
00_COMPONENTS_15
100
AcDbCircle
 62
7
  6
CONTINUOUS
 10
175.1586297343
 20
679.7807944932
 40
2.3794926577
100
AcDbArc
 50
227.5292927169
 51
229.3697526545
  0
ARC
  5
392
100
AcDbEntity
  8
00_COMPONENTS_15
100
AcDbCircle
 62
7
  6
CONTINUOUS
 10
232.7848141956
 20
694.9647480713
 40
86.2
100
AcDbArc
 50
166.803771047
 51
193.1962289686
  0
ARC
  5
393
100
AcDbEntity
  8
00_COMPONENTS_15
100
AcDbCircle
 62
7
  6
CONTINUOUS
 10
232.7848141956
 20
694.9647480713
 40
86.1252835857
100
AcDbArc
 50
169.8142305213
 51
190.1857701553
  0
ARC
  5
394
100
AcDbEntity
  8
00_COMPONENTS_15
100
AcDbCircle
 62
7
  6
CONTINUOUS
 10
162.5848141956
 20
694.9647480713
 40
25.0
100
AcDbArc
 50
60.0421752605
 51
119.9578243239
  0
ARC
  5
395
100
AcDbEntity
  8
00_COMPONENTS_15
100
AcDbCircle
 62
7
  6
CONTINUOUS
 10
162.5848141956
 20
694.9647480713
 40
25.0
100
AcDbArc
 50
240.0421756609
 51
299.9578254398
  0
ARC
  5
396
100
AcDbEntity
  8
00_COMPONENTS_15
100
AcDbCircle
 62
7
  6
CONTINUOUS
 10
162.5848141956
 20
694.9647480713
 40
24.970714909
100
AcDbArc
 50
62.2651737638
 51
117.7348188108
  0
ARC
  5
397
100
AcDbEntity
  8
00_COMPONENTS_15
100
AcDbCircle
 62
7
  6
CONTINUOUS
 10
162.5848141956
 20
694.9647480713
 40
24.970714909
100
AcDbArc
 50
242.2651737642
 51
297.7348168119
  0
ARC
  5
398
100
AcDbEntity
  8
00_COMPONENTS_15
100
AcDbCircle
 62
7
  6
CONTINUOUS
 10
162.5848141956
 20
694.9647480713
 40
24.7995674796
100
AcDbArc
 50
62.2650132426
 51
117.7350084937
  0
ARC
  5
399
100
AcDbEntity
  8
00_COMPONENTS_15
100
AcDbCircle
 62
7
  6
CONTINUOUS
 10
162.5848141956
 20
694.9647480713
 40
24.7995674796
100
AcDbArc
 50
242.2650132428
 51
297.7350048838
  0
ARC
  5
39A
100
AcDbEntity
  8
00_COMPONENTS_15
100
AcDbCircle
 62
7
  6
CONTINUOUS
 10
162.5848141956
 20
699.7647480713
 40
8.470583972
100
AcDbArc
 50
48.4048140791
 51
131.5951858231
  0
ARC
  5
39B
100
AcDbEntity
  8
00_COMPONENTS_15
100
AcDbCircle
 62
7
  6
CONTINUOUS
 10
162.5848141956
 20
699.7647480713
 40
8.470583972
100
AcDbArc
 50
228.4048141085
 51
311.5951858105
  0
ARC
  5
39C
100
AcDbEntity
  8
00_COMPONENTS_15
100
AcDbCircle
 62
7
  6
CONTINUOUS
 10
162.5848141956
 20
699.7647480713
 40
8.2706144331
100
AcDbArc
 50
48.4048135249
 51
131.5951862162
  0
ARC
  5
39D
100
AcDbEntity
  8
00_COMPONENTS_15
100
AcDbCircle
 62
7
  6
CONTINUOUS
 10
162.5848141956
 20
699.7647480713
 40
8.270614433
100
AcDbArc
 50
228.4048140432
 51
311.5951862713
  0
ARC
  5
39E
100
AcDbEntity
  8
00_COMPONENTS_15
100
AcDbCircle
 62
7
  6
CONTINUOUS
 10
175.2485595374
 20
701.7582174716
 40
7.9926529918
100
AcDbArc
 50
95.6167067493
 51
96.3859312372
  0
ARC
  5
39F
100
AcDbEntity
  8
00_COMPONENTS_7
100
AcDbCircle
 62
7
  6
CONTINUOUS
 10
162.5848141956
 20
699.7647480713
 40
7.8103594806
100
AcDbArc
 50
191.8565327519
 51
348.1434672481
  0
ARC
  5
3A0
100
AcDbEntity
  8
00_COMPONENTS_7
100
AcDbCircle
 62
7
  6
CONTINUOUS
 10
162.5848141956
 20
699.7647480713
 40
7.8103594806
100
AcDbArc
 50
11.8565327519
 51
168.1434672481
  0
ARC
  5
3A1
100
AcDbEntity
  8
00_COMPONENTS_15
100
AcDbCircle
 62
7
  6
CONTINUOUS
 10
163.5559191142
 20
699.2876095363
 40
7.2756627494
100
AcDbArc
 50
332.7469624782
 51
334.9217348496
  0
ARC
  5
3A2
100
AcDbEntity
  8
00_COMPONENTS_15
100
AcDbCircle
 62
7
  6
CONTINUOUS
 10
163.557501352
 20
700.2426391616
 40
7.273911008
100
AcDbArc
 50
25.0787223977
 51
27.2534667323
  0
ARC
  5
3A3
100
AcDbEntity
  8
00_COMPONENTS_15
100
AcDbCircle
 62
7
  6
CONTINUOUS
 10
162.5848141956
 20
694.8647480713
 40
6.0034300864
100
AcDbArc
 50
188.8709384545
 51
351.1290531277
  0
ARC
  5
3A4
100
AcDbEntity
  8
00_COMPONENTS_15
100
AcDbCircle
 62
7
  6
CONTINUOUS
 10
162.5848141956
 20
694.8647480713
 40
5.8034605474
100
AcDbArc
 50
194.3133471025
 51
345.6866527695
  0
ARC
  5
3A5
100
AcDbEntity
  8
00_COMPONENTS_7
100
AcDbCircle
 62
7
  6
CONTINUOUS
 10
162.5848141956
 20
699.7647480713
 40
4.8047303896
100
AcDbArc
 50
22.6542389843
 51
157.3458731654
  0
ARC
  5
3A6
100
AcDbEntity
  8
00_COMPONENTS_15
100
AcDbCircle
 62
7
  6
CONTINUOUS
 10
163.3761052029
 20
693.1094654652
 40
4.1582114797
100
AcDbArc
 50
293.3459806046
 51
295.1865923324
  0
CIRCLE
  5
3A7
100
AcDbEntity
  8
00_COMPONENTS_7
100
AcDbCircle
 62
7
  6
CONTINUOUS
 10
162.5848141956
 20
699.7647480713
 40
1.3952696104
  0
ARC
  5
3A8
100
AcDbEntity
  8
00_COMPONENTS_1
100
AcDbCircle
 62
7
  6
CONTINUOUS
 10
311.1665787895
 20
304.8987996709
 40
5.2406021025
100
AcDbArc
 50
258.3961318339
 51
260.1162604875
  0
ARC
  5
3A9
100
AcDbEntity
  8
00_COMPONENTS_1
100
AcDbCircle
 62
7
  6
CONTINUOUS
 10
310.7107709495
 20
304.8936220371
 40
5.2361530935
100
AcDbArc
 50
280.2028306771
 51
281.402602375
  0
ARC
  5
3AA
100
AcDbEntity
  8
00_COMPONENTS_1
100
AcDbCircle
 62
7
  6
CONTINUOUS
 10
311.1456019658
 20
304.8929643811
 40
5.2354840357
100
AcDbArc
 50
258.6065941212
 51
259.7972201015
  0
ARC
  5
3AB
100
AcDbEntity
  8
00_COMPONENTS_1
100
AcDbCircle
 62
7
  6
CONTINUOUS
 10
310.1903844751
 20
303.66704508
 40
3.9327177123
100
AcDbArc
 50
271.2424173978
 51
273.2486398697
  0
ARC
  5
3AC
100
AcDbEntity
  8
00_COMPONENTS_1
100
AcDbCircle
 62
7
  6
CONTINUOUS
 10
311.6661115193
 20
303.66704508
 40
3.9327177123
100
AcDbArc
 50
266.7513601303
 51
268.7575826022
  0
ARC
  5
3AD
100
AcDbEntity
  8
00_COMPONENTS_1
100
AcDbCircle
 62
7
  6
CONTINUOUS
 10
310.190644534
 20
303.6386099182
 40
3.9042767202
100
AcDbArc
 50
266.7410506153
 51
268.7570032812
  0
ARC
  5
3AE
100
AcDbEntity
  8
00_COMPONENTS_1
100
AcDbCircle
 62
7
  6
CONTINUOUS
 10
311.6658514604
 20
303.6386099182
 40
3.9042767202
100
AcDbArc
 50
271.2429967188
 51
273.2589493847
  0
ARC
  5
3AF
100
AcDbEntity
  8
00_COMPONENTS_1
100
AcDbCircle
 62
7
  6
CONTINUOUS
 10
310.723189999
 20
302.7272152038
 40
3.0542529806
100
AcDbArc
 50
255.8034602071
 51
258.3410378325
  0
ARC
  5
3B0
100
AcDbEntity
  8
00_COMPONENTS_1
100
AcDbCircle
 62
7
  6
CONTINUOUS
 10
310.9282479972
 20
307.5155293213
 40
7.85078125
100
AcDbArc
 50
285.228108912
 51
292.5424971354
  0
ARC
  5
3B1
100
AcDbEntity
  8
00_COMPONENTS_1
100
AcDbCircle
 62
7
  6
CONTINUOUS
 10
310.9282479972
 20
307.5155293213
 40
7.85078125
100
AcDbArc
 50
247.4575028646
 51
254.771891088
  0
ARC
  5
3B2
100
AcDbEntity
  8
00_COMPONENTS_1
100
AcDbCircle
 62
7
  6
CONTINUOUS
 10
310.9282479972
 20
307.5155293213
 40
7.8338714079
100
AcDbArc
 50
277.035724314
 51
284.7669642634
  0
ARC
  5
3B3
100
AcDbEntity
  8
00_COMPONENTS_1
100
AcDbCircle
 62
7
  6
CONTINUOUS
 10
310.9282479972
 20
307.5155293213
 40
7.8338714079
100
AcDbArc
 50
255.2330357366
 51
262.964275686
  0
ARC
  5
3B4
100
AcDbEntity
  8
00_COMPONENTS_1
100
AcDbCircle
 62
7
  6
CONTINUOUS
 10
310.928644006
 20
307.5409564942
 40
7.8329698838
100
AcDbArc
 50
264.9359013644
 51
265.15473716
  0
ARC
  5
3B5
100
AcDbEntity
  8
00_COMPONENTS_1
100
AcDbCircle
 62
7
  6
CONTINUOUS
 10
310.9278582421
 20
307.5408821895
 40
7.8328953166
100
AcDbArc
 50
274.8456460972
 51
275.2036328879
  0
ARC
  5
3B6
100
AcDbEntity
  8
00_COMPONENTS_1
100
AcDbCircle
 62
7
  6
CONTINUOUS
 10
477.1665787895
 20
304.8987996709
 40
5.2406021025
100
AcDbArc
 50
258.3961318339
 51
260.1162604875
  0
ARC
  5
3B7
100
AcDbEntity
  8
00_COMPONENTS_1
100
AcDbCircle
 62
7
  6
CONTINUOUS
 10
431.1665787896
 20
304.8987996712
 40
5.2406021028
100
AcDbArc
 50
258.396131834
 51
260.1162604875
  0
ARC
  5
3B8
100
AcDbEntity
  8
00_COMPONENTS_1
100
AcDbCircle
 62
7
  6
CONTINUOUS
 10
476.7107709496
 20
304.8936220367
 40
5.236153093
100
AcDbArc
 50
280.202830677
 51
281.4026023751
  0
ARC
  5
3B9
100
AcDbEntity
  8
00_COMPONENTS_1
100
AcDbCircle
 62
7
  6
CONTINUOUS
 10
430.7107709496
 20
304.8936220367
 40
5.236153093
100
AcDbArc
 50
280.202830677
 51
281.4026023751
  0
ARC
  5
3BA
100
AcDbEntity
  8
00_COMPONENTS_1
100
AcDbCircle
 62
7
  6
CONTINUOUS
 10
477.1456019655
 20
304.8929643796
 40
5.2354840342
100
AcDbArc
 50
258.6065941211
 51
259.7972201017
  0
ARC
  5
3BB
100
AcDbEntity
  8
00_COMPONENTS_1
100
AcDbCircle
 62
7
  6
CONTINUOUS
 10
431.1456019656
 20
304.8929643798
 40
5.2354840343
100
AcDbArc
 50
258.6065941211
 51
259.7972201016
  0
ARC
  5
3BC
100
AcDbEntity
  8
00_COMPONENTS_1
100
AcDbCircle
 62
7
  6
CONTINUOUS
 10
476.1903844751
 20
303.6670450797
 40
3.932717712
100
AcDbArc
 50
271.2424173978
 51
273.2486398698
  0
ARC
  5
3BD
100
AcDbEntity
  8
00_COMPONENTS_1
100
AcDbCircle
 62
7
  6
CONTINUOUS
 10
477.6661115193
 20
303.6670450797
 40
3.932717712
100
AcDbArc
 50
266.7513601302
 51
268.7575826022
  0
ARC
  5
3BE
100
AcDbEntity
  8
00_COMPONENTS_1
100
AcDbCircle
 62
7
  6
CONTINUOUS
 10
430.1903844751
 20
303.66704508
 40
3.9327177123
100
AcDbArc
 50
271.2424173978
 51
273.2486398697
  0
ARC
  5
3BF
100
AcDbEntity
  8
00_COMPONENTS_1
100
AcDbCircle
 62
7
  6
CONTINUOUS
 10
431.6661115193
 20
303.66704508
 40
3.9327177123
100
AcDbArc
 50
266.7513601303
 51
268.7575826022
  0
ARC
  5
3C0
100
AcDbEntity
  8
00_COMPONENTS_1
100
AcDbCircle
 62
7
  6
CONTINUOUS
 10
476.190644534
 20
303.6386099181
 40
3.9042767202
100
AcDbArc
 50
266.7410506153
 51
268.7570032812
  0
ARC
  5
3C1
100
AcDbEntity
  8
00_COMPONENTS_1
100
AcDbCircle
 62
7
  6
CONTINUOUS
 10
477.6658514604
 20
303.6386099182
 40
3.9042767202
100
AcDbArc
 50
271.2429967188
 51
273.2589493847
  0
ARC
  5
3C2
100
AcDbEntity
  8
00_COMPONENTS_1
100
AcDbCircle
 62
7
  6
CONTINUOUS
 10
430.190644534
 20
303.6386099182
 40
3.9042767202
100
AcDbArc
 50
266.7410506153
 51
268.7570032812
  0
ARC
  5
3C3
100
AcDbEntity
  8
00_COMPONENTS_1
100
AcDbCircle
 62
7
  6
CONTINUOUS
 10
431.6658514604
 20
303.6386099182
 40
3.9042767202
100
AcDbArc
 50
271.2429967188
 51
273.2589493847
  0
ARC
  5
3C4
100
AcDbEntity
  8
00_COMPONENTS_1
100
AcDbCircle
 62
7
  6
CONTINUOUS
 10
476.723189999
 20
302.727215204
 40
3.0542529808
100
AcDbArc
 50
255.8034602072
 51
258.3410378324
  0
ARC
  5
3C5
100
AcDbEntity
  8
00_COMPONENTS_1
100
AcDbCircle
 62
7
  6
CONTINUOUS
 10
430.723189999
 20
302.7272152038
 40
3.0542529806
100
AcDbArc
 50
255.8034602071
 51
258.3410378325
  0
ARC
  5
3C6
100
AcDbEntity
  8
00_COMPONENTS_1
100
AcDbCircle
 62
7
  6
CONTINUOUS
 10
476.9282479972
 20
307.5155293213
 40
7.85078125
100
AcDbArc
 50
285.228108912
 51
292.5424971353
  0
ARC
  5
3C7
100
AcDbEntity
  8
00_COMPONENTS_1
100
AcDbCircle
 62
7
  6
CONTINUOUS
 10
476.9282479972
 20
307.5155293213
 40
7.85078125
100
AcDbArc
 50
247.4575028647
 51
254.771891088
  0
ARC
  5
3C8
100
AcDbEntity
  8
00_COMPONENTS_1
100
AcDbCircle
 62
7
  6
CONTINUOUS
 10
430.9282479972
 20
307.5155293213
 40
7.85078125
100
AcDbArc
 50
285.228108912
 51
292.5424971354
  0
ARC
  5
3C9
100
AcDbEntity
  8
00_COMPONENTS_1
100
AcDbCircle
 62
7
  6
CONTINUOUS
 10
430.9282479972
 20
307.5155293213
 40
7.85078125
100
AcDbArc
 50
247.4575028646
 51
254.771891088
  0
ARC
  5
3CA
100
AcDbEntity
  8
00_COMPONENTS_1
100
AcDbCircle
 62
7
  6
CONTINUOUS
 10
476.9282479972
 20
307.5155293213
 40
7.8338714079
100
AcDbArc
 50
277.035724314
 51
284.7669642634
  0
ARC
  5
3CB
100
AcDbEntity
  8
00_COMPONENTS_1
100
AcDbCircle
 62
7
  6
CONTINUOUS
 10
476.9282479972
 20
307.5155293213
 40
7.8338714079
100
AcDbArc
 50
255.2330357366
 51
262.964275686
  0
ARC
  5
3CC
100
AcDbEntity
  8
00_COMPONENTS_1
100
AcDbCircle
 62
7
  6
CONTINUOUS
 10
430.9282479972
 20
307.5155293213
 40
7.8338714079
100
AcDbArc
 50
277.035724314
 51
284.7669642634
  0
ARC
  5
3CD
100
AcDbEntity
  8
00_COMPONENTS_1
100
AcDbCircle
 62
7
  6
CONTINUOUS
 10
430.9282479972
 20
307.5155293213
 40
7.8338714079
100
AcDbArc
 50
255.2330357366
 51
262.964275686
  0
ARC
  5
3CE
100
AcDbEntity
  8
00_COMPONENTS_1
100
AcDbCircle
 62
7
  6
CONTINUOUS
 10
430.9286440062
 20
307.5409564965
 40
7.8329698861
100
AcDbArc
 50
264.9359013645
 51
265.15473716
  0
ARC
  5
3CF
100
AcDbEntity
  8
00_COMPONENTS_1
100
AcDbCircle
 62
7
  6
CONTINUOUS
 10
476.928644006
 20
307.5409564942
 40
7.8329698838
100
AcDbArc
 50
264.9359013644
 51
265.15473716
  0
ARC
  5
3D0
100
AcDbEntity
  8
00_COMPONENTS_1
100
AcDbCircle
 62
7
  6
CONTINUOUS
 10
430.9278582422
 20
307.5408821887
 40
7.8328953158
100
AcDbArc
 50
274.8456460971
 51
275.2036328879
  0
ARC
  5
3D1
100
AcDbEntity
  8
00_COMPONENTS_1
100
AcDbCircle
 62
7
  6
CONTINUOUS
 10
476.9278582425
 20
307.5408821847
 40
7.8328953118
100
AcDbArc
 50
274.8456460971
 51
275.2036328881
  0
ARC
  5
3D2
100
AcDbEntity
  8
00_COMPONENTS_7
100
AcDbCircle
 62
7
  6
CONTINUOUS
 10
157.4914836714
 20
713.8488776198
 40
20.208239634
100
AcDbArc
 50
309.0715423296
 51
309.251751669
  0
ARC
  5
3D3
100
AcDbEntity
  8
00_COMPONENTS_7
100
AcDbCircle
 62
7
  6
CONTINUOUS
 10
167.6748138478
 20
713.8461314498
 40
20.2040082204
100
AcDbArc
 50
230.7505959545
 51
230.9308825312
  0
ARC
  5
3D4
100
AcDbEntity
  8
00_COMPONENTS_46
100
AcDbCircle
 62
7
  6
CONTINUOUS
 10
108.2169903339
 20
1088.6472887408
 40
17.0987664435
100
AcDbArc
 50
26.7079280482
 51
27.3954964223
  0
ARC
  5
3D5
100
AcDbEntity
  8
00_COMPONENTS_46
100
AcDbCircle
 62
7
  6
CONTINUOUS
 10
112.3956337947
 20
1090.8281497227
 40
12.3852792118
100
AcDbArc
 50
27.332758818
 51
29.3578629113
  0
ARC
  5
3D6
100
AcDbEntity
  8
00_COMPONENTS_55
100
AcDbCircle
 62
7
  6
CONTINUOUS
 10
116.0664233117
 20
1106.8780987168
 40
9.8996605587
100
AcDbArc
 50
245.918505983
 51
247.8197529223
  0
ARC
  5
3D7
100
AcDbEntity
  8
00_COMPONENTS_46
100
AcDbCircle
 62
7
  6
CONTINUOUS
 10
130.6130341871
 20
1101.2882911911
 40
8.9693683536
100
AcDbArc
 50
213.326987123
 51
215.2532400846
  0
ARC
  5
3D8
100
AcDbEntity
  8
00_COMPONENTS_15
100
AcDbCircle
 62
7
  6
CONTINUOUS
 10
162.5848141956
 20
704.6647480713
 40
6.0034300864
100
AcDbArc
 50
8.8709384545
 51
171.1290531277
  0
ARC
  5
3D9
100
AcDbEntity
  8
00_COMPONENTS_15
100
AcDbCircle
 62
7
  6
CONTINUOUS
 10
162.5848141956
 20
704.6647480713
 40
5.8034605474
100
AcDbArc
 50
14.3133470538
 51
165.686652784
  0
ARC
  5
3DA
100
AcDbEntity
  8
00_COMPONENTS_15
100
AcDbCircle
 62
7
  6
CONTINUOUS
 10
154.4853659701
 20
707.5441680262
 40
4.2575635834
100
AcDbArc
 50
81.0775877076
 51
81.9652525363
  0
ARC
  5
3DB
100
AcDbEntity
  8
00_COMPONENTS_15
100
AcDbCircle
 62
7
  6
CONTINUOUS
 10
161.7935395663
 20
706.4200029324
 40
4.1582435487
100
AcDbArc
 50
113.3460356755
 51
115.1866594992
  0
ARC
  5
3DC
100
AcDbEntity
  8
00_COMPONENTS_15
100
AcDbCircle
 62
7
  6
CONTINUOUS
 10
163.3761581375
 20
706.4201571608
 40
4.1580744796
100
AcDbArc
 50
64.8134001858
 51
66.653999042
  0
ARC
  5
3DD
100
AcDbEntity
  8
00_COMPONENTS_15
100
AcDbCircle
 62
7
  6
CONTINUOUS
 10
159.4879222135
 20
709.4749849413
 40
3.7617727625
100
AcDbArc
 50
79.9296391069
 51
80.8924064118
  0
ARC
  5
3DE
100
AcDbEntity
  8
00_COMPONENTS_15
100
AcDbCircle
 62
7
  6
CONTINUOUS
 10
165.6816910917
 20
709.4750775646
 40
3.7616787181
100
AcDbArc
 50
99.1069717075
 51
100.070761528
  0
ARC
  5
3DF
100
AcDbEntity
  8
00_COMPONENTS_15
100
AcDbCircle
 62
7
  6
CONTINUOUS
 10
155.6829672571
 20
708.095050244
 40
3.7140826392
100
AcDbArc
 50
99.3358965831
 51
100.2209598107
  0
ARC
  5
3E0
100
AcDbEntity
  8
00_COMPONENTS_15
100
AcDbCircle
 62
7
  6
CONTINUOUS
 10
164.4891471275
 20
709.6461639838
 40
3.593125855
100
AcDbArc
 50
79.4725097354
 51
80.4335133954
  0
ARC
  5
3E1
100
AcDbEntity
  8
00_COMPONENTS_15
100
AcDbCircle
 62
7
  6
CONTINUOUS
 10
160.68036667
 20
709.6467570871
 40
3.5925338831
100
AcDbArc
 50
99.5656501413
 51
100.5289454412
  0
ARC
  5
3E2
100
AcDbEntity
  8
00_COMPONENTS_15
100
AcDbCircle
 62
7
  6
CONTINUOUS
 10
150.0109986568
 20
710.1487016493
 40
2.379492658
100
AcDbArc
 50
47.5292927169
 51
49.3697526543
  0
ARC
  5
3E3
100
AcDbEntity
  8
00_COMPONENTS_15
100
AcDbCircle
 62
7
  6
CONTINUOUS
 10
175.1563634046
 20
710.1542265244
 40
2.3738924408
100
AcDbArc
 50
130.675354582
 51
132.5204124784
  0
ARC
  5
3E4
100
AcDbEntity
  8
00_COMPONENTS_1
100
AcDbCircle
 62
7
  6
CONTINUOUS
 10
544.1903844751
 20
303.6670450798
 40
3.9327177121
100
AcDbArc
 50
271.2424173978
 51
273.2486398697
  0
ARC
  5
3E5
100
AcDbEntity
  8
00_COMPONENTS_1
100
AcDbCircle
 62
7
  6
CONTINUOUS
 10
545.6661115193
 20
303.6670450797
 40
3.9327177119
100
AcDbArc
 50
266.7513601302
 51
268.7575826022
  0
ARC
  5
3E6
100
AcDbEntity
  8
00_COMPONENTS_1
100
AcDbCircle
 62
7
  6
CONTINUOUS
 10
590.1903844751
 20
303.66704508
 40
3.9327177122
100
AcDbArc
 50
271.2424173978
 51
273.2486398697
  0
ARC
  5
3E7
100
AcDbEntity
  8
00_COMPONENTS_1
100
AcDbCircle
 62
7
  6
CONTINUOUS
 10
591.6661115193
 20
303.66704508
 40
3.9327177122
100
AcDbArc
 50
266.7513601303
 51
268.7575826022
  0
ARC
  5
3E8
100
AcDbEntity
  8
00_COMPONENTS_1
100
AcDbCircle
 62
7
  6
CONTINUOUS
 10
710.1903844751
 20
303.66704508
 40
3.9327177122
100
AcDbArc
 50
271.2424173978
 51
273.2486398697
  0
ARC
  5
3E9
100
AcDbEntity
  8
00_COMPONENTS_1
100
AcDbCircle
 62
7
  6
CONTINUOUS
 10
711.6661115193
 20
303.66704508
 40
3.9327177122
100
AcDbArc
 50
266.7513601303
 51
268.7575826022
  0
ARC
  5
3EA
100
AcDbEntity
  8
00_COMPONENTS_1
100
AcDbCircle
 62
7
  6
CONTINUOUS
 10
544.190644534
 20
303.6386099182
 40
3.9042767203
100
AcDbArc
 50
266.7410506153
 51
268.7570032812
  0
ARC
  5
3EB
100
AcDbEntity
  8
00_COMPONENTS_1
100
AcDbCircle
 62
7
  6
CONTINUOUS
 10
545.6658514604
 20
303.6386099182
 40
3.9042767203
100
AcDbArc
 50
271.2429967188
 51
273.2589493847
  0
ARC
  5
3EC
100
AcDbEntity
  8
00_COMPONENTS_1
100
AcDbCircle
 62
7
  6
CONTINUOUS
 10
590.190644534
 20
303.6386099182
 40
3.9042767203
100
AcDbArc
 50
266.7410506153
 51
268.7570032812
  0
ARC
  5
3ED
100
AcDbEntity
  8
00_COMPONENTS_1
100
AcDbCircle
 62
7
  6
CONTINUOUS
 10
591.6658514604
 20
303.6386099182
 40
3.9042767203
100
AcDbArc
 50
271.2429967188
 51
273.2589493847
  0
ARC
  5
3EE
100
AcDbEntity
  8
00_COMPONENTS_1
100
AcDbCircle
 62
7
  6
CONTINUOUS
 10
710.190644534
 20
303.6386099182
 40
3.9042767203
100
AcDbArc
 50
266.7410506153
 51
268.7570032812
  0
ARC
  5
3EF
100
AcDbEntity
  8
00_COMPONENTS_1
100
AcDbCircle
 62
7
  6
CONTINUOUS
 10
711.6658514604
 20
303.6386099182
 40
3.9042767203
100
AcDbArc
 50
271.2429967188
 51
273.2589493847
  0
ARC
  5
3F0
100
AcDbEntity
  8
00_COMPONENTS_1
100
AcDbCircle
 62
7
  6
CONTINUOUS
 10
544.723189999
 20
302.727215204
 40
3.0542529808
100
AcDbArc
 50
255.8034602072
 51
258.3410378324
  0
ARC
  5
3F1
100
AcDbEntity
  8
00_COMPONENTS_1
100
AcDbCircle
 62
7
  6
CONTINUOUS
 10
590.723189999
 20
302.7272152038
 40
3.0542529806
100
AcDbArc
 50
255.8034602071
 51
258.3410378324
  0
ARC
  5
3F2
100
AcDbEntity
  8
00_COMPONENTS_1
100
AcDbCircle
 62
7
  6
CONTINUOUS
 10
710.723189999
 20
302.7272152038
 40
3.0542529806
100
AcDbArc
 50
255.8034602071
 51
258.3410378324
  0
ARC
  5
3F3
100
AcDbEntity
  8
00_COMPONENTS_1
100
AcDbCircle
 62
7
  6
CONTINUOUS
 10
545.1665787895
 20
304.8987996708
 40
5.2406021024
100
AcDbArc
 50
258.3961318339
 51
260.1162604876
  0
ARC
  5
3F4
100
AcDbEntity
  8
00_COMPONENTS_1
100
AcDbCircle
 62
7
  6
CONTINUOUS
 10
591.1665787895
 20
304.8987996708
 40
5.2406021024
100
AcDbArc
 50
258.3961318339
 51
260.1162604876
  0
ARC
  5
3F5
100
AcDbEntity
  8
00_COMPONENTS_1
100
AcDbCircle
 62
7
  6
CONTINUOUS
 10
544.7107709496
 20
304.8936220371
 40
5.2361530935
100
AcDbArc
 50
280.2028306771
 51
281.402602375
  0
ARC
  5
3F6
100
AcDbEntity
  8
00_COMPONENTS_1
100
AcDbCircle
 62
7
  6
CONTINUOUS
 10
590.7107709498
 20
304.8936220359
 40
5.2361530923
100
AcDbArc
 50
280.2028306769
 51
281.4026023752
  0
ARC
  5
3F7
100
AcDbEntity
  8
00_COMPONENTS_1
100
AcDbCircle
 62
7
  6
CONTINUOUS
 10
545.1456019658
 20
304.8929643807
 40
5.2354840353
100
AcDbArc
 50
258.6065941212
 51
259.7972201016
  0
ARC
  5
3F8
100
AcDbEntity
  8
00_COMPONENTS_1
100
AcDbCircle
 62
7
  6
CONTINUOUS
 10
591.1456019657
 20
304.8929643803
 40
5.2354840349
100
AcDbArc
 50
258.6065941211
 51
259.7972201016
  0
ARC
  5
3F9
100
AcDbEntity
  8
00_COMPONENTS_1
100
AcDbCircle
 62
7
  6
CONTINUOUS
 10
544.9282479972
 20
307.5155293213
 40
7.85078125
100
AcDbArc
 50
285.228108912
 51
292.5424971353
  0
ARC
  5
3FA
100
AcDbEntity
  8
00_COMPONENTS_1
100
AcDbCircle
 62
7
  6
CONTINUOUS
 10
544.9282479972
 20
307.5155293213
 40
7.85078125
100
AcDbArc
 50
247.4575028647
 51
254.771891088
  0
ARC
  5
3FB
100
AcDbEntity
  8
00_COMPONENTS_1
100
AcDbCircle
 62
7
  6
CONTINUOUS
 10
590.9282479972
 20
307.5155293213
 40
7.85078125
100
AcDbArc
 50
285.228108912
 51
292.5424971354
  0
ARC
  5
3FC
100
AcDbEntity
  8
00_COMPONENTS_1
100
AcDbCircle
 62
7
  6
CONTINUOUS
 10
590.9282479972
 20
307.5155293213
 40
7.85078125
100
AcDbArc
 50
247.4575028646
 51
254.771891088
  0
ARC
  5
3FD
100
AcDbEntity
  8
00_COMPONENTS_1
100
AcDbCircle
 62
7
  6
CONTINUOUS
 10
544.9282479972
 20
307.5155293213
 40
7.8338714079
100
AcDbArc
 50
277.035724314
 51
284.7669642634
  0
ARC
  5
3FE
100
AcDbEntity
  8
00_COMPONENTS_1
100
AcDbCircle
 62
7
  6
CONTINUOUS
 10
544.9282479972
 20
307.5155293213
 40
7.8338714079
100
AcDbArc
 50
255.2330357366
 51
262.964275686
  0
ARC
  5
3FF
100
AcDbEntity
  8
00_COMPONENTS_1
100
AcDbCircle
 62
7
  6
CONTINUOUS
 10
590.9282479972
 20
307.5155293213
 40
7.8338714079
100
AcDbArc
 50
277.035724314
 51
284.7669642634
  0
ARC
  5
400
100
AcDbEntity
  8
00_COMPONENTS_1
100
AcDbCircle
 62
7
  6
CONTINUOUS
 10
590.9282479972
 20
307.5155293213
 40
7.8338714079
100
AcDbArc
 50
255.2330357366
 51
262.964275686
  0
ARC
  5
401
100
AcDbEntity
  8
00_COMPONENTS_1
100
AcDbCircle
 62
7
  6
CONTINUOUS
 10
590.9286440062
 20
307.5409564961
 40
7.8329698857
100
AcDbArc
 50
264.9359013644
 51
265.1547371599
  0
ARC
  5
402
100
AcDbEntity
  8
00_COMPONENTS_1
100
AcDbCircle
 62
7
  6
CONTINUOUS
 10
544.9286440054
 20
307.5409564875
 40
7.8329698771
100
AcDbArc
 50
264.9359013643
 51
265.1547371601
  0
ARC
  5
403
100
AcDbEntity
  8
00_COMPONENTS_1
100
AcDbCircle
 62
7
  6
CONTINUOUS
 10
544.9278582417
 20
307.5408821944
 40
7.8328953215
100
AcDbArc
 50
274.8456460973
 51
275.2036328879
  0
ARC
  5
404
100
AcDbEntity
  8
00_COMPONENTS_1
100
AcDbCircle
 62
7
  6
CONTINUOUS
 10
590.9278582421
 20
307.5408821895
 40
7.8328953166
100
AcDbArc
 50
274.8456460972
 51
275.2036328879
  0
ARC
  5
405
100
AcDbEntity
  8
00_COMPONENTS_1
100
AcDbCircle
 62
7
  6
CONTINUOUS
 10
711.1665787895
 20
304.8987996708
 40
5.2406021024
100
AcDbArc
 50
258.3961318339
 51
260.1162604876
  0
ARC
  5
406
100
AcDbEntity
  8
00_COMPONENTS_1
100
AcDbCircle
 62
7
  6
CONTINUOUS
 10
710.7107709497
 20
304.8936220362
 40
5.2361530926
100
AcDbArc
 50
280.202830677
 51
281.4026023751
  0
ARC
  5
407
100
AcDbEntity
  8
00_COMPONENTS_1
100
AcDbCircle
 62
7
  6
CONTINUOUS
 10
711.1456019658
 20
304.8929643809
 40
5.2354840355
100
AcDbArc
 50
258.6065941212
 51
259.7972201015
  0
ARC
  5
408
100
AcDbEntity
  8
00_COMPONENTS_1
100
AcDbCircle
 62
7
  6
CONTINUOUS
 10
710.9282479972
 20
307.5155293213
 40
7.85078125
100
AcDbArc
 50
285.228108912
 51
292.5424971354
  0
ARC
  5
409
100
AcDbEntity
  8
00_COMPONENTS_1
100
AcDbCircle
 62
7
  6
CONTINUOUS
 10
710.9282479972
 20
307.5155293213
 40
7.85078125
100
AcDbArc
 50
247.4575028646
 51
254.771891088
  0
ARC
  5
40A
100
AcDbEntity
  8
00_COMPONENTS_1
100
AcDbCircle
 62
7
  6
CONTINUOUS
 10
710.9282479972
 20
307.5155293213
 40
7.8338714079
100
AcDbArc
 50
277.035724314
 51
284.7669642634
  0
ARC
  5
40B
100
AcDbEntity
  8
00_COMPONENTS_1
100
AcDbCircle
 62
7
  6
CONTINUOUS
 10
710.9282479972
 20
307.5155293213
 40
7.8338714079
100
AcDbArc
 50
255.2330357366
 51
262.964275686
  0
ARC
  5
40C
100
AcDbEntity
  8
00_COMPONENTS_1
100
AcDbCircle
 62
7
  6
CONTINUOUS
 10
710.9286440058
 20
307.5409564919
 40
7.8329698815
100
AcDbArc
 50
264.9359013644
 51
265.15473716
  0
ARC
  5
40D
100
AcDbEntity
  8
00_COMPONENTS_1
100
AcDbCircle
 62
7
  6
CONTINUOUS
 10
710.9278582414
 20
307.5408821976
 40
7.8328953247
100
AcDbArc
 50
274.8456460973
 51
275.2036328877
  0
ARC
  5
40E
100
AcDbEntity
  8
00_COMPONENTS_46
100
AcDbCircle
 62
7
  6
CONTINUOUS
 10
892.5565942056
 20
298.2412049526
 40
8.9693683518
100
AcDbArc
 50
33.3269871228
 51
35.2532400848
  0
ARC
  5
40F
100
AcDbEntity
  8
00_COMPONENTS_55
100
AcDbCircle
 62
7
  6
CONTINUOUS
 10
913.5199081968
 20
303.5591505861
 40
5.475046669
100
AcDbArc
 50
205.4993871121
 51
207.7697240271
  0
ARC
  5
410
100
AcDbEntity
  8
00_COMPONENTS_1
100
AcDbCircle
 62
7
  6
CONTINUOUS
 10
876.1903844751
 20
303.6670450798
 40
3.9327177121
100
AcDbArc
 50
271.2424173978
 51
273.2486398697
  0
ARC
  5
411
100
AcDbEntity
  8
00_COMPONENTS_1
100
AcDbCircle
 62
7
  6
CONTINUOUS
 10
877.6661115193
 20
303.6670450797
 40
3.9327177119
100
AcDbArc
 50
266.7513601302
 51
268.7575826022
  0
ARC
  5
412
100
AcDbEntity
  8
00_COMPONENTS_1
100
AcDbCircle
 62
7
  6
CONTINUOUS
 10
830.1903844751
 20
303.66704508
 40
3.9327177122
100
AcDbArc
 50
271.2424173978
 51
273.2486398697
  0
ARC
  5
413
100
AcDbEntity
  8
00_COMPONENTS_1
100
AcDbCircle
 62
7
  6
CONTINUOUS
 10
831.6661115193
 20
303.66704508
 40
3.9327177122
100
AcDbArc
 50
266.7513601303
 51
268.7575826022
  0
ARC
  5
414
100
AcDbEntity
  8
00_COMPONENTS_1
100
AcDbCircle
 62
7
  6
CONTINUOUS
 10
876.190644534
 20
303.6386099182
 40
3.9042767203
100
AcDbArc
 50
266.7410506153
 51
268.7570032812
  0
ARC
  5
415
100
AcDbEntity
  8
00_COMPONENTS_1
100
AcDbCircle
 62
7
  6
CONTINUOUS
 10
877.6658514604
 20
303.6386099182
 40
3.9042767203
100
AcDbArc
 50
271.2429967188
 51
273.2589493847
  0
ARC
  5
416
100
AcDbEntity
  8
00_COMPONENTS_1
100
AcDbCircle
 62
7
  6
CONTINUOUS
 10
830.190644534
 20
303.6386099182
 40
3.9042767203
100
AcDbArc
 50
266.7410506153
 51
268.7570032812
  0
ARC
  5
417
100
AcDbEntity
  8
00_COMPONENTS_1
100
AcDbCircle
 62
7
  6
CONTINUOUS
 10
831.6658514604
 20
303.6386099182
 40
3.9042767203
100
AcDbArc
 50
271.2429967188
 51
273.2589493847
  0
ARC
  5
418
100
AcDbEntity
  8
00_COMPONENTS_1
100
AcDbCircle
 62
7
  6
CONTINUOUS
 10
876.723189999
 20
302.727215204
 40
3.0542529808
100
AcDbArc
 50
255.8034602072
 51
258.3410378324
  0
ARC
  5
419
100
AcDbEntity
  8
00_COMPONENTS_1
100
AcDbCircle
 62
7
  6
CONTINUOUS
 10
830.723189999
 20
302.7272152037
 40
3.0542529805
100
AcDbArc
 50
255.803460207
 51
258.3410378325
  0
ARC
  5
41A
100
AcDbEntity
  8
00_COMPONENTS_55
100
AcDbCircle
 62
7
  6
CONTINUOUS
 10
909.9631325967
 20
303.3956081092
 40
1.783837505
100
AcDbArc
 50
228.0804668541
 51
231.8713266208
  0
ARC
  5
41B
100
AcDbEntity
  8
00_COMPONENTS_55
100
AcDbCircle
 62
7
  6
CONTINUOUS
 10
908.7334204426
 20
301.7642918074
 40
0.6948277044
100
AcDbArc
 50
0.0376237105
 51
9.1951696141
  0
ARC
  5
41C
100
AcDbEntity
  8
00_COMPONENTS_46
100
AcDbCircle
 62
7
  6
CONTINUOUS
 10
914.952638044
 20
310.882207395
 40
17.0987664286
100
AcDbArc
 50
206.707928048
 51
207.3954964227
  0
ARC
  5
41D
100
AcDbEntity
  8
00_COMPONENTS_46
100
AcDbCircle
 62
7
  6
CONTINUOUS
 10
910.7739945982
 20
308.7013464208
 40
12.3852792137
100
AcDbArc
 50
207.3327588181
 51
209.357862911
  0
ARC
  5
41E
100
AcDbEntity
  8
00_COMPONENTS_1
100
AcDbCircle
 62
7
  6
CONTINUOUS
 10
876.9282479972
 20
307.5155293213
 40
7.85078125
100
AcDbArc
 50
285.228108912
 51
292.5424971353
  0
ARC
  5
41F
100
AcDbEntity
  8
00_COMPONENTS_1
100
AcDbCircle
 62
7
  6
CONTINUOUS
 10
876.9282479972
 20
307.5155293213
 40
7.85078125
100
AcDbArc
 50
247.4575028647
 51
254.771891088
  0
ARC
  5
420
100
AcDbEntity
  8
00_COMPONENTS_1
100
AcDbCircle
 62
7
  6
CONTINUOUS
 10
830.9282479972
 20
307.5155293213
 40
7.85078125
100
AcDbArc
 50
285.228108912
 51
292.5424971354
  0
ARC
  5
421
100
AcDbEntity
  8
00_COMPONENTS_1
100
AcDbCircle
 62
7
  6
CONTINUOUS
 10
830.9282479972
 20
307.5155293213
 40
7.85078125
100
AcDbArc
 50
247.4575028646
 51
254.771891088
  0
ARC
  5
422
100
AcDbEntity
  8
00_COMPONENTS_1
100
AcDbCircle
 62
7
  6
CONTINUOUS
 10
876.9282479972
 20
307.5155293213
 40
7.8338714079
100
AcDbArc
 50
277.035724314
 51
284.7669642634
  0
ARC
  5
423
100
AcDbEntity
  8
00_COMPONENTS_1
100
AcDbCircle
 62
7
  6
CONTINUOUS
 10
876.9282479972
 20
307.5155293213
 40
7.8338714079
100
AcDbArc
 50
255.2330357366
 51
262.964275686
  0
ARC
  5
424
100
AcDbEntity
  8
00_COMPONENTS_1
100
AcDbCircle
 62
7
  6
CONTINUOUS
 10
830.9282479972
 20
307.5155293213
 40
7.8338714079
100
AcDbArc
 50
277.035724314
 51
284.7669642634
  0
ARC
  5
425
100
AcDbEntity
  8
00_COMPONENTS_1
100
AcDbCircle
 62
7
  6
CONTINUOUS
 10
830.9282479972
 20
307.5155293213
 40
7.8338714079
100
AcDbArc
 50
255.2330357366
 51
262.964275686
  0
ARC
  5
426
100
AcDbEntity
  8
00_COMPONENTS_1
100
AcDbCircle
 62
7
  6
CONTINUOUS
 10
876.9286440054
 20
307.5409564875
 40
7.8329698771
100
AcDbArc
 50
264.9359013643
 51
265.1547371601
  0
ARC
  5
427
100
AcDbEntity
  8
00_COMPONENTS_1
100
AcDbCircle
 62
7
  6
CONTINUOUS
 10
830.9286440054
 20
307.5409564875
 40
7.8329698771
100
AcDbArc
 50
264.9359013643
 51
265.1547371601
  0
ARC
  5
428
100
AcDbEntity
  8
00_COMPONENTS_1
100
AcDbCircle
 62
7
  6
CONTINUOUS
 10
876.9278582422
 20
307.5408821878
 40
7.8328953149
100
AcDbArc
 50
274.8456460972
 51
275.203632888
  0
ARC
  5
429
100
AcDbEntity
  8
00_COMPONENTS_1
100
AcDbCircle
 62
7
  6
CONTINUOUS
 10
830.9278582421
 20
307.5408821894
 40
7.8328953165
100
AcDbArc
 50
274.8456460972
 51
275.203632888
  0
ARC
  5
42A
100
AcDbEntity
  8
00_COMPONENTS_1
100
AcDbCircle
 62
7
  6
CONTINUOUS
 10
877.1665787895
 20
304.8987996709
 40
5.2406021025
100
AcDbArc
 50
258.3961318339
 51
260.1162604875
  0
ARC
  5
42B
100
AcDbEntity
  8
00_COMPONENTS_1
100
AcDbCircle
 62
7
  6
CONTINUOUS
 10
831.1665787896
 20
304.8987996713
 40
5.2406021029
100
AcDbArc
 50
258.396131834
 51
260.1162604875
  0
ARC
  5
42C
100
AcDbEntity
  8
00_COMPONENTS_1
100
AcDbCircle
 62
7
  6
CONTINUOUS
 10
876.7107709496
 20
304.8936220367
 40
5.236153093
100
AcDbArc
 50
280.202830677
 51
281.4026023751
  0
ARC
  5
42D
100
AcDbEntity
  8
00_COMPONENTS_1
100
AcDbCircle
 62
7
  6
CONTINUOUS
 10
830.7107709497
 20
304.8936220362
 40
5.2361530926
100
AcDbArc
 50
280.202830677
 51
281.4026023751
  0
ARC
  5
42E
100
AcDbEntity
  8
00_COMPONENTS_1
100
AcDbCircle
 62
7
  6
CONTINUOUS
 10
877.1456019655
 20
304.8929643794
 40
5.235484034
100
AcDbArc
 50
258.606594121
 51
259.7972201017
  0
ARC
  5
42F
100
AcDbEntity
  8
00_COMPONENTS_1
100
AcDbCircle
 62
7
  6
CONTINUOUS
 10
831.1456019655
 20
304.8929643794
 40
5.235484034
100
AcDbArc
 50
258.606594121
 51
259.7972201017
  0
ARC
  5
430
100
AcDbEntity
  8
00_COMPONENTS_46
100
AcDbCircle
 62
7
  6
CONTINUOUS
 10
980.1205105182
 20
1057.7416317677
 40
89.2258409928
100
AcDbArc
 50
154.8144075215
 51
155.2727316342
  0
ARC
  5
431
100
AcDbEntity
  8
00_COMPONENTS_55
100
AcDbCircle
 62
7
  6
CONTINUOUS
 10
899.4465130964
 20
1123.4780850227
 40
27.6724325275
100
AcDbArc
 50
289.430495273
 51
290.1257983794
  0
ARC
  5
432
100
AcDbEntity
  8
00_COMPONENTS_55
100
AcDbCircle
 62
7
  6
CONTINUOUS
 10
926.7716686386
 20
1091.4838843257
 40
19.8231893055
100
AcDbArc
 50
159.2619840952
 51
159.6950573999
  0
ARC
  5
433
100
AcDbEntity
  8
00_COMPONENTS_55
100
AcDbCircle
 62
7
  6
CONTINUOUS
 10
922.1030983967
 20
1093.2643201915
 40
14.8266596393
100
AcDbArc
 50
157.8108458135
 51
159.3082049474
  0
ARC
  5
434
100
AcDbEntity
  8
00_COMPONENTS_55
100
AcDbCircle
 62
7
  6
CONTINUOUS
 10
905.6025423763
 20
1107.3249758713
 40
10.3842671142
100
AcDbArc
 50
292.2072163766
 51
293.6114210189
  0
ARC
  5
435
100
AcDbEntity
  8
00_COMPONENTS_55
100
AcDbCircle
 62
7
  6
CONTINUOUS
 10
917.5320970193
 20
1095.1307235308
 40
9.8893010576
100
AcDbArc
 50
155.91816948
 51
157.8216905584
  0
LINE
  5
436
100
AcDbEntity
  8
00_COMPONENTS_1
100
AcDbLine
 62
7
  6
CONTINUOUS
 10
544.2756559217
 20
299.7352519287
 11
544.2713941909
 21
299.7355461985
  0
LINE
  5
437
100
AcDbEntity
  8
00_COMPONENTS_1
100
AcDbLine
 62
7
  6
CONTINUOUS
 10
544.2713941909
 20
299.7355461985
 11
544.267032347
 21
299.7359808666
  0
SPLINE
  5
438
100
AcDbEntity
  8
00_COMPONENTS_1
100
AcDbSpline
 62
7
  6
CONTINUOUS
 70
0
 71
3
 72
9
 73
5
 74
0
 42
0.0000001
 43
0.0000001
 44
0.0000000001
 40
0.0
 40
0.0
 40
0.0
 40
0.0
 40
0.2550944233
 40
1.0
 40
1.0
 40
1.0
 40
1.0
 10
543.5384835163
 20
299.9147480713
 30
0.0
 10
543.5861888813
 20
299.8997700947
 30
0.0
 10
543.7738860247
 20
299.8432773456
 30
0.0
 10
543.9643438128
 20
299.7958508823
 30
0.0
 10
544.1073444635
 20
299.7663596855
 30
0.0
  0
SPLINE
  5
439
100
AcDbEntity
  8
00_COMPONENTS_1
100
AcDbSpline
 62
7
  6
CONTINUOUS
 70
0
 71
3
 72
9
 73
5
 74
0
 42
0.0000001
 43
0.0000001
 44
0.0000000001
 40
0.0
 40
0.0
 40
0.0
 40
0.0
 40
0.2461600424
 40
1.0
 40
1.0
 40
1.0
 40
1.0
 10
545.7494839745
 20
299.7615292029
 30
0.0
 10
545.784570147
 20
299.768627954
 30
0.0
 10
545.9268111359
 20
299.7989016182
 30
0.0
 10
546.0678420169
 20
299.8348132996
 30
0.0
 10
546.1733007069
 20
299.8647480713
 30
0.0
  0
SPLINE
  5
43A
100
AcDbEntity
  8
00_COMPONENTS_1
100
AcDbSpline
 62
7
  6
CONTINUOUS
 70
0
 71
3
 72
9
 73
5
 74
0
 42
0.0000001
 43
0.0000001
 44
0.0000000001
 40
0.0
 40
0.0
 40
0.0
 40
0.0
 40
0.2462241396
 40
1.0
 40
1.0
 40
1.0
 40
1.0
 10
543.5384835163
 20
299.9147480713
 30
0.0
 10
543.5731112005
 20
299.8995876238
 30
0.0
 10
543.7150579649
 20
299.8410398276
 30
0.0
 10
543.861954958
 20
299.7946372416
 30
0.0
 10
543.9741380025
 20
299.7662386122
 30
0.0
  0
SPLINE
  5
43B
100
AcDbEntity
  8
00_COMPONENTS_1
100
AcDbSpline
 62
7
  6
CONTINUOUS
 70
0
 71
3
 72
9
 73
5
 74
0
 42
0.0000001
 43
0.0000001
 44
0.0000000001
 40
0.0
 40
0.0
 40
0.0
 40
0.0
 40
0.2461010597
 40
1.0
 40
1.0
 40
1.0
 40
1.0
 10
546.1733007069
 20
299.8647480713
 30
0.0
 10
546.1394936541
 20
299.8518544394
 30
0.0
 10
546.0010844909
 20
299.8022118017
 30
0.0
 10
545.8587880425
 20
299.7635387821
 30
0.0
 10
545.7504182254
 20
299.7402689762
 30
0.0
  0
LINE
  5
43C
100
AcDbEntity
  8
00_COMPONENTS_1
100
AcDbLine
 62
7
  6
CONTINUOUS
 10
876.2756559217
 20
299.7352519287
 11
876.2713941909
 21
299.7355461985
  0
LINE
  5
43D
100
AcDbEntity
  8
00_COMPONENTS_1
100
AcDbLine
 62
7
  6
CONTINUOUS
 10
876.2713941909
 20
299.7355461985
 11
876.267032347
 21
299.7359808666
  0
SPLINE
  5
43E
100
AcDbEntity
  8
00_COMPONENTS_1
100
AcDbSpline
 62
7
  6
CONTINUOUS
 70
0
 71
3
 72
9
 73
5
 74
0
 42
0.0000001
 43
0.0000001
 44
0.0000000001
 40
0.0
 40
0.0
 40
0.0
 40
0.0
 40
0.2550944233
 40
1.0
 40
1.0
 40
1.0
 40
1.0
 10
875.5384835163
 20
299.9147480713
 30
0.0
 10
875.5861888813
 20
299.8997700947
 30
0.0
 10
875.7738860247
 20
299.8432773456
 30
0.0
 10
875.9643438128
 20
299.7958508823
 30
0.0
 10
876.1073444635
 20
299.7663596855
 30
0.0
  0
SPLINE
  5
43F
100
AcDbEntity
  8
00_COMPONENTS_1
100
AcDbSpline
 62
7
  6
CONTINUOUS
 70
0
 71
3
 72
9
 73
5
 74
0
 42
0.0000001
 43
0.0000001
 44
0.0000000001
 40
0.0
 40
0.0
 40
0.0
 40
0.0
 40
0.2461600424
 40
1.0
 40
1.0
 40
1.0
 40
1.0
 10
877.7494839745
 20
299.7615292029
 30
0.0
 10
877.784570147
 20
299.768627954
 30
0.0
 10
877.9268111359
 20
299.7989016182
 30
0.0
 10
878.0678420169
 20
299.8348132996
 30
0.0
 10
878.1733007069
 20
299.8647480713
 30
0.0
  0
SPLINE
  5
440
100
AcDbEntity
  8
00_COMPONENTS_1
100
AcDbSpline
 62
7
  6
CONTINUOUS
 70
0
 71
3
 72
9
 73
5
 74
0
 42
0.0000001
 43
0.0000001
 44
0.0000000001
 40
0.0
 40
0.0
 40
0.0
 40
0.0
 40
0.2462241396
 40
1.0
 40
1.0
 40
1.0
 40
1.0
 10
875.5384835163
 20
299.9147480713
 30
0.0
 10
875.5731112005
 20
299.8995876238
 30
0.0
 10
875.7150579649
 20
299.8410398276
 30
0.0
 10
875.861954958
 20
299.7946372416
 30
0.0
 10
875.9741380025
 20
299.7662386122
 30
0.0
  0
SPLINE
  5
441
100
AcDbEntity
  8
00_COMPONENTS_1
100
AcDbSpline
 62
7
  6
CONTINUOUS
 70
0
 71
3
 72
9
 73
5
 74
0
 42
0.0000001
 43
0.0000001
 44
0.0000000001
 40
0.0
 40
0.0
 40
0.0
 40
0.0
 40
0.2461010597
 40
1.0
 40
1.0
 40
1.0
 40
1.0
 10
878.1733007069
 20
299.8647480713
 30
0.0
 10
878.1394936541
 20
299.8518544394
 30
0.0
 10
878.0010844909
 20
299.8022118017
 30
0.0
 10
877.8587880425
 20
299.7635387821
 30
0.0
 10
877.7504182254
 20
299.7402689762
 30
0.0
  0
LINE
  5
442
100
AcDbEntity
  8
00_COMPONENTS_1
100
AcDbLine
 62
7
  6
CONTINUOUS
 10
144.2756559217
 20
299.7352519287
 11
144.2713941909
 21
299.7355461985
  0
LINE
  5
443
100
AcDbEntity
  8
00_COMPONENTS_1
100
AcDbLine
 62
7
  6
CONTINUOUS
 10
144.2713941909
 20
299.7355461985
 11
144.267032347
 21
299.7359808666
  0
SPLINE
  5
444
100
AcDbEntity
  8
00_COMPONENTS_1
100
AcDbSpline
 62
7
  6
CONTINUOUS
 70
0
 71
3
 72
9
 73
5
 74
0
 42
0.0000001
 43
0.0000001
 44
0.0000000001
 40
0.0
 40
0.0
 40
0.0
 40
0.0
 40
0.2550944233
 40
1.0
 40
1.0
 40
1.0
 40
1.0
 10
143.5384835163
 20
299.9147480713
 30
0.0
 10
143.5861888813
 20
299.8997700947
 30
0.0
 10
143.7738860247
 20
299.8432773456
 30
0.0
 10
143.9643438128
 20
299.7958508823
 30
0.0
 10
144.1073444635
 20
299.7663596855
 30
0.0
  0
SPLINE
  5
445
100
AcDbEntity
  8
00_COMPONENTS_1
100
AcDbSpline
 62
7
  6
CONTINUOUS
 70
0
 71
3
 72
9
 73
5
 74
0
 42
0.0000001
 43
0.0000001
 44
0.0000000001
 40
0.0
 40
0.0
 40
0.0
 40
0.0
 40
0.2461600424
 40
1.0
 40
1.0
 40
1.0
 40
1.0
 10
145.7494839745
 20
299.7615292029
 30
0.0
 10
145.784570147
 20
299.768627954
 30
0.0
 10
145.9268111359
 20
299.7989016182
 30
0.0
 10
146.0678420169
 20
299.8348132996
 30
0.0
 10
146.1733007069
 20
299.8647480713
 30
0.0
  0
SPLINE
  5
446
100
AcDbEntity
  8
00_COMPONENTS_1
100
AcDbSpline
 62
7
  6
CONTINUOUS
 70
0
 71
3
 72
9
 73
5
 74
0
 42
0.0000001
 43
0.0000001
 44
0.0000000001
 40
0.0
 40
0.0
 40
0.0
 40
0.0
 40
0.2462241396
 40
1.0
 40
1.0
 40
1.0
 40
1.0
 10
143.5384835163
 20
299.9147480713
 30
0.0
 10
143.5731112005
 20
299.8995876238
 30
0.0
 10
143.7150579649
 20
299.8410398276
 30
0.0
 10
143.861954958
 20
299.7946372416
 30
0.0
 10
143.9741380025
 20
299.7662386122
 30
0.0
  0
SPLINE
  5
447
100
AcDbEntity
  8
00_COMPONENTS_1
100
AcDbSpline
 62
7
  6
CONTINUOUS
 70
0
 71
3
 72
9
 73
5
 74
0
 42
0.0000001
 43
0.0000001
 44
0.0000000001
 40
0.0
 40
0.0
 40
0.0
 40
0.0
 40
0.2461010597
 40
1.0
 40
1.0
 40
1.0
 40
1.0
 10
146.1733007069
 20
299.8647480713
 30
0.0
 10
146.1394936541
 20
299.8518544394
 30
0.0
 10
146.0010844909
 20
299.8022118017
 30
0.0
 10
145.8587880425
 20
299.7635387821
 30
0.0
 10
145.7504182254
 20
299.7402689762
 30
0.0
  0
LINE
  5
448
100
AcDbEntity
  8
00_COMPONENTS_1
100
AcDbLine
 62
7
  6
CONTINUOUS
 10
476.2756559217
 20
299.7352519287
 11
476.2713941909
 21
299.7355461985
  0
LINE
  5
449
100
AcDbEntity
  8
00_COMPONENTS_1
100
AcDbLine
 62
7
  6
CONTINUOUS
 10
476.2713941909
 20
299.7355461985
 11
476.267032347
 21
299.7359808666
  0
SPLINE
  5
44A
100
AcDbEntity
  8
00_COMPONENTS_1
100
AcDbSpline
 62
7
  6
CONTINUOUS
 70
0
 71
3
 72
9
 73
5
 74
0
 42
0.0000001
 43
0.0000001
 44
0.0000000001
 40
0.0
 40
0.0
 40
0.0
 40
0.0
 40
0.2550944233
 40
1.0
 40
1.0
 40
1.0
 40
1.0
 10
475.5384835163
 20
299.9147480713
 30
0.0
 10
475.5861888813
 20
299.8997700947
 30
0.0
 10
475.7738860247
 20
299.8432773456
 30
0.0
 10
475.9643438128
 20
299.7958508823
 30
0.0
 10
476.1073444635
 20
299.7663596855
 30
0.0
  0
SPLINE
  5
44B
100
AcDbEntity
  8
00_COMPONENTS_1
100
AcDbSpline
 62
7
  6
CONTINUOUS
 70
0
 71
3
 72
9
 73
5
 74
0
 42
0.0000001
 43
0.0000001
 44
0.0000000001
 40
0.0
 40
0.0
 40
0.0
 40
0.0
 40
0.2461600424
 40
1.0
 40
1.0
 40
1.0
 40
1.0
 10
477.7494839745
 20
299.7615292029
 30
0.0
 10
477.784570147
 20
299.768627954
 30
0.0
 10
477.9268111359
 20
299.7989016182
 30
0.0
 10
478.0678420169
 20
299.8348132996
 30
0.0
 10
478.1733007069
 20
299.8647480713
 30
0.0
  0
SPLINE
  5
44C
100
AcDbEntity
  8
00_COMPONENTS_1
100
AcDbSpline
 62
7
  6
CONTINUOUS
 70
0
 71
3
 72
9
 73
5
 74
0
 42
0.0000001
 43
0.0000001
 44
0.0000000001
 40
0.0
 40
0.0
 40
0.0
 40
0.0
 40
0.2462241396
 40
1.0
 40
1.0
 40
1.0
 40
1.0
 10
475.5384835163
 20
299.9147480713
 30
0.0
 10
475.5731112005
 20
299.8995876238
 30
0.0
 10
475.7150579649
 20
299.8410398276
 30
0.0
 10
475.861954958
 20
299.7946372416
 30
0.0
 10
475.9741380025
 20
299.7662386122
 30
0.0
  0
SPLINE
  5
44D
100
AcDbEntity
  8
00_COMPONENTS_1
100
AcDbSpline
 62
7
  6
CONTINUOUS
 70
0
 71
3
 72
9
 73
5
 74
0
 42
0.0000001
 43
0.0000001
 44
0.0000000001
 40
0.0
 40
0.0
 40
0.0
 40
0.0
 40
0.2461010597
 40
1.0
 40
1.0
 40
1.0
 40
1.0
 10
478.1733007069
 20
299.8647480713
 30
0.0
 10
478.1394936541
 20
299.8518544394
 30
0.0
 10
478.0010844909
 20
299.8022118017
 30
0.0
 10
477.8587880425
 20
299.7635387821
 30
0.0
 10
477.7504182254
 20
299.7402689762
 30
0.0
  0
LINE
  5
44E
100
AcDbEntity
  8
00_COMPONENTS_1
100
AcDbLine
 62
7
  6
CONTINUOUS
 10
590.2756559217
 20
299.7352519287
 11
590.2713941909
 21
299.7355461985
  0
LINE
  5
44F
100
AcDbEntity
  8
00_COMPONENTS_1
100
AcDbLine
 62
7
  6
CONTINUOUS
 10
590.2713941909
 20
299.7355461985
 11
590.267032347
 21
299.7359808666
  0
SPLINE
  5
450
100
AcDbEntity
  8
00_COMPONENTS_1
100
AcDbSpline
 62
7
  6
CONTINUOUS
 70
0
 71
3
 72
9
 73
5
 74
0
 42
0.0000001
 43
0.0000001
 44
0.0000000001
 40
0.0
 40
0.0
 40
0.0
 40
0.0
 40
0.2550944233
 40
1.0
 40
1.0
 40
1.0
 40
1.0
 10
589.5384835163
 20
299.9147480713
 30
0.0
 10
589.5861888813
 20
299.8997700947
 30
0.0
 10
589.7738860247
 20
299.8432773456
 30
0.0
 10
589.9643438128
 20
299.7958508823
 30
0.0
 10
590.1073444635
 20
299.7663596855
 30
0.0
  0
SPLINE
  5
451
100
AcDbEntity
  8
00_COMPONENTS_1
100
AcDbSpline
 62
7
  6
CONTINUOUS
 70
0
 71
3
 72
9
 73
5
 74
0
 42
0.0000001
 43
0.0000001
 44
0.0000000001
 40
0.0
 40
0.0
 40
0.0
 40
0.0
 40
0.2461600424
 40
1.0
 40
1.0
 40
1.0
 40
1.0
 10
591.7494839745
 20
299.7615292029
 30
0.0
 10
591.784570147
 20
299.768627954
 30
0.0
 10
591.9268111359
 20
299.7989016182
 30
0.0
 10
592.0678420169
 20
299.8348132996
 30
0.0
 10
592.1733007069
 20
299.8647480713
 30
0.0
  0
SPLINE
  5
452
100
AcDbEntity
  8
00_COMPONENTS_1
100
AcDbSpline
 62
7
  6
CONTINUOUS
 70
0
 71
3
 72
9
 73
5
 74
0
 42
0.0000001
 43
0.0000001
 44
0.0000000001
 40
0.0
 40
0.0
 40
0.0
 40
0.0
 40
0.2462241396
 40
1.0
 40
1.0
 40
1.0
 40
1.0
 10
589.5384835163
 20
299.9147480713
 30
0.0
 10
589.5731112005
 20
299.8995876238
 30
0.0
 10
589.7150579649
 20
299.8410398276
 30
0.0
 10
589.861954958
 20
299.7946372416
 30
0.0
 10
589.9741380025
 20
299.7662386122
 30
0.0
  0
SPLINE
  5
453
100
AcDbEntity
  8
00_COMPONENTS_1
100
AcDbSpline
 62
7
  6
CONTINUOUS
 70
0
 71
3
 72
9
 73
5
 74
0
 42
0.0000001
 43
0.0000001
 44
0.0000000001
 40
0.0
 40
0.0
 40
0.0
 40
0.0
 40
0.2461010597
 40
1.0
 40
1.0
 40
1.0
 40
1.0
 10
592.1733007069
 20
299.8647480713
 30
0.0
 10
592.1394936541
 20
299.8518544394
 30
0.0
 10
592.0010844909
 20
299.8022118017
 30
0.0
 10
591.8587880425
 20
299.7635387821
 30
0.0
 10
591.7504182254
 20
299.7402689762
 30
0.0
  0
LINE
  5
454
100
AcDbEntity
  8
00_COMPONENTS_1
100
AcDbLine
 62
7
  6
CONTINUOUS
 10
710.2756559217
 20
299.7352519287
 11
710.2713941909
 21
299.7355461985
  0
LINE
  5
455
100
AcDbEntity
  8
00_COMPONENTS_1
100
AcDbLine
 62
7
  6
CONTINUOUS
 10
710.2713941909
 20
299.7355461985
 11
710.267032347
 21
299.7359808666
  0
SPLINE
  5
456
100
AcDbEntity
  8
00_COMPONENTS_1
100
AcDbSpline
 62
7
  6
CONTINUOUS
 70
0
 71
3
 72
9
 73
5
 74
0
 42
0.0000001
 43
0.0000001
 44
0.0000000001
 40
0.0
 40
0.0
 40
0.0
 40
0.0
 40
0.2550944233
 40
1.0
 40
1.0
 40
1.0
 40
1.0
 10
709.5384835163
 20
299.9147480713
 30
0.0
 10
709.5861888813
 20
299.8997700947
 30
0.0
 10
709.7738860247
 20
299.8432773456
 30
0.0
 10
709.9643438128
 20
299.7958508823
 30
0.0
 10
710.1073444635
 20
299.7663596855
 30
0.0
  0
SPLINE
  5
457
100
AcDbEntity
  8
00_COMPONENTS_1
100
AcDbSpline
 62
7
  6
CONTINUOUS
 70
0
 71
3
 72
9
 73
5
 74
0
 42
0.0000001
 43
0.0000001
 44
0.0000000001
 40
0.0
 40
0.0
 40
0.0
 40
0.0
 40
0.2461600424
 40
1.0
 40
1.0
 40
1.0
 40
1.0
 10
711.7494839745
 20
299.7615292029
 30
0.0
 10
711.784570147
 20
299.768627954
 30
0.0
 10
711.9268111359
 20
299.7989016182
 30
0.0
 10
712.0678420169
 20
299.8348132996
 30
0.0
 10
712.1733007069
 20
299.8647480713
 30
0.0
  0
SPLINE
  5
458
100
AcDbEntity
  8
00_COMPONENTS_1
100
AcDbSpline
 62
7
  6
CONTINUOUS
 70
0
 71
3
 72
9
 73
5
 74
0
 42
0.0000001
 43
0.0000001
 44
0.0000000001
 40
0.0
 40
0.0
 40
0.0
 40
0.0
 40
0.2462241396
 40
1.0
 40
1.0
 40
1.0
 40
1.0
 10
709.5384835163
 20
299.9147480713
 30
0.0
 10
709.5731112005
 20
299.8995876238
 30
0.0
 10
709.7150579649
 20
299.8410398276
 30
0.0
 10
709.861954958
 20
299.7946372416
 30
0.0
 10
709.9741380025
 20
299.7662386122
 30
0.0
  0
SPLINE
  5
459
100
AcDbEntity
  8
00_COMPONENTS_1
100
AcDbSpline
 62
7
  6
CONTINUOUS
 70
0
 71
3
 72
9
 73
5
 74
0
 42
0.0000001
 43
0.0000001
 44
0.0000000001
 40
0.0
 40
0.0
 40
0.0
 40
0.0
 40
0.2461010597
 40
1.0
 40
1.0
 40
1.0
 40
1.0
 10
712.1733007069
 20
299.8647480713
 30
0.0
 10
712.1394936541
 20
299.8518544394
 30
0.0
 10
712.0010844909
 20
299.8022118017
 30
0.0
 10
711.8587880425
 20
299.7635387821
 30
0.0
 10
711.7504182254
 20
299.7402689762
 30
0.0
  0
LINE
  5
45A
100
AcDbEntity
  8
00_COMPONENTS_1
100
AcDbLine
 62
7
  6
CONTINUOUS
 10
830.2756559217
 20
299.7352519287
 11
830.2713941909
 21
299.7355461985
  0
LINE
  5
45B
100
AcDbEntity
  8
00_COMPONENTS_1
100
AcDbLine
 62
7
  6
CONTINUOUS
 10
830.2713941909
 20
299.7355461985
 11
830.267032347
 21
299.7359808666
  0
SPLINE
  5
45C
100
AcDbEntity
  8
00_COMPONENTS_1
100
AcDbSpline
 62
7
  6
CONTINUOUS
 70
0
 71
3
 72
9
 73
5
 74
0
 42
0.0000001
 43
0.0000001
 44
0.0000000001
 40
0.0
 40
0.0
 40
0.0
 40
0.0
 40
0.2550944233
 40
1.0
 40
1.0
 40
1.0
 40
1.0
 10
829.5384835163
 20
299.9147480713
 30
0.0
 10
829.5861888813
 20
299.8997700947
 30
0.0
 10
829.7738860247
 20
299.8432773456
 30
0.0
 10
829.9643438128
 20
299.7958508823
 30
0.0
 10
830.1073444635
 20
299.7663596855
 30
0.0
  0
SPLINE
  5
45D
100
AcDbEntity
  8
00_COMPONENTS_1
100
AcDbSpline
 62
7
  6
CONTINUOUS
 70
0
 71
3
 72
9
 73
5
 74
0
 42
0.0000001
 43
0.0000001
 44
0.0000000001
 40
0.0
 40
0.0
 40
0.0
 40
0.0
 40
0.2461600424
 40
1.0
 40
1.0
 40
1.0
 40
1.0
 10
831.7494839745
 20
299.7615292029
 30
0.0
 10
831.784570147
 20
299.768627954
 30
0.0
 10
831.9268111359
 20
299.7989016182
 30
0.0
 10
832.0678420169
 20
299.8348132996
 30
0.0
 10
832.1733007069
 20
299.8647480713
 30
0.0
  0
SPLINE
  5
45E
100
AcDbEntity
  8
00_COMPONENTS_1
100
AcDbSpline
 62
7
  6
CONTINUOUS
 70
0
 71
3
 72
9
 73
5
 74
0
 42
0.0000001
 43
0.0000001
 44
0.0000000001
 40
0.0
 40
0.0
 40
0.0
 40
0.0
 40
0.2462241396
 40
1.0
 40
1.0
 40
1.0
 40
1.0
 10
829.5384835163
 20
299.9147480713
 30
0.0
 10
829.5731112005
 20
299.8995876238
 30
0.0
 10
829.7150579649
 20
299.8410398276
 30
0.0
 10
829.861954958
 20
299.7946372416
 30
0.0
 10
829.9741380025
 20
299.7662386122
 30
0.0
  0
SPLINE
  5
45F
100
AcDbEntity
  8
00_COMPONENTS_1
100
AcDbSpline
 62
7
  6
CONTINUOUS
 70
0
 71
3
 72
9
 73
5
 74
0
 42
0.0000001
 43
0.0000001
 44
0.0000000001
 40
0.0
 40
0.0
 40
0.0
 40
0.0
 40
0.2461010597
 40
1.0
 40
1.0
 40
1.0
 40
1.0
 10
832.1733007069
 20
299.8647480713
 30
0.0
 10
832.1394936541
 20
299.8518544394
 30
0.0
 10
832.0010844909
 20
299.8022118017
 30
0.0
 10
831.8587880425
 20
299.7635387821
 30
0.0
 10
831.7504182254
 20
299.7402689762
 30
0.0
  0
LINE
  5
460
100
AcDbEntity
  8
00_COMPONENTS_1
100
AcDbLine
 62
7
  6
CONTINUOUS
 10
190.2756559217
 20
299.7352519287
 11
190.2713941909
 21
299.7355461985
  0
LINE
  5
461
100
AcDbEntity
  8
00_COMPONENTS_1
100
AcDbLine
 62
7
  6
CONTINUOUS
 10
190.2713941909
 20
299.7355461985
 11
190.267032347
 21
299.7359808666
  0
SPLINE
  5
462
100
AcDbEntity
  8
00_COMPONENTS_1
100
AcDbSpline
 62
7
  6
CONTINUOUS
 70
0
 71
3
 72
9
 73
5
 74
0
 42
0.0000001
 43
0.0000001
 44
0.0000000001
 40
0.0
 40
0.0
 40
0.0
 40
0.0
 40
0.2550944233
 40
1.0
 40
1.0
 40
1.0
 40
1.0
 10
189.5384835163
 20
299.9147480713
 30
0.0
 10
189.5861888813
 20
299.8997700947
 30
0.0
 10
189.7738860247
 20
299.8432773456
 30
0.0
 10
189.9643438128
 20
299.7958508823
 30
0.0
 10
190.1073444635
 20
299.7663596855
 30
0.0
  0
SPLINE
  5
463
100
AcDbEntity
  8
00_COMPONENTS_1
100
AcDbSpline
 62
7
  6
CONTINUOUS
 70
0
 71
3
 72
9
 73
5
 74
0
 42
0.0000001
 43
0.0000001
 44
0.0000000001
 40
0.0
 40
0.0
 40
0.0
 40
0.0
 40
0.2461600424
 40
1.0
 40
1.0
 40
1.0
 40
1.0
 10
191.7494839745
 20
299.7615292029
 30
0.0
 10
191.784570147
 20
299.768627954
 30
0.0
 10
191.9268111359
 20
299.7989016182
 30
0.0
 10
192.0678420169
 20
299.8348132996
 30
0.0
 10
192.1733007069
 20
299.8647480713
 30
0.0
  0
SPLINE
  5
464
100
AcDbEntity
  8
00_COMPONENTS_1
100
AcDbSpline
 62
7
  6
CONTINUOUS
 70
0
 71
3
 72
9
 73
5
 74
0
 42
0.0000001
 43
0.0000001
 44
0.0000000001
 40
0.0
 40
0.0
 40
0.0
 40
0.0
 40
0.2462241396
 40
1.0
 40
1.0
 40
1.0
 40
1.0
 10
189.5384835163
 20
299.9147480713
 30
0.0
 10
189.5731112005
 20
299.8995876238
 30
0.0
 10
189.7150579649
 20
299.8410398276
 30
0.0
 10
189.861954958
 20
299.7946372416
 30
0.0
 10
189.9741380025
 20
299.7662386122
 30
0.0
  0
SPLINE
  5
465
100
AcDbEntity
  8
00_COMPONENTS_1
100
AcDbSpline
 62
7
  6
CONTINUOUS
 70
0
 71
3
 72
9
 73
5
 74
0
 42
0.0000001
 43
0.0000001
 44
0.0000000001
 40
0.0
 40
0.0
 40
0.0
 40
0.0
 40
0.2461010597
 40
1.0
 40
1.0
 40
1.0
 40
1.0
 10
192.1733007069
 20
299.8647480713
 30
0.0
 10
192.1394936541
 20
299.8518544394
 30
0.0
 10
192.0010844909
 20
299.8022118017
 30
0.0
 10
191.8587880425
 20
299.7635387821
 30
0.0
 10
191.7504182254
 20
299.7402689762
 30
0.0
  0
LINE
  5
466
100
AcDbEntity
  8
00_COMPONENTS_1
100
AcDbLine
 62
7
  6
CONTINUOUS
 10
430.2756559217
 20
299.7352519287
 11
430.2713941909
 21
299.7355461985
  0
LINE
  5
467
100
AcDbEntity
  8
00_COMPONENTS_1
100
AcDbLine
 62
7
  6
CONTINUOUS
 10
430.2713941909
 20
299.7355461985
 11
430.267032347
 21
299.7359808666
  0
SPLINE
  5
468
100
AcDbEntity
  8
00_COMPONENTS_1
100
AcDbSpline
 62
7
  6
CONTINUOUS
 70
0
 71
3
 72
9
 73
5
 74
0
 42
0.0000001
 43
0.0000001
 44
0.0000000001
 40
0.0
 40
0.0
 40
0.0
 40
0.0
 40
0.2550944233
 40
1.0
 40
1.0
 40
1.0
 40
1.0
 10
429.5384835163
 20
299.9147480713
 30
0.0
 10
429.5861888813
 20
299.8997700947
 30
0.0
 10
429.7738860247
 20
299.8432773456
 30
0.0
 10
429.9643438128
 20
299.7958508823
 30
0.0
 10
430.1073444635
 20
299.7663596855
 30
0.0
  0
SPLINE
  5
469
100
AcDbEntity
  8
00_COMPONENTS_1
100
AcDbSpline
 62
7
  6
CONTINUOUS
 70
0
 71
3
 72
9
 73
5
 74
0
 42
0.0000001
 43
0.0000001
 44
0.0000000001
 40
0.0
 40
0.0
 40
0.0
 40
0.0
 40
0.2461600424
 40
1.0
 40
1.0
 40
1.0
 40
1.0
 10
431.7494839745
 20
299.7615292029
 30
0.0
 10
431.784570147
 20
299.768627954
 30
0.0
 10
431.9268111359
 20
299.7989016182
 30
0.0
 10
432.0678420169
 20
299.8348132996
 30
0.0
 10
432.1733007069
 20
299.8647480713
 30
0.0
  0
SPLINE
  5
46A
100
AcDbEntity
  8
00_COMPONENTS_1
100
AcDbSpline
 62
7
  6
CONTINUOUS
 70
0
 71
3
 72
9
 73
5
 74
0
 42
0.0000001
 43
0.0000001
 44
0.0000000001
 40
0.0
 40
0.0
 40
0.0
 40
0.0
 40
0.2462241396
 40
1.0
 40
1.0
 40
1.0
 40
1.0
 10
429.5384835163
 20
299.9147480713
 30
0.0
 10
429.5731112005
 20
299.8995876238
 30
0.0
 10
429.7150579649
 20
299.8410398276
 30
0.0
 10
429.861954958
 20
299.7946372416
 30
0.0
 10
429.9741380025
 20
299.7662386122
 30
0.0
  0
SPLINE
  5
46B
100
AcDbEntity
  8
00_COMPONENTS_1
100
AcDbSpline
 62
7
  6
CONTINUOUS
 70
0
 71
3
 72
9
 73
5
 74
0
 42
0.0000001
 43
0.0000001
 44
0.0000000001
 40
0.0
 40
0.0
 40
0.0
 40
0.0
 40
0.2461010597
 40
1.0
 40
1.0
 40
1.0
 40
1.0
 10
432.1733007069
 20
299.8647480713
 30
0.0
 10
432.1394936541
 20
299.8518544394
 30
0.0
 10
432.0010844909
 20
299.8022118017
 30
0.0
 10
431.8587880425
 20
299.7635387821
 30
0.0
 10
431.7504182254
 20
299.7402689762
 30
0.0
  0
LINE
  5
46C
100
AcDbEntity
  8
00_COMPONENTS_1
100
AcDbLine
 62
7
  6
CONTINUOUS
 10
310.2756559217
 20
299.7352519287
 11
310.2713941909
 21
299.7355461985
  0
LINE
  5
46D
100
AcDbEntity
  8
00_COMPONENTS_1
100
AcDbLine
 62
7
  6
CONTINUOUS
 10
310.2713941909
 20
299.7355461985
 11
310.267032347
 21
299.7359808666
  0
SPLINE
  5
46E
100
AcDbEntity
  8
00_COMPONENTS_1
100
AcDbSpline
 62
7
  6
CONTINUOUS
 70
0
 71
3
 72
9
 73
5
 74
0
 42
0.0000001
 43
0.0000001
 44
0.0000000001
 40
0.0
 40
0.0
 40
0.0
 40
0.0
 40
0.2550944233
 40
1.0
 40
1.0
 40
1.0
 40
1.0
 10
309.5384835163
 20
299.9147480713
 30
0.0
 10
309.5861888813
 20
299.8997700947
 30
0.0
 10
309.7738860247
 20
299.8432773456
 30
0.0
 10
309.9643438128
 20
299.7958508823
 30
0.0
 10
310.1073444635
 20
299.7663596855
 30
0.0
  0
SPLINE
  5
46F
100
AcDbEntity
  8
00_COMPONENTS_1
100
AcDbSpline
 62
7
  6
CONTINUOUS
 70
0
 71
3
 72
9
 73
5
 74
0
 42
0.0000001
 43
0.0000001
 44
0.0000000001
 40
0.0
 40
0.0
 40
0.0
 40
0.0
 40
0.2461600424
 40
1.0
 40
1.0
 40
1.0
 40
1.0
 10
311.7494839745
 20
299.7615292029
 30
0.0
 10
311.784570147
 20
299.768627954
 30
0.0
 10
311.9268111359
 20
299.7989016182
 30
0.0
 10
312.0678420169
 20
299.8348132996
 30
0.0
 10
312.1733007069
 20
299.8647480713
 30
0.0
  0
SPLINE
  5
470
100
AcDbEntity
  8
00_COMPONENTS_1
100
AcDbSpline
 62
7
  6
CONTINUOUS
 70
0
 71
3
 72
9
 73
5
 74
0
 42
0.0000001
 43
0.0000001
 44
0.0000000001
 40
0.0
 40
0.0
 40
0.0
 40
0.0
 40
0.2462241396
 40
1.0
 40
1.0
 40
1.0
 40
1.0
 10
309.5384835163
 20
299.9147480713
 30
0.0
 10
309.5731112005
 20
299.8995876238
 30
0.0
 10
309.7150579649
 20
299.8410398276
 30
0.0
 10
309.861954958
 20
299.7946372416
 30
0.0
 10
309.9741380025
 20
299.7662386122
 30
0.0
  0
SPLINE
  5
471
100
AcDbEntity
  8
00_COMPONENTS_1
100
AcDbSpline
 62
7
  6
CONTINUOUS
 70
0
 71
3
 72
9
 73
5
 74
0
 42
0.0000001
 43
0.0000001
 44
0.0000000001
 40
0.0
 40
0.0
 40
0.0
 40
0.0
 40
0.2461010597
 40
1.0
 40
1.0
 40
1.0
 40
1.0
 10
312.1733007069
 20
299.8647480713
 30
0.0
 10
312.1394936541
 20
299.8518544394
 30
0.0
 10
312.0010844909
 20
299.8022118017
 30
0.0
 10
311.8587880425
 20
299.7635387821
 30
0.0
 10
311.7504182254
 20
299.7402689762
 30
0.0
  0
SPLINE
  5
472
100
AcDbEntity
  8
00_COMPONENTS_7
100
AcDbSpline
 62
7
  6
CONTINUOUS
 70
0
 71
3
 72
11
 73
7
 74
0
 42
0.0000001
 43
0.0000001
 44
0.0000000001
 40
0.0
 40
0.0
 40
0.0
 40
0.0
 40
0.2499881895
 40
0.4999989287
 40
0.7500059521
 40
1.0
 40
1.0
 40
1.0
 40
1.0
 10
157.7817041953
 20
701.3690648548
 30
0.0
 10
157.8207369003
 20
701.3692507011
 30
0.0
 10
157.899377529
 20
701.3800533463
 30
0.0
 10
158.0065653454
 20
701.4317024787
 30
0.0
 10
158.0937999619
 20
701.5119003487
 30
0.0
 10
158.1357230216
 20
701.5793622195
 30
0.0
 10
158.1505896925
 20
701.6154543253
 30
0.0
  0
SPLINE
  5
473
100
AcDbEntity
  8
00_COMPONENTS_7
100
AcDbSpline
 62
7
  6
CONTINUOUS
 70
0
 71
3
 72
11
 73
7
 74
0
 42
0.0000001
 43
0.0000001
 44
0.0000000001
 40
0.0
 40
0.0
 40
0.0
 40
0.0
 40
0.2499946723
 40
0.5000008177
 40
0.750010524
 40
1.0
 40
1.0
 40
1.0
 40
1.0
 10
167.0190351154
 20
701.6154630211
 30
0.0
 10
167.0339004231
 20
701.5793694145
 30
0.0
 10
167.0758236292
 20
701.5119055293
 30
0.0
 10
167.163058627
 20
701.4317048894
 30
0.0
 10
167.270248478
 20
701.3800548579
 30
0.0
 10
167.3488905191
 20
701.3692507058
 30
0.0
 10
167.3879241959
 20
701.3690648548
 30
0.0
  0
SPLINE
  5
474
100
AcDbEntity
  8
00_COMPONENTS_7
100
AcDbSpline
 62
7
  6
CONTINUOUS
 70
0
 71
3
 72
11
 73
7
 74
0
 42
0.0000001
 43
0.0000001
 44
0.0000000001
 40
0.0
 40
0.0
 40
0.0
 40
0.0
 40
0.2499879454
 40
0.4999988627
 40
0.7500057961
 40
1.0
 40
1.0
 40
1.0
 40
1.0
 10
167.3879239068
 20
698.1604601989
 30
0.0
 10
167.3488913161
 20
698.1602609947
 30
0.0
 10
167.2702444597
 20
698.1495127325
 30
0.0
 10
167.163070187
 20
698.0977970632
 30
0.0
 10
167.0759007991
 20
698.0175541786
 30
0.0
 10
167.0339076796
 20
697.9501330637
 30
0.0
 10
167.0190526731
 20
697.9140361401
 30
0.0
  0
SPLINE
  5
475
100
AcDbEntity
  8
00_COMPONENTS_15
100
AcDbSpline
 62
7
  6
CONTINUOUS
 70
0
 71
3
 72
8
 73
4
 74
0
 42
0.0000001
 43
0.0000001
 44
0.0000000001
 40
0.0
 40
0.0
 40
0.0
 40
0.0
 40
1.0
 40
1.0
 40
1.0
 40
1.0
 10
149.3375501959
 20
674.0649008873
 30
0.0
 10
149.1197596247
 20
674.4438341899
 30
0.0
 10
148.9607927249
 20
674.860905692
 30
0.0
 10
148.861017425
 20
675.2864266317
 30
0.0
  0
SPLINE
  5
476
100
AcDbEntity
  8
00_COMPONENTS_15
100
AcDbSpline
 62
7
  6
CONTINUOUS
 70
0
 71
3
 72
9
 73
5
 74
0
 42
0.0000001
 43
0.0000001
 44
0.0000000001
 40
0.0
 40
0.0
 40
0.0
 40
0.0
 40
0.5000371065
 40
1.0
 40
1.0
 40
1.0
 40
1.0
 10
150.1007547027
 20
673.3049175408
 30
0.0
 10
149.9438566875
 20
673.3953485445
 30
0.0
 10
149.6517359584
 20
673.6170459013
 30
0.0
 10
149.4277783201
 20
673.9079171128
 30
0.0
 10
149.3375501959
 20
674.0649008873
 30
0.0
  0
SPLINE
  5
477
100
AcDbEntity
  8
00_COMPONENTS_15
100
AcDbSpline
 62
7
  6
CONTINUOUS
 70
0
 71
3
 72
9
 73
5
 74
0
 42
0.0000001
 43
0.0000001
 44
0.0000000001
 40
0.0
 40
0.0
 40
0.0
 40
0.0
 40
0.4999630027
 40
1.0
 40
1.0
 40
1.0
 40
1.0
 10
175.8320675615
 20
674.0648823755
 30
0.0
 10
175.7418395288
 20
673.9079026642
 30
0.0
 10
175.5178842045
 20
673.6170391651
 30
0.0
 10
175.2257689174
 20
673.3953470351
 30
0.0
 10
175.0688740818
 20
673.3049178203
 30
0.0
  0
SPLINE
  5
478
100
AcDbEntity
  8
00_COMPONENTS_15
100
AcDbSpline
 62
7
  6
CONTINUOUS
 70
0
 71
3
 72
8
 73
4
 74
0
 42
0.0000001
 43
0.0000001
 44
0.0000000001
 40
0.0
 40
0.0
 40
0.0
 40
0.0
 40
1.0
 40
1.0
 40
1.0
 40
1.0
 10
176.3086109727
 20
675.2864266543
 30
0.0
 10
176.2088340647
 20
674.8608988558
 30
0.0
 10
176.0498635562
 20
674.4438206862
 30
0.0
 10
175.8320675615
 20
674.0648823755
 30
0.0
  0
SPLINE
  5
479
100
AcDbEntity
  8
00_COMPONENTS_15
100
AcDbSpline
 62
7
  6
CONTINUOUS
 70
0
 71
3
 72
9
 73
5
 74
0
 42
0.0000001
 43
0.0000001
 44
0.0000000001
 40
0.0
 40
0.0
 40
0.0
 40
0.0
 40
0.4999630017
 40
1.0
 40
1.0
 40
1.0
 40
1.0
 10
149.3375609141
 20
715.8646138905
 30
0.0
 10
149.4277889608
 20
716.0215936594
 30
0.0
 10
149.6517444041
 20
716.3124572213
 30
0.0
 10
149.9438598041
 20
716.5341493938
 30
0.0
 10
150.1007547084
 20
716.6245786051
 30
0.0
  0
SPLINE
  5
47A
100
AcDbEntity
  8
00_COMPONENTS_15
100
AcDbSpline
 62
7
  6
CONTINUOUS
 70
0
 71
3
 72
8
 73
4
 74
0
 42
0.0000001
 43
0.0000001
 44
0.0000000001
 40
0.0
 40
0.0
 40
0.0
 40
0.0
 40
1.0
 40
1.0
 40
1.0
 40
1.0
 10
148.8610174185
 20
714.6430694883
 30
0.0
 10
148.9607943376
 20
715.068597334
 30
0.0
 10
149.1197648817
 20
715.4856755454
 30
0.0
 10
149.3375609141
 20
715.8646138905
 30
0.0
  0
SPLINE
  5
47B
100
AcDbEntity
  8
00_COMPONENTS_15
100
AcDbSpline
 62
7
  6
CONTINUOUS
 70
0
 71
3
 72
9
 73
5
 74
0
 42
0.0000001
 43
0.0000001
 44
0.0000000001
 40
0.0
 40
0.0
 40
0.0
 40
0.0
 40
0.5000371072
 40
1.0
 40
1.0
 40
1.0
 40
1.0
 10
175.068873834
 20
716.6245785043
 30
0.0
 10
175.2257717829
 20
716.5341475012
 30
0.0
 10
175.5178924549
 20
716.3124502753
 30
0.0
 10
175.7418500124
 20
716.021579136
 30
0.0
 10
175.8320780955
 20
715.864595405
 30
0.0
  0
SPLINE
  5
47C
100
AcDbEntity
  8
00_COMPONENTS_15
100
AcDbSpline
 62
7
  6
CONTINUOUS
 70
0
 71
3
 72
8
 73
4
 74
0
 42
0.0000001
 43
0.0000001
 44
0.0000000001
 40
0.0
 40
0.0
 40
0.0
 40
0.0
 40
1.0
 40
1.0
 40
1.0
 40
1.0
 10
175.8320780955
 20
715.864595405
 30
0.0
 10
176.049868712
 20
715.485662061
 30
0.0
 10
176.2088356529
 20
715.0685905077
 30
0.0
 10
176.3086109662
 20
714.6430695109
 30
0.0
  0
SPLINE
  5
47D
100
AcDbEntity
  8
00_COMPONENTS_15
100
AcDbSpline
 62
7
  6
CONTINUOUS
 70
0
 71
3
 72
13
 73
9
 74
0
 42
0.0000001
 43
0.0000001
 44
0.0000000001
 40
0.0
 40
0.0
 40
0.0
 40
0.0
 40
0.0361125034
 40
0.1265187932
 40
0.2475646209
 40
0.3859539129
 40
0.6865978272
 40
1.0
 40
1.0
 40
1.0
 40
1.0
 10
156.600196434
 20
694.0462748404
 30
0.0
 10
156.595944551
 20
694.0532659098
 30
0.0
 10
156.6401541091
 20
694.0069675202
 30
0.0
 10
156.6609398215
 20
693.9889369739
 30
0.0
 10
156.7257518643
 20
693.9238167788
 30
0.0
 10
156.8130366611
 20
693.8391773538
 30
0.0
 10
156.9387081449
 20
693.719626596
 30
0.0
 10
157.0411318533
 20
693.6266592506
 30
0.0
 10
157.0942561465
 20
693.5795370476
 30
0.0
  0
SPLINE
  5
47E
100
AcDbEntity
  8
00_COMPONENTS_15
100
AcDbSpline
 62
7
  6
CONTINUOUS
 70
0
 71
3
 72
11
 73
7
 74
0
 42
0.0000001
 43
0.0000001
 44
0.0000000001
 40
0.0
 40
0.0
 40
0.0
 40
0.0
 40
0.3234900755
 40
0.6082502737
 40
0.8357629567
 40
1.0
 40
1.0
 40
1.0
 40
1.0
 10
174.1260914157
 20
673.0144488269
 30
0.0
 10
174.3220905195
 20
673.1069134365
 30
0.0
 10
174.6853604842
 20
673.2918559445
 30
0.0
 10
175.1725973
 20
673.5686529385
 30
0.0
 10
175.5473604062
 20
673.8241057142
 30
0.0
 10
175.7523351914
 20
673.9890664826
 30
0.0
 10
175.8320761672
 20
674.0648774292
 30
0.0
  0
SPLINE
  5
47F
100
AcDbEntity
  8
00_COMPONENTS_15
100
AcDbSpline
 62
7
  6
CONTINUOUS
 70
0
 71
3
 72
9
 73
5
 74
0
 42
0.0000001
 43
0.0000001
 44
0.0000000001
 40
0.0
 40
0.0
 40
0.0
 40
0.0
 40
0.237039588
 40
1.0
 40
1.0
 40
1.0
 40
1.0
 10
156.6531877699
 20
693.939030837
 30
0.0
 10
156.6517133492
 20
693.9484442082
 30
0.0
 10
156.6424516519
 20
693.9876056893
 30
0.0
 10
156.6213749144
 20
694.0240932759
 30
0.0
 10
156.6001860387
 20
694.0462647538
 30
0.0
  0
SPLINE
  5
480
100
AcDbEntity
  8
00_COMPONENTS_15
100
AcDbSpline
 62
7
  6
CONTINUOUS
 70
0
 71
3
 72
15
 73
11
 74
0
 42
0.0000001
 43
0.0000001
 44
0.0000000001
 40
0.0
 40
0.0
 40
0.0
 40
0.0
 40
0.1253069105
 40
0.2497541939
 40
0.3744272115
 40
0.5000172548
 40
0.625605628
 40
0.7502657642
 40
0.8747008439
 40
1.0
 40
1.0
 40
1.0
 40
1.0
 10
165.0862641931
 20
676.7401534579
 30
0.0
 10
165.0402954705
 20
676.4413050375
 30
0.0
 10
164.8454950569
 20
675.8567941325
 30
0.0
 10
164.2818622779
 20
675.1287740212
 30
0.0
 10
163.4968309115
 20
674.640292893
 30
0.0
 10
162.5846924867
 20
674.4684847141
 30
0.0
 10
161.6725989942
 20
674.640362572
 30
0.0
 10
160.8876643245
 20
675.1288766824
 30
0.0
 10
160.3241380353
 20
675.856857749
 30
0.0
 10
160.1292994961
 20
676.4413079355
 30
0.0
 10
160.0833543501
 20
676.7401410504
 30
0.0
  0
SPLINE
  5
481
100
AcDbEntity
  8
00_COMPONENTS_15
100
AcDbSpline
 62
7
  6
CONTINUOUS
 70
0
 71
3
 72
10
 73
6
 74
0
 42
0.0000001
 43
0.0000001
 44
0.0000000001
 40
0.0
 40
0.0
 40
0.0
 40
0.0
 40
0.1774054789
 40
0.41253856
 40
1.0
 40
1.0
 40
1.0
 40
1.0
 10
174.1260990691
 20
673.0144111572
 30
0.0
 10
174.0989550979
 20
673.3081126687
 30
0.0
 10
174.0415897791
 20
673.9916064168
 30
0.0
 10
173.8936796638
 20
675.6475793387
 30
0.0
 10
173.7411929557
 20
677.007195386
 30
0.0
 10
173.6091587539
 20
677.9749393572
 30
0.0
  0
SPLINE
  5
482
100
AcDbEntity
  8
00_COMPONENTS_15
100
AcDbSpline
 62
7
  6
CONTINUOUS
 70
0
 71
3
 72
10
 73
6
 74
0
 42
0.0000001
 43
0.0000001
 44
0.0000000001
 40
0.0
 40
0.0
 40
0.0
 40
0.0
 40
0.5001140373
 40
0.7502439912
 40
1.0
 40
1.0
 40
1.0
 40
1.0
 10
174.4662940829
 20
680.2170002327
 30
0.0
 10
174.4238677292
 20
679.8135189317
 30
0.0
 10
174.2997717022
 20
679.2097749888
 30
0.0
 10
173.9774527924
 20
678.4632743852
 30
0.0
 10
173.7476083864
 20
678.1228619484
 30
0.0
 10
173.6091637032
 20
677.974931728
 30
0.0
  0
SPLINE
  5
483
100
AcDbEntity
  8
00_COMPONENTS_15
100
AcDbSpline
 62
7
  6
CONTINUOUS
 70
0
 71
3
 72
15
 73
11
 74
0
 42
0.0000001
 43
0.0000001
 44
0.0000000001
 40
0.0
 40
0.0
 40
0.0
 40
0.0
 40
0.2503967421
 40
0.3758378569
 40
0.5014069199
 40
0.6267626263
 40
0.7507062214
 40
0.8127466354
 40
0.8749578678
 40
1.0
 40
1.0
 40
1.0
 40
1.0
 10
170.0239308964
 20
678.1792713931
 30
0.0
 10
169.9402452926
 20
677.5768619154
 30
0.0
 10
169.5771584198
 20
676.6891792206
 30
0.0
 10
168.7500069247
 20
675.7835435989
 30
0.0
 10
167.9640254566
 20
675.2901249853
 30
0.0
 10
167.0591477381
 20
675.0728763684
 30
0.0
 10
166.285348514
 20
675.2211107092
 30
0.0
 10
165.7749564397
 20
675.554283026
 30
0.0
 10
165.3647847703
 20
676.0071688207
 30
0.0
 10
165.1950215159
 20
676.4510311762
 30
0.0
 10
165.1456932208
 20
676.7507162995
 30
0.0
  0
SPLINE
  5
484
100
AcDbEntity
  8
00_COMPONENTS_15
100
AcDbSpline
 62
7
  6
CONTINUOUS
 70
0
 71
3
 72
11
 73
7
 74
0
 42
0.0000001
 43
0.0000001
 44
0.0000000001
 40
0.0
 40
0.0
 40
0.0
 40
0.0
 40
0.2464282725
 40
0.497289033
 40
0.7486576338
 40
1.0
 40
1.0
 40
1.0
 40
1.0
 10
165.1457050464
 20
689.3465897828
 30
0.0
 10
165.5863701938
 20
689.5538047466
 30
0.0
 10
166.4290307275
 20
690.0801228265
 30
0.0
 10
167.4713024318
 20
691.1500225314
 30
0.0
 10
168.2280102004
 20
692.4492992087
 30
0.0
 10
168.5079254662
 20
693.414725816
 30
0.0
 10
168.5865120123
 20
693.9051331604
 30
0.0
  0
SPLINE
  5
485
100
AcDbEntity
  8
00_COMPONENTS_15
100
AcDbSpline
 62
7
  6
CONTINUOUS
 70
0
 71
3
 72
8
 73
4
 74
0
 42
0.0000001
 43
0.0000001
 44
0.0000000001
 40
0.0
 40
0.0
 40
0.0
 40
0.0
 40
1.0
 40
1.0
 40
1.0
 40
1.0
 10
168.5865120123
 20
693.9051331604
 30
0.0
 10
168.5926869769
 20
693.9441320279
 30
0.0
 10
168.6118753676
 20
693.9826653261
 30
0.0
 10
168.6390771615
 20
694.0112853237
 30
0.0
  0
SPLINE
  5
486
100
AcDbEntity
  8
00_COMPONENTS_15
100
AcDbSpline
 62
7
  6
CONTINUOUS
 70
0
 71
3
 72
9
 73
5
 74
0
 42
0.0000001
 43
0.0000001
 44
0.0000000001
 40
0.0
 40
0.0
 40
0.0
 40
0.0
 40
0.2510482946
 40
1.0
 40
1.0
 40
1.0
 40
1.0
 10
168.6390771615
 20
694.0112853237
 30
0.0
 10
168.7771967993
 20
694.1561615364
 30
0.0
 10
169.3067249587
 20
694.7525947295
 30
0.0
 10
169.7504371611
 20
695.4251064834
 30
0.0
 10
170.0239384317
 20
695.9559438625
 30
0.0
  0
SPLINE
  5
487
100
AcDbEntity
  8
00_COMPONENTS_15
100
AcDbSpline
 62
7
  6
CONTINUOUS
 70
0
 71
3
 72
17
 73
13
 74
0
 42
0.0000001
 43
0.0000001
 44
0.0000000001
 40
0.0
 40
0.0
 40
0.0
 40
0.0
 40
0.3076990941
 40
0.4578030539
 40
0.6034001371
 40
0.7416297256
 40
0.8057238626
 40
0.8650358332
 40
0.9179755051
 40
0.960896477
 40
0.9896312156
 40
1.0
 40
1.0
 40
1.0
 40
1.0
 10
168.2081259439
 20
693.4299882221
 30
0.0
 10
168.2413813034
 20
693.4811772486
 30
0.0
 10
168.290037603
 20
693.557872838
 30
0.0
 10
168.3525644567
 20
693.6599607687
 30
0.0
 10
168.396806721
 20
693.7337837095
 30
0.0
 10
168.4317124773
 20
693.7934043289
 30
0.0
 10
168.4577491353
 20
693.8381676348
 30
0.0
 10
168.4751950292
 20
693.8688581319
 30
0.0
 10
168.4905734192
 20
693.8943854561
 30
0.0
 10
168.5027326395
 20
693.9189614667
 30
0.0
 10
168.5112770359
 20
693.9267115441
 30
0.0
 10
168.5149633366
 20
693.9404012289
 30
0.0
 10
168.5164314332
 20
693.9389603995
 30
0.0
  0
SPLINE
  5
488
100
AcDbEntity
  8
00_COMPONENTS_15
100
AcDbSpline
 62
7
  6
CONTINUOUS
 70
0
 71
3
 72
16
 73
12
 74
0
 42
0.0000001
 43
0.0000001
 44
0.0000000001
 40
0.0
 40
0.0
 40
0.0
 40
0.0
 40
0.0629162677
 40
0.1254125617
 40
0.2487543109
 40
0.3731342559
 40
0.4987391274
 40
0.6242898013
 40
0.7492722358
 40
0.8743366979
 40
1.0
 40
1.0
 40
1.0
 40
1.0
 10
160.0833543501
 20
676.7401410504
 30
0.0
 10
160.0534541619
 20
676.5863917433
 30
0.0
 10
159.974787559
 20
676.2818919956
 30
0.0
 10
159.683287581
 20
675.7298827022
 30
0.0
 10
159.0729546753
 20
675.1982979793
 30
0.0
 10
158.1261101127
 20
675.0089576048
 30
0.0
 10
157.1939861471
 20
675.2202574046
 30
0.0
 10
156.3830324107
 20
675.7160346928
 30
0.0
 10
155.7443235411
 20
676.4121528869
 30
0.0
 10
155.2847953545
 20
677.2379060513
 30
0.0
 10
155.1302537737
 20
677.8489523708
 30
0.0
 10
155.0781126226
 20
678.1574146941
 30
0.0
  0
SPLINE
  5
489
100
AcDbEntity
  8
00_COMPONENTS_15
100
AcDbSpline
 62
7
  6
CONTINUOUS
 70
0
 71
3
 72
17
 73
13
 74
0
 42
0.0000001
 43
0.0000001
 44
0.0000000001
 40
0.0
 40
0.0
 40
0.0
 40
0.0
 40
0.0103437591
 40
0.0390955524
 40
0.0820230105
 40
0.1349596082
 40
0.194270446
 40
0.2583662999
 40
0.3966021793
 40
0.5422019356
 40
0.6923047878
 40
1.0
 40
1.0
 40
1.0
 40
1.0
 10
156.6531997957
 20
693.9389548689
 30
0.0
 10
156.6545711896
 20
693.9404813319
 30
0.0
 10
156.658477161
 20
693.9265923666
 30
0.0
 10
156.6668244999
 20
693.9190298341
 30
0.0
 10
156.6790838872
 20
693.8943568986
 30
0.0
 10
156.6944258072
 20
693.8688641515
 30
0.0
 10
156.7118831326
 20
693.8381633149
 30
0.0
 10
156.7379157627
 20
693.7934035192
 30
0.0
 10
156.7728245267
 20
693.7337793693
 30
0.0
 10
156.817066267
 20
693.6599565933
 30
0.0
 10
156.8795925742
 20
693.5578698609
 30
0.0
 10
156.9282478676
 20
693.4811760916
 30
0.0
 10
156.9615023084
 20
693.4299881361
 30
0.0
  0
SPLINE
  5
48A
100
AcDbEntity
  8
00_COMPONENTS_15
100
AcDbSpline
 62
7
  6
CONTINUOUS
 70
0
 71
3
 72
9
 73
5
 74
0
 42
0.0000001
 43
0.0000001
 44
0.0000000001
 40
0.0
 40
0.0
 40
0.0
 40
0.0
 40
0.2370415707
 40
1.0
 40
1.0
 40
1.0
 40
1.0
 10
168.5164424899
 20
693.9390301007
 30
0.0
 10
168.5179165466
 20
693.9484437932
 30
0.0
 10
168.5271761896
 20
693.9876065072
 30
0.0
 10
168.5482492678
 20
694.0240965684
 30
0.0
 10
168.5694357042
 20
694.0462710746
 30
0.0
  0
SPLINE
  5
48B
100
AcDbEntity
  8
00_COMPONENTS_15
100
AcDbSpline
 62
7
  6
CONTINUOUS
 70
0
 71
3
 72
8
 73
4
 74
0
 42
0.0000001
 43
0.0000001
 44
0.0000000001
 40
0.0
 40
0.0
 40
0.0
 40
0.0
 40
1.0
 40
1.0
 40
1.0
 40
1.0
 10
155.0786742271
 20
678.1653156902
 30
0.0
 10
155.0913144456
 20
678.1694294616
 30
0.0
 10
155.1042370221
 20
678.1726637706
 30
0.0
 10
155.1168007233
 20
678.1770056195
 30
0.0
  0
SPLINE
  5
48C
100
AcDbEntity
  8
00_COMPONENTS_15
100
AcDbSpline
 62
7
  6
CONTINUOUS
 70
0
 71
3
 72
8
 73
4
 74
0
 42
0.0000001
 43
0.0000001
 44
0.0000000001
 40
0.0
 40
0.0
 40
0.0
 40
0.0
 40
1.0
 40
1.0
 40
1.0
 40
1.0
 10
155.1168027993
 20
678.1781476188
 30
0.0
 10
155.1256289955
 20
678.1797818268
 30
0.0
 10
155.1347353484
 20
678.1789921518
 30
0.0
 10
155.1437019037
 20
678.1794083973
 30
0.0
  0
SPLINE
  5
48D
100
AcDbEntity
  8
00_COMPONENTS_15
100
AcDbSpline
 62
7
  6
CONTINUOUS
 70
0
 71
3
 72
8
 73
4
 74
0
 42
0.0000001
 43
0.0000001
 44
0.0000000001
 40
0.0
 40
0.0
 40
0.0
 40
0.0
 40
1.0
 40
1.0
 40
1.0
 40
1.0
 10
155.0335822517
 20
678.1792841153
 30
0.0
 10
155.0613250019
 20
678.1792516595
 30
0.0
 10
155.0891608669
 20
678.1805108404
 30
0.0
 10
155.1168027993
 20
678.1781476188
 30
0.0
  0
SPLINE
  5
48E
100
AcDbEntity
  8
00_COMPONENTS_15
100
AcDbSpline
 62
7
  6
CONTINUOUS
 70
0
 71
3
 72
8
 73
4
 74
0
 42
0.0000001
 43
0.0000001
 44
0.0000000001
 40
0.0
 40
0.0
 40
0.0
 40
0.0
 40
1.0
 40
1.0
 40
1.0
 40
1.0
 10
155.0786742271
 20
678.1653156902
 30
0.0
 10
155.0664832036
 20
678.1752645241
 30
0.0
 10
155.049087095
 20
678.1766007994
 30
0.0
 10
155.0335822517
 20
678.1792841153
 30
0.0
  0
SPLINE
  5
48F
100
AcDbEntity
  8
00_COMPONENTS_15
100
AcDbSpline
 62
7
  6
CONTINUOUS
 70
0
 71
3
 72
17
 73
13
 74
0
 42
0.0000001
 43
0.0000001
 44
0.0000000001
 40
0.0
 40
0.0
 40
0.0
 40
0.0
 40
0.1246076377
 40
0.2479215922
 40
0.3723010578
 40
0.4979430131
 40
0.623496591
 40
0.6862099562
 40
0.7488615049
 40
0.874080155
 40
0.9369595062
 40
1.0
 40
1.0
 40
1.0
 40
1.0
 10
160.0239119804
 20
676.7507038159
 30
0.0
 10
159.973719177
 20
676.4517512004
 30
0.0
 10
159.7539766748
 20
675.8645516078
 30
0.0
 10
159.0347930916
 20
675.2465401604
 30
0.0
 10
158.1064497806
 20
675.0728041218
 30
0.0
 10
157.1978829473
 20
675.291553919
 30
0.0
 10
156.5446743824
 20
675.7082279242
 30
0.0
 10
156.1006511314
 20
676.129226739
 30
0.0
 10
155.7212855201
 20
676.6081838357
 30
0.0
 10
155.4233957005
 20
677.14773808
 30
0.0
 10
155.2276655981
 20
677.7273945416
 30
0.0
 10
155.1629366669
 20
678.0281332269
 30
0.0
 10
155.1441759189
 20
678.1803419765
 30
0.0
  0
SPLINE
  5
490
100
AcDbEntity
  8
00_COMPONENTS_15
100
AcDbSpline
 62
7
  6
CONTINUOUS
 70
0
 71
3
 72
9
 73
5
 74
0
 42
0.0000001
 43
0.0000001
 44
0.0000000001
 40
0.0
 40
0.0
 40
0.0
 40
0.0
 40
0.7489515861
 40
1.0
 40
1.0
 40
1.0
 40
1.0
 10
155.1456969962
 20
695.9559316064
 30
0.0
 10
155.4191964583
 20
695.4250990388
 30
0.0
 10
155.8629923329
 20
694.7526612259
 30
0.0
 10
156.3924326851
 20
694.1561603896
 30
0.0
 10
156.5305512297
 20
694.0112853237
 30
0.0
  0
SPLINE
  5
491
100
AcDbEntity
  8
00_COMPONENTS_15
100
AcDbSpline
 62
7
  6
CONTINUOUS
 70
0
 71
3
 72
8
 73
4
 74
0
 42
0.0000001
 43
0.0000001
 44
0.0000000001
 40
0.0
 40
0.0
 40
0.0
 40
0.0
 40
1.0
 40
1.0
 40
1.0
 40
1.0
 10
156.5305512297
 20
694.0112853237
 30
0.0
 10
156.5577530236
 20
693.9826653261
 30
0.0
 10
156.5769413282
 20
693.9441320143
 30
0.0
 10
156.583116379
 20
693.9051331604
 30
0.0
  0
SPLINE
  5
492
100
AcDbEntity
  8
00_COMPONENTS_15
100
AcDbSpline
 62
7
  6
CONTINUOUS
 70
0
 71
3
 72
11
 73
7
 74
0
 42
0.0000001
 43
0.0000001
 44
0.0000000001
 40
0.0
 40
0.0
 40
0.0
 40
0.0
 40
0.2513457098
 40
0.5027108834
 40
0.7535699401
 40
1.0
 40
1.0
 40
1.0
 40
1.0
 10
156.583116379
 20
693.9051331604
 30
0.0
 10
156.6617037338
 20
693.4147207687
 30
0.0
 10
156.9414289253
 20
692.4492054913
 30
0.0
 10
157.6986106074
 20
691.1502396678
 30
0.0
 10
158.7404624452
 20
690.0799802084
 30
0.0
 10
159.5832511384
 20
689.5538086299
 30
0.0
 10
160.0239181242
 20
689.3465927208
 30
0.0
  0
SPLINE
  5
493
100
AcDbEntity
  8
00_COMPONENTS_15
100
AcDbSpline
 62
7
  6
CONTINUOUS
 70
0
 71
3
 72
8
 73
4
 74
0
 42
0.0000001
 43
0.0000001
 44
0.0000000001
 40
0.0
 40
0.0
 40
0.0
 40
0.0
 40
1.0
 40
1.0
 40
1.0
 40
1.0
 10
156.6001279882
 20
694.0462092532
 30
0.0
 10
156.5771622528
 20
694.0341706555
 30
0.0
 10
156.553562364
 20
694.023368491
 30
0.0
 10
156.5305973291
 20
694.0113285572
 30
0.0
  0
SPLINE
  5
494
100
AcDbEntity
  8
00_COMPONENTS_15
100
AcDbSpline
 62
7
  6
CONTINUOUS
 70
0
 71
3
 72
8
 73
4
 74
0
 42
0.0000001
 43
0.0000001
 44
0.0000000001
 40
0.0
 40
0.0
 40
0.0
 40
0.0
 40
1.0
 40
1.0
 40
1.0
 40
1.0
 10
156.5305973291
 20
705.5181675854
 30
0.0
 10
156.5535623615
 20
705.5061277318
 30
0.0
 10
156.577162192
 20
705.4953255445
 30
0.0
 10
156.6001279239
 20
705.4832870253
 30
0.0
  0
SPLINE
  5
495
100
AcDbEntity
  8
00_COMPONENTS_15
100
AcDbSpline
 62
7
  6
CONTINUOUS
 70
0
 71
3
 72
13
 73
9
 74
0
 42
0.0000001
 43
0.0000001
 44
0.0000000001
 40
0.0
 40
0.0
 40
0.0
 40
0.0
 40
0.0361777511
 40
0.126015339
 40
0.2475191358
 40
0.385712063
 40
0.6865047018
 40
1.0
 40
1.0
 40
1.0
 40
1.0
 10
156.6001964558
 20
705.4832213891
 30
0.0
 10
156.596283262
 20
705.4760184324
 30
0.0
 10
156.6395784319
 20
705.5226063644
 30
0.0
 10
156.6610617703
 20
705.5403350322
 30
0.0
 10
156.725546032
 20
705.605603601
 30
0.0
 10
156.8130278866
 20
705.6902240122
 30
0.0
 10
156.9386287443
 20
705.8098353607
 30
0.0
 10
157.0411207568
 20
705.9028175879
 30
0.0
 10
157.0942561184
 20
705.9499590702
 30
0.0
  0
SPLINE
  5
496
100
AcDbEntity
  8
00_COMPONENTS_15
100
AcDbSpline
 62
7
  6
CONTINUOUS
 70
0
 71
3
 72
15
 73
11
 74
0
 42
0.0000001
 43
0.0000001
 44
0.0000000001
 40
0.0
 40
0.0
 40
0.0
 40
0.0
 40
0.12480478
 40
0.1870657026
 40
0.2492817313
 40
0.3738005847
 40
0.4996455909
 40
0.6253727233
 40
0.7506351985
 40
1.0
 40
1.0
 40
1.0
 40
1.0
 10
165.0862641931
 20
676.7401534579
 30
0.0
 10
165.1377012902
 20
676.4337923783
 30
0.0
 10
165.3119983549
 20
675.9801108063
 30
0.0
 10
165.7306435355
 20
675.5147356351
 30
0.0
 10
166.2529777368
 20
675.1689019286
 30
0.0
 10
167.0470998992
 20
675.0083006984
 30
0.0
 10
167.9800064604
 20
675.2214035723
 30
0.0
 10
168.7909327192
 20
675.7211729576
 30
0.0
 10
169.6408420264
 20
676.6441173035
 30
0.0
 10
170.009019917
 20
677.5540411951
 30
0.0
 10
170.0891714943
 20
678.1695333729
 30
0.0
  0
SPLINE
  5
497
100
AcDbEntity
  8
00_COMPONENTS_15
100
AcDbSpline
 62
7
  6
CONTINUOUS
 70
0
 71
3
 72
14
 73
10
 74
0
 42
0.0000001
 43
0.0000001
 44
0.0000000001
 40
0.0
 40
0.0
 40
0.0
 40
0.0
 40
0.1254204531
 40
0.2493721968
 40
0.372509321
 40
0.4967325528
 40
0.6223096727
 40
0.748469943
 40
1.0
 40
1.0
 40
1.0
 40
1.0
 10
170.0891714943
 20
678.1695333729
 30
0.0
 10
170.1212294447
 20
677.9810264991
 30
0.0
 10
170.2301356955
 20
677.6109109184
 30
0.0
 10
170.5702118339
 20
677.137428947
 30
0.0
 10
171.0833797215
 20
676.854234145
 30
0.0
 10
171.6641168737
 20
676.8115318763
 30
0.0
 10
172.22692474
 20
676.9508507291
 30
0.0
 10
172.914985017
 20
677.2999379932
 30
0.0
 10
173.3536179133
 20
677.6890131398
 30
0.0
 10
173.6091587539
 20
677.9749393572
 30
0.0
  0
SPLINE
  5
498
100
AcDbEntity
  8
00_COMPONENTS_15
100
AcDbSpline
 62
7
  6
CONTINUOUS
 70
0
 71
3
 72
15
 73
11
 74
0
 42
0.0000001
 43
0.0000001
 44
0.0000000001
 40
0.0
 40
0.0
 40
0.0
 40
0.0
 40
0.1254110077
 40
0.2494002466
 40
0.3725654361
 40
0.4968241402
 40
0.6222747331
 40
0.7482320184
 40
0.8741928699
 40
1.0
 40
1.0
 40
1.0
 40
1.0
 10
155.0781126226
 20
678.1574146941
 30
0.0
 10
155.0403263755
 20
677.9703897253
 30
0.0
 10
154.9374741914
 20
677.5998651011
 30
0.0
 10
154.5906915734
 20
677.1309015379
 30
0.0
 10
154.0774308362
 20
676.851825474
 30
0.0
 10
153.4976280071
 20
676.8125287292
 30
0.0
 10
152.9371820822
 20
676.9532306096
 30
0.0
 10
152.4222459734
 20
677.2151383818
 30
0.0
 10
151.9605301744
 20
677.5614022682
 30
0.0
 10
151.690279106
 20
677.8341753508
 30
0.0
 10
151.5605081653
 20
677.9748735738
 30
0.0
  0
SPLINE
  5
499
100
AcDbEntity
  8
00_COMPONENTS_15
100
AcDbSpline
 62
7
  6
CONTINUOUS
 70
0
 71
3
 72
9
 73
5
 74
0
 42
0.0000001
 43
0.0000001
 44
0.0000000001
 40
0.0
 40
0.0
 40
0.0
 40
0.0
 40
0.6339306056
 40
1.0
 40
1.0
 40
1.0
 40
1.0
 10
174.2056852927
 20
672.8628934971
 30
0.0
 10
174.3870807948
 20
672.9582717697
 30
0.0
 10
174.6730212646
 20
673.1087327383
 30
0.0
 10
174.9602323333
 20
673.2579801296
 30
0.0
 10
175.068872568
 20
673.304916855
 30
0.0
  0
SPLINE
  5
49A
100
AcDbEntity
  8
00_COMPONENTS_15
100
AcDbSpline
 62
7
  6
CONTINUOUS
 70
0
 71
3
 72
9
 73
5
 74
0
 42
0.0000001
 43
0.0000001
 44
0.0000000001
 40
0.0
 40
0.0
 40
0.0
 40
0.0
 40
0.3660693854
 40
1.0
 40
1.0
 40
1.0
 40
1.0
 10
150.1007558213
 20
673.3049168583
 30
0.0
 10
150.2093956065
 20
673.2579803623
 30
0.0
 10
150.4966054618
 20
673.1087335999
 30
0.0
 10
150.7825447369
 20
672.9582732995
 30
0.0
 10
150.9639394646
 20
672.8628954107
 30
0.0
  0
SPLINE
  5
49B
100
AcDbEntity
  8
00_COMPONENTS_15
100
AcDbSpline
 62
7
  6
CONTINUOUS
 70
0
 71
3
 72
8
 73
4
 74
0
 42
0.0000001
 43
0.0000001
 44
0.0000000001
 40
0.0
 40
0.0
 40
0.0
 40
0.0
 40
1.0
 40
1.0
 40
1.0
 40
1.0
 10
170.0909541662
 20
711.7641804468
 30
0.0
 10
170.1031450177
 20
711.7542314041
 30
0.0
 10
170.1205412957
 20
711.7528953336
 30
0.0
 10
170.1360461394
 20
711.7502120273
 30
0.0
  0
SPLINE
  5
49C
100
AcDbEntity
  8
00_COMPONENTS_15
100
AcDbSpline
 62
7
  6
CONTINUOUS
 70
0
 71
3
 72
8
 73
4
 74
0
 42
0.0000001
 43
0.0000001
 44
0.0000000001
 40
0.0
 40
0.0
 40
0.0
 40
0.0
 40
1.0
 40
1.0
 40
1.0
 40
1.0
 10
170.1360461394
 20
711.7502120273
 30
0.0
 10
170.1083034228
 20
711.750244483
 30
0.0
 10
170.0804675946
 20
711.7489853354
 30
0.0
 10
170.0528256923
 20
711.7513485148
 30
0.0
  0
SPLINE
  5
49D
100
AcDbEntity
  8
00_COMPONENTS_15
100
AcDbSpline
 62
7
  6
CONTINUOUS
 70
0
 71
3
 72
15
 73
11
 74
0
 42
0.0000001
 43
0.0000001
 44
0.0000000001
 40
0.0
 40
0.0
 40
0.0
 40
0.0
 40
0.1254110076
 40
0.2494002465
 40
0.372565436
 40
0.4968241401
 40
0.622274733
 40
0.7482320183
 40
0.8741928699
 40
1.0
 40
1.0
 40
1.0
 40
1.0
 10
170.0915157732
 20
711.7720814683
 30
0.0
 10
170.1293020193
 20
711.9591064363
 30
0.0
 10
170.2321542083
 20
712.3296310577
 30
0.0
 10
170.5789368295
 20
712.7985946148
 30
0.0
 10
171.0921975676
 20
713.0776706716
 30
0.0
 10
171.6720003942
 20
713.116967412
 30
0.0
 10
172.232446316
 20
712.9762655301
 30
0.0
 10
172.7473824221
 20
712.7143577581
 30
0.0
 10
173.2090982186
 20
712.3680938727
 30
0.0
 10
173.4793492858
 20
712.0953207913
 30
0.0
 10
173.6091202259
 20
711.9546225688
 30
0.0
  0
SPLINE
  5
49E
100
AcDbEntity
  8
00_COMPONENTS_15
100
AcDbSpline
 62
7
  6
CONTINUOUS
 70
0
 71
3
 72
9
 73
5
 74
0
 42
0.0000001
 43
0.0000001
 44
0.0000000001
 40
0.0
 40
0.0
 40
0.0
 40
0.0
 40
0.6339305847
 40
1.0
 40
1.0
 40
1.0
 40
1.0
 10
150.9639423286
 20
717.066602238
 30
0.0
 10
150.7825470024
 20
716.971224042
 30
0.0
 10
150.496606776
 20
716.8207632396
 30
0.0
 10
150.2093959815
 20
716.6715159456
 30
0.0
 10
150.1007558267
 20
716.6245792871
 30
0.0
  0
SPLINE
  5
49F
100
AcDbEntity
  8
00_COMPONENTS_15
100
AcDbSpline
 62
7
  6
CONTINUOUS
 70
0
 71
3
 72
9
 73
5
 74
0
 42
0.0000001
 43
0.0000001
 44
0.0000000001
 40
0.0
 40
0.0
 40
0.0
 40
0.0
 40
0.3660693694
 40
1.0
 40
1.0
 40
1.0
 40
1.0
 10
175.0688726308
 20
716.6245792561
 30
0.0
 10
174.960232829
 20
716.6715157212
 30
0.0
 10
174.673022974
 20
716.8207625419
 30
0.0
 10
174.3870836645
 20
716.9712228205
 30
0.0
 10
174.2056889257
 20
717.0666007297
 30
0.0
  0
SPLINE
  5
4A0
100
AcDbEntity
  8
00_COMPONENTS_15
100
AcDbSpline
 62
7
  6
CONTINUOUS
 70
0
 71
3
 72
11
 73
7
 74
0
 42
0.0000001
 43
0.0000001
 44
0.0000000001
 40
0.0
 40
0.0
 40
0.0
 40
0.0
 40
0.3234900804
 40
0.6082504473
 40
0.8357625799
 40
1.0
 40
1.0
 40
1.0
 40
1.0
 10
151.0435356149
 20
716.915046546
 30
0.0
 10
150.8475365565
 20
716.8225822625
 30
0.0
 10
150.4842667726
 20
716.6376398286
 30
0.0
 10
149.9970311139
 20
716.3608423594
 30
0.0
 10
149.6222676394
 20
716.1053908425
 30
0.0
 10
149.4172932303
 20
715.9404300769
 30
0.0
 10
149.3375523202
 20
715.86461883
 30
0.0
  0
SPLINE
  5
4A1
100
AcDbEntity
  8
00_COMPONENTS_15
100
AcDbSpline
 62
7
  6
CONTINUOUS
 70
0
 71
3
 72
10
 73
6
 74
0
 42
0.0000001
 43
0.0000001
 44
0.0000000001
 40
0.0
 40
0.0
 40
0.0
 40
0.0
 40
0.5001140373
 40
0.7502439912
 40
1.0
 40
1.0
 40
1.0
 40
1.0
 10
150.7033343083
 20
709.71249591
 30
0.0
 10
150.745760662
 20
710.1159772109
 30
0.0
 10
150.869856689
 20
710.7197211538
 30
0.0
 10
151.1921755988
 20
711.4662217574
 30
0.0
 10
151.4220200048
 20
711.8066341942
 30
0.0
 10
151.5604646881
 20
711.9545644146
 30
0.0
  0
SPLINE
  5
4A2
100
AcDbEntity
  8
00_COMPONENTS_15
100
AcDbSpline
 62
7
  6
CONTINUOUS
 70
0
 71
3
 72
10
 73
6
 74
0
 42
0.0000001
 43
0.0000001
 44
0.0000000001
 40
0.0
 40
0.0
 40
0.0
 40
0.0
 40
0.1774054303
 40
0.4125385345
 40
1.0
 40
1.0
 40
1.0
 40
1.0
 10
151.04352851
 20
716.9150845584
 30
0.0
 10
151.070672458
 20
716.6213831471
 30
0.0
 10
151.1280393764
 20
715.9378896307
 30
0.0
 10
151.2759480477
 20
714.2819166997
 30
0.0
 10
151.4284354392
 20
712.92230073
 30
0.0
 10
151.5604696373
 20
711.9545567854
 30
0.0
  0
SPLINE
  5
4A3
100
AcDbEntity
  8
00_COMPONENTS_15
100
AcDbSpline
 62
7
  6
CONTINUOUS
 70
0
 71
3
 72
8
 73
4
 74
0
 42
0.0000001
 43
0.0000001
 44
0.0000000001
 40
0.0
 40
0.0
 40
0.0
 40
0.0
 40
1.0
 40
1.0
 40
1.0
 40
1.0
 10
168.569500403
 20
705.4832868894
 30
0.0
 10
168.5924661384
 20
705.4953254871
 30
0.0
 10
168.6160660272
 20
705.5061276516
 30
0.0
 10
168.6390310621
 20
705.5181675854
 30
0.0
  0
SPLINE
  5
4A4
100
AcDbEntity
  8
00_COMPONENTS_15
100
AcDbSpline
 62
7
  6
CONTINUOUS
 70
0
 71
3
 72
8
 73
4
 74
0
 42
0.0000001
 43
0.0000001
 44
0.0000000001
 40
0.0
 40
0.0
 40
0.0
 40
0.0
 40
1.0
 40
1.0
 40
1.0
 40
1.0
 10
168.6390310621
 20
694.0113285572
 30
0.0
 10
168.6160660297
 20
694.0233684109
 30
0.0
 10
168.5924661992
 20
694.0341705981
 30
0.0
 10
168.5695004673
 20
694.0462091173
 30
0.0
  0
SPLINE
  5
4A5
100
AcDbEntity
  8
00_COMPONENTS_15
100
AcDbSpline
 62
7
  6
CONTINUOUS
 70
0
 71
3
 72
11
 73
7
 74
0
 42
0.0000001
 43
0.0000001
 44
0.0000000001
 40
0.0
 40
0.0
 40
0.0
 40
0.0
 40
0.3067615721
 40
0.5906297264
 40
0.8308557121
 40
1.0
 40
1.0
 40
1.0
 40
1.0
 10
148.0169055527
 20
679.7343273129
 30
0.0
 10
148.0987699226
 20
679.2786855172
 30
0.0
 10
148.2607701227
 20
678.4021919671
 30
0.0
 10
148.4992740991
 20
677.1712030651
 30
0.0
 10
148.7013137287
 20
676.1447814858
 30
0.0
 10
148.819065599
 20
675.5382145048
 30
0.0
 10
148.8610171927
 20
675.2864277843
 30
0.0
  0
SPLINE
  5
4A6
100
AcDbEntity
  8
00_COMPONENTS_15
100
AcDbSpline
 62
7
  6
CONTINUOUS
 70
0
 71
3
 72
11
 73
7
 74
0
 42
0.0000001
 43
0.0000001
 44
0.0000000001
 40
0.0
 40
0.0
 40
0.0
 40
0.0
 40
0.1691442874
 40
0.4093702752
 40
0.6932384284
 40
1.0
 40
1.0
 40
1.0
 40
1.0
 10
148.861017192
 20
714.6430683543
 30
0.0
 10
148.819065589
 20
714.3912815781
 30
0.0
 10
148.7013136897
 20
713.7847144594
 30
0.0
 10
148.4992740148
 20
712.7582926498
 30
0.0
 10
148.2607699882
 20
711.5273034711
 30
0.0
 10
148.0987697577
 20
710.6508097262
 30
0.0
 10
148.0169053732
 20
710.1951678286
 30
0.0
  0
SPLINE
  5
4A7
100
AcDbEntity
  8
00_COMPONENTS_15
100
AcDbSpline
 62
7
  6
CONTINUOUS
 70
0
 71
3
 72
13
 73
9
 74
0
 42
0.0000001
 43
0.0000001
 44
0.0000000001
 40
0.0
 40
0.0
 40
0.0
 40
0.0
 40
0.0361777509
 40
0.1260153384
 40
0.247519135
 40
0.3857120621
 40
0.6865047011
 40
1.0
 40
1.0
 40
1.0
 40
1.0
 10
168.5694319355
 20
694.0462747535
 30
0.0
 10
168.5733451291
 20
694.0534777101
 30
0.0
 10
168.5300499599
 20
694.0068897789
 30
0.0
 10
168.5085666219
 20
693.9891611114
 30
0.0
 10
168.444082361
 20
693.9238925434
 30
0.0
 10
168.3566005075
 20
693.8392721332
 30
0.0
 10
168.2309996512
 20
693.7196607859
 30
0.0
 10
168.1285076399
 20
693.6266785596
 30
0.0
 10
168.0753722788
 20
693.5795370777
 30
0.0
  0
SPLINE
  5
4A8
100
AcDbEntity
  8
00_COMPONENTS_15
100
AcDbSpline
 62
7
  6
CONTINUOUS
 70
0
 71
3
 72
9
 73
5
 74
0
 42
0.0000001
 43
0.0000001
 44
0.0000000001
 40
0.0
 40
0.0
 40
0.0
 40
0.0
 40
0.4999999497
 40
1.0
 40
1.0
 40
1.0
 40
1.0
 10
150.7033431285
 20
680.2170008877
 30
0.0
 10
150.2187394247
 20
685.1126994249
 30
0.0
 10
150.0417887035
 20
694.9647560157
 30
0.0
 10
150.218926812
 20
704.8167754796
 30
0.0
 10
150.7033429088
 20
709.7124935776
 30
0.0
  0
SPLINE
  5
4A9
100
AcDbEntity
  8
00_COMPONENTS_15
100
AcDbSpline
 62
7
  6
CONTINUOUS
 70
0
 71
3
 72
14
 73
10
 74
0
 42
0.0000001
 43
0.0000001
 44
0.0000000001
 40
0.0
 40
0.0
 40
0.0
 40
0.0
 40
0.252267308
 40
0.3784035946
 40
0.5036840438
 40
0.6273896465
 40
0.7500664725
 40
0.8740429244
 40
1.0
 40
1.0
 40
1.0
 40
1.0
 10
151.6176742787
 20
711.9038603591
 30
0.0
 10
151.8652621179
 20
712.1843271076
 30
0.0
 10
152.2887539242
 20
712.5672827828
 30
0.0
 10
152.9535627307
 20
712.9166463576
 30
0.0
 10
153.4972384343
 20
713.0611996436
 30
0.0
 10
154.0610975387
 20
713.0298739809
 30
0.0
 10
154.5625014224
 20
712.7593501638
 30
0.0
 10
154.8920325923
 20
712.2966436965
 30
0.0
 10
154.9945493991
 20
711.9346618219
 30
0.0
 10
155.0239406269
 20
711.7501934236
 30
0.0
  0
SPLINE
  5
4AA
100
AcDbEntity
  8
00_COMPONENTS_15
100
AcDbSpline
 62
7
  6
CONTINUOUS
 70
0
 71
3
 72
10
 73
6
 74
0
 42
0.0000001
 43
0.0000001
 44
0.0000000001
 40
0.0
 40
0.0
 40
0.0
 40
0.0
 40
0.5013921643
 40
0.7513522202
 40
1.0
 40
1.0
 40
1.0
 40
1.0
 10
150.8100084607
 20
709.7012835073
 30
0.0
 10
150.8509466553
 20
710.0962180609
 30
0.0
 10
150.9695180043
 20
710.6861964384
 30
0.0
 10
151.2712725322
 20
711.4201440645
 30
0.0
 10
151.4873336788
 20
711.7562723221
 30
0.0
 10
151.6176146201
 20
711.9039130459
 30
0.0
  0
SPLINE
  5
4AB
100
AcDbEntity
  8
00_COMPONENTS_15
100
AcDbSpline
 62
7
  6
CONTINUOUS
 70
0
 71
3
 72
13
 73
9
 74
0
 42
0.0000001
 43
0.0000001
 44
0.0000000001
 40
0.0
 40
0.0
 40
0.0
 40
0.0
 40
0.2499469274
 40
0.374968415
 40
0.5000000576
 40
0.6250316633
 40
0.7500531155
 40
1.0
 40
1.0
 40
1.0
 40
1.0
 10
150.8100632553
 20
680.2282180388
 30
0.0
 10
150.5564921765
 20
682.6734809537
 30
0.0
 10
150.3406603717
 20
686.3590942363
 30
0.0
 10
150.2321146848
 20
691.2754647828
 30
0.0
 10
150.2075414513
 20
694.9647491237
 30
0.0
 10
150.2321147949
 20
698.6540331238
 30
0.0
 10
150.3406628871
 20
703.5704024873
 30
0.0
 10
150.5564934412
 20
707.2560149822
 30
0.0
 10
150.8100631706
 20
709.701277612
 30
0.0
  0
SPLINE
  5
4AC
100
AcDbEntity
  8
00_COMPONENTS_15
100
AcDbSpline
 62
7
  6
CONTINUOUS
 70
0
 71
3
 72
10
 73
6
 74
0
 42
0.0000001
 43
0.0000001
 44
0.0000000001
 40
0.0
 40
0.0
 40
0.0
 40
0.0
 40
0.2486488836
 40
0.4986083823
 40
1.0
 40
1.0
 40
1.0
 40
1.0
 10
151.6176174143
 20
678.0255805283
 30
0.0
 10
151.4873360168
 20
678.1732223422
 30
0.0
 10
151.2712737391
 20
678.5093508359
 30
0.0
 10
150.9695180044
 20
679.2432992176
 30
0.0
 10
150.8509478416
 20
679.833277639
 30
0.0
 10
150.8100091018
 20
680.2282121979
 30
0.0
  0
SPLINE
  5
4AD
100
AcDbEntity
  8
00_COMPONENTS_15
100
AcDbSpline
 62
7
  6
CONTINUOUS
 70
0
 71
3
 72
14
 73
10
 74
0
 42
0.0000001
 43
0.0000001
 44
0.0000000001
 40
0.0
 40
0.0
 40
0.0
 40
0.0
 40
0.12593583
 40
0.2499123093
 40
0.3725929008
 40
0.4963071602
 40
0.6215978347
 40
0.747749171
 40
1.0
 40
1.0
 40
1.0
 40
1.0
 10
155.024030031
 20
678.1797817439
 30
0.0
 10
154.9947017631
 20
677.995314029
 30
0.0
 10
154.8922668149
 20
677.6332938394
 30
0.0
 10
154.5628469943
 20
677.1704791723
 30
0.0
 10
154.0614890741
 20
676.8996915852
 30
0.0
 10
153.4975211182
 20
676.8682376302
 30
0.0
 10
152.9537196311
 20
677.0127646047
 30
0.0
 10
152.2887997032
 20
677.3621377126
 30
0.0
 10
151.865286993
 20
677.7451625323
 30
0.0
 10
151.6176787942
 20
678.0256346471
 30
0.0
  0
SPLINE
  5
4AE
100
AcDbEntity
  8
00_COMPONENTS_15
100
AcDbSpline
 62
7
  6
CONTINUOUS
 70
0
 71
3
 72
11
 73
7
 74
0
 42
0.0000001
 43
0.0000001
 44
0.0000000001
 40
0.0
 40
0.0
 40
0.0
 40
0.0
 40
0.2495395205
 40
0.5000001767
 40
0.7504608223
 40
1.0
 40
1.0
 40
1.0
 40
1.0
 10
155.0239257895
 20
703.325715958
 30
0.0
 10
154.7650806171
 20
702.7727324799
 30
0.0
 10
154.3663015567
 20
701.6040873929
 30
0.0
 10
154.1629698828
 20
699.7647343994
 30
0.0
 10
154.3662418434
 20
697.9253622633
 30
0.0
 10
154.7650988135
 20
696.7567445794
 30
0.0
 10
155.0239437645
 20
696.2037619239
 30
0.0
  0
SPLINE
  5
4AF
100
AcDbEntity
  8
00_COMPONENTS_15
100
AcDbSpline
 62
7
  6
CONTINUOUS
 70
0
 71
3
 72
9
 73
5
 74
0
 42
0.0000001
 43
0.0000001
 44
0.0000000001
 40
0.0
 40
0.0
 40
0.0
 40
0.0
 40
0.2370415707
 40
1.0
 40
1.0
 40
1.0
 40
1.0
 10
156.6531859013
 20
705.5904660419
 30
0.0
 10
156.6517118447
 20
705.5810523494
 30
0.0
 10
156.6424522017
 20
705.5418896354
 30
0.0
 10
156.6213791234
 20
705.5053995742
 30
0.0
 10
156.600192687
 20
705.483225068
 30
0.0
  0
SPLINE
  5
4B0
100
AcDbEntity
  8
00_COMPONENTS_15
100
AcDbSpline
 62
7
  6
CONTINUOUS
 70
0
 71
3
 72
17
 73
13
 74
0
 42
0.0000001
 43
0.0000001
 44
0.0000000001
 40
0.0
 40
0.0
 40
0.0
 40
0.0
 40
0.3076990941
 40
0.4578030539
 40
0.6034001371
 40
0.7416297256
 40
0.8057238626
 40
0.8650358332
 40
0.9179755051
 40
0.960896477
 40
0.9896312156
 40
1.0
 40
1.0
 40
1.0
 40
1.0
 10
156.9615024474
 20
706.0995079205
 30
0.0
 10
156.9282470878
 20
706.048318894
 30
0.0
 10
156.8795907883
 20
705.9716233046
 30
0.0
 10
156.8170639345
 20
705.8695353739
 30
0.0
 10
156.7728216702
 20
705.7957124331
 30
0.0
 10
156.7379159139
 20
705.7360918137
 30
0.0
 10
156.7118792559
 20
705.6913285078
 30
0.0
 10
156.6944333621
 20
705.6606380108
 30
0.0
 10
156.6790549721
 20
705.6351106865
 30
0.0
 10
156.6668957517
 20
705.6105346759
 30
0.0
 10
156.6583513554
 20
705.6027845986
 30
0.0
 10
156.6546650546
 20
705.5890949137
 30
0.0
 10
156.653196958
 20
705.5905357431
 30
0.0
  0
SPLINE
  5
4B1
100
AcDbEntity
  8
00_COMPONENTS_15
100
AcDbSpline
 62
7
  6
CONTINUOUS
 70
0
 71
3
 72
17
 73
13
 74
0
 42
0.0000001
 43
0.0000001
 44
0.0000000001
 40
0.0
 40
0.0
 40
0.0
 40
0.0
 40
0.0103437591
 40
0.0390955524
 40
0.0820230105
 40
0.1349596082
 40
0.194270446
 40
0.2583662999
 40
0.3966021793
 40
0.5422019356
 40
0.6923047878
 40
1.0
 40
1.0
 40
1.0
 40
1.0
 10
168.5164285956
 20
705.5905412737
 30
0.0
 10
168.5150572016
 20
705.5890148107
 30
0.0
 10
168.5111512302
 20
705.602903776
 30
0.0
 10
168.5028038913
 20
705.6104663085
 30
0.0
 10
168.490544504
 20
705.635139244
 30
0.0
 10
168.4752025841
 20
705.6606319911
 30
0.0
 10
168.4577452587
 20
705.6913328277
 30
0.0
 10
168.4317126285
 20
705.7360926234
 30
0.0
 10
168.3968038645
 20
705.7957167734
 30
0.0
 10
168.3525621242
 20
705.8695395493
 30
0.0
 10
168.2900358171
 20
705.9716262817
 30
0.0
 10
168.2413805237
 20
706.048320051
 30
0.0
 10
168.2081260828
 20
706.0995080065
 30
0.0
  0
SPLINE
  5
4B2
100
AcDbEntity
  8
00_COMPONENTS_15
100
AcDbSpline
 62
7
  6
CONTINUOUS
 70
0
 71
3
 72
13
 73
9
 74
0
 42
0.0000001
 43
0.0000001
 44
0.0000000001
 40
0.0
 40
0.0
 40
0.0
 40
0.0
 40
0.0361125012
 40
0.1265187882
 40
0.2475646135
 40
0.3859539048
 40
0.6865978213
 40
1.0
 40
1.0
 40
1.0
 40
1.0
 10
168.5694319572
 20
705.4832213022
 30
0.0
 10
168.5736838395
 20
705.476230234
 30
0.0
 10
168.5294742879
 20
705.5225286163
 30
0.0
 10
168.5086885786
 20
705.5405591601
 30
0.0
 10
168.443876544
 20
705.605679347
 30
0.0
 10
168.3565917572
 20
705.6903187628
 30
0.0
 10
168.2309202865
 20
705.8098695091
 30
0.0
 10
168.1284965887
 20
705.9028368462
 30
0.0
 10
168.0753723008
 20
705.9499590454
 30
0.0
  0
SPLINE
  5
4B3
100
AcDbEntity
  8
00_COMPONENTS_15
100
AcDbSpline
 62
7
  6
CONTINUOUS
 70
0
 71
3
 72
9
 73
5
 74
0
 42
0.0000001
 43
0.0000001
 44
0.0000000001
 40
0.0
 40
0.0
 40
0.0
 40
0.0
 40
0.237039588
 40
1.0
 40
1.0
 40
1.0
 40
1.0
 10
168.5164406214
 20
705.5904653056
 30
0.0
 10
168.5179150421
 20
705.5810519344
 30
0.0
 10
168.5271767393
 20
705.5418904533
 30
0.0
 10
168.5482534768
 20
705.5054028667
 30
0.0
 10
168.5694423525
 20
705.4832313888
 30
0.0
  0
SPLINE
  5
4B4
100
AcDbEntity
  8
00_COMPONENTS_15
100
AcDbSpline
 62
7
  6
CONTINUOUS
 70
0
 71
3
 72
10
 73
6
 74
0
 42
0.0000001
 43
0.0000001
 44
0.0000000001
 40
0.0
 40
0.0
 40
0.0
 40
0.0
 40
0.2497523362
 40
0.4998843128
 40
1.0
 40
1.0
 40
1.0
 40
1.0
 10
151.5605043925
 20
677.974873101
 30
0.0
 10
151.4220032229
 20
678.1227530747
 30
0.0
 10
151.1921751652
 20
678.4632163533
 30
0.0
 10
150.8700215384
 20
679.2097855248
 30
0.0
 10
150.7457098891
 20
679.8135025496
 30
0.0
 10
150.7033343818
 20
680.217000415
 30
0.0
  0
SPLINE
  5
4B5
100
AcDbEntity
  8
00_COMPONENTS_15
100
AcDbSpline
 62
7
  6
CONTINUOUS
 70
0
 71
3
 72
15
 73
11
 74
0
 42
0.0000001
 43
0.0000001
 44
0.0000000001
 40
0.0
 40
0.0
 40
0.0
 40
0.0
 40
0.1257737774
 40
0.2504594914
 40
0.3749523835
 40
0.4999999349
 40
0.6250476187
 40
0.749540566
 40
0.87422619
 40
1.0
 40
1.0
 40
1.0
 40
1.0
 10
160.1457242809
 20
713.1788015784
 30
0.0
 10
160.1916616549
 20
713.4709836798
 30
0.0
 10
160.384124723
 20
714.0414653147
 30
0.0
 10
160.9350105769
 20
714.7510373456
 30
0.0
 10
161.6989057113
 20
715.226569126
 30
0.0
 10
162.5848140944
 20
715.3939206444
 30
0.0
 10
163.4707227014
 20
715.2265691896
 30
0.0
 10
164.2346178964
 20
714.7510371345
 30
0.0
 10
164.7855039981
 20
714.0414652502
 30
0.0
 10
164.9779665838
 20
713.4709836225
 30
0.0
 10
165.0239041505
 20
713.178801474
 30
0.0
  0
SPLINE
  5
4B6
100
AcDbEntity
  8
00_COMPONENTS_15
100
AcDbSpline
 62
7
  6
CONTINUOUS
 70
0
 71
3
 72
9
 73
5
 74
0
 42
0.0000001
 43
0.0000001
 44
0.0000000001
 40
0.0
 40
0.0
 40
0.0
 40
0.0
 40
0.4999994558
 40
1.0
 40
1.0
 40
1.0
 40
1.0
 10
165.0239205336
 20
710.2378074797
 30
0.0
 10
164.2616898494
 20
710.5667658193
 30
0.0
 10
162.5848161254
 20
710.916143143
 30
0.0
 10
160.9079417295
 20
710.5667670635
 30
0.0
 10
160.1457093872
 20
710.2378080054
 30
0.0
  0
SPLINE
  5
4B7
100
AcDbEntity
  8
00_COMPONENTS_15
100
AcDbSpline
 62
7
  6
CONTINUOUS
 70
0
 71
3
 72
10
 73
6
 74
0
 42
0.0000001
 43
0.0000001
 44
0.0000000001
 40
0.0
 40
0.0
 40
0.0
 40
0.0
 40
0.5874617156
 40
0.8225941889
 40
1.0
 40
1.0
 40
1.0
 40
1.0
 10
151.5605081653
 20
677.9748735738
 30
0.0
 10
151.4284745727
 20
677.0071402749
 30
0.0
 10
151.2759437438
 20
675.6475456794
 30
0.0
 10
151.1280297191
 20
673.9915918512
 30
0.0
 10
151.0706827872
 20
673.3081048152
 30
0.0
 10
151.0435389211
 20
673.0144061101
 30
0.0
  0
SPLINE
  5
4B8
100
AcDbEntity
  8
00_COMPONENTS_15
100
AcDbSpline
 62
7
  6
CONTINUOUS
 70
0
 71
3
 72
10
 73
6
 74
0
 42
0.0000001
 43
0.0000001
 44
0.0000000001
 40
0.0
 40
0.0
 40
0.0
 40
0.0
 40
0.6082375558
 40
0.835703426
 40
1.0
 40
1.0
 40
1.0
 40
1.0
 10
151.0435414769
 20
673.0144345813
 30
0.0
 10
150.6770622522
 20
673.1923513564
 30
0.0
 10
150.1768266891
 20
673.4475674439
 30
0.0
 10
149.6217211844
 20
673.8235722643
 30
0.0
 10
149.4179600059
 20
673.9897739522
 30
0.0
 10
149.3375573528
 20
674.0649050007
 30
0.0
  0
SPLINE
  5
4B9
100
AcDbEntity
  8
00_COMPONENTS_15
100
AcDbSpline
 62
7
  6
CONTINUOUS
 70
0
 71
3
 72
15
 73
11
 74
0
 42
0.0000001
 43
0.0000001
 44
0.0000000001
 40
0.0
 40
0.0
 40
0.0
 40
0.0
 40
0.1258127124
 40
0.2504868005
 40
0.3749994943
 40
0.5001162058
 40
0.6252312929
 40
0.7497529111
 40
0.8743764186
 40
1.0
 40
1.0
 40
1.0
 40
1.0
 10
165.0239314315
 20
676.7506942022
 30
0.0
 10
164.9779243814
 20
676.4584268355
 30
0.0
 10
164.7854934267
 20
675.8878570954
 30
0.0
 10
164.2344126002
 20
675.1782773123
 30
0.0
 10
163.4703313744
 20
674.7026549815
 30
0.0
 10
162.5839590532
 20
674.5355488785
 30
0.0
 10
161.6976896552
 20
674.7032895639
 30
0.0
 10
160.934020733
 20
675.1793823102
 30
0.0
 10
160.3837302008
 20
675.8888482398
 30
0.0
 10
160.1916051403
 20
676.4588758802
 30
0.0
 10
160.1457005144
 20
676.750709123
 30
0.0
  0
SPLINE
  5
4BA
100
AcDbEntity
  8
00_COMPONENTS_15
100
AcDbSpline
 62
7
  6
CONTINUOUS
 70
0
 71
3
 72
15
 73
11
 74
0
 42
0.0000001
 43
0.0000001
 44
0.0000000001
 40
0.0
 40
0.0
 40
0.0
 40
0.0
 40
0.1252903325
 40
0.2497499289
 40
0.3744324657
 40
0.5000079604
 40
0.6255850529
 40
0.750258393
 40
0.8747110993
 40
1.0
 40
1.0
 40
1.0
 40
1.0
 10
160.0833702969
 20
713.1893398471
 30
0.0
 10
160.1292682625
 20
713.4881547834
 30
0.0
 10
160.32417936
 20
714.0726014193
 30
0.0
 10
160.8876410313
 20
714.8007776741
 30
0.0
 10
161.6728325443
 20
715.2889984267
 30
0.0
 10
162.5848452985
 20
715.4611048381
 30
0.0
 10
163.4968852229
 20
715.2890458892
 30
0.0
 10
164.2819073992
 20
714.8006544703
 30
0.0
 10
164.8454911238
 20
714.0726546364
 30
0.0
 10
165.0403862217
 20
713.4882032652
 30
0.0
 10
165.0862835681
 20
713.1893917291
 30
0.0
  0
SPLINE
  5
4BB
100
AcDbEntity
  8
00_COMPONENTS_15
100
AcDbSpline
 62
7
  6
CONTINUOUS
 70
0
 71
3
 72
9
 73
5
 74
0
 42
0.0000001
 43
0.0000001
 44
0.0000000001
 40
0.0
 40
0.0
 40
0.0
 40
0.0
 40
0.2510482946
 40
1.0
 40
1.0
 40
1.0
 40
1.0
 10
156.5305512297
 20
705.5182108189
 30
0.0
 10
156.3924315919
 20
705.3733346063
 30
0.0
 10
155.8629034325
 20
704.7769014131
 30
0.0
 10
155.4191912302
 20
704.1043896593
 30
0.0
 10
155.1456899595
 20
703.5735522802
 30
0.0
  0
SPLINE
  5
4BC
100
AcDbEntity
  8
00_COMPONENTS_15
100
AcDbSpline
 62
7
  6
CONTINUOUS
 70
0
 71
3
 72
8
 73
4
 74
0
 42
0.0000001
 43
0.0000001
 44
0.0000000001
 40
0.0
 40
0.0
 40
0.0
 40
0.0
 40
1.0
 40
1.0
 40
1.0
 40
1.0
 10
156.5831163789
 20
705.6243629822
 30
0.0
 10
156.5769414143
 20
705.5853641147
 30
0.0
 10
156.5577530236
 20
705.5468308165
 30
0.0
 10
156.5305512297
 20
705.5182108189
 30
0.0
  0
SPLINE
  5
4BD
100
AcDbEntity
  8
00_COMPONENTS_15
100
AcDbSpline
 62
7
  6
CONTINUOUS
 70
0
 71
3
 72
11
 73
7
 74
0
 42
0.0000001
 43
0.0000001
 44
0.0000000001
 40
0.0
 40
0.0
 40
0.0
 40
0.0
 40
0.2464282772
 40
0.4972890373
 40
0.7486576359
 40
1.0
 40
1.0
 40
1.0
 40
1.0
 10
160.023921664
 20
710.1829054001
 30
0.0
 10
159.583256651
 20
709.9756905015
 30
0.0
 10
158.7405965072
 20
709.4493723521
 30
0.0
 10
157.6983253844
 20
708.379472781
 30
0.0
 10
156.941618028
 20
707.0801964512
 30
0.0
 10
156.6617028987
 20
706.1147701626
 30
0.0
 10
156.5831163789
 20
705.6243629822
 30
0.0
  0
SPLINE
  5
4BE
100
AcDbEntity
  8
00_COMPONENTS_15
100
AcDbSpline
 62
7
  6
CONTINUOUS
 70
0
 71
3
 72
15
 73
11
 74
0
 42
0.0000001
 43
0.0000001
 44
0.0000000001
 40
0.0
 40
0.0
 40
0.0
 40
0.0
 40
0.2503967318
 40
0.3758378431
 40
0.5014069045
 40
0.6267626074
 40
0.7507061978
 40
0.8127466142
 40
0.874957852
 40
1.0
 40
1.0
 40
1.0
 40
1.0
 10
155.1456972667
 20
711.7502247841
 30
0.0
 10
155.2293829386
 20
712.3526347582
 30
0.0
 10
155.5924702896
 20
713.2403181922
 30
0.0
 10
156.4196229264
 20
714.1459541865
 30
0.0
 10
157.2056054744
 20
714.6393726082
 30
0.0
 10
158.1104842968
 20
714.8566202939
 30
0.0
 10
158.8842839713
 20
714.7083842261
 30
0.0
 10
159.3946756551
 20
714.3752103097
 30
0.0
 10
159.8048464939
 20
713.9223229715
 30
0.0
 10
159.9746087659
 20
713.4784597516
 30
0.0
 10
160.0239363327
 20
713.1787742034
 30
0.0
  0
SPLINE
  5
4BF
100
AcDbEntity
  8
00_COMPONENTS_15
100
AcDbSpline
 62
7
  6
CONTINUOUS
 70
0
 71
3
 72
9
 73
5
 74
0
 42
0.0000001
 43
0.0000001
 44
0.0000000001
 40
0.0
 40
0.0
 40
0.0
 40
0.0
 40
0.5000005434
 40
1.0
 40
1.0
 40
1.0
 40
1.0
 10
160.1456989903
 20
689.2916917093
 30
0.0
 10
160.9079346397
 20
688.9627312609
 30
0.0
 10
162.5848159572
 20
688.6133508636
 30
0.0
 10
164.2616966913
 20
688.9627323538
 30
0.0
 10
165.0239306603
 20
689.2916921419
 30
0.0
  0
SPLINE
  5
4C0
100
AcDbEntity
  8
00_COMPONENTS_15
100
AcDbSpline
 62
7
  6
CONTINUOUS
 70
0
 71
3
 72
15
 73
11
 74
0
 42
0.0000001
 43
0.0000001
 44
0.0000000001
 40
0.0
 40
0.0
 40
0.0
 40
0.0
 40
0.1248048955
 40
0.1870658104
 40
0.2492818302
 40
0.373800662
 40
0.4996456513
 40
0.6253727696
 40
0.7506352304
 40
1.0
 40
1.0
 40
1.0
 40
1.0
 10
160.0833702969
 20
713.1893398471
 30
0.0
 10
160.0319335256
 20
713.4957014797
 30
0.0
 10
159.8576309792
 20
713.9493814469
 30
0.0
 10
159.4389875768
 20
714.4147584508
 30
0.0
 10
158.916653379
 20
714.7605931113
 30
0.0
 10
158.1225311382
 20
714.9211956224
 30
0.0
 10
157.1896238041
 20
714.708093421
 30
0.0
 10
156.3786968284
 20
714.2083242123
 30
0.0
 10
155.5287867341
 20
713.2853796509
 30
0.0
 10
155.1606085166
 20
712.3754552726
 30
0.0
 10
155.080456897
 20
711.7599627697
 30
0.0
  0
SPLINE
  5
4C1
100
AcDbEntity
  8
00_COMPONENTS_15
100
AcDbSpline
 62
7
  6
CONTINUOUS
 70
0
 71
3
 72
14
 73
10
 74
0
 42
0.0000001
 43
0.0000001
 44
0.0000000001
 40
0.0
 40
0.0
 40
0.0
 40
0.0
 40
0.1254204531
 40
0.2493721968
 40
0.372509321
 40
0.4967325528
 40
0.6223096727
 40
0.748469943
 40
1.0
 40
1.0
 40
1.0
 40
1.0
 10
155.080456897
 20
711.7599627697
 30
0.0
 10
155.0483989465
 20
711.9484696435
 30
0.0
 10
154.9394926957
 20
712.3185852243
 30
0.0
 10
154.5994165573
 20
712.7920671956
 30
0.0
 10
154.0862486697
 20
713.0752619976
 30
0.0
 10
153.5055115175
 20
713.1179642663
 30
0.0
 10
152.9427036512
 20
712.9786454135
 30
0.0
 10
152.2546433742
 20
712.6295581494
 30
0.0
 10
151.8160104779
 20
712.2404830028
 30
0.0
 10
151.5604696373
 20
711.9545567854
 30
0.0
  0
SPLINE
  5
4C2
100
AcDbEntity
  8
00_COMPONENTS_15
100
AcDbSpline
 62
7
  6
CONTINUOUS
 70
0
 71
3
 72
8
 73
4
 74
0
 42
0.0000001
 43
0.0000001
 44
0.0000000001
 40
0.0
 40
0.0
 40
0.0
 40
0.0
 40
1.0
 40
1.0
 40
1.0
 40
1.0
 10
170.0528256923
 20
711.7513485148
 30
0.0
 10
170.0439995716
 20
711.7497143112
 30
0.0
 10
170.0348932926
 20
711.7505039987
 30
0.0
 10
170.0259268129
 20
711.7500877401
 30
0.0
  0
SPLINE
  5
4C3
100
AcDbEntity
  8
00_COMPONENTS_15
100
AcDbSpline
 62
7
  6
CONTINUOUS
 70
0
 71
3
 72
8
 73
4
 74
0
 42
0.0000001
 43
0.0000001
 44
0.0000000001
 40
0.0
 40
0.0
 40
0.0
 40
0.0
 40
1.0
 40
1.0
 40
1.0
 40
1.0
 10
170.0909541662
 20
711.7641804468
 30
0.0
 10
170.0783139595
 20
711.7600667363
 30
0.0
 10
170.0653914453
 20
711.7568323318
 30
0.0
 10
170.0528277682
 20
711.7524905052
 30
0.0
  0
SPLINE
  5
4C4
100
AcDbEntity
  8
00_COMPONENTS_15
100
AcDbSpline
 62
7
  6
CONTINUOUS
 70
0
 71
3
 72
16
 73
12
 74
0
 42
0.0000001
 43
0.0000001
 44
0.0000000001
 40
0.0
 40
0.0
 40
0.0
 40
0.0
 40
0.0629162395
 40
0.1254125091
 40
0.2487542652
 40
0.3731342558
 40
0.4987391442
 40
0.6242897913
 40
0.749272208
 40
0.874336691
 40
1.0
 40
1.0
 40
1.0
 40
1.0
 10
165.0862835681
 20
713.1893917291
 30
0.0
 10
165.1161841181
 20
713.3431400943
 30
0.0
 10
165.1948536876
 20
713.6476375695
 30
0.0
 10
165.4863619687
 20
714.1996389768
 30
0.0
 10
166.0967009134
 20
714.7312101781
 30
0.0
 10
167.0435425427
 20
714.9205368057
 30
0.0
 10
167.9756600156
 20
714.7092312941
 30
0.0
 10
168.7866061476
 20
714.2134512783
 30
0.0
 10
169.4253103292
 20
713.5173356257
 30
0.0
 10
169.8848345334
 20
712.6915855956
 30
0.0
 10
170.039374846
 20
712.0805422561
 30
0.0
 10
170.0915157732
 20
711.7720814683
 30
0.0
  0
SPLINE
  5
4C5
100
AcDbEntity
  8
00_COMPONENTS_15
100
AcDbSpline
 62
7
  6
CONTINUOUS
 70
0
 71
3
 72
10
 73
6
 74
0
 42
0.0000001
 43
0.0000001
 44
0.0000000001
 40
0.0
 40
0.0
 40
0.0
 40
0.0
 40
0.5874617156
 40
0.8225941889
 40
1.0
 40
1.0
 40
1.0
 40
1.0
 10
173.6091202259
 20
711.9546225688
 30
0.0
 10
173.7411538185
 20
712.9223558677
 30
0.0
 10
173.8936846474
 20
714.2819504632
 30
0.0
 10
174.0415986721
 20
715.9379042915
 30
0.0
 10
174.098945604
 20
716.6213913274
 30
0.0
 10
174.1260894701
 20
716.9150900325
 30
0.0
  0
SPLINE
  5
4C6
100
AcDbEntity
  8
00_COMPONENTS_15
100
AcDbSpline
 62
7
  6
CONTINUOUS
 70
0
 71
3
 72
10
 73
6
 74
0
 42
0.0000001
 43
0.0000001
 44
0.0000000001
 40
0.0
 40
0.0
 40
0.0
 40
0.0
 40
0.6082375578
 40
0.8357038369
 40
1.0
 40
1.0
 40
1.0
 40
1.0
 10
174.1260869144
 20
716.9150615613
 30
0.0
 10
174.492566767
 20
716.7371461792
 30
0.0
 10
174.9928039816
 20
716.4819308276
 30
0.0
 10
175.5479047132
 20
716.1059209282
 30
0.0
 10
175.7516718541
 20
715.9397257331
 30
0.0
 10
175.8320709488
 20
715.8645912975
 30
0.0
  0
SPLINE
  5
4C7
100
AcDbEntity
  8
00_COMPONENTS_15
100
AcDbSpline
 62
7
  6
CONTINUOUS
 70
0
 71
3
 72
10
 73
6
 74
0
 42
0.0000001
 43
0.0000001
 44
0.0000000001
 40
0.0
 40
0.0
 40
0.0
 40
0.0
 40
0.2497523362
 40
0.4998843128
 40
1.0
 40
1.0
 40
1.0
 40
1.0
 10
173.6091239987
 20
711.9546230417
 30
0.0
 10
173.7476251683
 20
711.8067430679
 30
0.0
 10
173.9774532261
 20
711.4662797893
 30
0.0
 10
174.2996068528
 20
710.7197106178
 30
0.0
 10
174.4239185021
 20
710.115993593
 30
0.0
 10
174.4662940095
 20
709.7124957277
 30
0.0
  0
SPLINE
  5
4C8
100
AcDbEntity
  8
00_COMPONENTS_15
100
AcDbSpline
 62
7
  6
CONTINUOUS
 70
0
 71
3
 72
9
 73
5
 74
0
 42
0.0000001
 43
0.0000001
 44
0.0000000001
 40
0.0
 40
0.0
 40
0.0
 40
0.0
 40
0.4999999497
 40
1.0
 40
1.0
 40
1.0
 40
1.0
 10
174.4662852627
 20
709.7124952549
 30
0.0
 10
174.9508889665
 20
704.8167967177
 30
0.0
 10
175.1278396877
 20
694.9647401269
 30
0.0
 10
174.9507015792
 20
685.112720663
 30
0.0
 10
174.4662854825
 20
680.217002565
 30
0.0
  0
SPLINE
  5
4C9
100
AcDbEntity
  8
00_COMPONENTS_15
100
AcDbSpline
 62
7
  6
CONTINUOUS
 70
0
 71
3
 72
11
 73
7
 74
0
 42
0.0000001
 43
0.0000001
 44
0.0000000001
 40
0.0
 40
0.0
 40
0.0
 40
0.0
 40
0.1691442874
 40
0.4093702752
 40
0.6932384284
 40
1.0
 40
1.0
 40
1.0
 40
1.0
 10
176.3086111992
 20
675.2864277884
 30
0.0
 10
176.3505628022
 20
675.5382145646
 30
0.0
 10
176.4683147016
 20
676.1447816833
 30
0.0
 10
176.6703543764
 20
677.1712034928
 30
0.0
 10
176.908858403
 20
678.4021926716
 30
0.0
 10
177.0708586335
 20
679.2786864164
 30
0.0
 10
177.152723018
 20
679.734328314
 30
0.0
  0
SPLINE
  5
4CA
100
AcDbEntity
  8
00_COMPONENTS_15
100
AcDbSpline
 62
7
  6
CONTINUOUS
 70
0
 71
3
 72
11
 73
7
 74
0
 42
0.0000001
 43
0.0000001
 44
0.0000000001
 40
0.0
 40
0.0
 40
0.0
 40
0.0
 40
0.3067615721
 40
0.5906297264
 40
0.8308557121
 40
1.0
 40
1.0
 40
1.0
 40
1.0
 10
177.1527228385
 20
710.1951688297
 30
0.0
 10
177.0708584686
 20
710.6508106254
 30
0.0
 10
176.9088582685
 20
711.5273041755
 30
0.0
 10
176.6703542921
 20
712.7582930775
 30
0.0
 10
176.4683146625
 20
713.7847146568
 30
0.0
 10
176.3505627923
 20
714.3912816378
 30
0.0
 10
176.3086111985
 20
714.6430683583
 30
0.0
  0
SPLINE
  5
4CB
100
AcDbEntity
  8
00_COMPONENTS_15
100
AcDbSpline
 62
7
  6
CONTINUOUS
 70
0
 71
3
 72
11
 73
7
 74
0
 42
0.0000001
 43
0.0000001
 44
0.0000000001
 40
0.0
 40
0.0
 40
0.0
 40
0.0
 40
0.2495378447
 40
0.5000001677
 40
0.7504606817
 40
1.0
 40
1.0
 40
1.0
 40
1.0
 10
170.1457026017
 20
696.203780174
 30
0.0
 10
170.4045462245
 20
696.7567603415
 30
0.0
 10
170.8033999382
 20
697.9253913311
 30
0.0
 10
171.0065565946
 20
699.7647576057
 30
0.0
 10
170.8034781841
 20
701.6041524871
 30
0.0
 10
170.4045299123
 20
702.7727508472
 30
0.0
 10
170.1456846267
 20
703.3257342176
 30
0.0
  0
SPLINE
  5
4CC
100
AcDbEntity
  8
00_COMPONENTS_15
100
AcDbSpline
 62
7
  6
CONTINUOUS
 70
0
 71
3
 72
14
 73
10
 74
0
 42
0.0000001
 43
0.0000001
 44
0.0000000001
 40
0.0
 40
0.0
 40
0.0
 40
0.0
 40
0.12593583
 40
0.2499123093
 40
0.3725929008
 40
0.4963071602
 40
0.6215978347
 40
0.747749171
 40
1.0
 40
1.0
 40
1.0
 40
1.0
 10
170.1455983602
 20
711.7497143987
 30
0.0
 10
170.1749266282
 20
711.9341821136
 30
0.0
 10
170.2773615763
 20
712.2962023032
 30
0.0
 10
170.6067813969
 20
712.7590169703
 30
0.0
 10
171.1081393171
 20
713.0298045574
 30
0.0
 10
171.6721072731
 20
713.0612585125
 30
0.0
 10
172.2159087601
 20
712.9167315379
 30
0.0
 10
172.8808286881
 20
712.56735843
 30
0.0
 10
173.3043413982
 20
712.1843336103
 30
0.0
 10
173.551949597
 20
711.9038614955
 30
0.0
  0
SPLINE
  5
4CD
100
AcDbEntity
  8
00_COMPONENTS_15
100
AcDbSpline
 62
7
  6
CONTINUOUS
 70
0
 71
3
 72
10
 73
6
 74
0
 42
0.0000001
 43
0.0000001
 44
0.0000000001
 40
0.0
 40
0.0
 40
0.0
 40
0.0
 40
0.2486488836
 40
0.4986083823
 40
1.0
 40
1.0
 40
1.0
 40
1.0
 10
173.5520109769
 20
711.9039156143
 30
0.0
 10
173.6822923744
 20
711.7562738004
 30
0.0
 10
173.8983546521
 20
711.4201453067
 30
0.0
 10
174.2001103868
 20
710.686196925
 30
0.0
 10
174.3186805497
 20
710.0962185036
 30
0.0
 10
174.3596192894
 20
709.7012839447
 30
0.0
  0
SPLINE
  5
4CE
100
AcDbEntity
  8
00_COMPONENTS_15
100
AcDbSpline
 62
7
  6
CONTINUOUS
 70
0
 71
3
 72
13
 73
9
 74
0
 42
0.0000001
 43
0.0000001
 44
0.0000000001
 40
0.0
 40
0.0
 40
0.0
 40
0.0
 40
0.2499469274
 40
0.374968415
 40
0.5000000576
 40
0.6250316633
 40
0.7500531155
 40
1.0
 40
1.0
 40
1.0
 40
1.0
 10
174.359565136
 20
709.7012781038
 30
0.0
 10
174.6131362147
 20
707.2560151889
 30
0.0
 10
174.8289680195
 20
703.5704019063
 30
0.0
 10
174.9375137065
 20
698.6540313598
 30
0.0
 10
174.96208694
 20
694.964747019
 30
0.0
 10
174.9375135963
 20
691.2754630188
 30
0.0
 10
174.8289655041
 20
686.3590936553
 30
0.0
 10
174.61313495
 20
682.6734811604
 30
0.0
 10
174.3595652207
 20
680.2282185306
 30
0.0
  0
SPLINE
  5
4CF
100
AcDbEntity
  8
00_COMPONENTS_15
100
AcDbSpline
 62
7
  6
CONTINUOUS
 70
0
 71
3
 72
10
 73
6
 74
0
 42
0.0000001
 43
0.0000001
 44
0.0000000001
 40
0.0
 40
0.0
 40
0.0
 40
0.0
 40
0.5013921643
 40
0.7513522202
 40
1.0
 40
1.0
 40
1.0
 40
1.0
 10
174.3596199305
 20
680.2282126354
 30
0.0
 10
174.3186817359
 20
679.8332780817
 30
0.0
 10
174.2001103869
 20
679.2432997042
 30
0.0
 10
173.898355859
 20
678.5093520781
 30
0.0
 10
173.6822947124
 20
678.1732238205
 30
0.0
 10
173.5520137712
 20
678.0255830967
 30
0.0
  0
SPLINE
  5
4D0
100
AcDbEntity
  8
00_COMPONENTS_15
100
AcDbSpline
 62
7
  6
CONTINUOUS
 70
0
 71
3
 72
14
 73
10
 74
0
 42
0.0000001
 43
0.0000001
 44
0.0000000001
 40
0.0
 40
0.0
 40
0.0
 40
0.0
 40
0.252267308
 40
0.3784035946
 40
0.5036840438
 40
0.6273896465
 40
0.7500664725
 40
0.8740429244
 40
1.0
 40
1.0
 40
1.0
 40
1.0
 10
173.5519541125
 20
678.0256357835
 30
0.0
 10
173.3043662733
 20
677.745169035
 30
0.0
 10
172.8808744671
 20
677.3622133598
 30
0.0
 10
172.2160656606
 20
677.012849785
 30
0.0
 10
171.672389957
 20
676.868296499
 30
0.0
 10
171.1085308525
 20
676.8996221617
 30
0.0
 10
170.6071269688
 20
677.1701459788
 30
0.0
 10
170.2775957989
 20
677.6328524462
 30
0.0
 10
170.1750789921
 20
677.9948343207
 30
0.0
 10
170.1456877643
 20
678.1793027191
 30
0.0
  0
SPLINE
  5
4D1
100
AcDbEntity
  8
00_COMPONENTS_15
100
AcDbSpline
 62
7
  6
CONTINUOUS
 70
0
 71
3
 72
17
 73
13
 74
0
 42
0.0000001
 43
0.0000001
 44
0.0000000001
 40
0.0
 40
0.0
 40
0.0
 40
0.0
 40
0.1246078158
 40
0.2479217421
 40
0.3723011429
 40
0.4979430702
 40
0.6234966271
 40
0.68620999
 40
0.7488615309
 40
0.8740801656
 40
0.9369595124
 40
1.0
 40
1.0
 40
1.0
 40
1.0
 10
165.1457001695
 20
713.1787750181
 30
0.0
 10
165.1959033938
 20
713.4777272488
 30
0.0
 10
165.4156404321
 20
714.0649267733
 30
0.0
 10
166.1348200539
 20
714.6829498073
 30
0.0
 10
167.0631650947
 20
714.8566924757
 30
0.0
 10
167.9717357137
 20
714.6379468591
 30
0.0
 10
168.624947471
 20
714.2212733366
 30
0.0
 10
169.0689726037
 20
713.8002740123
 30
0.0
 10
169.4483410107
 20
713.3213168229
 30
0.0
 10
169.7462312247
 20
712.781760646
 30
0.0
 10
169.9419623444
 20
712.2021026449
 30
0.0
 10
170.0066912711
 20
711.9013630957
 30
0.0
 10
170.0254526794
 20
711.7491539774
 30
0.0
  0
SPLINE
  5
4D2
100
AcDbEntity
  8
00_COMPONENTS_15
100
AcDbSpline
 62
7
  6
CONTINUOUS
 70
0
 71
3
 72
9
 73
5
 74
0
 42
0.0000001
 43
0.0000001
 44
0.0000000001
 40
0.0
 40
0.0
 40
0.0
 40
0.0
 40
0.7489515861
 40
1.0
 40
1.0
 40
1.0
 40
1.0
 10
170.023931395
 20
703.5735645362
 30
0.0
 10
169.7504319329
 20
704.1043971038
 30
0.0
 10
169.3066360583
 20
704.7768349167
 30
0.0
 10
168.7771957061
 20
705.373335753
 30
0.0
 10
168.6390771615
 20
705.518210819
 30
0.0
  0
SPLINE
  5
4D3
100
AcDbEntity
  8
00_COMPONENTS_15
100
AcDbSpline
 62
7
  6
CONTINUOUS
 70
0
 71
3
 72
8
 73
4
 74
0
 42
0.0000001
 43
0.0000001
 44
0.0000000001
 40
0.0
 40
0.0
 40
0.0
 40
0.0
 40
1.0
 40
1.0
 40
1.0
 40
1.0
 10
168.6390771615
 20
705.518210819
 30
0.0
 10
168.6118753676
 20
705.5468308165
 30
0.0
 10
168.592687063
 20
705.5853641283
 30
0.0
 10
168.5865120123
 20
705.6243629822
 30
0.0
  0
SPLINE
  5
4D4
100
AcDbEntity
  8
00_COMPONENTS_15
100
AcDbSpline
 62
7
  6
CONTINUOUS
 70
0
 71
3
 72
11
 73
7
 74
0
 42
0.0000001
 43
0.0000001
 44
0.0000000001
 40
0.0
 40
0.0
 40
0.0
 40
0.0
 40
0.2513457228
 40
0.5027109094
 40
0.7535699684
 40
1.0
 40
1.0
 40
1.0
 40
1.0
 10
168.5865120123
 20
705.6243629822
 30
0.0
 10
168.5079244995
 20
706.1147763593
 30
0.0
 10
168.2281984882
 20
707.080293552
 30
0.0
 10
167.4710143288
 20
708.3792614615
 30
0.0
 10
166.4291589983
 20
709.4495217252
 30
0.0
 10
165.5863679626
 20
709.975692885
 30
0.0
 10
165.1457001695
 20
710.1829091862
 30
0.0
  0
SPLINE
  5
4D5
100
AcDbEntity
  8
00_COMPONENTS_55
100
AcDbSpline
 62
7
  6
CONTINUOUS
 70
0
 71
3
 72
8
 73
4
 74
0
 42
0.0000001
 43
0.0000001
 44
0.0000000001
 40
0.0
 40
0.0
 40
0.0
 40
0.0
 40
1.0
 40
1.0
 40
1.0
 40
1.0
 10
113.561738492
 20
302.6149385743
 30
0.0
 10
113.4953881945
 20
302.524645611
 30
0.0
 10
113.4267267373
 20
302.4359364898
 30
0.0
 10
113.3545066541
 20
302.3502659535
 30
0.0
  0
SPLINE
  5
4D6
100
AcDbEntity
  8
00_COMPONENTS_55
100
AcDbSpline
 62
7
  6
CONTINUOUS
 70
0
 71
3
 72
8
 73
4
 74
0
 42
0.0000001
 43
0.0000001
 44
0.0000000001
 40
0.0
 40
0.0
 40
0.0
 40
0.0
 40
1.0
 40
1.0
 40
1.0
 40
1.0
 10
113.3545066541
 20
302.3502659535
 30
0.0
 10
113.2455562428
 20
302.2210243388
 30
0.0
 10
113.1280992774
 20
302.0968171208
 30
0.0
 10
112.9950141071
 20
301.9925965637
 30
0.0
  0
SPLINE
  5
4D7
100
AcDbEntity
  8
00_COMPONENTS_55
100
AcDbSpline
 62
7
  6
CONTINUOUS
 70
0
 71
3
 72
8
 73
4
 74
0
 42
0.0000001
 43
0.0000001
 44
0.0000000001
 40
0.0
 40
0.0
 40
0.0
 40
0.0
 40
1.0
 40
1.0
 40
1.0
 40
1.0
 10
112.9950141071
 20
301.9925965637
 30
0.0
 10
112.8347038875
 20
301.8670557512
 30
0.0
 10
112.6318649466
 20
301.7647480713
 30
0.0
 10
112.4282479972
 20
301.7647480713
 30
0.0
  0
SPLINE
  5
4D8
100
AcDbEntity
  8
00_COMPONENTS_55
100
AcDbSpline
 62
7
  6
CONTINUOUS
 70
0
 71
3
 72
8
 73
4
 74
0
 42
0.0000001
 43
0.0000001
 44
0.0000000001
 40
0.0
 40
0.0
 40
0.0
 40
0.0
 40
1.0
 40
1.0
 40
1.0
 40
1.0
 10
909.4282479972
 20
301.7647480713
 30
0.0
 10
909.2247354793
 20
301.7647480713
 30
0.0
 10
909.021991254
 20
301.8669501168
 30
0.0
 10
908.8617384919
 20
301.9923949143
 30
0.0
  0
SPLINE
  5
4D9
100
AcDbEntity
  8
00_COMPONENTS_55
100
AcDbSpline
 62
7
  6
CONTINUOUS
 70
0
 71
3
 72
8
 73
4
 74
0
 42
0.0000001
 43
0.0000001
 44
0.0000000001
 40
0.0
 40
0.0
 40
0.0
 40
0.0
 40
1.0
 40
1.0
 40
1.0
 40
1.0
 10
908.7713752595
 20
302.0682834717
 30
0.0
 10
908.7058108037
 20
302.1270033107
 30
0.0
 10
908.6439982651
 20
302.190003924
 30
0.0
 10
908.5849183687
 20
302.2552441201
 30
0.0
  0
SPLINE
  5
4DA
100
AcDbEntity
  8
00_COMPONENTS_55
100
AcDbSpline
 62
7
  6
CONTINUOUS
 70
0
 71
3
 72
8
 73
4
 74
0
 42
0.0000001
 43
0.0000001
 44
0.0000000001
 40
0.0
 40
0.0
 40
0.0
 40
0.0
 40
1.0
 40
1.0
 40
1.0
 40
1.0
 10
113.8827402148
 20
1097.2216296829
 30
0.0
 10
113.6781084901
 20
1097.3533314878
 30
0.0
 10
113.4745372442
 20
1097.4871576433
 30
0.0
 10
113.2784385003
 20
1097.6312575766
 30
0.0
  0
SPLINE
  5
4DB
100
AcDbEntity
  8
00_COMPONENTS_55
100
AcDbSpline
 62
7
  6
CONTINUOUS
 70
0
 71
3
 72
9
 73
5
 74
0
 42
0.0000001
 43
0.0000001
 44
0.0000000001
 40
0.0
 40
0.0
 40
0.0
 40
0.0
 40
0.3145099966
 40
1.0
 40
1.0
 40
1.0
 40
1.0
 10
113.2784385003
 20
1097.6312575766
 30
0.0
 10
113.1570168219
 20
1097.7204822978
 30
0.0
 10
112.7890203379
 20
1098.0065450501
 30
0.0
 10
112.4282479972
 20
1098.436334958
 30
0.0
 10
112.4282479972
 20
1098.7647480713
 30
0.0
  0
SPLINE
  5
4DC
100
AcDbEntity
  8
00_COMPONENTS_55
100
AcDbSpline
 62
7
  6
CONTINUOUS
 70
0
 71
3
 72
9
 73
5
 74
0
 42
0.0000001
 43
0.0000001
 44
0.0000000001
 40
0.0
 40
0.0
 40
0.0
 40
0.0
 40
0.2053637777
 40
1.0
 40
1.0
 40
1.0
 40
1.0
 10
112.4282479972
 20
301.7647480713
 30
0.0
 10
112.4282479972
 20
301.849370246
 30
0.0
 10
112.5137983378
 20
302.2630730764
 30
0.0
 10
112.8498587319
 20
302.5624270031
 30
0.0
 10
113.1059330573
 20
302.7664892343
 30
0.0
  0
SPLINE
  5
4DD
100
AcDbEntity
  8
00_COMPONENTS_55
100
AcDbSpline
 62
7
  6
CONTINUOUS
 70
0
 71
3
 72
8
 73
4
 74
0
 42
0.0000001
 43
0.0000001
 44
0.0000000001
 40
0.0
 40
0.0
 40
0.0
 40
0.0
 40
1.0
 40
1.0
 40
1.0
 40
1.0
 10
908.5849272693
 20
1098.2742242791
 30
0.0
 10
908.6702822913
 20
1098.3684242426
 30
0.0
 10
908.7615232696
 20
1098.4582695285
 30
0.0
 10
908.8614613056
 20
1098.5368284356
 30
0.0
  0
SPLINE
  5
4DE
100
AcDbEntity
  8
00_COMPONENTS_55
100
AcDbSpline
 62
7
  6
CONTINUOUS
 70
0
 71
3
 72
8
 73
4
 74
0
 42
0.0000001
 43
0.0000001
 44
0.0000000001
 40
0.0
 40
0.0
 40
0.0
 40
0.0
 40
1.0
 40
1.0
 40
1.0
 40
1.0
 10
908.8614613056
 20
1098.5368284356
 30
0.0
 10
909.0215528608
 20
1098.6626725896
 30
0.0
 10
909.2246158359
 20
1098.7647480713
 30
0.0
 10
909.4282479972
 20
1098.7647480713
 30
0.0
  0
SPLINE
  5
4DF
100
AcDbEntity
  8
00_COMPONENTS_55
100
AcDbSpline
 62
7
  6
CONTINUOUS
 70
0
 71
3
 72
9
 73
5
 74
0
 42
0.0000001
 43
0.0000001
 44
0.0000000001
 40
0.0
 40
0.0
 40
0.0
 40
0.0
 40
0.1923768985
 40
1.0
 40
1.0
 40
1.0
 40
1.0
 10
112.4282479972
 20
1098.7647480713
 30
0.0
 10
112.5379576313
 20
1098.7647480713
 30
0.0
 10
113.1074943027
 20
1098.6058392209
 30
0.0
 10
113.4526925044
 20
1098.0804076465
 30
0.0
 10
113.7132798526
 20
1097.700639586
 30
0.0
  0
SPLINE
  5
4E0
100
AcDbEntity
  8
00_COMPONENTS_55
100
AcDbSpline
 62
7
  6
CONTINUOUS
 70
0
 71
3
 72
8
 73
4
 74
0
 42
0.0000001
 43
0.0000001
 44
0.0000000001
 40
0.0
 40
0.0
 40
0.0
 40
0.0
 40
1.0
 40
1.0
 40
1.0
 40
1.0
 10
113.7132798526
 20
1097.700639586
 30
0.0
 10
113.7930812965
 20
1097.5843406184
 30
0.0
 10
113.8705391252
 20
1097.4664327474
 30
0.0
 10
113.9470633602
 20
1097.3479516867
 30
0.0
  0
SPLINE
  5
4E1
100
AcDbEntity
  8
00_COMPONENTS_55
100
AcDbSpline
 62
7
  6
CONTINUOUS
 70
0
 71
3
 72
8
 73
4
 74
0
 42
0.0000001
 43
0.0000001
 44
0.0000000001
 40
0.0
 40
0.0
 40
0.0
 40
0.0
 40
1.0
 40
1.0
 40
1.0
 40
1.0
 10
908.7504515236
 20
302.7665219583
 30
0.0
 10
908.9136121787
 20
302.6365592079
 30
0.0
 10
909.071418817
 20
302.4955263275
 30
0.0
 10
909.2003295641
 20
302.3315332328
 30
0.0
  0
SPLINE
  5
4E2
100
AcDbEntity
  8
00_COMPONENTS_55
100
AcDbSpline
 62
7
  6
CONTINUOUS
 70
0
 71
3
 72
8
 73
4
 74
0
 42
0.0000001
 43
0.0000001
 44
0.0000000001
 40
0.0
 40
0.0
 40
0.0
 40
0.0
 40
1.0
 40
1.0
 40
1.0
 40
1.0
 10
909.2003295641
 20
302.3315332328
 30
0.0
 10
909.3045746543
 20
302.1989184174
 30
0.0
 10
909.392514097
 20
302.0418627518
 30
0.0
 10
909.4193194307
 20
301.875323861
 30
0.0
  0
SPLINE
  5
4E3
100
AcDbEntity
  8
00_COMPONENTS_55
100
AcDbSpline
 62
7
  6
CONTINUOUS
 70
0
 71
3
 72
9
 73
5
 74
0
 42
0.0000001
 43
0.0000001
 44
0.0000000001
 40
0.0
 40
0.0
 40
0.0
 40
0.0
 40
0.1989431068
 40
1.0
 40
1.0
 40
1.0
 40
1.0
 10
909.4282479972
 20
1098.7647480713
 30
0.0
 10
909.4282479972
 20
1098.6685597356
 30
0.0
 10
909.3120559181
 20
1098.1839613666
 30
0.0
 10
908.890495774
 20
1097.8608790061
 30
0.0
 10
908.5784067697
 20
1097.6315141812
 30
0.0
  0
SPLINE
  5
4E4
100
AcDbEntity
  8
00_COMPONENTS_55
100
AcDbSpline
 62
7
  6
CONTINUOUS
 70
0
 71
3
 72
9
 73
5
 74
0
 42
0.0000001
 43
0.0000001
 44
0.0000000001
 40
0.0
 40
0.0
 40
0.0
 40
0.0
 40
0.3684288376
 40
1.0
 40
1.0
 40
1.0
 40
1.0
 10
112.4282479972
 20
300.2647480713
 30
0.0
 10
112.6097834638
 20
300.2647480713
 30
0.0
 10
113.0337387594
 20
300.6452225418
 30
0.0
 10
113.2256629644
 20
301.0795393778
 30
0.0
 10
113.3529510158
 20
301.3635094255
 30
0.0
  0
SPLINE
  5
4E5
100
AcDbEntity
  8
00_COMPONENTS_55
100
AcDbSpline
 62
7
  6
CONTINUOUS
 70
0
 71
3
 72
8
 73
4
 74
0
 42
0.0000001
 43
0.0000001
 44
0.0000000001
 40
0.0
 40
0.0
 40
0.0
 40
0.0
 40
1.0
 40
1.0
 40
1.0
 40
1.0
 10
113.4527024114
 20
301.5946345077
 30
0.0
 10
113.5674010539
 20
301.8698693296
 30
0.0
 10
113.6716327746
 20
302.1494637544
 30
0.0
 10
113.7719779958
 20
302.4302498337
 30
0.0
  0
SPLINE
  5
4E6
100
AcDbEntity
  8
00_COMPONENTS_55
100
AcDbSpline
 62
7
  6
CONTINUOUS
 70
0
 71
3
 72
8
 73
4
 74
0
 42
0.0000001
 43
0.0000001
 44
0.0000000001
 40
0.0
 40
0.0
 40
0.0
 40
0.0
 40
1.0
 40
1.0
 40
1.0
 40
1.0
 10
908.9681129326
 20
1097.4953473196
 30
0.0
 10
909.1556762369
 20
1097.5641691906
 30
0.0
 10
909.3424282246
 20
1097.6353566577
 30
0.0
 10
909.5273529424
 20
1097.7109826572
 30
0.0
  0
SPLINE
  5
4E7
100
AcDbEntity
  8
00_COMPONENTS_55
100
AcDbSpline
 62
7
  6
CONTINUOUS
 70
0
 71
3
 72
8
 73
4
 74
0
 42
0.0000001
 43
0.0000001
 44
0.0000000001
 40
0.0
 40
0.0
 40
0.0
 40
0.0
 40
1.0
 40
1.0
 40
1.0
 40
1.0
 10
909.761770404
 20
1097.8100494021
 30
0.0
 10
909.9048896383
 20
1097.8727154464
 30
0.0
 10
910.0466056557
 20
1097.9390026181
 30
0.0
 10
910.184774567
 20
1098.0119375226
 30
0.0
  0
SPLINE
  5
4E8
100
AcDbEntity
  8
00_COMPONENTS_55
100
AcDbSpline
 62
7
  6
CONTINUOUS
 70
0
 71
3
 72
9
 73
5
 74
0
 42
0.0000001
 43
0.0000001
 44
0.0000000001
 40
0.0
 40
0.0
 40
0.0
 40
0.0
 40
0.3430019892
 40
1.0
 40
1.0
 40
1.0
 40
1.0
 10
910.184774567
 20
1098.0119375226
 30
0.0
 10
910.293614276
 20
1098.0693904888
 30
0.0
 10
910.5913464341
 20
1098.2393547389
 30
0.0
 10
910.9282479972
 20
1098.5290100349
 30
0.0
 10
910.9282479972
 20
1098.7647480713
 30
0.0
  0
SPLINE
  5
4E9
100
AcDbEntity
  8
00_COMPONENTS_55
100
AcDbSpline
 62
7
  6
CONTINUOUS
 70
0
 71
3
 72
9
 73
5
 74
0
 42
0.0000001
 43
0.0000001
 44
0.0000000001
 40
0.0
 40
0.0
 40
0.0
 40
0.0
 40
0.1696493662
 40
1.0
 40
1.0
 40
1.0
 40
1.0
 10
910.9282479972
 20
301.7647480713
 30
0.0
 10
910.9282479972
 20
301.8385000538
 30
0.0
 10
910.7717855149
 20
302.2675410724
 30
0.0
 10
910.3167558845
 20
302.4589085309
 30
0.0
 10
909.9911185064
 20
302.6146864534
 30
0.0
  0
SPLINE
  5
4EA
100
AcDbEntity
  8
00_COMPONENTS_55
100
AcDbSpline
 62
7
  6
CONTINUOUS
 70
0
 71
3
 72
8
 73
4
 74
0
 42
0.0000001
 43
0.0000001
 44
0.0000000001
 40
0.0
 40
0.0
 40
0.0
 40
0.0
 40
1.0
 40
1.0
 40
1.0
 40
1.0
 10
112.889282746
 20
303.0344789192
 30
0.0
 10
112.7014167159
 20
302.965554916
 30
0.0
 10
112.5143634424
 20
302.8942604006
 30
0.0
 10
112.3291431092
 20
302.8185135087
 30
0.0
  0
SPLINE
  5
4EB
100
AcDbEntity
  8
00_COMPONENTS_55
100
AcDbSpline
 62
7
  6
CONTINUOUS
 70
0
 71
3
 72
8
 73
4
 74
0
 42
0.0000001
 43
0.0000001
 44
0.0000000001
 40
0.0
 40
0.0
 40
0.0
 40
0.0
 40
1.0
 40
1.0
 40
1.0
 40
1.0
 10
112.3291431092
 20
302.8185135087
 30
0.0
 10
112.106065451
 20
302.7272846518
 30
0.0
 10
111.8848600497
 20
302.6300676129
 30
0.0
 10
111.6717214273
 20
302.51755862
 30
0.0
  0
SPLINE
  5
4EC
100
AcDbEntity
  8
00_COMPONENTS_55
100
AcDbSpline
 62
7
  6
CONTINUOUS
 70
0
 71
3
 72
9
 73
5
 74
0
 42
0.0000001
 43
0.0000001
 44
0.0000000001
 40
0.0
 40
0.0
 40
0.0
 40
0.0
 40
0.3430019893
 40
1.0
 40
1.0
 40
1.0
 40
1.0
 10
111.6717214273
 20
302.51755862
 30
0.0
 10
111.5628817182
 20
302.4601056538
 30
0.0
 10
111.2651495601
 20
302.2901414037
 30
0.0
 10
110.9282479972
 20
302.0004861077
 30
0.0
 10
110.9282479972
 20
301.7647480713
 30
0.0
  0
SPLINE
  5
4ED
100
AcDbEntity
  8
00_COMPONENTS_55
100
AcDbSpline
 62
7
  6
CONTINUOUS
 70
0
 71
3
 72
9
 73
5
 74
0
 42
0.0000001
 43
0.0000001
 44
0.0000000001
 40
0.0
 40
0.0
 40
0.0
 40
0.0
 40
0.3684288376
 40
1.0
 40
1.0
 40
1.0
 40
1.0
 10
110.9282479972
 20
1098.7647480713
 30
0.0
 10
110.9282479972
 20
1098.5832126047
 30
0.0
 10
111.3087224676
 20
1098.1592573092
 30
0.0
 10
111.7430393037
 20
1097.9673331042
 30
0.0
 10
112.0270093514
 20
1097.8400450528
 30
0.0
  0
SPLINE
  5
4EE
100
AcDbEntity
  8
00_COMPONENTS_55
100
AcDbSpline
 62
7
  6
CONTINUOUS
 70
0
 71
3
 72
8
 73
4
 74
0
 42
0.0000001
 43
0.0000001
 44
0.0000000001
 40
0.0
 40
0.0
 40
0.0
 40
0.0
 40
1.0
 40
1.0
 40
1.0
 40
1.0
 10
112.3290879427
 20
1097.7110052016
 30
0.0
 10
112.6324181395
 20
1097.5869548192
 30
0.0
 10
112.9404733325
 20
1097.474497922
 30
0.0
 10
113.2496270413
 20
1097.3657703268
 30
0.0
  0
SPLINE
  5
4EF
100
AcDbEntity
  8
00_COMPONENTS_55
100
AcDbSpline
 62
7
  6
CONTINUOUS
 70
0
 71
3
 72
8
 73
4
 74
0
 42
0.0000001
 43
0.0000001
 44
0.0000000001
 40
0.0
 40
0.0
 40
0.0
 40
0.0
 40
1.0
 40
1.0
 40
1.0
 40
1.0
 10
113.2496270413
 20
1097.3657703268
 30
0.0
 10
113.541677376
 20
1097.2630578907
 30
0.0
 10
113.8349806695
 20
1097.1639323291
 30
0.0
 10
114.1282479972
 20
1097.0647480713
 30
0.0
  0
SPLINE
  5
4F0
100
AcDbEntity
  8
00_COMPONENTS_55
100
AcDbSpline
 62
7
  6
CONTINUOUS
 70
0
 71
3
 72
8
 73
4
 74
0
 42
0.0000001
 43
0.0000001
 44
0.0000000001
 40
0.0
 40
0.0
 40
0.0
 40
0.0
 40
1.0
 40
1.0
 40
1.0
 40
1.0
 10
114.1282479972
 20
1097.0647480713
 30
0.0
 10
114.018345925
 20
1097.3897057586
 30
0.0
 10
113.90855175
 20
1097.7147276976
 30
0.0
 10
113.7937913528
 20
1098.0380015988
 30
0.0
  0
SPLINE
  5
4F1
100
AcDbEntity
  8
00_COMPONENTS_55
100
AcDbSpline
 62
7
  6
CONTINUOUS
 70
0
 71
3
 72
8
 73
4
 74
0
 42
0.0000001
 43
0.0000001
 44
0.0000000001
 40
0.0
 40
0.0
 40
0.0
 40
0.0
 40
1.0
 40
1.0
 40
1.0
 40
1.0
 10
113.7937913528
 20
1098.0380015988
 30
0.0
 10
113.6953536674
 20
1098.3152952937
 30
0.0
 10
113.5933937485
 20
1098.5914998856
 30
0.0
 10
113.4820134346
 20
1098.8638529594
 30
0.0
  0
SPLINE
  5
4F2
100
AcDbEntity
  8
00_COMPONENTS_55
100
AcDbSpline
 62
7
  6
CONTINUOUS
 70
0
 71
3
 72
8
 73
4
 74
0
 42
0.0000001
 43
0.0000001
 44
0.0000000001
 40
0.0
 40
0.0
 40
0.0
 40
0.0
 40
1.0
 40
1.0
 40
1.0
 40
1.0
 10
113.4820134346
 20
1098.8638529594
 30
0.0
 10
113.3907845778
 20
1099.0869306175
 30
0.0
 10
113.2935675389
 20
1099.3081360189
 30
0.0
 10
113.1810585459
 20
1099.5212746414
 30
0.0
  0
SPLINE
  5
4F3
100
AcDbEntity
  8
00_COMPONENTS_55
100
AcDbSpline
 62
7
  6
CONTINUOUS
 70
0
 71
3
 72
9
 73
5
 74
0
 42
0.0000001
 43
0.0000001
 44
0.0000000001
 40
0.0
 40
0.0
 40
0.0
 40
0.0
 40
0.3430019893
 40
1.0
 40
1.0
 40
1.0
 40
1.0
 10
113.1810585459
 20
1099.5212746414
 30
0.0
 10
113.1236055798
 20
1099.6301143504
 30
0.0
 10
112.9536413296
 20
1099.9278465084
 30
0.0
 10
112.6639860336
 20
1100.2647480713
 30
0.0
 10
112.4282479972
 20
1100.2647480713
 30
0.0
  0
SPLINE
  5
4F4
100
AcDbEntity
  8
00_COMPONENTS_55
100
AcDbSpline
 62
7
  6
CONTINUOUS
 70
0
 71
3
 72
9
 73
5
 74
0
 42
0.0000001
 43
0.0000001
 44
0.0000000001
 40
0.0
 40
0.0
 40
0.0
 40
0.0
 40
0.368369463
 40
1.0
 40
1.0
 40
1.0
 40
1.0
 10
909.4282479972
 20
1100.2647480713
 30
0.0
 10
909.2467396924
 20
1100.2647480713
 30
0.0
 10
908.822804857
 20
1099.8842500266
 30
0.0
 10
908.6308300694
 20
1099.4499618525
 30
0.0
 10
908.5035249268
 20
1099.1659634715
 30
0.0
  0
SPLINE
  5
4F5
100
AcDbEntity
  8
00_COMPONENTS_55
100
AcDbSpline
 62
7
  6
CONTINUOUS
 70
0
 71
3
 72
9
 73
5
 74
0
 42
0.0000001
 43
0.0000001
 44
0.0000000001
 40
0.0
 40
0.0
 40
0.0
 40
0.0
 40
0.3430019893
 40
1.0
 40
1.0
 40
1.0
 40
1.0
 10
908.6754374485
 20
301.0082215013
 30
0.0
 10
908.7328904147
 20
300.8993817922
 30
0.0
 10
908.9028546648
 20
300.6016496342
 30
0.0
 10
909.1925099608
 20
300.2647480713
 30
0.0
 10
909.4282479972
 20
300.2647480713
 30
0.0
  0
SPLINE
  5
4F6
100
AcDbEntity
  8
00_COMPONENTS_46
100
AcDbSpline
 62
7
  6
CONTINUOUS
 70
0
 71
3
 72
8
 73
4
 74
0
 42
0.0000001
 43
0.0000001
 44
0.0000000001
 40
0.0
 40
0.0
 40
0.0
 40
0.0
 40
1.0
 40
1.0
 40
1.0
 40
1.0
 10
124.09377032
 20
1095.0647480713
 30
0.0
 10
123.8171029099
 20
1095.4070623547
 30
0.0
 10
123.5423673057
 20
1095.7516523985
 30
0.0
 10
123.2885680167
 20
1096.1112491802
 30
0.0
  0
SPLINE
  5
4F7
100
AcDbEntity
  8
00_COMPONENTS_46
100
AcDbSpline
 62
7
  6
CONTINUOUS
 70
0
 71
3
 72
8
 73
4
 74
0
 42
0.0000001
 43
0.0000001
 44
0.0000000001
 40
0.0
 40
0.0
 40
0.0
 40
0.0
 40
1.0
 40
1.0
 40
1.0
 40
1.0
 10
123.1186903782
 20
303.1691233292
 30
0.0
 10
123.3151922279
 20
303.4684097573
 30
0.0
 10
123.5317483726
 20
303.7544027801
 30
0.0
 10
123.7525558641
 20
304.0362349903
 30
0.0
  0
SPLINE
  5
4F8
100
AcDbEntity
  8
00_COMPONENTS_46
100
AcDbSpline
 62
7
  6
CONTINUOUS
 70
0
 71
3
 72
8
 73
4
 74
0
 42
0.0000001
 43
0.0000001
 44
0.0000000001
 40
0.0
 40
0.0
 40
0.0
 40
0.0
 40
1.0
 40
1.0
 40
1.0
 40
1.0
 10
899.0758580712
 20
1095.0647480713
 30
0.0
 10
899.3653036558
 20
1095.4002376211
 30
0.0
 10
899.656704504
 20
1095.7360776948
 30
0.0
 10
899.9792998056
 20
1096.0398280131
 30
0.0
  0
SPLINE
  5
4F9
100
AcDbEntity
  8
00_COMPONENTS_46
100
AcDbSpline
 62
7
  6
CONTINUOUS
 70
0
 71
3
 72
8
 73
4
 74
0
 42
0.0000001
 43
0.0000001
 44
0.0000000001
 40
0.0
 40
0.0
 40
0.0
 40
0.0
 40
1.0
 40
1.0
 40
1.0
 40
1.0
 10
900.662770147
 20
1096.4267790633
 30
0.0
 10
900.8840349922
 20
1096.5316681304
 30
0.0
 10
901.1152977125
 20
1096.6193038609
 30
0.0
 10
901.3529116859
 20
1096.6784599914
 30
0.0
  0
SPLINE
  5
4FA
100
AcDbEntity
  8
00_COMPONENTS_46
100
AcDbSpline
 62
7
  6
CONTINUOUS
 70
0
 71
3
 72
8
 73
4
 74
0
 42
0.0000001
 43
0.0000001
 44
0.0000000001
 40
0.0
 40
0.0
 40
0.0
 40
0.0
 40
1.0
 40
1.0
 40
1.0
 40
1.0
 10
901.3529116859
 20
1096.6784599914
 30
0.0
 10
901.5768123145
 20
1096.7342020617
 30
0.0
 10
901.8089825594
 20
1096.7647480713
 30
0.0
 10
902.0397176237
 20
1096.7647480713
 30
0.0
  0
SPLINE
  5
4FB
100
AcDbEntity
  8
00_COMPONENTS_46
100
AcDbSpline
 62
7
  6
CONTINUOUS
 70
0
 71
3
 72
8
 73
4
 74
0
 42
0.0000001
 43
0.0000001
 44
0.0000000001
 40
0.0
 40
0.0
 40
0.0
 40
0.0
 40
1.0
 40
1.0
 40
1.0
 40
1.0
 10
121.1299107675
 20
1096.7647480713
 30
0.0
 10
121.6013114519
 20
1096.7647480713
 30
0.0
 10
122.0773952684
 20
1096.6299375541
 30
0.0
 10
122.5035226436
 20
1096.4283586233
 30
0.0
  0
SPLINE
  5
4FC
100
AcDbEntity
  8
00_COMPONENTS_46
100
AcDbSpline
 62
7
  6
CONTINUOUS
 70
0
 71
3
 72
8
 73
4
 74
0
 42
0.0000001
 43
0.0000001
 44
0.0000000001
 40
0.0
 40
0.0
 40
0.0
 40
0.0
 40
1.0
 40
1.0
 40
1.0
 40
1.0
 10
123.1903285856
 20
1096.0398280131
 30
0.0
 10
123.4025616797
 20
1095.839992896
 30
0.0
 10
123.6001676842
 20
1095.6248055368
 30
0.0
 10
123.7939853165
 20
1095.4070632908
 30
0.0
  0
SPLINE
  5
4FD
100
AcDbEntity
  8
00_COMPONENTS_46
100
AcDbSpline
 62
7
  6
CONTINUOUS
 70
0
 71
3
 72
8
 73
4
 74
0
 42
0.0000001
 43
0.0000001
 44
0.0000000001
 40
0.0
 40
0.0
 40
0.0
 40
0.0
 40
1.0
 40
1.0
 40
1.0
 40
1.0
 10
899.0758580712
 20
304.4647480713
 30
0.0
 10
899.3525254814
 20
304.1224337879
 30
0.0
 10
899.6272610856
 20
303.7778437441
 30
0.0
 10
899.8810603745
 20
303.4182469624
 30
0.0
  0
SPLINE
  5
4FE
100
AcDbEntity
  8
00_COMPONENTS_46
100
AcDbSpline
 62
7
  6
CONTINUOUS
 70
0
 71
3
 72
8
 73
4
 74
0
 42
0.0000001
 43
0.0000001
 44
0.0000000001
 40
0.0
 40
0.0
 40
0.0
 40
0.0
 40
1.0
 40
1.0
 40
1.0
 40
1.0
 10
900.050938013
 20
1096.3603728134
 30
0.0
 10
899.8544361633
 20
1096.0610863853
 30
0.0
 10
899.6378800186
 20
1095.7750933625
 30
0.0
 10
899.4170725271
 20
1095.4932611524
 30
0.0
  0
SPLINE
  5
4FF
100
AcDbEntity
  8
00_COMPONENTS_46
100
AcDbSpline
 62
7
  6
CONTINUOUS
 70
0
 71
3
 72
8
 73
4
 74
0
 42
0.0000001
 43
0.0000001
 44
0.0000000001
 40
0.0
 40
0.0
 40
0.0
 40
0.0
 40
1.0
 40
1.0
 40
1.0
 40
1.0
 10
124.09377032
 20
304.4647480713
 30
0.0
 10
123.8043247354
 20
304.1292585215
 30
0.0
 10
123.5129238872
 20
303.7934184478
 30
0.0
 10
123.1903285856
 20
303.4896681295
 30
0.0
  0
SPLINE
  5
500
100
AcDbEntity
  8
00_COMPONENTS_46
100
AcDbSpline
 62
7
  6
CONTINUOUS
 70
0
 71
3
 72
8
 73
4
 74
0
 42
0.0000001
 43
0.0000001
 44
0.0000000001
 40
0.0
 40
0.0
 40
0.0
 40
0.0
 40
1.0
 40
1.0
 40
1.0
 40
1.0
 10
122.5035226436
 20
303.1011375193
 30
0.0
 10
122.2832799584
 20
302.9969520396
 30
0.0
 10
122.0531420233
 20
302.9098963553
 30
0.0
 10
121.8167167053
 20
302.8510361512
 30
0.0
  0
SPLINE
  5
501
100
AcDbEntity
  8
00_COMPONENTS_46
100
AcDbSpline
 62
7
  6
CONTINUOUS
 70
0
 71
3
 72
8
 73
4
 74
0
 42
0.0000001
 43
0.0000001
 44
0.0000000001
 40
0.0
 40
0.0
 40
0.0
 40
0.0
 40
1.0
 40
1.0
 40
1.0
 40
1.0
 10
121.8167167053
 20
302.8510361512
 30
0.0
 10
121.5928160768
 20
302.7952940809
 30
0.0
 10
121.3606458318
 20
302.7647480713
 30
0.0
 10
121.1299107675
 20
302.7647480713
 30
0.0
  0
SPLINE
  5
502
100
AcDbEntity
  8
00_COMPONENTS_46
100
AcDbSpline
 62
7
  6
CONTINUOUS
 70
0
 71
3
 72
8
 73
4
 74
0
 42
0.0000001
 43
0.0000001
 44
0.0000000001
 40
0.0
 40
0.0
 40
0.0
 40
0.0
 40
1.0
 40
1.0
 40
1.0
 40
1.0
 10
902.0397176237
 20
302.7647480713
 30
0.0
 10
901.5671116798
 20
302.7647480713
 30
0.0
 10
901.0898227128
 20
302.9002757687
 30
0.0
 10
900.662770147
 20
303.1027170793
 30
0.0
  0
SPLINE
  5
503
100
AcDbEntity
  8
00_COMPONENTS_46
100
AcDbSpline
 62
7
  6
CONTINUOUS
 70
0
 71
3
 72
8
 73
4
 74
0
 42
0.0000001
 43
0.0000001
 44
0.0000000001
 40
0.0
 40
0.0
 40
0.0
 40
0.0
 40
1.0
 40
1.0
 40
1.0
 40
1.0
 10
899.9792998056
 20
303.4896681295
 30
0.0
 10
899.7670667115
 20
303.6895032467
 30
0.0
 10
899.569460707
 20
303.9046906058
 30
0.0
 10
899.3756430747
 20
304.1224328518
 30
0.0
  0
SPLINE
  5
504
100
AcDbEntity
  8
00_COMPONENTS_46
100
AcDbSpline
 62
7
  6
CONTINUOUS
 70
0
 71
3
 72
8
 73
4
 74
0
 42
0.0000001
 43
0.0000001
 44
0.0000000001
 40
0.0
 40
0.0
 40
0.0
 40
0.0
 40
1.0
 40
1.0
 40
1.0
 40
1.0
 10
899.0758580712
 20
304.4647480713
 30
0.0
 10
899.2720991708
 20
304.0401429675
 30
0.0
 10
899.4678383584
 20
303.6151065285
 30
0.0
 10
899.6781525605
 20
303.1972931734
 30
0.0
  0
SPLINE
  5
505
100
AcDbEntity
  8
00_COMPONENTS_46
100
AcDbSpline
 62
7
  6
CONTINUOUS
 70
0
 71
3
 72
8
 73
4
 74
0
 42
0.0000001
 43
0.0000001
 44
0.0000000001
 40
0.0
 40
0.0
 40
0.0
 40
0.0
 40
1.0
 40
1.0
 40
1.0
 40
1.0
 10
899.9792998056
 20
302.629303475
 30
0.0
 10
900.191174626
 20
302.3705545196
 30
0.0
 10
900.4163678206
 20
302.1203769412
 30
0.0
 10
900.6661056538
 20
301.8979517265
 30
0.0
  0
SPLINE
  5
506
100
AcDbEntity
  8
00_COMPONENTS_46
100
AcDbSpline
 62
7
  6
CONTINUOUS
 70
0
 71
3
 72
8
 73
4
 74
0
 42
0.0000001
 43
0.0000001
 44
0.0000000001
 40
0.0
 40
0.0
 40
0.0
 40
0.0
 40
1.0
 40
1.0
 40
1.0
 40
1.0
 10
900.6661056538
 20
301.8979517265
 30
0.0
 10
900.8300939082
 20
301.7518980741
 30
0.0
 10
901.0064137048
 20
301.6168912856
 30
0.0
 10
901.1971715177
 20
301.5081012411
 30
0.0
  0
SPLINE
  5
507
100
AcDbEntity
  8
00_COMPONENTS_46
100
AcDbSpline
 62
7
  6
CONTINUOUS
 70
0
 71
3
 72
8
 73
4
 74
0
 42
0.0000001
 43
0.0000001
 44
0.0000000001
 40
0.0
 40
0.0
 40
0.0
 40
0.0
 40
1.0
 40
1.0
 40
1.0
 40
1.0
 10
901.1971715177
 20
301.5081012411
 30
0.0
 10
901.451106786
 20
301.3632808076
 30
0.0
 10
901.7473889073
 20
301.2647480713
 30
0.0
 10
902.0397176237
 20
301.2647480713
 30
0.0
  0
SPLINE
  5
508
100
AcDbEntity
  8
00_COMPONENTS_46
100
AcDbSpline
 62
7
  6
CONTINUOUS
 70
0
 71
3
 72
8
 73
4
 74
0
 42
0.0000001
 43
0.0000001
 44
0.0000000001
 40
0.0
 40
0.0
 40
0.0
 40
0.0
 40
1.0
 40
1.0
 40
1.0
 40
1.0
 10
121.1299107675
 20
301.2647480713
 30
0.0
 10
121.4222394839
 20
301.2647480713
 30
0.0
 10
121.7185216052
 20
301.3632808076
 30
0.0
 10
121.9724568735
 20
301.5081012411
 30
0.0
  0
SPLINE
  5
509
100
AcDbEntity
  8
00_COMPONENTS_46
100
AcDbSpline
 62
7
  6
CONTINUOUS
 70
0
 71
3
 72
8
 73
4
 74
0
 42
0.0000001
 43
0.0000001
 44
0.0000000001
 40
0.0
 40
0.0
 40
0.0
 40
0.0
 40
1.0
 40
1.0
 40
1.0
 40
1.0
 10
121.9724568735
 20
301.5081012411
 30
0.0
 10
122.1632146864
 20
301.6168912857
 30
0.0
 10
122.339534483
 20
301.7518980741
 30
0.0
 10
122.5035227375
 20
301.8979517265
 30
0.0
  0
SPLINE
  5
50A
100
AcDbEntity
  8
00_COMPONENTS_46
100
AcDbSpline
 62
7
  6
CONTINUOUS
 70
0
 71
3
 72
8
 73
4
 74
0
 42
0.0000001
 43
0.0000001
 44
0.0000000001
 40
0.0
 40
0.0
 40
0.0
 40
0.0
 40
1.0
 40
1.0
 40
1.0
 40
1.0
 10
122.5035227375
 20
301.8979517265
 30
0.0
 10
122.7532605706
 20
302.1203769412
 30
0.0
 10
122.9784537652
 20
302.3705545196
 30
0.0
 10
123.1903285856
 20
302.629303475
 30
0.0
  0
SPLINE
  5
50B
100
AcDbEntity
  8
00_COMPONENTS_46
100
AcDbSpline
 62
7
  6
CONTINUOUS
 70
0
 71
3
 72
8
 73
4
 74
0
 42
0.0000001
 43
0.0000001
 44
0.0000000001
 40
0.0
 40
0.0
 40
0.0
 40
0.0
 40
1.0
 40
1.0
 40
1.0
 40
1.0
 10
123.1903285856
 20
302.629303475
 30
0.0
 10
123.4085498817
 20
303.0160771363
 30
0.0
 10
123.603094678
 20
303.4160379847
 30
0.0
 10
123.7926230749
 20
303.8176514629
 30
0.0
  0
SPLINE
  5
50C
100
AcDbEntity
  8
00_COMPONENTS_46
100
AcDbSpline
 62
7
  6
CONTINUOUS
 70
0
 71
3
 72
8
 73
4
 74
0
 42
0.0000001
 43
0.0000001
 44
0.0000000001
 40
0.0
 40
0.0
 40
0.0
 40
0.0
 40
1.0
 40
1.0
 40
1.0
 40
1.0
 10
124.09377032
 20
1095.0647480713
 30
0.0
 10
123.8975292204
 20
1095.4893531751
 30
0.0
 10
123.7017900328
 20
1095.9143896141
 30
0.0
 10
123.4914758307
 20
1096.3322029692
 30
0.0
  0
SPLINE
  5
50D
100
AcDbEntity
  8
00_COMPONENTS_46
100
AcDbSpline
 62
7
  6
CONTINUOUS
 70
0
 71
3
 72
8
 73
4
 74
0
 42
0.0000001
 43
0.0000001
 44
0.0000000001
 40
0.0
 40
0.0
 40
0.0
 40
0.0
 40
1.0
 40
1.0
 40
1.0
 40
1.0
 10
123.1903285856
 20
1096.9001926676
 30
0.0
 10
122.9784537652
 20
1097.1589416231
 30
0.0
 10
122.7532605706
 20
1097.4091192014
 30
0.0
 10
122.5035227375
 20
1097.6315444161
 30
0.0
  0
SPLINE
  5
50E
100
AcDbEntity
  8
00_COMPONENTS_46
100
AcDbSpline
 62
7
  6
CONTINUOUS
 70
0
 71
3
 72
8
 73
4
 74
0
 42
0.0000001
 43
0.0000001
 44
0.0000000001
 40
0.0
 40
0.0
 40
0.0
 40
0.0
 40
1.0
 40
1.0
 40
1.0
 40
1.0
 10
122.5035227375
 20
1097.6315444161
 30
0.0
 10
122.339534483
 20
1097.7775980685
 30
0.0
 10
122.1632146864
 20
1097.912604857
 30
0.0
 10
121.9724568735
 20
1098.0213949016
 30
0.0
  0
SPLINE
  5
50F
100
AcDbEntity
  8
00_COMPONENTS_46
100
AcDbSpline
 62
7
  6
CONTINUOUS
 70
0
 71
3
 72
8
 73
4
 74
0
 42
0.0000001
 43
0.0000001
 44
0.0000000001
 40
0.0
 40
0.0
 40
0.0
 40
0.0
 40
1.0
 40
1.0
 40
1.0
 40
1.0
 10
121.9724568735
 20
1098.0213949016
 30
0.0
 10
121.7185216052
 20
1098.1662153351
 30
0.0
 10
121.4222394839
 20
1098.2647480713
 30
0.0
 10
121.1299107675
 20
1098.2647480713
 30
0.0
  0
SPLINE
  5
510
100
AcDbEntity
  8
00_COMPONENTS_46
100
AcDbSpline
 62
7
  6
CONTINUOUS
 70
0
 71
3
 72
8
 73
4
 74
0
 42
0.0000001
 43
0.0000001
 44
0.0000000001
 40
0.0
 40
0.0
 40
0.0
 40
0.0
 40
1.0
 40
1.0
 40
1.0
 40
1.0
 10
899.0758580712
 20
1095.0647480713
 30
0.0
 10
899.5020129197
 20
1095.3472043785
 30
0.0
 10
899.9287746345
 20
1095.6292530336
 30
0.0
 10
900.3433129692
 20
1095.928497899
 30
0.0
  0
SPLINE
  5
511
100
AcDbEntity
  8
00_COMPONENTS_46
100
AcDbSpline
 62
7
  6
CONTINUOUS
 70
0
 71
3
 72
8
 73
4
 74
0
 42
0.0000001
 43
0.0000001
 44
0.0000000001
 40
0.0
 40
0.0
 40
0.0
 40
0.0
 40
1.0
 40
1.0
 40
1.0
 40
1.0
 10
900.3433129692
 20
1095.928497899
 30
0.0
 10
900.5361599974
 20
1096.0677093498
 30
0.0
 10
900.7264041472
 20
1096.2107655224
 30
0.0
 10
900.9113026675
 20
1096.3603728134
 30
0.0
  0
SPLINE
  5
512
100
AcDbEntity
  8
00_COMPONENTS_46
100
AcDbSpline
 62
7
  6
CONTINUOUS
 70
0
 71
3
 72
8
 73
4
 74
0
 42
0.0000001
 43
0.0000001
 44
0.0000000001
 40
0.0
 40
0.0
 40
0.0
 40
0.0
 40
1.0
 40
1.0
 40
1.0
 40
1.0
 10
900.9113026675
 20
303.1691233292
 30
0.0
 10
900.7264041472
 20
303.3187306202
 30
0.0
 10
900.5361599974
 20
303.4617867928
 30
0.0
 10
900.3433129692
 20
303.6009982436
 30
0.0
  0
SPLINE
  5
513
100
AcDbEntity
  8
00_COMPONENTS_46
100
AcDbSpline
 62
7
  6
CONTINUOUS
 70
0
 71
3
 72
8
 73
4
 74
0
 42
0.0000001
 43
0.0000001
 44
0.0000000001
 40
0.0
 40
0.0
 40
0.0
 40
0.0
 40
1.0
 40
1.0
 40
1.0
 40
1.0
 10
900.3433129692
 20
303.6009982436
 30
0.0
 10
900.1390195362
 20
303.7484725681
 30
0.0
 10
899.9316201787
 20
303.891652788
 30
0.0
 10
899.7229546794
 20
304.0328731569
 30
0.0
  0
SPLINE
  5
514
100
AcDbEntity
  8
00_COMPONENTS_46
100
AcDbSpline
 62
7
  6
CONTINUOUS
 70
0
 71
3
 72
8
 73
4
 74
0
 42
0.0000001
 43
0.0000001
 44
0.0000000001
 40
0.0
 40
0.0
 40
0.0
 40
0.0
 40
1.0
 40
1.0
 40
1.0
 40
1.0
 10
899.7229546794
 20
304.0328731569
 30
0.0
 10
899.508189937
 20
304.1782213637
 30
0.0
 10
899.2920151581
 20
304.321478711
 30
0.0
 10
899.0758580712
 20
304.4647480713
 30
0.0
  0
SPLINE
  5
515
100
AcDbEntity
  8
00_COMPONENTS_46
100
AcDbSpline
 62
7
  6
CONTINUOUS
 70
0
 71
3
 72
8
 73
4
 74
0
 42
0.0000001
 43
0.0000001
 44
0.0000000001
 40
0.0
 40
0.0
 40
0.0
 40
0.0
 40
1.0
 40
1.0
 40
1.0
 40
1.0
 10
902.0397176237
 20
1098.2647480713
 30
0.0
 10
901.7473889073
 20
1098.2647480713
 30
0.0
 10
901.451106786
 20
1098.1662153351
 30
0.0
 10
901.1971715177
 20
1098.0213949016
 30
0.0
  0
SPLINE
  5
516
100
AcDbEntity
  8
00_COMPONENTS_46
100
AcDbSpline
 62
7
  6
CONTINUOUS
 70
0
 71
3
 72
8
 73
4
 74
0
 42
0.0000001
 43
0.0000001
 44
0.0000000001
 40
0.0
 40
0.0
 40
0.0
 40
0.0
 40
1.0
 40
1.0
 40
1.0
 40
1.0
 10
901.1971715177
 20
1098.0213949016
 30
0.0
 10
901.0064137048
 20
1097.912604857
 30
0.0
 10
900.8300939082
 20
1097.7775980685
 30
0.0
 10
900.6661056538
 20
1097.6315444161
 30
0.0
  0
SPLINE
  5
517
100
AcDbEntity
  8
00_COMPONENTS_46
100
AcDbSpline
 62
7
  6
CONTINUOUS
 70
0
 71
3
 72
8
 73
4
 74
0
 42
0.0000001
 43
0.0000001
 44
0.0000000001
 40
0.0
 40
0.0
 40
0.0
 40
0.0
 40
1.0
 40
1.0
 40
1.0
 40
1.0
 10
900.6661056538
 20
1097.6315444161
 30
0.0
 10
900.4163678206
 20
1097.4091192014
 30
0.0
 10
900.191174626
 20
1097.1589416231
 30
0.0
 10
899.9792998056
 20
1096.9001926676
 30
0.0
  0
SPLINE
  5
518
100
AcDbEntity
  8
00_COMPONENTS_46
100
AcDbSpline
 62
7
  6
CONTINUOUS
 70
0
 71
3
 72
8
 73
4
 74
0
 42
0.0000001
 43
0.0000001
 44
0.0000000001
 40
0.0
 40
0.0
 40
0.0
 40
0.0
 40
1.0
 40
1.0
 40
1.0
 40
1.0
 10
899.9792998056
 20
1096.9001926676
 30
0.0
 10
899.7610785095
 20
1096.5134190063
 30
0.0
 10
899.5665337132
 20
1096.1134581579
 30
0.0
 10
899.3770053163
 20
1095.7118446797
 30
0.0
  0
SPLINE
  5
519
100
AcDbEntity
  8
00_COMPONENTS_46
100
AcDbSpline
 62
7
  6
CONTINUOUS
 70
0
 71
3
 72
8
 73
4
 74
0
 42
0.0000001
 43
0.0000001
 44
0.0000000001
 40
0.0
 40
0.0
 40
0.0
 40
0.0
 40
1.0
 40
1.0
 40
1.0
 40
1.0
 10
124.09377032
 20
304.4647480713
 30
0.0
 10
123.6594282632
 20
304.1768652657
 30
0.0
 10
123.224414228
 20
303.8894330507
 30
0.0
 10
122.8024287398
 20
303.5837243988
 30
0.0
  0
SPLINE
  5
51A
100
AcDbEntity
  8
00_COMPONENTS_46
100
AcDbSpline
 62
7
  6
CONTINUOUS
 70
0
 71
3
 72
8
 73
4
 74
0
 42
0.0000001
 43
0.0000001
 44
0.0000000001
 40
0.0
 40
0.0
 40
0.0
 40
0.0
 40
1.0
 40
1.0
 40
1.0
 40
1.0
 10
122.8024287398
 20
303.5837243988
 30
0.0
 10
122.6177725783
 20
303.4499496889
 30
0.0
 10
122.4355878362
 20
303.312551759
 30
0.0
 10
122.2583257237
 20
303.1691233292
 30
0.0
  0
SPLINE
  5
51B
100
AcDbEntity
  8
00_COMPONENTS_46
100
AcDbSpline
 62
7
  6
CONTINUOUS
 70
0
 71
3
 72
8
 73
4
 74
0
 42
0.0000001
 43
0.0000001
 44
0.0000000001
 40
0.0
 40
0.0
 40
0.0
 40
0.0
 40
1.0
 40
1.0
 40
1.0
 40
1.0
 10
122.2583257237
 20
1096.3603728134
 30
0.0
 10
122.443224244
 20
1096.2107655224
 30
0.0
 10
122.6334683938
 20
1096.0677093498
 30
0.0
 10
122.826315422
 20
1095.928497899
 30
0.0
  0
SPLINE
  5
51C
100
AcDbEntity
  8
00_COMPONENTS_46
100
AcDbSpline
 62
7
  6
CONTINUOUS
 70
0
 71
3
 72
8
 73
4
 74
0
 42
0.0000001
 43
0.0000001
 44
0.0000000001
 40
0.0
 40
0.0
 40
0.0
 40
0.0
 40
1.0
 40
1.0
 40
1.0
 40
1.0
 10
122.826315422
 20
1095.928497899
 30
0.0
 10
123.030608855
 20
1095.7810235745
 30
0.0
 10
123.2380082125
 20
1095.6378433546
 30
0.0
 10
123.4466737118
 20
1095.4966229857
 30
0.0
  0
SPLINE
  5
51D
100
AcDbEntity
  8
00_COMPONENTS_46
100
AcDbSpline
 62
7
  6
CONTINUOUS
 70
0
 71
3
 72
8
 73
4
 74
0
 42
0.0000001
 43
0.0000001
 44
0.0000000001
 40
0.0
 40
0.0
 40
0.0
 40
0.0
 40
1.0
 40
1.0
 40
1.0
 40
1.0
 10
123.4466737118
 20
1095.4966229857
 30
0.0
 10
123.6614384542
 20
1095.351274779
 30
0.0
 10
123.8776132332
 20
1095.2080174316
 30
0.0
 10
124.09377032
 20
1095.0647480713
 30
0.0
  0
ENDSEC
  0
SECTION
  2
OBJECTS
  0
DICTIONARY
  5
C
100
AcDbDictionary
280
0
281
1
  3
ACAD_GROUP
350
D
  3
ACAD_MLINESTYLE
350
17
  3
ACAD_LAYOUT
350
1A
  3
ACAD_PLOTSETTINGS
350
19
  3
ACAD_PLOTSTYLENAME
350
E
  0
DICTIONARY
  5
D
102
{ACAD_REACTORS
330
C
102
}
100
AcDbDictionary
280
0
281
1
  0
ACDBDICTIONARYWDFLT
  5
E
102
{ACAD_REACTORS
330
C
102
}
100
AcDbDictionary
281
1
  3
Normal
350
F
100
AcDbDictionaryWithDefault
340
F
  0
DICTIONARY
  5
17
102
{ACAD_REACTORS
330
C
102
}
100
AcDbDictionary
280
0
281
1
  3
Standard
350
18
  0
DICTIONARY
  5
19
102
{ACAD_REACTORS
330
C
102
}
100
AcDbDictionary
281
1
  0
DICTIONARY
  5
1A
102
{ACAD_REACTORS
330
C
102
}
100
AcDbDictionary
281
1
  3
Model
350
51E
  3
Layout1
350
51F
  0
ACDBPLACEHOLDER
  5
F
102
{ACAD_REACTORS
330
E
102
}
  0
MLINESTYLE
  5
18
102
{ACAD_REACTORS
330
17
102
}
100
AcDbMlineStyle
  2
STANDARD
 70
0
  3

 62
256
 51
90.0
 52
90.0
 71
2
 49
0.5
 62
256
  6
BYLAYER
 49
-0.5
 62
256
  6
BYLAYER
  0
LAYOUT
  5
51E
102
{ACAD_REACTORS
330
1A
102
}
100
AcDbPlotSettings
  1

  2
none_device
  4

  6

 40
0.0
 41
0.0
 42
0.0
 43
0.0
 44
210.0
 45
297.0
 46
0.0
 47
0.0
 48
0.0
 49
0.0
140
0.0
141
0.0
142
1.0
143
1.0
 70
1024
 72
1
 73
0
 74
0
  7

 75
0
147
1.0
148
0.0
149
0.0
100
AcDbLayout
  1
Model
 70
0
 71
0
 10
0.0
 20
0.0
 11
210.0
 21
297.0
 12
0.0
 22
0.0
 32
0.0
 14
0.0
 24
0.0
 34
0.0
 15
0.0
 25
0.0
 35
0.0
146
0.0
 13
0.0
 23
0.0
 33
0.0
 16
1.0
 26
0.0
 36
0.0
 17
0.0
 27
1.0
 37
0.0
 76
0
330
23D
345
0
346
0
  0
LAYOUT
  5
51F
102
{ACAD_REACTORS
330
1A
102
}
100
AcDbPlotSettings
  1

  2
none_device
  4

  6

 40
0.0
 41
0.0
 42
0.0
 43
0.0
 44
210.0
 45
297.0
 46
0.0
 47
0.0
 48
0.0
 49
0.0
140
0.0
141
0.0
142
1.0
143
1.0
 70
0
 72
1
 73
0
 74
0
  7

 75
0
147
1.0
148
0.0
149
0.0
100
AcDbLayout
  1
Layout1
 70
0
 71
1
 10
0.0
 20
0.0
 11
210.0
 21
297.0
 12
0.0
 22
0.0
 32
0.0
 14
0.0
 24
0.0
 34
0.0
 15
0.0
 25
0.0
 35
0.0
146
0.0
 13
0.0
 23
0.0
 33
0.0
 16
1.0
 26
0.0
 36
0.0
 17
0.0
 27
1.0
 37
0.0
 76
0
330
23E
345
0
346
0
  0
ENDSEC
  0
EOF
