999
DXF file: C:\Users\sesa63760\Dev\_Creo\CAD\MCADID0004280_3D-CAD\drw0001_1.dxf
999
Pro/ENGINEER 2019471 by Parametric Technology Corporation
  0
SECTION
  2
HEADER
  9
$ACADVER
  1
AC1024
  9
$DWGCODEPAGE
  3
ANSI_1252
  9
$EXTMAX
 10
1171.3888277981
 20
1656.6784850288
 30
0.0
  9
$EXTMIN
 10
0.0
 20
0.0
 30
0.0
  9
$LIMMIN
 10
0.0
 20
0.0
  9
$LIMMAX
 10
1171.3888277981
 20
1656.6784850288
  9
$VIEWCTR
 10
585.6944138991
 20
828.3392425144
  9
$VIEWSIZE
 40
1656.6784850288
  9
$CLAYER
  8
0
  9
$LTSCALE
 40
107.9908938389
  9
$CELTYPE
  6
BYLAYER
  9
$DIMSCALE
 40
1.0
  9
$DIMASZ
 40
13.9451050928
  9
$DIMEXO
 40
1.0
  9
$DIMDLI
 40
74.6118902887
  9
$DIMEXE
 40
1.0
  9
$DIMCEN
 40
17.6712371736
  9
$DIMLFAC
 40
1.0
  9
$DIMBLK
  1
_FILLED
  9
$DIMALT
 70
0
  9
$DIMALTF
 40
0.0393700787
  9
$DIMTXT
 40
19.52314713
  9
$DIMTOL
 70
1
  9
$DIMLIM
 70
0
  9
$DIMTFAC
 40
1.0
  9
$DIMTP
 40
0.01
  9
$DIMTM
 40
0.01
  9
$DIMGAP
 40
0.625
  9
$DIMDSEP
 70
46
  9
$AUNITS
 70
0
  9
$PDMODE
 70
3
  9
$PDSIZE
 40
0.3125
  9
$HANDSEED
  5
346
  9
$TILEMODE
 70
1
  9
$MEASUREMENT
 70
1
  9
$INSUNITS
 70
4
  0
ENDSEC
  0
SECTION
  2
CLASSES
  0
CLASS
  1
ACDBDICTIONARYWDFLT
  2
AcDbDictionaryWithDefault
  3
AutoCAD 2000
 90
0
 91
1
280
0
281
0
  0
CLASS
  1
ACDBPLACEHOLDER
  2
AcDbPlaceHolder
  3
AutoCAD 2000
 90
0
 91
1
280
0
281
0
  0
CLASS
  1
LAYOUT
  2
AcDbLayout
  3
AutoCAD 2000
 90
0
 91
0
280
0
281
0
  0
ENDSEC
  0
SECTION
  2
TABLES
  0
TABLE
  2
VPORT
  5
8
100
AcDbSymbolTable
 70
2
  0
VPORT
  5
1F4
100
AcDbSymbolTableRecord
100
AcDbViewportTableRecord
  2
*ACTIVE
 70
0
 10
0.0
 20
0.0
 11
1.0
 21
1.0
 12
585.6944138991
 22
828.3392425144
 13
0.0
 23
0.0
 14
1.0
 24
1.0
 15
0.0
 25
0.0
 16
0.0
 26
0.0
 36
1.0
 17
0.0
 27
0.0
 37
0.0
 40
1656.6784850288
 41
0.7070707071
 42
50.0
 43
0.0
 44
0.0
 50
0.0
 51
0.0
 71
0
 72
100
 73
1
 74
1
 75
0
 76
0
 77
0
 78
0
  0
ENDTAB
  0
TABLE
  2
LTYPE
  5
5
100
AcDbSymbolTable
 70
6
  0
LTYPE
  5
14
100
AcDbSymbolTableRecord
100
AcDbLinetypeTableRecord
  2
BYBLOCK
 70
0
  3

 72
65
 73
0
 40
0.0
  0
LTYPE
  5
15
100
AcDbSymbolTableRecord
100
AcDbLinetypeTableRecord
  2
BYLAYER
 70
0
  3

 72
65
 73
0
 40
0.0
  0
LTYPE
  5
16
100
AcDbSymbolTableRecord
100
AcDbLinetypeTableRecord
  2
CONTINUOUS
 70
64
  3
Solid line
 72
65
 73
0
 40
0.0
  0
LTYPE
  5
1F5
100
AcDbSymbolTableRecord
100
AcDbLinetypeTableRecord
  2
CENTER
 70
64
  3
____ _ ____ _ ____ _ ____ _ ____ _ ____ _ ____
 72
65
 73
4
 40
0.6
 49
0.375
 74
0
 49
-0.075
 74
0
 49
0.075
 74
0
 49
-0.075
 74
0
  0
LTYPE
  5
1F6
100
AcDbSymbolTableRecord
100
AcDbLinetypeTableRecord
  2
HIDDEN
 70
64
  3
- - - - - - - - - - - - - - - - - - - -
 72
65
 73
2
 40
0.2
 49
0.1
 74
0
 49
-0.1
 74
0
  0
LTYPE
  5
1F7
100
AcDbSymbolTableRecord
100
AcDbLinetypeTableRecord
  2
PHANTOM
 70
64
  3
_____ _ _ _____ _ _ _____ _ _ _____
 72
65
 73
6
 40
0.8
 49
0.45
 74
0
 49
-0.05
 74
0
 49
0.1
 74
0
 49
-0.05
 74
0
 49
0.1
 74
0
 49
-0.05
 74
0
  0
LTYPE
  5
1F8
100
AcDbSymbolTableRecord
100
AcDbLinetypeTableRecord
  2
DOT
 70
64
  3
. . . . . . . . . . . . . . . . . . . .
 72
65
 73
2
 40
0.2
 49
0.1
 74
0
 49
-0.1
 74
0
  0
LTYPE
  5
1F9
100
AcDbSymbolTableRecord
100
AcDbLinetypeTableRecord
  2
DASHED
 70
64
  3
- - - - - - - - - - - - - - - - - - - -
 72
65
 73
2
 40
0.2
 49
0.1
 74
0
 49
-0.1
 74
0
  0
ENDTAB
  0
TABLE
  2
LAYER
  5
2
100
AcDbSymbolTable
 70
36
  0
LAYER
  5
10
100
AcDbSymbolTableRecord
100
AcDbLayerTableRecord
  2
0
 70
0
 62
7
  6
CONTINUOUS
370
-3
390
F
  0
LAYER
  5
1FA
100
AcDbSymbolTableRecord
100
AcDbLayerTableRecord
  2
DEFAULT_1
 70
0
 62
7
  6
CENTER
370
-3
390
F
  0
LAYER
  5
1FB
100
AcDbSymbolTableRecord
100
AcDbLayerTableRecord
  2
DEFAULT_2
 70
0
 62
7
  6
HIDDEN
370
-3
390
F
  0
LAYER
  5
1FC
100
AcDbSymbolTableRecord
100
AcDbLayerTableRecord
  2
DEFAULT_3
 70
0
 62
7
  6
PHANTOM
370
-3
390
F
  0
LAYER
  5
1FD
100
AcDbSymbolTableRecord
100
AcDbLayerTableRecord
  2
00_COMPONENTS
 70
0
 62
7
  6
CONTINUOUS
370
-3
390
F
  0
LAYER
  5
1FE
100
AcDbSymbolTableRecord
100
AcDbLayerTableRecord
  2
01_1_DEFAULT_DATUMS
 70
0
 62
7
  6
CONTINUOUS
370
-3
390
F
  0
LAYER
  5
1FF
100
AcDbSymbolTableRecord
100
AcDbLayerTableRecord
  2
01_PLANES
 70
0
 62
7
  6
CONTINUOUS
370
-3
390
F
  0
LAYER
  5
200
100
AcDbSymbolTableRecord
100
AcDbLayerTableRecord
  2
02_COORD_SYS
 70
0
 62
7
  6
CONTINUOUS
370
-3
390
F
  0
LAYER
  5
201
100
AcDbSymbolTableRecord
100
AcDbLayerTableRecord
  2
03_AXES
 70
0
 62
7
  6
CONTINUOUS
370
-3
390
F
  0
LAYER
  5
202
100
AcDbSymbolTableRecord
100
AcDbLayerTableRecord
  2
04_POINTS
 70
0
 62
7
  6
CONTINUOUS
370
-3
390
F
  0
LAYER
  5
203
100
AcDbSymbolTableRecord
100
AcDbLayerTableRecord
  2
05_CURVES
 70
0
 62
7
  6
CONTINUOUS
370
-3
390
F
  0
LAYER
  5
204
100
AcDbSymbolTableRecord
100
AcDbLayerTableRecord
  2
06_SURFS
 70
0
 62
7
  6
CONTINUOUS
370
-3
390
F
  0
LAYER
  5
205
100
AcDbSymbolTableRecord
100
AcDbLayerTableRecord
  2
07_COSMETICS
 70
0
 62
7
  6
CONTINUOUS
370
-3
390
F
  0
LAYER
  5
206
100
AcDbSymbolTableRecord
100
AcDbLayerTableRecord
  2
10_NOTES
 70
0
 62
7
  6
CONTINUOUS
370
-3
390
F
  0
LAYER
  5
207
100
AcDbSymbolTableRecord
100
AcDbLayerTableRecord
  2
11_NOTES_PUB
 70
0
 62
7
  6
CONTINUOUS
370
-3
390
F
  0
LAYER
  5
208
100
AcDbSymbolTableRecord
100
AcDbLayerTableRecord
  2
13_REF_GTOL
 70
0
 62
7
  6
CONTINUOUS
370
-3
390
F
  0
LAYER
  5
209
100
AcDbSymbolTableRecord
100
AcDbLayerTableRecord
  2
16_MISC
 70
0
 62
7
  6
CONTINUOUS
370
-3
390
F
  0
LAYER
  5
20A
100
AcDbSymbolTableRecord
100
AcDbLayerTableRecord
  2
17_NO_PRINT
 70
0
 62
7
  6
CONTINUOUS
370
-3
390
F
  0
LAYER
  5
20B
100
AcDbSymbolTableRecord
100
AcDbLayerTableRecord
  2
18_DATUM_CAMS_JOINTS
 70
0
 62
7
  6
CONTINUOUS
370
-3
390
F
  0
LAYER
  5
20C
100
AcDbSymbolTableRecord
100
AcDbLayerTableRecord
  2
19_DATUM_FUNCTIONAL
 70
0
 62
7
  6
CONTINUOUS
370
-3
390
F
  0
LAYER
  5
20D
100
AcDbSymbolTableRecord
100
AcDbLayerTableRecord
  2
20_DATUM_KINEMATIC_SCHEME
 70
0
 62
7
  6
CONTINUOUS
370
-3
390
F
  0
LAYER
  5
20E
100
AcDbSymbolTableRecord
100
AcDbLayerTableRecord
  2
3
 70
0
 62
7
  6
CONTINUOUS
370
-3
390
F
  0
LAYER
  5
20F
100
AcDbSymbolTableRecord
100
AcDbLayerTableRecord
  2
4
 70
0
 62
7
  6
CONTINUOUS
370
-3
390
F
  0
LAYER
  5
210
100
AcDbSymbolTableRecord
100
AcDbLayerTableRecord
  2
5
 70
0
 62
7
  6
CONTINUOUS
370
-3
390
F
  0
LAYER
  5
211
100
AcDbSymbolTableRecord
100
AcDbLayerTableRecord
  2
6
 70
0
 62
7
  6
CONTINUOUS
370
-3
390
F
  0
LAYER
  5
212
100
AcDbSymbolTableRecord
100
AcDbLayerTableRecord
  2
7
 70
0
 62
7
  6
CONTINUOUS
370
-3
390
F
  0
ENDTAB
  0
TABLE
  2
STYLE
  5
3
100
AcDbSymbolTable
 70
1
  0
STYLE
  5
11
100
AcDbSymbolTableRecord
100
AcDbTextStyleTableRecord
  2
STANDARD
 70
0
 40
0.0
 41
1.0
 50
0.0
 71
0
 42
0.2
  3
ARIAL.TTF
  4

  0
STYLE
  5
213
100
AcDbSymbolTableRecord
100
AcDbTextStyleTableRecord
  2
TEXTSTYLE_1
 70
0
 40
0.0
 41
0.8
 50
0.0
 71
0
 42
0.2
  3
gdt
  4

  0
ENDTAB
  0
TABLE
  2
VIEW
  5
6
100
AcDbSymbolTable
 70
0
  0
ENDTAB
  0
TABLE
  2
UCS
  5
7
100
AcDbSymbolTable
 70
0
  0
ENDTAB
  0
TABLE
  2
APPID
  5
9
100
AcDbSymbolTable
 70
1
  0
APPID
  5
214
100
AcDbSymbolTableRecord
100
AcDbRegAppTableRecord
  2
ACAD
 70
0
  0
ENDTAB
  0
TABLE
  2
BLOCK_RECORD
  5
1
100
AcDbSymbolTable
 70
0
  0
BLOCK_RECORD
  5
215
100
AcDbSymbolTableRecord
100
AcDbBlockTableRecord
  2
*Model_Space
  0
BLOCK_RECORD
  5
216
100
AcDbSymbolTableRecord
100
AcDbBlockTableRecord
  2
*Paper_Space
  0
BLOCK_RECORD
  5
217
100
AcDbSymbolTableRecord
100
AcDbBlockTableRecord
  2
_FILLED
  0
ENDTAB
  0
TABLE
  2
DIMSTYLE
  5
A
100
AcDbSymbolTable
 70
1
100
AcDbDimStyleTable
 71
0
  0
DIMSTYLE
105
218
100
AcDbSymbolTableRecord
100
AcDbDimStyleTableRecord
  2
STANDARD
 70
0
  3

  4

 40
1.0
 41
13.9451050928
 42
1.0
 43
0.38
 44
1.0
 45
0.0
 46
0.0
 47
0.01
 48
0.01
140
19.52314713
141
0.09
142
0.0
143
25.4
144
1.0
145
0.0
146
1.0
147
0.625
 71
1
 72
0
 73
0
 74
0
 75
0
 76
0
 77
1
 78
8
 79
2
170
0
171
1
172
0
173
0
174
0
175
0
176
0
177
0
178
0
270
2
179
2
271
2
272
2
273
2
274
2
275
0
280
0
281
0
282
0
283
1
284
8
285
0
286
0
287
3
288
0
340
11
278
46
341
217
342
217
343
217
344
217
  0
ENDTAB
  0
ENDSEC
  0
SECTION
  2
BLOCKS
  0
BLOCK
  5
20
100
AcDbEntity
  8
0
100
AcDbBlockBegin
  2
*Model_Space
 70
0
 10
0.0
 20
0.0
 30
0.0
  3
*Model_Space
  1

  0
ENDBLK
  5
21
100
AcDbEntity
  8
0
100
AcDbBlockEnd
  0
BLOCK
  5
1C
100
AcDbEntity
  8
0
100
AcDbBlockBegin
  2
*Paper_Space
 70
0
 10
0.0
 20
0.0
 30
0.0
  3
*Paper_Space
  1

  0
ENDBLK
  5
1D
100
AcDbEntity
  8
0
100
AcDbBlockEnd
  0
BLOCK
  5
219
100
AcDbEntity
  8
0
100
AcDbBlockBegin
  2
_FILLED
 70
64
 10
0.0
 20
0.0
  3
_FILLED
  1

  0
SOLID
  5
21A
100
AcDbEntity
  8
0
  6
BYBLOCK
 62
0
100
AcDbTrace
 10
0.0
 20
0.0
 11
-1.0
 21
0.25
 12
-1.0
 22
-0.25
 13
-1.0
 23
-0.25
  0
ENDBLK
  5
21B
100
AcDbEntity
  8
0
  6
BYBLOCK
 62
0
100
AcDbBlockEnd
  0
ENDSEC
  0
SECTION
  2
ENTITIES
  0
LINE
  5
21C
100
AcDbEntity
  8
6
100
AcDbLine
 62
7
  6
BYLAYER
 10
651.9441659442
 20
127.8646920089
 11
549.9441659451
 21
127.8644468311
  0
LINE
  5
21D
100
AcDbEntity
  8
6
100
AcDbLine
 62
7
  6
BYLAYER
 10
549.9441659451
 20
130.3139540825
 11
650.9441659442
 21
130.3141968566
  0
LINE
  5
21E
100
AcDbEntity
  8
7
100
AcDbLine
 62
7
  6
BYLAYER
 10
541.9438030763
 20
1525.4420599578
 11
534.1087657834
 21
1520.9185260694
  0
LINE
  5
21F
100
AcDbEntity
  8
6
100
AcDbLine
 62
7
  6
BYLAYER
 10
653.9441659442
 20
179.3043490955
 11
656.9441659442
 21
179.3043563066
  0
LINE
  5
220
100
AcDbEntity
  8
6
100
AcDbLine
 62
7
  6
BYLAYER
 10
650.9437496045
 20
188.0483984026
 11
627.3212114465
 21
188.048341621
  0
LINE
  5
221
100
AcDbEntity
  8
6
100
AcDbLine
 62
7
  6
BYLAYER
 10
656.9437496044
 20
237.0385578526
 11
653.9437496044
 21
237.0385506415
  0
LINE
  5
222
100
AcDbEntity
  8
7
100
AcDbLine
 62
7
  6
BYLAYER
 10
534.1087953336
 20
177.6254010582
 11
540.5676693205
 21
173.8964527833
  0
LINE
  5
223
100
AcDbEntity
  8
7
100
AcDbLine
 62
7
  6
BYLAYER
 10
598.6265585652
 20
140.3768957628
 11
605.0854325521
 21
136.6479474879
  0
LINE
  5
224
100
AcDbEntity
  8
7
100
AcDbLine
 62
7
  6
BYLAYER
 10
544.684296549
 20
173.9784179269
 11
566.2813954158
 21
161.5096091645
  0
LINE
  5
225
100
AcDbEntity
  8
7
100
AcDbLine
 62
7
  6
BYLAYER
 10
577.1713952427
 20
155.2224070685
 11
597.891567094
 21
143.259880901
  0
LINE
  5
226
100
AcDbEntity
  8
7
100
AcDbLine
 62
7
  6
BYLAYER
 10
534.1087953336
 20
193.9554494008
 11
540.5676693205
 21
190.2265011259
  0
LINE
  5
227
100
AcDbEntity
  8
7
100
AcDbLine
 62
7
  6
BYLAYER
 10
598.6265585652
 20
156.7069441054
 11
605.0854325521
 21
152.9779958305
  0
LINE
  5
228
100
AcDbEntity
  8
4
100
AcDbLine
 62
7
  6
BYLAYER
 10
569.0983396331
 20
175.8729680332
 11
573.7649169969
 21
173.1787792867
  0
LINE
  5
229
100
AcDbEntity
  8
7
100
AcDbLine
 62
7
  6
BYLAYER
 10
544.684296549
 20
190.3084662694
 11
566.2813954158
 21
177.8396575071
  0
LINE
  5
22A
100
AcDbEntity
  8
7
100
AcDbLine
 62
7
  6
BYLAYER
 10
577.1713952427
 20
171.5524554111
 11
598.2785328433
 21
159.3665195183
  0
LINE
  5
22B
100
AcDbEntity
  8
7
100
AcDbLine
 62
7
  6
BYLAYER
 10
627.7977821154
 20
164.0420089521
 11
627.3212114465
 21
164.3171509315
  0
LINE
  5
22C
100
AcDbEntity
  8
7
100
AcDbLine
 62
7
  6
BYLAYER
 10
612.1830667237
 20
1459.5132787994
 11
627.7977968905
 21
1468.5283936516
  0
LINE
  5
22D
100
AcDbEntity
  8
6
100
AcDbLine
 62
7
  6
BYLAYER
 10
574.86594659
 20
1484.1311531819
 11
574.7904571443
 21
1483.6298926837
  0
LINE
  5
22E
100
AcDbEntity
  8
7
100
AcDbLine
 62
7
  6
BYLAYER
 10
532.6388123912
 20
1518.8696413272
 11
532.6388123912
 21
1502.5395929846
  0
LINE
  5
22F
100
AcDbEntity
  8
7
100
AcDbLine
 62
7
  6
BYLAYER
 10
532.6388123912
 20
196.0043270763
 11
532.6388123912
 21
179.6742787337
  0
LINE
  5
230
100
AcDbEntity
  8
5
100
AcDbLine
 62
7
  6
BYLAYER
 10
534.0061566345
 20
1500.4907153092
 11
534.0061566345
 21
196.0043270763
  0
LINE
  5
231
100
AcDbEntity
  8
7
100
AcDbLine
 62
7
  6
BYLAYER
 10
534.1087953336
 20
177.6254010582
 11
534.1087953336
 21
193.9554494008
  0
LINE
  5
232
100
AcDbEntity
  8
7
100
AcDbLine
 62
7
  6
BYLAYER
 10
534.1087953336
 20
1500.4907153092
 11
534.1087953336
 21
1516.8207636518
  0
LINE
  5
233
100
AcDbEntity
  8
5
100
AcDbLine
 62
7
  6
BYLAYER
 10
535.2999790133
 20
192.5483964247
 11
535.2999790133
 21
1499.8030006492
  0
LINE
  5
234
100
AcDbEntity
  8
7
100
AcDbLine
 62
7
  6
BYLAYER
 10
540.5676693205
 20
1513.0918153769
 11
540.5676693205
 21
1496.7617670343
  0
LINE
  5
235
100
AcDbEntity
  8
7
100
AcDbLine
 62
7
  6
BYLAYER
 10
540.5676693205
 20
190.2265011259
 11
540.5676693205
 21
173.8964527833
  0
LINE
  5
236
100
AcDbEntity
  8
5
100
AcDbLine
 62
7
  6
BYLAYER
 10
541.4148400471
 20
1496.3374341072
 11
541.4148400471
 21
190.7906158068
  0
LINE
  5
237
100
AcDbEntity
  8
6
100
AcDbLine
 62
7
  6
BYLAYER
 10
541.9438544994
 20
173.5023880456
 11
541.944132638
 21
134.9326709765
  0
LINE
  5
238
100
AcDbEntity
  8
6
100
AcDbLine
 62
7
  6
BYLAYER
 10
541.944132638
 20
1479.7414529317
 11
541.944132638
 21
1477.2919456803
  0
LINE
  5
239
100
AcDbEntity
  8
6
100
AcDbLine
 62
7
  6
BYLAYER
 10
541.944132638
 20
134.9326709765
 11
541.944132638
 21
132.4831637251
  0
LINE
  5
23A
100
AcDbEntity
  8
6
100
AcDbLine
 62
7
  6
BYLAYER
 10
541.9437829126
 20
1528.2381822304
 11
541.944132638
 21
1479.7414529317
  0
LINE
  5
23B
100
AcDbEntity
  8
5
100
AcDbLine
 62
7
  6
BYLAYER
 10
543.4543789082
 20
189.8657443629
 11
543.4543789082
 21
1474.7457004795
  0
LINE
  5
23C
100
AcDbEntity
  8
7
100
AcDbLine
 62
7
  6
BYLAYER
 10
544.1164864063
 20
173.8964613137
 11
544.1164864063
 21
190.2265096562
  0
LINE
  5
23D
100
AcDbEntity
  8
7
100
AcDbLine
 62
7
  6
BYLAYER
 10
544.2584384987
 20
190.3084652458
 11
544.2584384987
 21
173.9784169032
  0
LINE
  5
23E
100
AcDbEntity
  8
5
100
AcDbLine
 62
7
  6
BYLAYER
 10
544.4568840782
 20
1474.026011679
 11
544.4568840782
 21
190.8722732209
  0
LINE
  5
23F
100
AcDbEntity
  8
5
100
AcDbLine
 62
7
  6
BYLAYER
 10
544.5081313902
 20
1474.026011679
 11
544.5081313902
 21
190.8722732209
  0
LINE
  5
240
100
AcDbEntity
  8
7
100
AcDbLine
 62
7
  6
BYLAYER
 10
544.684296549
 20
173.9784179269
 11
544.684296549
 21
190.3084662694
  0
LINE
  5
241
100
AcDbEntity
  8
6
100
AcDbLine
 62
7
  6
BYLAYER
 10
549.9441659451
 20
127.8644468311
 11
549.9441659451
 21
130.3139540825
  0
LINE
  5
242
100
AcDbEntity
  8
6
100
AcDbLine
 62
7
  6
BYLAYER
 10
549.9441659451
 20
1472.6732287863
 11
549.9441659451
 21
1475.1227360376
  0
LINE
  5
243
100
AcDbEntity
  8
6
100
AcDbLine
 62
7
  6
BYLAYER
 10
550.2323258147
 20
1521.6806232124
 11
550.2323258147
 21
1519.231115961
  0
LINE
  5
244
100
AcDbEntity
  8
6
100
AcDbLine
 62
7
  6
BYLAYER
 10
615.4115568035
 20
1500.5223283872
 11
615.3669173904
 21
1500.1344709164
  0
LINE
  5
245
100
AcDbEntity
  8
7
100
AcDbLine
 62
7
  6
BYLAYER
 10
556.2588173193
 20
1518.4189556499
 11
556.2588173193
 21
1520.0329864567
  0
LINE
  5
246
100
AcDbEntity
  8
6
100
AcDbLine
 62
7
  6
BYLAYER
 10
556.6604248684
 20
1490.7630130214
 11
556.6604248684
 21
1488.31350577
  0
LINE
  5
247
100
AcDbEntity
  8
6
100
AcDbLine
 62
7
  6
BYLAYER
 10
556.6604248684
 20
143.5047238149
 11
556.6604248684
 21
145.9542310662
  0
LINE
  5
248
100
AcDbEntity
  8
7
100
AcDbLine
 62
7
  6
BYLAYER
 10
557.0088173193
 20
1520.0329864567
 11
557.0088173193
 21
1526.5650057937
  0
LINE
  5
249
100
AcDbEntity
  8
7
100
AcDbLine
 62
7
  6
BYLAYER
 10
565.0088173193
 20
1520.0959472826
 11
565.0088173193
 21
1526.5650057937
  0
LINE
  5
24A
100
AcDbEntity
  8
7
100
AcDbLine
 62
7
  6
BYLAYER
 10
566.2813954158
 20
1485.204169401
 11
566.2813954158
 21
1484.3749234155
  0
LINE
  5
24B
100
AcDbEntity
  8
7
100
AcDbLine
 62
7
  6
BYLAYER
 10
566.2813954158
 20
177.8396575071
 11
566.2813954158
 21
161.5096091645
  0
LINE
  5
24C
100
AcDbEntity
  8
7
100
AcDbLine
 62
7
  6
BYLAYER
 10
567.1551441638
 20
176.7388571158
 11
567.1551441638
 21
160.4088087732
  0
LINE
  5
24D
100
AcDbEntity
  8
7
100
AcDbLine
 62
7
  6
BYLAYER
 10
567.1551441638
 20
1483.2741230242
 11
567.1551441638
 21
1485.0440960145
  0
LINE
  5
24E
100
AcDbEntity
  8
6
100
AcDbLine
 62
7
  6
BYLAYER
 10
568.9978666626
 20
1526.7327183294
 11
568.9978666626
 21
1524.283211078
  0
LINE
  5
24F
100
AcDbEntity
  8
6
100
AcDbLine
 62
7
  6
BYLAYER
 10
570.7346351521
 20
1486.9740093439
 11
570.7346351521
 21
1484.5245020926
  0
LINE
  5
250
100
AcDbEntity
  8
6
100
AcDbLine
 62
7
  6
BYLAYER
 10
570.7346351521
 20
139.7157201374
 11
570.7346351521
 21
142.1652273888
  0
LINE
  5
251
100
AcDbEntity
  8
7
100
AcDbLine
 62
7
  6
BYLAYER
 10
571.9139820558
 20
1502.7426048363
 11
571.9139820558
 21
1508.1251107416
  0
LINE
  5
252
100
AcDbEntity
  8
7
100
AcDbLine
 62
7
  6
BYLAYER
 10
575.264718503
 20
172.0568981082
 11
575.264718503
 21
155.7268497656
  0
LINE
  5
253
100
AcDbEntity
  8
7
100
AcDbLine
 62
7
  6
BYLAYER
 10
577.1713952427
 20
155.2224070685
 11
577.1713952427
 21
171.5524554111
  0
LINE
  5
254
100
AcDbEntity
  8
7
100
AcDbLine
 62
7
  6
BYLAYER
 10
579.9139820558
 20
1502.7615907066
 11
579.9139820558
 21
1508.1251107416
  0
LINE
  5
255
100
AcDbEntity
  8
7
100
AcDbLine
 62
7
  6
BYLAYER
 10
597.891567094
 20
1472.6733440376
 11
597.891567094
 21
1464.2666488514
  0
LINE
  5
256
100
AcDbEntity
  8
7
100
AcDbLine
 62
7
  6
BYLAYER
 10
597.891567094
 20
157.7313829431
 11
597.891567094
 21
141.4013346005
  0
LINE
  5
257
100
AcDbEntity
  8
5
100
AcDbLine
 62
7
  6
BYLAYER
 10
598.2785328433
 20
157.7313829431
 11
598.2785328433
 21
1463.5040659676
  0
LINE
  5
258
100
AcDbEntity
  8
5
100
AcDbLine
 62
7
  6
BYLAYER
 10
598.5452626405
 20
156.6670956811
 11
598.5452626405
 21
1463.2422100137
  0
LINE
  5
259
100
AcDbEntity
  8
7
100
AcDbLine
 62
7
  6
BYLAYER
 10
598.6265585652
 20
140.3768957628
 11
598.6265585652
 21
156.7069441054
  0
LINE
  5
25A
100
AcDbEntity
  8
7
100
AcDbLine
 62
7
  6
BYLAYER
 10
598.6265585652
 20
1463.2422100137
 11
598.6265585652
 21
1472.6733458043
  0
LINE
  5
25B
100
AcDbEntity
  8
6
100
AcDbLine
 62
7
  6
BYLAYER
 10
598.9253710532
 20
1490.4484478226
 11
598.9253710532
 21
1492.897955074
  0
LINE
  5
25C
100
AcDbEntity
  8
5
100
AcDbLine
 62
7
  6
BYLAYER
 10
604.6601236743
 20
1459.7588083789
 11
604.6601236743
 21
153.6791753877
  0
LINE
  5
25D
100
AcDbEntity
  8
7
100
AcDbLine
 62
7
  6
BYLAYER
 10
605.0854325521
 20
1472.6733613296
 11
605.0854325521
 21
1459.5132617388
  0
LINE
  5
25E
100
AcDbEntity
  8
7
100
AcDbLine
 62
7
  6
BYLAYER
 10
605.0854325521
 20
152.9779958305
 11
605.0854325521
 21
136.6479474879
  0
LINE
  5
25F
100
AcDbEntity
  8
6
100
AcDbLine
 62
7
  6
BYLAYER
 10
605.4882117542
 20
1498.5740807539
 11
605.4882117542
 21
1501.0235880053
  0
LINE
  5
260
100
AcDbEntity
  8
6
100
AcDbLine
 62
7
  6
BYLAYER
 10
606.5856284492
 20
1516.3847974712
 11
606.5856284492
 21
1518.8343047226
  0
LINE
  5
261
100
AcDbEntity
  8
5
100
AcDbLine
 62
7
  6
BYLAYER
 10
610.9956045688
 20
153.6791872865
 11
610.9956045688
 21
1459.0551936295
  0
LINE
  5
262
100
AcDbEntity
  8
7
100
AcDbLine
 62
7
  6
BYLAYER
 10
612.1830667237
 20
136.6479645485
 11
612.1830667237
 21
152.9780128911
  0
LINE
  5
263
100
AcDbEntity
  8
7
100
AcDbLine
 62
7
  6
BYLAYER
 10
612.1830667237
 20
1459.5132787994
 11
612.1830667237
 21
1472.6733783902
  0
LINE
  5
264
100
AcDbEntity
  8
6
100
AcDbLine
 62
7
  6
BYLAYER
 10
615.3668614862
 20
1507.3655927454
 11
615.3668614862
 21
1507.8867665674
  0
LINE
  5
265
100
AcDbEntity
  8
5
100
AcDbLine
 62
7
  6
BYLAYER
 10
622.3925560302
 20
1465.4076950139
 11
622.3925560302
 21
160.2630280353
  0
LINE
  5
266
100
AcDbEntity
  8
3
100
AcDbLine
 62
7
  6
BYLAYER
 10
622.5371355934
 20
1465.4911675654
 11
622.5371355934
 21
160.3465005868
  0
LINE
  5
267
100
AcDbEntity
  8
3
100
AcDbLine
 62
7
  6
BYLAYER
 10
626.8917518095
 20
1468.0052914027
 11
626.8917518095
 21
162.6611288451
  0
LINE
  5
268
100
AcDbEntity
  8
3
100
AcDbLine
 62
7
  6
BYLAYER
 10
627.3212114465
 20
1468.2532385596
 11
627.3212114465
 21
164.0420089521
  0
LINE
  5
269
100
AcDbEntity
  8
7
100
AcDbLine
 62
7
  6
BYLAYER
 10
627.7977968905
 20
1472.6734159234
 11
627.7977968905
 21
1468.5283936516
  0
LINE
  5
26A
100
AcDbEntity
  8
7
100
AcDbLine
 62
7
  6
BYLAYER
 10
627.7977968905
 20
161.9931277433
 11
627.7977968905
 21
145.6630794007
  0
LINE
  5
26B
100
AcDbEntity
  8
7
100
AcDbLine
 62
7
  6
BYLAYER
 10
628.5327735866
 20
1472.67341769
 11
628.5327735866
 21
1469.5528360227
  0
LINE
  5
26C
100
AcDbEntity
  8
7
100
AcDbLine
 62
7
  6
BYLAYER
 10
628.5327735866
 20
163.0175701144
 11
628.5327735866
 21
146.6875217718
  0
LINE
  5
26D
100
AcDbEntity
  8
6
100
AcDbLine
 62
7
  6
BYLAYER
 10
650.9441659442
 20
130.3141968566
 11
650.9437496045
 21
188.0483984026
  0
LINE
  5
26E
100
AcDbEntity
  8
6
100
AcDbLine
 62
7
  6
BYLAYER
 10
651.9441659442
 20
1475.1229812155
 11
651.9437496045
 21
1532.8571827615
  0
LINE
  5
26F
100
AcDbEntity
  8
6
100
AcDbLine
 62
7
  6
BYLAYER
 10
653.9437496044
 20
237.0385506415
 11
653.9441659442
 21
179.3043490955
  0
LINE
  5
270
100
AcDbEntity
  8
6
100
AcDbLine
 62
7
  6
BYLAYER
 10
653.9441659442
 20
179.3043490955
 11
653.9441659442
 21
132.7637113191
  0
LINE
  5
271
100
AcDbEntity
  8
6
100
AcDbLine
 62
7
  6
BYLAYER
 10
653.9441659442
 20
1423.6833337437
 11
653.9441659442
 21
1470.2239715201
  0
LINE
  5
272
100
AcDbEntity
  8
6
100
AcDbLine
 62
7
  6
BYLAYER
 10
656.9441659442
 20
179.3043563066
 11
656.9437496044
 21
237.0385578526
  0
LINE
  5
273
100
AcDbEntity
  8
6
100
AcDbLine
 62
7
  6
BYLAYER
 10
656.9441659442
 20
1471.0404811484
 11
656.9441659442
 21
1423.6833409548
  0
LINE
  5
274
100
AcDbEntity
  8
6
100
AcDbLine
 62
7
  6
BYLAYER
 10
656.9441659442
 20
131.9472161131
 11
656.9441659442
 21
179.3043563066
  0
LINE
  5
275
100
AcDbEntity
  8
6
100
AcDbLine
 62
7
  6
BYLAYER
 10
656.9441659442
 20
1471.0404811484
 11
656.9437496044
 21
1528.7746826944
  0
LINE
  5
276
100
AcDbEntity
  8
6
100
AcDbLine
 62
7
  6
BYLAYER
 10
574.86594659
 20
139.3223712268
 11
574.7904571443
 21
138.8211107285
  0
LINE
  5
277
100
AcDbEntity
  8
6
100
AcDbLine
 62
7
  6
BYLAYER
 10
574.7901632019
 20
1524.3911497319
 11
574.8656616512
 21
1523.889865564
  0
LINE
  5
278
100
AcDbEntity
  8
6
100
AcDbLine
 62
7
  6
BYLAYER
 10
615.3668614862
 20
1507.8867665674
 11
615.4115085363
 21
1507.4988852793
  0
LINE
  5
279
100
AcDbEntity
  8
7
100
AcDbLine
 62
7
  6
BYLAYER
 10
544.1164864063
 20
190.2265096562
 11
544.2584384987
 21
190.3084652458
  0
LINE
  5
27A
100
AcDbEntity
  8
7
100
AcDbLine
 62
7
  6
BYLAYER
 10
544.1164864063
 20
173.8964613137
 11
544.2584384987
 21
173.9784169032
  0
LINE
  5
27B
100
AcDbEntity
  8
7
100
AcDbLine
 62
7
  6
BYLAYER
 10
534.1087953336
 20
1500.4907153092
 11
540.5676693205
 21
1496.7617670343
  0
LINE
  5
27C
100
AcDbEntity
  8
7
100
AcDbLine
 62
7
  6
BYLAYER
 10
598.6265585652
 20
1463.2422100137
 11
605.0854325521
 21
1459.5132617388
  0
LINE
  5
27D
100
AcDbEntity
  8
7
100
AcDbLine
 62
7
  6
BYLAYER
 10
563.9253765817
 20
1485.7351407513
 11
566.2813954158
 21
1484.3749234155
  0
LINE
  5
27E
100
AcDbEntity
  8
7
100
AcDbLine
 62
7
  6
BYLAYER
 10
586.5496311657
 20
1472.673316775
 11
597.891567094
 21
1466.125195152
  0
LINE
  5
27F
100
AcDbEntity
  8
7
100
AcDbLine
 62
7
  6
BYLAYER
 10
534.1087953336
 20
1516.8207636518
 11
540.5676693205
 21
1513.0918153769
  0
LINE
  5
280
100
AcDbEntity
  8
7
100
AcDbLine
 62
7
  6
BYLAYER
 10
610.9889412744
 20
153.6791872865
 11
626.5462132683
 21
162.6611288451
  0
LINE
  5
281
100
AcDbEntity
  8
7
100
AcDbLine
 62
7
  6
BYLAYER
 10
612.1830667237
 20
152.9780128911
 11
627.7977968905
 21
161.9931277433
  0
LINE
  5
282
100
AcDbEntity
  8
7
100
AcDbLine
 62
7
  6
BYLAYER
 10
612.1830667237
 20
136.6479645485
 11
627.7977968905
 21
145.6630794007
  0
LINE
  5
283
100
AcDbEntity
  8
6
100
AcDbLine
 62
7
  6
BYLAYER
 10
656.9441659442
 20
1423.6833409548
 11
653.9441659442
 21
1423.6833337437
  0
LINE
  5
284
100
AcDbEntity
  8
7
100
AcDbLine
 62
7
  6
BYLAYER
 10
613.0742522194
 20
1495.4077648462
 11
606.1529823435
 21
1499.4036714727
  0
LINE
  5
285
100
AcDbEntity
  8
7
100
AcDbLine
 62
7
  6
BYLAYER
 10
569.0447983332
 20
1520.827606826
 11
565.0088173193
 21
1523.1577288364
  0
LINE
  5
286
100
AcDbEntity
  8
7
100
AcDbLine
 62
7
  6
BYLAYER
 10
613.4146064682
 20
1495.8891304605
 11
612.0256570297
 21
1496.6910226515
  0
LINE
  5
287
100
AcDbEntity
  8
7
100
AcDbLine
 62
7
  6
BYLAYER
 10
570.003324179
 20
1520.9520789764
 11
569.3982540902
 21
1521.3014084522
  0
LINE
  5
288
100
AcDbEntity
  8
6
100
AcDbLine
 62
7
  6
BYLAYER
 10
650.9441659442
 20
1472.6734715604
 11
549.9441659451
 21
1472.6732287863
  0
LINE
  5
289
100
AcDbEntity
  8
6
100
AcDbLine
 62
7
  6
BYLAYER
 10
549.9441659451
 20
1475.1227360376
 11
651.9441659442
 21
1475.1229812155
  0
LINE
  5
28A
100
AcDbEntity
  8
6
100
AcDbLine
 62
7
  6
BYLAYER
 10
651.9437496045
 20
1532.8571827615
 11
549.9437496053
 21
1532.8569375837
  0
ARC
  5
28B
100
AcDbEntity
  8
6
100
AcDbCircle
 62
7
  6
BYLAYER
 10
575.675234211
 20
1458.5758232182
 40
66.0458027185
100
AcDbArc
 50
95.8026362461
 51
99.2992751488
  0
ARC
  5
28C
100
AcDbEntity
  8
6
100
AcDbCircle
 62
7
  6
BYLAYER
 10
575.6080865943
 20
1461.5318856332
 40
65.5350562053
100
AcDbArc
 50
95.7890064636
 51
99.3129049313
  0
ARC
  5
28D
100
AcDbEntity
  8
6
100
AcDbCircle
 62
7
  6
BYLAYER
 10
574.8830790413
 20
1476.519874458
 40
44.6945639789
100
AcDbArc
 50
102.7933541348
 51
105.0581739814
  0
ARC
  5
28E
100
AcDbEntity
  8
7
100
AcDbCircle
 62
7
  6
BYLAYER
 10
608.8839589969
 20
159.346646822
 40
7.1934933637
100
AcDbArc
 50
283.4312920995
 51
286.5974788108
  0
ARC
  5
28F
100
AcDbEntity
  8
7
100
AcDbCircle
 62
7
  6
BYLAYER
 10
575.0506737076
 20
166.99629133
 40
5.0651314038
100
AcDbArc
 50
81.4424181373
 51
87.5780457699
  0
ARC
  5
290
100
AcDbEntity
  8
7
100
AcDbCircle
 62
7
  6
BYLAYER
 10
536.4531810813
 20
198.0161528857
 40
4.6888652492
100
AcDbArc
 50
239.7883699205
 51
240.0006614271
  0
ARC
  5
291
100
AcDbEntity
  8
7
100
AcDbCircle
 62
7
  6
BYLAYER
 10
575.1177387049
 20
167.4276273663
 40
4.6286185104
100
AcDbArc
 50
75.2450132308
 51
81.468835648
  0
ARC
  5
292
100
AcDbEntity
  8
7
100
AcDbCircle
 62
7
  6
BYLAYER
 10
536.4017569669
 20
1504.4635585687
 40
4.5870640519
100
AcDbArc
 50
238.1647811698
 51
240.0082264629
  0
ARC
  5
293
100
AcDbEntity
  8
7
100
AcDbCircle
 62
7
  6
BYLAYER
 10
536.2932582677
 20
197.7496220285
 40
4.3780660497
100
AcDbArc
 50
235.0280441215
 51
239.8418150805
  0
ARC
  5
294
100
AcDbEntity
  8
7
100
AcDbCircle
 62
7
  6
BYLAYER
 10
542.3419457275
 20
177.7863093249
 40
4.3141894707
100
AcDbArc
 50
264.6622506072
 51
270.0017955063
  0
ARC
  5
295
100
AcDbEntity
  8
7
100
AcDbCircle
 62
7
  6
BYLAYER
 10
558.5832353182
 20
1518.7817943624
 40
2.4230689979
100
AcDbArc
 50
217.1482407963
 51
218.0818276452
  0
ARC
  5
296
100
AcDbEntity
  8
7
100
AcDbCircle
 62
7
  6
BYLAYER
 10
557.8391839153
 20
1518.4192412088
 40
1.5859660923
100
AcDbArc
 50
180.010316219
 51
181.2723789671
  0
ARC
  5
297
100
AcDbEntity
  8
7
100
AcDbCircle
 62
7
  6
BYLAYER
 10
557.8378762585
 20
1518.4192374967
 40
1.5846584348
100
AcDbArc
 50
179.2260861231
 51
180.0101905137
  0
ARC
  5
298
100
AcDbEntity
  8
7
100
AcDbCircle
 62
7
  6
BYLAYER
 10
544.4713522157
 20
189.8408571352
 40
0.5185290857
100
AcDbArc
 50
85.8976696163
 51
89.9983490758
  0
SPLINE
  5
299
100
AcDbEntity
  8
7
100
AcDbSpline
 62
7
  6
BYLAYER
 70
0
 71
3
 72
11
 73
7
 74
0
 42
0.0000001
 43
0.0000001
 44
0.0000000001
 40
0.0
 40
0.0
 40
0.0
 40
0.0
 40
0.2751178522
 40
0.5299309087
 40
0.7692055488
 40
1.0
 40
1.0
 40
1.0
 40
1.0
 10
556.9702406138
 20
1521.4766168812
 30
0.0
 10
556.8593447216
 20
1521.3732069217
 30
0.0
 10
556.6599096914
 20
1521.1577013352
 30
0.0
 10
556.4311540953
 20
1520.7976314139
 30
0.0
 10
556.2906592032
 20
1520.4202501588
 30
0.0
 10
556.2588200426
 20
1520.1601874256
 30
0.0
 10
556.2588191175
 20
1520.0329864566
 30
0.0
  0
SPLINE
  5
29A
100
AcDbEntity
  8
7
100
AcDbSpline
 62
7
  6
BYLAYER
 70
0
 71
3
 72
17
 73
13
 74
0
 42
0.0000001
 43
0.0000001
 44
0.0000000001
 40
0.0
 40
0.0
 40
0.0
 40
0.0
 40
0.0428601496
 40
0.0874897921
 40
0.1353238702
 40
0.1872887618
 40
0.3045539998
 40
0.4382245522
 40
0.5825709292
 40
0.7297267323
 40
0.8713183388
 40
1.0
 40
1.0
 40
1.0
 40
1.0
 10
565.0088155211
 20
1526.5650057936
 30
0.0
 10
565.008815607
 20
1526.6788772996
 30
0.0
 10
564.978370175
 20
1526.9123132377
 30
0.0
 10
564.8444861849
 20
1527.2493606901
 30
0.0
 10
564.6272614803
 20
1527.5689170115
 30
0.0
 10
564.2182867823
 20
1527.9793176798
 30
0.0
 10
563.5214610959
 20
1528.4034955532
 30
0.0
 10
562.5195243581
 20
1528.7381542484
 30
0.0
 10
561.3951491044
 20
1528.8961298201
 30
0.0
 10
560.2394709942
 20
1528.8641508255
 30
0.0
 10
559.1468570954
 20
1528.6455101905
 30
0.0
 10
558.4764585876
 20
1528.3689097567
 30
0.0
 10
558.1803784187
 20
1528.1979688118
 30
0.0
  0
SPLINE
  5
29B
100
AcDbEntity
  8
7
100
AcDbSpline
 62
7
  6
BYLAYER
 70
0
 71
3
 72
11
 73
7
 74
0
 42
0.0000001
 43
0.0000001
 44
0.0000000001
 40
0.0
 40
0.0
 40
0.0
 40
0.0
 40
0.2898090087
 40
0.549046274
 40
0.7822267183
 40
1.0
 40
1.0
 40
1.0
 40
1.0
 10
558.1803784187
 20
1528.1979688118
 30
0.0
 10
558.0047979205
 20
1528.096597969
 30
0.0
 10
557.6863132422
 20
1527.877375748
 30
0.0
 10
557.305888411
 20
1527.4772835139
 30
0.0
 10
557.0650516655
 20
1527.0349621667
 30
0.0
 10
557.0088192325
 20
1526.7173541286
 30
0.0
 10
557.0088191175
 20
1526.5650057938
 30
0.0
  0
SPLINE
  5
29C
100
AcDbEntity
  8
7
100
AcDbSpline
 62
7
  6
BYLAYER
 70
0
 71
3
 72
9
 73
5
 74
0
 42
0.0000001
 43
0.0000001
 44
0.0000000001
 40
0.0
 40
0.0
 40
0.0
 40
0.0
 40
0.4714478369
 40
1.0
 40
1.0
 40
1.0
 40
1.0
 10
565.7415566519
 20
1520.2665063424
 30
0.0
 10
565.708970644
 20
1520.4866607773
 30
0.0
 10
565.539229864
 20
1520.9411618774
 30
0.0
 10
565.2292294352
 20
1521.3071553453
 30
0.0
 10
565.0466939601
 20
1521.4772610096
 30
0.0
  0
SPLINE
  5
29D
100
AcDbEntity
  8
7
100
AcDbSpline
 62
7
  6
BYLAYER
 70
0
 71
3
 72
12
 73
8
 74
0
 42
0.0000001
 43
0.0000001
 44
0.0000000001
 40
0.0
 40
0.0
 40
0.0
 40
0.0
 40
0.2981264829
 40
0.5608919352
 40
0.790430744
 40
0.8966441771
 40
1.0
 40
1.0
 40
1.0
 40
1.0
 10
558.7022739475
 20
1518.1462326553
 30
0.0
 10
558.4557697242
 20
1518.2466746373
 30
0.0
 10
558.0058895397
 20
1518.4749157893
 30
0.0
 10
557.454454539
 20
1518.9257071212
 30
0.0
 10
557.148091354
 20
1519.3772197558
 30
0.0
 10
557.0285533386
 20
1519.7530401575
 30
0.0
 10
557.0088190667
 20
1519.9407052466
 30
0.0
 10
557.0088190763
 20
1520.0329864567
 30
0.0
  0
SPLINE
  5
29E
100
AcDbEntity
  8
7
100
AcDbSpline
 62
7
  6
BYLAYER
 70
0
 71
3
 72
12
 73
8
 74
0
 42
0.0000001
 43
0.0000001
 44
0.0000000001
 40
0.0
 40
0.0
 40
0.0
 40
0.0
 40
0.1047036931
 40
0.2120187624
 40
0.4424398538
 40
0.7040991083
 40
1.0
 40
1.0
 40
1.0
 40
1.0
 10
556.2588191175
 20
1520.0329864566
 30
0.0
 10
556.258818362
 20
1519.9290985678
 30
0.0
 10
556.2798256426
 20
1519.718168211
 30
0.0
 10
556.4069647889
 20
1519.2955487134
 30
0.0
 10
556.733199286
 20
1518.7843650458
 30
0.0
 10
557.3264238844
 20
1518.2643034934
 30
0.0
 10
557.8137968676
 20
1517.9942571296
 30
0.0
 10
558.0813456497
 20
1517.8733609458
 30
0.0
  0
SPLINE
  5
29F
100
AcDbEntity
  8
7
100
AcDbSpline
 62
7
  6
BYLAYER
 70
0
 71
3
 72
11
 73
7
 74
0
 42
0.0000001
 43
0.0000001
 44
0.0000000001
 40
0.0
 40
0.0
 40
0.0
 40
0.0
 40
0.2898090087
 40
0.549046274
 40
0.7822267183
 40
1.0
 40
1.0
 40
1.0
 40
1.0
 10
563.8372562199
 20
1524.9320427756
 30
0.0
 10
564.0128367181
 20
1525.0334136185
 30
0.0
 10
564.3313213964
 20
1525.2526358394
 30
0.0
 10
564.7117462275
 20
1525.6527280735
 30
0.0
 10
564.9525829731
 20
1526.0950494208
 30
0.0
 10
565.0088154061
 20
1526.4126574589
 30
0.0
 10
565.0088155211
 20
1526.5650057936
 30
0.0
  0
SPLINE
  5
2A0
100
AcDbEntity
  8
7
100
AcDbSpline
 62
7
  6
BYLAYER
 70
0
 71
3
 72
17
 73
13
 74
0
 42
0.0000001
 43
0.0000001
 44
0.0000000001
 40
0.0
 40
0.0
 40
0.0
 40
0.0
 40
0.0428601496
 40
0.0874897921
 40
0.1353238702
 40
0.1872887618
 40
0.3045539998
 40
0.4382245522
 40
0.5825709292
 40
0.7297267323
 40
0.8713183388
 40
1.0
 40
1.0
 40
1.0
 40
1.0
 10
557.0088191175
 20
1526.5650057938
 30
0.0
 10
557.0088190315
 20
1526.4511342878
 30
0.0
 10
557.0392644636
 20
1526.2176983497
 30
0.0
 10
557.1731484537
 20
1525.8806508973
 30
0.0
 10
557.3903731583
 20
1525.561094576
 30
0.0
 10
557.7993478563
 20
1525.1506939076
 30
0.0
 10
558.4961735426
 20
1524.7265160343
 30
0.0
 10
559.4981102804
 20
1524.3918573391
 30
0.0
 10
560.6224855342
 20
1524.2338817674
 30
0.0
 10
561.7781636444
 20
1524.265860762
 30
0.0
 10
562.8707775432
 20
1524.4845013969
 30
0.0
 10
563.5411760509
 20
1524.7611018308
 30
0.0
 10
563.8372562199
 20
1524.9320427756
 30
0.0
  0
SPLINE
  5
2A1
100
AcDbEntity
  8
7
100
AcDbSpline
 62
7
  6
BYLAYER
 70
0
 71
3
 72
17
 73
13
 74
0
 42
0.0000001
 43
0.0000001
 44
0.0000000001
 40
0.0
 40
0.0
 40
0.0
 40
0.0
 40
0.0428601496
 40
0.0874897921
 40
0.1353238702
 40
0.1872887618
 40
0.3045539998
 40
0.4382245522
 40
0.5825709292
 40
0.7297267323
 40
0.8713183388
 40
1.0
 40
1.0
 40
1.0
 40
1.0
 10
579.9139802576
 20
1508.1251107415
 30
0.0
 10
579.9139803436
 20
1508.2389822475
 30
0.0
 10
579.8835349115
 20
1508.4724181856
 30
0.0
 10
579.7496509214
 20
1508.809465638
 30
0.0
 10
579.5324262168
 20
1509.1290219593
 30
0.0
 10
579.1234515188
 20
1509.5394226277
 30
0.0
 10
578.4266258325
 20
1509.9636005011
 30
0.0
 10
577.4246890947
 20
1510.2982591962
 30
0.0
 10
576.300313841
 20
1510.4562347679
 30
0.0
 10
575.1446357307
 20
1510.4242557733
 30
0.0
 10
574.0520218319
 20
1510.2056151384
 30
0.0
 10
573.3816233242
 20
1509.9290147045
 30
0.0
 10
573.0855431552
 20
1509.7580737597
 30
0.0
  0
SPLINE
  5
2A2
100
AcDbEntity
  8
7
100
AcDbSpline
 62
7
  6
BYLAYER
 70
0
 71
3
 72
11
 73
7
 74
0
 42
0.0000001
 43
0.0000001
 44
0.0000000001
 40
0.0
 40
0.0
 40
0.0
 40
0.0
 40
0.2898090087
 40
0.549046274
 40
0.7822267183
 40
1.0
 40
1.0
 40
1.0
 40
1.0
 10
573.0855431552
 20
1509.7580737597
 30
0.0
 10
572.909962657
 20
1509.6567029168
 30
0.0
 10
572.5914779787
 20
1509.4374806959
 30
0.0
 10
572.2110531476
 20
1509.0373884618
 30
0.0
 10
571.970216402
 20
1508.5950671146
 30
0.0
 10
571.913983969
 20
1508.2774590765
 30
0.0
 10
571.913983854
 20
1508.1251107417
 30
0.0
  0
SPLINE
  5
2A3
100
AcDbEntity
  8
7
100
AcDbSpline
 62
7
  6
BYLAYER
 70
0
 71
3
 72
11
 73
7
 74
0
 42
0.0000001
 43
0.0000001
 44
0.0000000001
 40
0.0
 40
0.0
 40
0.0
 40
0.0
 40
0.2898090087
 40
0.549046274
 40
0.7822267183
 40
1.0
 40
1.0
 40
1.0
 40
1.0
 10
578.7424209564
 20
1506.4921477235
 30
0.0
 10
578.9180014546
 20
1506.5935185663
 30
0.0
 10
579.2364861329
 20
1506.8127407873
 30
0.0
 10
579.6169109641
 20
1507.2128330214
 30
0.0
 10
579.8577477096
 20
1507.6551543686
 30
0.0
 10
579.9139801426
 20
1507.9727624067
 30
0.0
 10
579.9139802576
 20
1508.1251107415
 30
0.0
  0
SPLINE
  5
2A4
100
AcDbEntity
  8
7
100
AcDbSpline
 62
7
  6
BYLAYER
 70
0
 71
3
 72
17
 73
13
 74
0
 42
0.0000001
 43
0.0000001
 44
0.0000000001
 40
0.0
 40
0.0
 40
0.0
 40
0.0
 40
0.0428601496
 40
0.0874897921
 40
0.1353238702
 40
0.1872887618
 40
0.3045539998
 40
0.4382245522
 40
0.5825709292
 40
0.7297267323
 40
0.8713183388
 40
1.0
 40
1.0
 40
1.0
 40
1.0
 10
571.913983854
 20
1508.1251107417
 30
0.0
 10
571.9139837681
 20
1508.0112392357
 30
0.0
 10
571.9444292001
 20
1507.7778032976
 30
0.0
 10
572.0783131902
 20
1507.4407558452
 30
0.0
 10
572.2955378948
 20
1507.1211995239
 30
0.0
 10
572.7045125928
 20
1506.7107988555
 30
0.0
 10
573.4013382792
 20
1506.2866209821
 30
0.0
 10
574.403275017
 20
1505.951962287
 30
0.0
 10
575.5276502707
 20
1505.7939867152
 30
0.0
 10
576.6833283809
 20
1505.8259657098
 30
0.0
 10
577.7759422797
 20
1506.0446063448
 30
0.0
 10
578.4463407875
 20
1506.3212067786
 30
0.0
 10
578.7424209564
 20
1506.4921477235
 30
0.0
  0
SPLINE
  5
2A5
100
AcDbEntity
  8
7
100
AcDbSpline
 62
7
  6
BYLAYER
 70
0
 71
3
 72
11
 73
7
 74
0
 42
0.0000001
 43
0.0000001
 44
0.0000000001
 40
0.0
 40
0.0
 40
0.0
 40
0.0
 40
0.2898001512
 40
0.5490497799
 40
0.7822288614
 40
1.0
 40
1.0
 40
1.0
 40
1.0
 10
534.1087953336
 20
177.6254010582
 30
0.0
 10
533.8884990217
 20
177.7525863159
 30
0.0
 10
533.4888962748
 20
178.027651782
 30
0.0
 10
533.0115510632
 20
178.5296325716
 30
0.0
 10
532.7093755477
 20
179.0846282818
 30
0.0
 10
532.6388137696
 20
179.4831280513
 30
0.0
 10
532.6388123912
 20
179.6742787337
 30
0.0
  0
SPLINE
  5
2A6
100
AcDbEntity
  8
7
100
AcDbSpline
 62
7
  6
BYLAYER
 70
0
 71
3
 72
9
 73
5
 74
0
 42
0.0000001
 43
0.0000001
 44
0.0000000001
 40
0.0
 40
0.0
 40
0.0
 40
0.0
 40
0.267407857
 40
1.0
 40
1.0
 40
1.0
 40
1.0
 10
541.9406113417
 20
173.4908278036
 30
0.0
 10
541.8130510758
 20
173.5027562226
 30
0.0
 10
541.3389875621
 20
173.5688859478
 30
0.0
 10
540.871636845
 20
173.7209610214
 30
0.0
 10
540.5676693205
 20
173.8964527833
 30
0.0
  0
SPLINE
  5
2A7
100
AcDbEntity
  8
7
100
AcDbSpline
 62
7
  6
BYLAYER
 70
0
 71
3
 72
9
 73
5
 74
0
 42
0.0000001
 43
0.0000001
 44
0.0000000001
 40
0.0
 40
0.0
 40
0.0
 40
0.0
 40
0.2291142508
 40
1.0
 40
1.0
 40
1.0
 40
1.0
 10
544.1164864063
 20
173.8964613137
 30
0.0
 10
543.9950447972
 20
173.8263473865
 30
0.0
 10
543.4380886521
 20
173.5676229674
 30
0.0
 10
542.8138985346
 20
173.4721209904
 30
0.0
 10
542.3420809234
 20
173.4721198563
 30
0.0
  0
SPLINE
  5
2A8
100
AcDbEntity
  8
7
100
AcDbSpline
 62
7
  6
BYLAYER
 70
0
 71
3
 72
9
 73
5
 74
0
 42
0.0000001
 43
0.0000001
 44
0.0000000001
 40
0.0
 40
0.0
 40
0.0
 40
0.0
 40
0.2671444907
 40
1.0
 40
1.0
 40
1.0
 40
1.0
 10
544.4713671567
 20
174.0293378781
 30
0.0
 10
544.451759026
 20
174.029337831
 30
0.0
 10
544.3785916176
 20
174.0251789446
 30
0.0
 10
544.3050228023
 20
174.0053122029
 30
0.0
 10
544.2584384987
 20
173.9784169032
 30
0.0
  0
SPLINE
  5
2A9
100
AcDbEntity
  8
7
100
AcDbSpline
 62
7
  6
BYLAYER
 70
0
 71
3
 72
9
 73
5
 74
0
 42
0.0000001
 43
0.0000001
 44
0.0000000001
 40
0.0
 40
0.0
 40
0.0
 40
0.0
 40
0.2291146192
 40
1.0
 40
1.0
 40
1.0
 40
1.0
 10
544.684296549
 20
173.9784179269
 30
0.0
 10
544.669723441
 20
173.9868315243
 30
0.0
 10
544.602888368
 20
174.0178780879
 30
0.0
 10
544.5279853625
 20
174.0293380142
 30
0.0
 10
544.4713671567
 20
174.0293378781
 30
0.0
  0
SPLINE
  5
2AA
100
AcDbEntity
  8
7
100
AcDbSpline
 62
7
  6
BYLAYER
 70
0
 71
3
 72
9
 73
5
 74
0
 42
0.0000001
 43
0.0000001
 44
0.0000000001
 40
0.0
 40
0.0
 40
0.0
 40
0.0
 40
0.231885901
 40
1.0
 40
1.0
 40
1.0
 40
1.0
 10
566.8896316089
 20
161.0045465539
 30
0.0
 10
566.8515089403
 20
161.0525757484
 30
0.0
 10
566.6749335854
 20
161.2500492409
 30
0.0
 10
566.457303812
 20
161.4080507022
 30
0.0
 10
566.2813954158
 20
161.5096091645
 30
0.0
  0
SPLINE
  5
2AB
100
AcDbEntity
  8
7
100
AcDbSpline
 62
7
  6
BYLAYER
 70
0
 71
3
 72
9
 73
5
 74
0
 42
0.0000001
 43
0.0000001
 44
0.0000000001
 40
0.0
 40
0.0
 40
0.0
 40
0.0
 40
0.238485877
 40
1.0
 40
1.0
 40
1.0
 40
1.0
 10
567.1551441638
 20
160.4088087732
 30
0.0
 10
567.1484923251
 20
160.4606113735
 30
0.0
 10
567.1040016264
 20
160.6757600872
 30
0.0
 10
566.9933126361
 20
160.8739230588
 30
0.0
 10
566.8896316089
 20
161.0045465539
 30
0.0
  0
SPLINE
  5
2AC
100
AcDbEntity
  8
7
100
AcDbSpline
 62
7
  6
BYLAYER
 70
0
 71
3
 72
11
 73
7
 74
0
 42
0.0000001
 43
0.0000001
 44
0.0000000001
 40
0.0
 40
0.0
 40
0.0
 40
0.0
 40
0.2870676202
 40
0.5467112348
 40
0.7818711823
 40
1.0
 40
1.0
 40
1.0
 40
1.0
 10
569.7035780122
 20
157.1981409652
 30
0.0
 10
569.3525252367
 20
157.4008167945
 30
0.0
 10
568.7102160769
 20
157.8364869404
 30
0.0
 10
567.9204062816
 20
158.6187519625
 30
0.0
 10
567.3775665483
 20
159.4785287984
 30
0.0
 10
567.1943731501
 20
160.1033047518
 30
0.0
 10
567.1551441638
 20
160.4088087732
 30
0.0
  0
SPLINE
  5
2AD
100
AcDbEntity
  8
7
100
AcDbSpline
 62
7
  6
BYLAYER
 70
0
 71
3
 72
9
 73
5
 74
0
 42
0.0000001
 43
0.0000001
 44
0.0000000001
 40
0.0
 40
0.0
 40
0.0
 40
0.0
 40
0.5253111196
 40
1.0
 40
1.0
 40
1.0
 40
1.0
 10
575.264718503
 20
155.7268497656
 30
0.0
 10
574.2514358417
 20
155.770214635
 30
0.0
 10
572.3257962101
 20
156.0431855289
 30
0.0
 10
570.4972727711
 20
156.7399114491
 30
0.0
 10
569.7035780122
 20
157.1981409652
 30
0.0
  0
SPLINE
  5
2AE
100
AcDbEntity
  8
7
100
AcDbSpline
 62
7
  6
BYLAYER
 70
0
 71
3
 72
9
 73
5
 74
0
 42
0.0000001
 43
0.0000001
 44
0.0000000001
 40
0.0
 40
0.0
 40
0.0
 40
0.0
 40
0.2439492689
 40
1.0
 40
1.0
 40
1.0
 40
1.0
 10
576.2965835693
 20
155.5735631726
 30
0.0
 10
576.2144866943
 20
155.5952832514
 30
0.0
 10
575.8753818811
 20
155.6744163294
 30
0.0
 10
575.5276675799
 20
155.7155964867
 30
0.0
 10
575.264718503
 20
155.7268497656
 30
0.0
  0
SPLINE
  5
2AF
100
AcDbEntity
  8
7
100
AcDbSpline
 62
7
  6
BYLAYER
 70
0
 71
3
 72
9
 73
5
 74
0
 42
0.0000001
 43
0.0000001
 44
0.0000000001
 40
0.0
 40
0.0
 40
0.0
 40
0.0
 40
0.2365442313
 40
1.0
 40
1.0
 40
1.0
 40
1.0
 10
577.1713952427
 20
155.2224070685
 30
0.0
 10
577.1069176694
 20
155.2596323707
 30
0.0
 10
576.8281596944
 20
155.4062551446
 30
0.0
 10
576.5288872862
 20
155.5121034028
 30
0.0
 10
576.2965835693
 20
155.5735631726
 30
0.0
  0
SPLINE
  5
2B0
100
AcDbEntity
  8
7
100
AcDbSpline
 62
7
  6
BYLAYER
 70
0
 71
3
 72
9
 73
5
 74
0
 42
0.0000001
 43
0.0000001
 44
0.0000000001
 40
0.0
 40
0.0
 40
0.0
 40
0.0
 40
0.5507565647
 40
1.0
 40
1.0
 40
1.0
 40
1.0
 10
598.6265585652
 20
140.3768957628
 30
0.0
 10
598.4190252881
 20
140.4967124456
 30
0.0
 10
598.062429609
 20
140.7696967854
 30
0.0
 10
597.8915685036
 20
141.2058661306
 30
0.0
 10
597.891567094
 20
141.4013346005
 30
0.0
  0
SPLINE
  5
2B1
100
AcDbEntity
  8
7
100
AcDbSpline
 62
7
  6
BYLAYER
 70
0
 71
3
 72
9
 73
5
 74
0
 42
0.0000001
 43
0.0000001
 44
0.0000000001
 40
0.0
 40
0.0
 40
0.0
 40
0.0
 40
0.5255628984
 40
1.0
 40
1.0
 40
1.0
 40
1.0
 10
608.6342557579
 20
135.7992816338
 30
0.0
 10
607.9898463729
 20
135.7992800848
 30
0.0
 10
606.7604252935
 20
135.9326031622
 30
0.0
 10
605.5892217945
 20
136.3570912132
 30
0.0
 10
605.0854325521
 20
136.6479474879
 30
0.0
  0
SPLINE
  5
2B2
100
AcDbEntity
  8
7
100
AcDbSpline
 62
7
  6
BYLAYER
 70
0
 71
3
 72
9
 73
5
 74
0
 42
0.0000001
 43
0.0000001
 44
0.0000000001
 40
0.0
 40
0.0
 40
0.0
 40
0.0
 40
0.4744365683
 40
1.0
 40
1.0
 40
1.0
 40
1.0
 10
612.1830667237
 20
136.6479645485
 30
0.0
 10
611.6792812052
 20
136.35710558
 30
0.0
 10
610.5080823132
 20
135.9326117085
 30
0.0
 10
609.2786644406
 20
135.7992831828
 30
0.0
 10
608.6342557579
 20
135.7992816338
 30
0.0
  0
SPLINE
  5
2B3
100
AcDbEntity
  8
7
100
AcDbSpline
 62
7
  6
BYLAYER
 70
0
 71
3
 72
9
 73
5
 74
0
 42
0.0000001
 43
0.0000001
 44
0.0000000001
 40
0.0
 40
0.0
 40
0.0
 40
0.0
 40
0.4492438796
 40
1.0
 40
1.0
 40
1.0
 40
1.0
 10
628.5327735866
 20
146.6875217718
 30
0.0
 10
628.5327749962
 20
146.4920538807
 30
0.0
 10
628.3619206883
 20
146.0558834611
 30
0.0
 10
628.0053283164
 20
145.7828970101
 30
0.0
 10
627.7977968905
 20
145.6630794007
 30
0.0
  0
SPLINE
  5
2B4
100
AcDbEntity
  8
7
100
AcDbSpline
 62
7
  6
BYLAYER
 70
0
 71
3
 72
9
 73
5
 74
0
 42
0.0000001
 43
0.0000001
 44
0.0000000001
 40
0.0
 40
0.0
 40
0.0
 40
0.0
 40
0.4492434353
 40
1.0
 40
1.0
 40
1.0
 40
1.0
 10
628.5327735866
 20
163.0175701144
 30
0.0
 10
628.532772177
 20
163.2130385842
 30
0.0
 10
628.3619110716
 20
163.6492079295
 30
0.0
 10
628.0053153925
 20
163.9221922693
 30
0.0
 10
627.7977821154
 20
164.0420089521
 30
0.0
  0
SPLINE
  5
2B5
100
AcDbEntity
  8
7
100
AcDbSpline
 62
7
  6
BYLAYER
 70
0
 71
3
 72
9
 73
5
 74
0
 42
0.0000001
 43
0.0000001
 44
0.0000000001
 40
0.0
 40
0.0
 40
0.0
 40
0.0
 40
0.5307943283
 40
1.0
 40
1.0
 40
1.0
 40
1.0
 10
598.2704819814
 20
158.4968709957
 30
0.0
 10
598.1572038289
 20
158.3918680863
 30
0.0
 10
597.9680409894
 20
158.1613876887
 30
0.0
 10
597.8915661094
 20
157.8679198023
 30
0.0
 10
597.891567094
 20
157.7313829431
 30
0.0
  0
SPLINE
  5
2B6
100
AcDbEntity
  8
7
100
AcDbSpline
 62
7
  6
BYLAYER
 70
0
 71
3
 72
10
 73
6
 74
0
 42
0.0000001
 43
0.0000001
 44
0.0000000001
 40
0.0
 40
0.0
 40
0.0
 40
0.0
 40
0.5448515086
 40
0.7795784926
 40
1.0
 40
1.0
 40
1.0
 40
1.0
 10
533.9821870549
 20
197.9774150139
 30
0.0
 10
533.5996729216
 20
197.7398493904
 30
0.0
 10
533.0862686556
 20
197.3080844242
 30
0.0
 10
532.7025281171
 20
196.5651217066
 30
0.0
 10
532.6388110775
 20
196.1864904446
 30
0.0
 10
532.6388123912
 20
196.0043270763
 30
0.0
  0
SPLINE
  5
2B7
100
AcDbEntity
  8
7
100
AcDbSpline
 62
7
  6
BYLAYER
 70
0
 71
3
 72
9
 73
5
 74
0
 42
0.0000001
 43
0.0000001
 44
0.0000000001
 40
0.0
 40
0.0
 40
0.0
 40
0.0
 40
0.2523587665
 40
1.0
 40
1.0
 40
1.0
 40
1.0
 10
575.3779933452
 20
172.9391495211
 30
0.0
 10
575.2388874819
 20
172.9451027539
 30
0.0
 10
574.6881129642
 20
172.9779574282
 30
0.0
 10
574.139431276
 20
173.0475736738
 30
0.0
 10
573.7336084869
 20
173.1214598178
 30
0.0
  0
SPLINE
  5
2B8
100
AcDbEntity
  8
7
100
AcDbSpline
 62
7
  6
BYLAYER
 70
0
 71
3
 72
9
 73
5
 74
0
 42
0.0000001
 43
0.0000001
 44
0.0000000001
 40
0.0
 40
0.0
 40
0.0
 40
0.0
 40
0.2656584038
 40
1.0
 40
1.0
 40
1.0
 40
1.0
 10
573.7336084869
 20
173.1214598178
 30
0.0
 10
573.4609038502
 20
173.1711097995
 30
0.0
 10
572.4423434539
 20
173.3951367918
 30
0.0
 10
571.4506482598
 20
173.7706505398
 30
0.0
 10
570.7870864504
 20
174.1537494622
 30
0.0
  0
SPLINE
  5
2B9
100
AcDbEntity
  8
7
100
AcDbSpline
 62
7
  6
BYLAYER
 70
0
 71
3
 72
9
 73
5
 74
0
 42
0.0000001
 43
0.0000001
 44
0.0000000001
 40
0.0
 40
0.0
 40
0.0
 40
0.0
 40
0.2770581612
 40
1.0
 40
1.0
 40
1.0
 40
1.0
 10
570.7870864504
 20
174.1537494622
 30
0.0
 10
570.5884236803
 20
174.2684448713
 30
0.0
 10
569.8943099891
 20
174.7162183852
 30
0.0
 10
569.2859978572
 20
175.3295794273
 30
0.0
 10
568.9990582421
 20
175.8548918376
 30
0.0
  0
SPLINE
  5
2BA
100
AcDbEntity
  8
7
100
AcDbSpline
 62
7
  6
BYLAYER
 70
0
 71
3
 72
9
 73
5
 74
0
 42
0.0000001
 43
0.0000001
 44
0.0000000001
 40
0.0
 40
0.0
 40
0.0
 40
0.0
 40
0.2586910649
 40
1.0
 40
1.0
 40
1.0
 40
1.0
 10
568.9990582421
 20
175.8548918376
 30
0.0
 10
568.9575673334
 20
175.9308509876
 30
0.0
 10
568.8094454887
 20
176.2308992551
 30
0.0
 10
568.7148582732
 20
176.5582572838
 30
0.0
 10
568.6832693387
 20
176.8042627878
 30
0.0
  0
SPLINE
  5
2BB
100
AcDbEntity
  8
7
100
AcDbSpline
 62
7
  6
BYLAYER
 70
0
 71
3
 72
9
 73
5
 74
0
 42
0.0000001
 43
0.0000001
 44
0.0000000001
 40
0.0
 40
0.0
 40
0.0
 40
0.0
 40
0.4746888804
 40
1.0
 40
1.0
 40
1.0
 40
1.0
 10
569.7035780122
 20
173.5281893078
 30
0.0
 10
570.4972727711
 20
173.0699597917
 30
0.0
 10
572.3257962101
 20
172.3732338715
 30
0.0
 10
574.2514358417
 20
172.1002629775
 30
0.0
 10
575.264718503
 20
172.0568981082
 30
0.0
  0
SPLINE
  5
2BC
100
AcDbEntity
  8
7
100
AcDbSpline
 62
7
  6
BYLAYER
 70
0
 71
3
 72
11
 73
7
 74
0
 42
0.0000001
 43
0.0000001
 44
0.0000000001
 40
0.0
 40
0.0
 40
0.0
 40
0.0
 40
0.2181288177
 40
0.4532887652
 40
0.7129323798
 40
1.0
 40
1.0
 40
1.0
 40
1.0
 10
567.1551441638
 20
176.7388571158
 30
0.0
 10
567.1943731501
 20
176.4333530944
 30
0.0
 10
567.3775665483
 20
175.808577141
 30
0.0
 10
567.9204062816
 20
174.9488003051
 30
0.0
 10
568.7102160769
 20
174.166535283
 30
0.0
 10
569.3525252367
 20
173.7308651371
 30
0.0
 10
569.7035780122
 20
173.5281893078
 30
0.0
  0
SPLINE
  5
2BD
100
AcDbEntity
  8
7
100
AcDbSpline
 62
7
  6
BYLAYER
 70
0
 71
3
 72
9
 73
5
 74
0
 42
0.0000001
 43
0.0000001
 44
0.0000000001
 40
0.0
 40
0.0
 40
0.0
 40
0.0
 40
0.2587775642
 40
1.0
 40
1.0
 40
1.0
 40
1.0
 10
566.8896316089
 20
177.3345948965
 30
0.0
 10
566.9075723729
 20
177.31199206
 30
0.0
 10
566.9744711095
 20
177.2227718683
 30
0.0
 10
567.0311812401
 20
177.1257127771
 30
0.0
 10
567.0653031254
 20
177.0504270528
 30
0.0
  0
SPLINE
  5
2BE
100
AcDbEntity
  8
7
100
AcDbSpline
 62
7
  6
BYLAYER
 70
0
 71
3
 72
8
 73
4
 74
0
 42
0.0000001
 43
0.0000001
 44
0.0000000001
 40
0.0
 40
0.0
 40
0.0
 40
0.0
 40
1.0
 40
1.0
 40
1.0
 40
1.0
 10
567.0653031254
 20
177.0504270528
 30
0.0
 10
567.109923071
 20
176.9519786557
 30
0.0
 10
567.1413778836
 20
176.8460649325
 30
0.0
 10
567.1551441638
 20
176.7388571158
 30
0.0
  0
SPLINE
  5
2BF
100
AcDbEntity
  8
7
100
AcDbSpline
 62
7
  6
BYLAYER
 70
0
 71
3
 72
9
 73
5
 74
0
 42
0.0000001
 43
0.0000001
 44
0.0000000001
 40
0.0
 40
0.0
 40
0.0
 40
0.0
 40
0.2693949548
 40
1.0
 40
1.0
 40
1.0
 40
1.0
 10
566.2813954158
 20
177.8396575071
 30
0.0
 10
566.3430701278
 20
177.8040504011
 30
0.0
 10
566.5667423055
 20
177.6634986975
 30
0.0
 10
566.7695577531
 20
177.4858710475
 30
0.0
 10
566.8896316089
 20
177.3345948965
 30
0.0
  0
SPLINE
  5
2C0
100
AcDbEntity
  8
7
100
AcDbSpline
 62
7
  6
BYLAYER
 70
0
 71
3
 72
9
 73
5
 74
0
 42
0.0000001
 43
0.0000001
 44
0.0000000001
 40
0.0
 40
0.0
 40
0.0
 40
0.0
 40
0.2675841917
 40
1.0
 40
1.0
 40
1.0
 40
1.0
 10
544.5084467562
 20
190.3580576841
 30
0.0
 10
544.5247728763
 20
190.3568868819
 30
0.0
 10
544.5854424797
 20
190.3496196105
 30
0.0
 10
544.6454969518
 20
190.3308667206
 30
0.0
 10
544.684296549
 20
190.3084662694
 30
0.0
  0
SPLINE
  5
2C1
100
AcDbEntity
  8
7
100
AcDbSpline
 62
7
  6
BYLAYER
 70
0
 71
3
 72
9
 73
5
 74
0
 42
0.0000001
 43
0.0000001
 44
0.0000000001
 40
0.0
 40
0.0
 40
0.0
 40
0.0
 40
0.2291142508
 40
1.0
 40
1.0
 40
1.0
 40
1.0
 10
544.2584384987
 20
190.3084652458
 30
0.0
 10
544.2730114918
 20
190.3168789171
 30
0.0
 10
544.3398462292
 20
190.3479258474
 30
0.0
 10
544.4147490433
 20
190.3593860846
 30
0.0
 10
544.4713671567
 20
190.3593862207
 30
0.0
  0
SPLINE
  5
2C2
100
AcDbEntity
  8
7
100
AcDbSpline
 62
7
  6
BYLAYER
 70
0
 71
3
 72
9
 73
5
 74
0
 42
0.0000001
 43
0.0000001
 44
0.0000000001
 40
0.0
 40
0.0
 40
0.0
 40
0.0
 40
0.2671444907
 40
1.0
 40
1.0
 40
1.0
 40
1.0
 10
542.3420809234
 20
189.8021681989
 30
0.0
 10
542.5054820124
 20
189.8021685917
 30
0.0
 10
543.115210416
 20
189.8368259778
 30
0.0
 10
543.7282838766
 20
190.0023821591
 30
0.0
 10
544.1164864063
 20
190.2265096562
 30
0.0
  0
SPLINE
  5
2C3
100
AcDbEntity
  8
7
100
AcDbSpline
 62
7
  6
BYLAYER
 70
0
 71
3
 72
9
 73
5
 74
0
 42
0.0000001
 43
0.0000001
 44
0.0000000001
 40
0.0
 40
0.0
 40
0.0
 40
0.0
 40
0.2291146192
 40
1.0
 40
1.0
 40
1.0
 40
1.0
 10
540.5676693205
 20
190.2265011259
 30
0.0
 10
540.689111887
 20
190.1563878137
 30
0.0
 10
541.2460708287
 20
189.8976664504
 30
0.0
 10
541.8702625412
 20
189.8021670648
 30
0.0
 10
542.3420809234
 20
189.8021681989
 30
0.0
  0
SPLINE
  5
2C4
100
AcDbEntity
  8
7
100
AcDbSpline
 62
7
  6
BYLAYER
 70
0
 71
3
 72
9
 73
5
 74
0
 42
0.0000001
 43
0.0000001
 44
0.0000000001
 40
0.0
 40
0.0
 40
0.0
 40
0.0
 40
0.4575170314
 40
1.0
 40
1.0
 40
1.0
 40
1.0
 10
532.6388123912
 20
196.0043270763
 30
0.0
 10
532.638814848
 20
195.663640608
 30
0.0
 10
532.8895531173
 20
194.9139728143
 30
0.0
 10
533.4530690472
 20
194.3939505919
 30
0.0
 10
533.7838584049
 20
194.1620915877
 30
0.0
  0
SPLINE
  5
2C5
100
AcDbEntity
  8
7
100
AcDbSpline
 62
7
  6
BYLAYER
 70
0
 71
3
 72
9
 73
5
 74
0
 42
0.0000001
 43
0.0000001
 44
0.0000000001
 40
0.0
 40
0.0
 40
0.0
 40
0.0
 40
0.5507561204
 40
1.0
 40
1.0
 40
1.0
 40
1.0
 10
627.7977968905
 20
161.9931277433
 30
0.0
 10
628.0053283164
 20
162.1129453527
 30
0.0
 10
628.3619206883
 20
162.3859318037
 30
0.0
 10
628.5327749962
 20
162.8221022233
 30
0.0
 10
628.5327735866
 20
163.0175701144
 30
0.0
  0
SPLINE
  5
2C6
100
AcDbEntity
  8
7
100
AcDbSpline
 62
7
  6
BYLAYER
 70
0
 71
3
 72
9
 73
5
 74
0
 42
0.0000001
 43
0.0000001
 44
0.0000000001
 40
0.0
 40
0.0
 40
0.0
 40
0.0
 40
0.2541102066
 40
1.0
 40
1.0
 40
1.0
 40
1.0
 10
608.6342557579
 20
152.1293299764
 30
0.0
 10
608.7982126886
 20
152.1293303705
 30
0.0
 10
609.4432261433
 20
152.1476618741
 30
0.0
 10
610.0867930574
 20
152.2379659066
 30
0.0
 10
610.5548575254
 20
152.3499015157
 30
0.0
  0
SPLINE
  5
2C7
100
AcDbEntity
  8
7
100
AcDbSpline
 62
7
  6
BYLAYER
 70
0
 71
3
 72
9
 73
5
 74
0
 42
0.0000001
 43
0.0000001
 44
0.0000000001
 40
0.0
 40
0.0
 40
0.0
 40
0.0
 40
0.2618164835
 40
1.0
 40
1.0
 40
1.0
 40
1.0
 10
610.9387530267
 20
152.4528693184
 30
0.0
 10
611.0518384069
 20
152.4866164267
 30
0.0
 10
611.4802878095
 20
152.6264895096
 30
0.0
 10
611.8949091197
 20
152.8116460139
 30
0.0
 10
612.1830667237
 20
152.9780128911
 30
0.0
  0
SPLINE
  5
2C8
100
AcDbEntity
  8
7
100
AcDbSpline
 62
7
  6
BYLAYER
 70
0
 71
3
 72
9
 73
5
 74
0
 42
0.0000001
 43
0.0000001
 44
0.0000000001
 40
0.0
 40
0.0
 40
0.0
 40
0.0
 40
0.4744371016
 40
1.0
 40
1.0
 40
1.0
 40
1.0
 10
605.0854325521
 20
152.9779958305
 30
0.0
 10
605.5892217945
 20
152.6871395558
 30
0.0
 10
606.7604252935
 20
152.2626515047
 30
0.0
 10
607.9898463729
 20
152.1293284274
 30
0.0
 10
608.6342557579
 20
152.1293299764
 30
0.0
  0
SPLINE
  5
2C9
100
AcDbEntity
  8
7
100
AcDbSpline
 62
7
  6
BYLAYER
 70
0
 71
3
 72
9
 73
5
 74
0
 42
0.0000001
 43
0.0000001
 44
0.0000000001
 40
0.0
 40
0.0
 40
0.0
 40
0.0
 40
0.469205699
 40
1.0
 40
1.0
 40
1.0
 40
1.0
 10
597.891567094
 20
157.7313829431
 30
0.0
 10
597.8915680786
 20
157.5948475999
 30
0.0
 10
597.9680452502
 20
157.3013842232
 30
0.0
 10
598.1572064644
 20
157.0709071466
 30
0.0
 10
598.2704834792
 20
156.9659055575
 30
0.0
  0
SPLINE
  5
2CA
100
AcDbEntity
  8
7
100
AcDbSpline
 62
7
  6
BYLAYER
 70
0
 71
3
 72
9
 73
5
 74
0
 42
0.0000001
 43
0.0000001
 44
0.0000000001
 40
0.0
 40
0.0
 40
0.0
 40
0.0
 40
0.2387423731
 40
1.0
 40
1.0
 40
1.0
 40
1.0
 10
598.2704834792
 20
156.9659055575
 30
0.0
 10
598.296210928
 20
156.9420576213
 30
0.0
 10
598.4071956035
 20
156.8456587254
 30
0.0
 10
598.5296865743
 20
156.7628719102
 30
0.0
 10
598.6265585652
 20
156.7069441054
 30
0.0
  0
SPLINE
  5
2CB
100
AcDbEntity
  8
7
100
AcDbSpline
 62
7
  6
BYLAYER
 70
0
 71
3
 72
9
 73
5
 74
0
 42
0.0000001
 43
0.0000001
 44
0.0000000001
 40
0.0
 40
0.0
 40
0.0
 40
0.0
 40
0.2630734034
 40
1.0
 40
1.0
 40
1.0
 40
1.0
 10
576.2965835693
 20
171.9036115152
 30
0.0
 10
576.3766220914
 20
171.8824360075
 30
0.0
 10
576.6783783714
 20
171.7932645536
 30
0.0
 10
576.9705459099
 20
171.6684132042
 30
0.0
 10
577.1713952427
 20
171.5524554111
 30
0.0
  0
SPLINE
  5
2CC
100
AcDbEntity
  8
6
100
AcDbSpline
 62
7
  6
BYLAYER
 70
0
 71
3
 72
9
 73
5
 74
0
 42
0.0000001
 43
0.0000001
 44
0.0000000001
 40
0.0
 40
0.0
 40
0.0
 40
0.0
 40
0.4517369589
 40
1.0
 40
1.0
 40
1.0
 40
1.0
 10
574.3388095947
 20
138.1634099765
 30
0.0
 10
573.9457510671
 20
138.6174025834
 30
0.0
 10
572.770162423
 20
139.3445735259
 30
0.0
 10
571.4597054095
 20
139.6419090757
 30
0.0
 10
570.7346351521
 20
139.7157201374
 30
0.0
  0
SPLINE
  5
2CD
100
AcDbEntity
  8
6
100
AcDbSpline
 62
7
  6
BYLAYER
 70
0
 71
3
 72
11
 73
7
 74
0
 42
0.0000001
 43
0.0000001
 44
0.0000000001
 40
0.0
 40
0.0
 40
0.0
 40
0.0
 40
0.2898001512
 40
0.5490497799
 40
0.7822288614
 40
1.0
 40
1.0
 40
1.0
 40
1.0
 10
544.2873019402
 20
129.2172297238
 30
0.0
 10
543.9361471474
 20
129.4199644515
 30
0.0
 10
543.2991758857
 20
129.8584218903
 30
0.0
 10
542.538282263
 20
130.6585849007
 30
0.0
 10
542.0566111012
 20
131.5432542894
 30
0.0
 10
541.9441348352
 20
132.1784673928
 30
0.0
 10
541.944132638
 20
132.4831637251
 30
0.0
  0
SPLINE
  5
2CE
100
AcDbEntity
  8
6
100
AcDbSpline
 62
7
  6
BYLAYER
 70
0
 71
3
 72
9
 73
5
 74
0
 42
0.0000001
 43
0.0000001
 44
0.0000000001
 40
0.0
 40
0.0
 40
0.0
 40
0.0
 40
0.5255628984
 40
1.0
 40
1.0
 40
1.0
 40
1.0
 10
549.9441659451
 20
127.8644468311
 30
0.0
 10
548.9169701556
 20
127.864444362
 30
0.0
 10
546.9572591619
 20
128.076962843
 30
0.0
 10
545.0903476448
 20
128.7536015588
 30
0.0
 10
544.2873019402
 20
129.2172297238
 30
0.0
  0
SPLINE
  5
2CF
100
AcDbEntity
  8
6
100
AcDbSpline
 62
7
  6
BYLAYER
 70
0
 71
3
 72
9
 73
5
 74
0
 42
0.0000001
 43
0.0000001
 44
0.0000000001
 40
0.0
 40
0.0
 40
0.0
 40
0.0
 40
0.2637079311
 40
1.0
 40
1.0
 40
1.0
 40
1.0
 10
549.6162671703
 20
143.1489001396
 30
0.0
 10
549.5487122428
 20
143.1024186178
 30
0.0
 10
549.29803283
 20
142.9185355308
 30
0.0
 10
549.069643769
 20
142.7025397903
 30
0.0
 10
548.9246998359
 20
142.5253084405
 30
0.0
  0
SPLINE
  5
2D0
100
AcDbEntity
  8
6
100
AcDbSpline
 62
7
  6
BYLAYER
 70
0
 71
3
 72
11
 73
7
 74
0
 42
0.0000001
 43
0.0000001
 44
0.0000000001
 40
0.0
 40
0.0
 40
0.0
 40
0.0
 40
0.2453434937
 40
0.5110181894
 40
0.7706936429
 40
1.0
 40
1.0
 40
1.0
 40
1.0
 10
556.6604248684
 20
143.5047238149
 30
0.0
 10
556.1221542378
 20
143.7654854564
 30
0.0
 10
554.911363214
 20
144.1269846448
 30
0.0
 10
553.0219247508
 20
144.2396459691
 30
0.0
 10
551.1914006597
 20
143.9486615597
 30
0.0
 10
550.0767962999
 20
143.4657696199
 30
0.0
 10
549.6162671703
 20
143.1489001396
 30
0.0
  0
SPLINE
  5
2D1
100
AcDbEntity
  8
6
100
AcDbSpline
 62
7
  6
BYLAYER
 70
0
 71
3
 72
9
 73
5
 74
0
 42
0.0000001
 43
0.0000001
 44
0.0000000001
 40
0.0
 40
0.0
 40
0.0
 40
0.0
 40
0.2588804299
 40
1.0
 40
1.0
 40
1.0
 40
1.0
 10
563.2716732855
 20
141.0829570943
 30
0.0
 10
562.6845256284
 20
141.2410266831
 30
0.0
 10
560.4298266646
 20
141.8990039588
 30
0.0
 10
558.2292222303
 20
142.7504014294
 30
0.0
 10
556.6604248684
 20
143.5047238149
 30
0.0
  0
SPLINE
  5
2D2
100
AcDbEntity
  8
6
100
AcDbSpline
 62
7
  6
BYLAYER
 70
0
 71
3
 72
9
 73
5
 74
0
 42
0.0000001
 43
0.0000001
 44
0.0000000001
 40
0.0
 40
0.0
 40
0.0
 40
0.0
 40
0.2547153844
 40
1.0
 40
1.0
 40
1.0
 40
1.0
 10
570.7346351521
 20
139.7157201374
 30
0.0
 10
570.0935266332
 20
139.7823915683
 30
0.0
 10
567.5818829281
 20
140.0918155031
 30
0.0
 10
565.0928003952
 20
140.5926803984
 30
0.0
 10
563.2716732855
 20
141.0829570943
 30
0.0
  0
SPLINE
  5
2D3
100
AcDbEntity
  8
6
100
AcDbSpline
 62
7
  6
BYLAYER
 70
0
 71
3
 72
9
 73
5
 74
0
 42
0.0000001
 43
0.0000001
 44
0.0000000001
 40
0.0
 40
0.0
 40
0.0
 40
0.0
 40
0.511973868
 40
1.0
 40
1.0
 40
1.0
 40
1.0
 10
651.9441659442
 20
127.8646920089
 30
0.0
 10
652.5903323216
 20
127.8646935621
 30
0.0
 10
653.8609998353
 20
128.0636506281
 30
0.0
 10
655.0025953517
 20
128.6708824899
 30
0.0
 10
655.4796998501
 20
129.0604406129
 30
0.0
  0
SPLINE
  5
2D4
100
AcDbEntity
  8
6
100
AcDbSpline
 62
7
  6
BYLAYER
 70
0
 71
3
 72
9
 73
5
 74
0
 42
0.0000001
 43
0.0000001
 44
0.0000000001
 40
0.0
 40
0.0
 40
0.0
 40
0.0
 40
0.5155793843
 40
1.0
 40
1.0
 40
1.0
 40
1.0
 10
655.4796998501
 20
129.0604406129
 30
0.0
 10
655.9215888386
 20
129.4212451023
 30
0.0
 10
656.6626799434
 20
130.2914317253
 30
0.0
 10
656.9441659442
 20
131.411214149
 30
0.0
 10
656.9441659442
 20
131.9472161131
 30
0.0
  0
SPLINE
  5
2D5
100
AcDbEntity
  8
6
100
AcDbSpline
 62
7
  6
BYLAYER
 70
0
 71
3
 72
9
 73
5
 74
0
 42
0.0000001
 43
0.0000001
 44
0.0000000001
 40
0.0
 40
0.0
 40
0.0
 40
0.0
 40
0.2590400614
 40
1.0
 40
1.0
 40
1.0
 40
1.0
 10
559.0390788328
 20
138.2919731558
 30
0.0
 10
558.2560759919
 20
138.5027701088
 30
0.0
 10
555.2514085256
 20
139.3806099154
 30
0.0
 10
552.3198788496
 20
140.5200653846
 30
0.0
 10
550.2325806651
 20
141.5315191883
 30
0.0
  0
SPLINE
  5
2D6
100
AcDbEntity
  8
6
100
AcDbSpline
 62
7
  6
BYLAYER
 70
0
 71
3
 72
9
 73
5
 74
0
 42
0.0000001
 43
0.0000001
 44
0.0000000001
 40
0.0
 40
0.0
 40
0.0
 40
0.0
 40
0.2547499752
 40
1.0
 40
1.0
 40
1.0
 40
1.0
 10
568.9981943769
 20
136.4795142851
 30
0.0
 10
568.1425078241
 20
136.5665534311
 30
0.0
 10
564.7906363669
 20
136.9727275333
 30
0.0
 10
561.4687287713
 20
137.6378723312
 30
0.0
 10
559.0390788328
 20
138.2919731558
 30
0.0
  0
SPLINE
  5
2D7
100
AcDbEntity
  8
6
100
AcDbSpline
 62
7
  6
BYLAYER
 70
0
 71
3
 72
10
 73
6
 74
0
 42
0.0000001
 43
0.0000001
 44
0.0000000001
 40
0.0
 40
0.0
 40
0.0
 40
0.0
 40
0.4224935675
 40
0.7029850448
 40
1.0
 40
1.0
 40
1.0
 40
1.0
 10
574.7904571443
 20
138.8211107285
 30
0.0
 10
574.5202892918
 20
137.9364868927
 30
0.0
 10
573.0296405244
 20
136.9181489028
 30
0.0
 10
570.9319035526
 20
136.4355741004
 30
0.0
 10
569.6451019141
 20
136.4136600708
 30
0.0
 10
568.9981943769
 20
136.4795142851
 30
0.0
  0
SPLINE
  5
2D8
100
AcDbEntity
  8
6
100
AcDbSpline
 62
7
  6
BYLAYER
 70
0
 71
3
 72
11
 73
7
 74
0
 42
0.0000001
 43
0.0000001
 44
0.0000000001
 40
0.0
 40
0.0
 40
0.0
 40
0.0
 40
0.2944618757
 40
0.5556957675
 40
0.7869486445
 40
1.0
 40
1.0
 40
1.0
 40
1.0
 10
550.2325806651
 20
141.5315191883
 30
0.0
 10
549.9689007237
 20
141.6592571893
 30
0.0
 10
549.4891089801
 20
141.9416471315
 30
0.0
 10
548.9079687531
 20
142.4775109251
 30
0.0
 10
548.5351609091
 20
143.0853953604
 30
0.0
 10
548.4465338559
 20
143.5308873444
 30
0.0
 10
548.4465862344
 20
143.742874946
 30
0.0
  0
SPLINE
  5
2D9
100
AcDbEntity
  8
6
100
AcDbSpline
 62
7
  6
BYLAYER
 70
0
 71
3
 72
9
 73
5
 74
0
 42
0.0000001
 43
0.0000001
 44
0.0000000001
 40
0.0
 40
0.0
 40
0.0
 40
0.0
 40
0.5155793843
 40
1.0
 40
1.0
 40
1.0
 40
1.0
 10
653.065069948
 20
188.765847565
 30
0.0
 10
653.3302033411
 20
188.9823302586
 30
0.0
 10
653.774858004
 20
189.5044422325
 30
0.0
 10
653.9437496044
 20
190.1763116867
 30
0.0
 10
653.9437496044
 20
190.4979128651
 30
0.0
  0
SPLINE
  5
2DA
100
AcDbEntity
  8
6
100
AcDbSpline
 62
7
  6
BYLAYER
 70
0
 71
3
 72
9
 73
5
 74
0
 42
0.0000001
 43
0.0000001
 44
0.0000000001
 40
0.0
 40
0.0
 40
0.0
 40
0.0
 40
0.2593733946
 40
1.0
 40
1.0
 40
1.0
 40
1.0
 10
650.9437496045
 20
188.0483984026
 30
0.0
 10
651.1394122914
 20
188.0483988729
 30
0.0
 10
651.8916267609
 20
188.1072424357
 30
0.0
 10
652.6323013225
 20
188.412489896
 30
0.0
 10
653.065069948
 20
188.765847565
 30
0.0
  0
SPLINE
  5
2DB
100
AcDbEntity
  8
6
100
AcDbSpline
 62
7
  6
BYLAYER
 70
0
 71
3
 72
9
 73
5
 74
0
 42
0.0000001
 43
0.0000001
 44
0.0000000001
 40
0.0
 40
0.0
 40
0.0
 40
0.0
 40
0.4744371016
 40
1.0
 40
1.0
 40
1.0
 40
1.0
 10
544.2873019402
 20
131.6667369752
 30
0.0
 10
545.0903476448
 20
131.2031088101
 30
0.0
 10
546.9572591619
 20
130.5264700944
 30
0.0
 10
548.9169701556
 20
130.3139516134
 30
0.0
 10
549.9441659451
 20
130.3139540825
 30
0.0
  0
SPLINE
  5
2DC
100
AcDbEntity
  8
6
100
AcDbSpline
 62
7
  6
BYLAYER
 70
0
 71
3
 72
11
 73
7
 74
0
 42
0.0000001
 43
0.0000001
 44
0.0000000001
 40
0.0
 40
0.0
 40
0.0
 40
0.0
 40
0.2177711386
 40
0.4509502201
 40
0.7101998488
 40
1.0
 40
1.0
 40
1.0
 40
1.0
 10
541.944132638
 20
134.9326709765
 30
0.0
 10
541.9441348352
 20
134.6279746442
 30
0.0
 10
542.0566111012
 20
133.9927615408
 30
0.0
 10
542.538282263
 20
133.1080921521
 30
0.0
 10
543.2991758857
 20
132.3079291417
 30
0.0
 10
543.9361471474
 20
131.8694717029
 30
0.0
 10
544.2873019402
 20
131.6667369752
 30
0.0
  0
SPLINE
  5
2DD
100
AcDbEntity
  8
6
100
AcDbSpline
 62
7
  6
BYLAYER
 70
0
 71
3
 72
11
 73
7
 74
0
 42
0.0000001
 43
0.0000001
 44
0.0000000001
 40
0.0
 40
0.0
 40
0.0
 40
0.0
 40
0.3084674474
 40
0.5818526558
 40
0.8089965849
 40
1.0
 40
1.0
 40
1.0
 40
1.0
 10
570.7346351521
 20
142.1652273888
 30
0.0
 10
571.2875992924
 20
142.1089364709
 30
0.0
 10
572.3250483399
 20
141.9007901383
 30
0.0
 10
573.6629188428
 20
141.2852624821
 30
0.0
 10
574.6075454483
 20
140.4252229685
 30
0.0
 10
574.8663970603
 20
139.6665367759
 30
0.0
 10
574.8662868282
 20
139.3223711904
 30
0.0
  0
SPLINE
  5
2DE
100
AcDbEntity
  8
6
100
AcDbSpline
 62
7
  6
BYLAYER
 70
0
 71
3
 72
9
 73
5
 74
0
 42
0.0000001
 43
0.0000001
 44
0.0000000001
 40
0.0
 40
0.0
 40
0.0
 40
0.0
 40
0.2448195009
 40
1.0
 40
1.0
 40
1.0
 40
1.0
 10
563.2716732855
 20
143.5324643457
 30
0.0
 10
563.8699070418
 20
143.3714102008
 30
0.0
 10
566.3273439974
 20
142.7657598782
 30
0.0
 10
568.8338460122
 20
142.3628980296
 30
0.0
 10
570.7346351521
 20
142.1652273888
 30
0.0
  0
SPLINE
  5
2DF
100
AcDbEntity
  8
6
100
AcDbSpline
 62
7
  6
BYLAYER
 70
0
 71
3
 72
9
 73
5
 74
0
 42
0.0000001
 43
0.0000001
 44
0.0000000001
 40
0.0
 40
0.0
 40
0.0
 40
0.0
 40
0.24086164
 40
1.0
 40
1.0
 40
1.0
 40
1.0
 10
556.6604248684
 20
145.9542310662
 30
0.0
 10
557.1702989322
 20
145.7090691165
 30
0.0
 10
559.3135097925
 20
144.7463274384
 30
0.0
 10
561.549861163
 20
143.9960038504
 30
0.0
 10
563.2716732855
 20
143.5324643457
 30
0.0
  0
SPLINE
  5
2E0
100
AcDbEntity
  8
6
100
AcDbSpline
 62
7
  6
BYLAYER
 70
0
 71
3
 72
11
 73
7
 74
0
 42
0.0000001
 43
0.0000001
 44
0.0000000001
 40
0.0
 40
0.0
 40
0.0
 40
0.0
 40
0.2293062555
 40
0.4889816731
 40
0.7546564
 40
1.0
 40
1.0
 40
1.0
 40
1.0
 10
549.6162671703
 20
145.598407391
 30
0.0
 10
550.076796096
 20
145.9152767309
 30
0.0
 10
551.1914000867
 20
146.3981686216
 30
0.0
 10
553.0219238954
 20
146.6891531797
 30
0.0
 10
554.911362616
 20
146.5764920264
 30
0.0
 10
556.1221540043
 20
146.2149928209
 30
0.0
 10
556.6604248684
 20
145.9542310662
 30
0.0
  0
SPLINE
  5
2E1
100
AcDbEntity
  8
6
100
AcDbSpline
 62
7
  6
BYLAYER
 70
0
 71
3
 72
9
 73
5
 74
0
 42
0.0000001
 43
0.0000001
 44
0.0000000001
 40
0.0
 40
0.0
 40
0.0
 40
0.0
 40
0.4566883439
 40
1.0
 40
1.0
 40
1.0
 40
1.0
 10
548.4465862344
 20
143.742874946
 30
0.0
 10
548.4466712464
 20
144.0869379982
 30
0.0
 10
548.7040057258
 20
144.8452209581
 30
0.0
 10
549.2790545156
 20
145.3663864574
 30
0.0
 10
549.6162671703
 20
145.598407391
 30
0.0
  0
SPLINE
  5
2E2
100
AcDbEntity
  8
6
100
AcDbSpline
 62
7
  6
BYLAYER
 70
0
 71
3
 72
9
 73
5
 74
0
 42
0.0000001
 43
0.0000001
 44
0.0000000001
 40
0.0
 40
0.0
 40
0.0
 40
0.0
 40
0.2416164504
 40
1.0
 40
1.0
 40
1.0
 40
1.0
 10
653.0654862878
 20
131.031646019
 30
0.0
 10
652.9242291877
 20
130.9163089158
 30
0.0
 10
652.293681749
 20
130.4960473506
 30
0.0
 10
651.5165648807
 20
130.3141982325
 30
0.0
 10
650.9441659442
 20
130.3141968566
 30
0.0
  0
SPLINE
  5
2E3
100
AcDbEntity
  8
6
100
AcDbSpline
 62
7
  6
BYLAYER
 70
0
 71
3
 72
9
 73
5
 74
0
 42
0.0000001
 43
0.0000001
 44
0.0000000001
 40
0.0
 40
0.0
 40
0.0
 40
0.0
 40
0.4844206157
 40
1.0
 40
1.0
 40
1.0
 40
1.0
 10
653.9441659442
 20
132.7637113191
 30
0.0
 10
653.9441659442
 20
132.4421101406
 30
0.0
 10
653.7752743437
 20
131.7702406864
 30
0.0
 10
653.3306196808
 20
131.2481287126
 30
0.0
 10
653.0654862878
 20
131.031646019
 30
0.0
  0
SPLINE
  5
2E4
100
AcDbEntity
  8
7
100
AcDbSpline
 62
7
  6
BYLAYER
 70
0
 71
3
 72
10
 73
6
 74
0
 42
0.0000001
 43
0.0000001
 44
0.0000000001
 40
0.0
 40
0.0
 40
0.0
 40
0.0
 40
0.5448512276
 40
0.7795784504
 40
1.0
 40
1.0
 40
1.0
 40
1.0
 10
533.982181082
 20
1500.5665328883
 30
0.0
 10
533.5996722368
 20
1500.804096065
 30
0.0
 10
533.0862750623
 20
1501.2358553147
 30
0.0
 10
532.7025345973
 20
1501.9788060288
 30
0.0
 10
532.6388137048
 20
1502.3574318271
 30
0.0
 10
532.6388123912
 20
1502.5395929846
 30
0.0
  0
SPLINE
  5
2E5
100
AcDbEntity
  8
7
100
AcDbSpline
 62
7
  6
BYLAYER
 70
0
 71
3
 72
9
 73
5
 74
0
 42
0.0000001
 43
0.0000001
 44
0.0000000001
 40
0.0
 40
0.0
 40
0.0
 40
0.0
 40
0.2674082746
 40
1.0
 40
1.0
 40
1.0
 40
1.0
 10
541.9407701025
 20
1496.3561272115
 30
0.0
 10
541.8131951655
 20
1496.3680521878
 30
0.0
 10
541.3390774176
 20
1496.4341732279
 30
0.0
 10
540.8716700936
 20
1496.5862560767
 30
0.0
 10
540.5676693205
 20
1496.7617670343
 30
0.0
  0
SPLINE
  5
2E6
100
AcDbEntity
  8
7
100
AcDbSpline
 62
7
  6
BYLAYER
 70
0
 71
3
 72
9
 73
5
 74
0
 42
0.0000001
 43
0.0000001
 44
0.0000000001
 40
0.0
 40
0.0
 40
0.0
 40
0.0
 40
0.231885901
 40
1.0
 40
1.0
 40
1.0
 40
1.0
 10
566.8896316089
 20
1483.8698608048
 30
0.0
 10
566.8515089403
 20
1483.9178899994
 30
0.0
 10
566.6749335854
 20
1484.1153634918
 30
0.0
 10
566.457303812
 20
1484.2733649531
 30
0.0
 10
566.2813954158
 20
1484.3749234155
 30
0.0
  0
SPLINE
  5
2E7
100
AcDbEntity
  8
7
100
AcDbSpline
 62
7
  6
BYLAYER
 70
0
 71
3
 72
9
 73
5
 74
0
 42
0.0000001
 43
0.0000001
 44
0.0000000001
 40
0.0
 40
0.0
 40
0.0
 40
0.0
 40
0.238485877
 40
1.0
 40
1.0
 40
1.0
 40
1.0
 10
567.1551441638
 20
1483.2741230242
 30
0.0
 10
567.1484923251
 20
1483.3259256244
 30
0.0
 10
567.1040016264
 20
1483.5410743382
 30
0.0
 10
566.9933126361
 20
1483.7392373098
 30
0.0
 10
566.8896316089
 20
1483.8698608048
 30
0.0
  0
SPLINE
  5
2E8
100
AcDbEntity
  8
7
100
AcDbSpline
 62
7
  6
BYLAYER
 70
0
 71
3
 72
9
 73
5
 74
0
 42
0.0000001
 43
0.0000001
 44
0.0000000001
 40
0.0
 40
0.0
 40
0.0
 40
0.0
 40
0.5212300808
 40
1.0
 40
1.0
 40
1.0
 40
1.0
 10
568.0481438074
 20
1481.3931450681
 30
0.0
 10
567.8096275596
 20
1481.6703426322
 30
0.0
 10
567.4091068747
 20
1482.257460824
 30
0.0
 10
567.1979249027
 20
1482.9409589786
 30
0.0
 10
567.1551441638
 20
1483.2741230242
 30
0.0
  0
SPLINE
  5
2E9
100
AcDbEntity
  8
7
100
AcDbSpline
 62
7
  6
BYLAYER
 70
0
 71
3
 72
9
 73
5
 74
0
 42
0.0000001
 43
0.0000001
 44
0.0000000001
 40
0.0
 40
0.0
 40
0.0
 40
0.0
 40
0.2614484968
 40
1.0
 40
1.0
 40
1.0
 40
1.0
 10
598.6265585652
 20
1463.2422100137
 30
0.0
 10
598.5932909045
 20
1463.2614166721
 30
0.0
 10
598.4679083982
 20
1463.3379910596
 30
0.0
 10
598.3500659739
 20
1463.4274028514
 30
0.0
 10
598.2704834792
 20
1463.5011714658
 30
0.0
  0
SPLINE
  5
2EA
100
AcDbEntity
  8
7
100
AcDbSpline
 62
7
  6
BYLAYER
 70
0
 71
3
 72
9
 73
5
 74
0
 42
0.0000001
 43
0.0000001
 44
0.0000000001
 40
0.0
 40
0.0
 40
0.0
 40
0.0
 40
0.530794301
 40
1.0
 40
1.0
 40
1.0
 40
1.0
 10
598.2704834792
 20
1463.5011714658
 30
0.0
 10
598.1572064644
 20
1463.606173055
 30
0.0
 10
597.9680452502
 20
1463.8366501316
 30
0.0
 10
597.8915680786
 20
1464.1301135083
 30
0.0
 10
597.891567094
 20
1464.2666488514
 30
0.0
  0
SPLINE
  5
2EB
100
AcDbEntity
  8
7
100
AcDbSpline
 62
7
  6
BYLAYER
 70
0
 71
3
 72
9
 73
5
 74
0
 42
0.0000001
 43
0.0000001
 44
0.0000000001
 40
0.0
 40
0.0
 40
0.0
 40
0.0
 40
0.5255628984
 40
1.0
 40
1.0
 40
1.0
 40
1.0
 10
608.6342557579
 20
1458.6645958847
 30
0.0
 10
607.9898463729
 20
1458.6645943358
 30
0.0
 10
606.7604252935
 20
1458.7979174131
 30
0.0
 10
605.5892217945
 20
1459.2224054641
 30
0.0
 10
605.0854325521
 20
1459.5132617388
 30
0.0
  0
SPLINE
  5
2EC
100
AcDbEntity
  8
7
100
AcDbSpline
 62
7
  6
BYLAYER
 70
0
 71
3
 72
9
 73
5
 74
0
 42
0.0000001
 43
0.0000001
 44
0.0000000001
 40
0.0
 40
0.0
 40
0.0
 40
0.0
 40
0.4744365683
 40
1.0
 40
1.0
 40
1.0
 40
1.0
 10
612.1830667237
 20
1459.5132787994
 30
0.0
 10
611.6792812052
 20
1459.2224198309
 30
0.0
 10
610.5080823132
 20
1458.7979259595
 30
0.0
 10
609.2786644406
 20
1458.6645974337
 30
0.0
 10
608.6342557579
 20
1458.6645958847
 30
0.0
  0
SPLINE
  5
2ED
100
AcDbEntity
  8
7
100
AcDbSpline
 62
7
  6
BYLAYER
 70
0
 71
3
 72
9
 73
5
 74
0
 42
0.0000001
 43
0.0000001
 44
0.0000000001
 40
0.0
 40
0.0
 40
0.0
 40
0.0
 40
0.4492438796
 40
1.0
 40
1.0
 40
1.0
 40
1.0
 10
628.5327735866
 20
1469.5528360227
 30
0.0
 10
628.5327749962
 20
1469.3573681316
 30
0.0
 10
628.3619206883
 20
1468.921197712
 30
0.0
 10
628.0053283164
 20
1468.648211261
 30
0.0
 10
627.7977968905
 20
1468.5283936516
 30
0.0
  0
SPLINE
  5
2EE
100
AcDbEntity
  8
7
100
AcDbSpline
 62
7
  6
BYLAYER
 70
0
 71
3
 72
9
 73
5
 74
0
 42
0.0000001
 43
0.0000001
 44
0.0000000001
 40
0.0
 40
0.0
 40
0.0
 40
0.0
 40
0.259974611
 40
1.0
 40
1.0
 40
1.0
 40
1.0
 10
569.056059444
 20
1521.3945181676
 30
0.0
 10
569.086955465
 20
1521.3936418953
 30
0.0
 10
569.2054763865
 20
1521.3839179116
 30
0.0
 10
569.3220616369
 20
1521.3454028324
 30
0.0
 10
569.3982561265
 20
1521.3014119619
 30
0.0
  0
SPLINE
  5
2EF
100
AcDbEntity
  8
7
100
AcDbSpline
 62
7
  6
BYLAYER
 70
0
 71
3
 72
9
 73
5
 74
0
 42
0.0000001
 43
0.0000001
 44
0.0000000001
 40
0.0
 40
0.0
 40
0.0
 40
0.0
 40
0.2773091446
 40
1.0
 40
1.0
 40
1.0
 40
1.0
 10
568.4022409444
 20
1521.2034455085
 30
0.0
 10
568.4571582489
 20
1521.2350786961
 30
0.0
 10
568.660088774
 20
1521.3389958908
 30
0.0
 10
568.8909616103
 20
1521.3992006693
 30
0.0
 10
569.056059444
 20
1521.3945181676
 30
0.0
  0
SPLINE
  5
2F0
100
AcDbEntity
  8
7
100
AcDbSpline
 62
7
  6
BYLAYER
 70
0
 71
3
 72
9
 73
5
 74
0
 42
0.0000001
 43
0.0000001
 44
0.0000000001
 40
0.0
 40
0.0
 40
0.0
 40
0.0
 40
0.2567062993
 40
1.0
 40
1.0
 40
1.0
 40
1.0
 10
541.9352117679
 20
1521.3044948423
 30
0.0
 10
541.9216402082
 20
1521.3361795359
 30
0.0
 10
541.8744820938
 20
1521.461944497
 30
0.0
 10
541.8523231823
 20
1521.5973214528
 30
0.0
 10
541.8523368192
 20
1521.6971263168
 30
0.0
  0
SPLINE
  5
2F1
100
AcDbEntity
  8
7
100
AcDbSpline
 62
7
  6
BYLAYER
 70
0
 71
3
 72
9
 73
5
 74
0
 42
0.0000001
 43
0.0000001
 44
0.0000000001
 40
0.0
 40
0.0
 40
0.0
 40
0.0
 40
0.5185157881
 40
1.0
 40
1.0
 40
1.0
 40
1.0
 10
556.651865734
 20
1517.3185531322
 30
0.0
 10
556.5316462769
 20
1517.4772426703
 30
0.0
 10
556.3358455656
 20
1517.8145456603
 30
0.0
 10
556.2577135502
 20
1518.1992025601
 30
0.0
 10
556.2536088744
 20
1518.3840242337
 30
0.0
  0
SPLINE
  5
2F2
100
AcDbEntity
  8
7
100
AcDbSpline
 62
7
  6
BYLAYER
 70
0
 71
3
 72
11
 73
7
 74
0
 42
0.0000001
 43
0.0000001
 44
0.0000000001
 40
0.0
 40
0.0
 40
0.0
 40
0.0
 40
0.3051456214
 40
0.5727593642
 40
0.8002407674
 40
1.0
 40
1.0
 40
1.0
 40
1.0
 10
605.9160675962
 20
1488.8663780049
 30
0.0
 10
605.5198591413
 20
1488.9684131469
 30
0.0
 10
604.7898538811
 20
1489.2256103538
 30
0.0
 10
603.8731106542
 20
1489.8041988871
 30
0.0
 10
603.2548259791
 20
1490.5278950006
 30
0.0
 10
603.0978459205
 20
1491.1060012135
 30
0.0
 10
603.0977984129
 20
1491.373836296
 30
0.0
  0
SPLINE
  5
2F3
100
AcDbEntity
  8
7
100
AcDbSpline
 62
7
  6
BYLAYER
 70
0
 71
3
 72
11
 73
7
 74
0
 42
0.0000001
 43
0.0000001
 44
0.0000000001
 40
0.0
 40
0.0
 40
0.0
 40
0.0
 40
0.2897999482
 40
0.5490493256
 40
0.7822283757
 40
1.0
 40
1.0
 40
1.0
 40
1.0
 10
534.1087657834
 20
1520.9185260694
 30
0.0
 10
533.8884713854
 20
1520.7913397986
 30
0.0
 10
533.4888726057
 20
1520.5162724481
 30
0.0
 10
533.0115343786
 20
1520.0142890962
 30
0.0
 10
532.7093667718
 20
1519.4592914429
 30
0.0
 10
532.6388110127
 20
1519.060791705
 30
0.0
 10
532.6388123912
 20
1518.8696413272
 30
0.0
  0
SPLINE
  5
2F4
100
AcDbEntity
  8
7
100
AcDbSpline
 62
7
  6
BYLAYER
 70
0
 71
3
 72
9
 73
5
 74
0
 42
0.0000001
 43
0.0000001
 44
0.0000000001
 40
0.0
 40
0.0
 40
0.0
 40
0.0
 40
0.259974611
 40
1.0
 40
1.0
 40
1.0
 40
1.0
 10
611.6834623836
 20
1496.7841323669
 30
0.0
 10
611.7143584046
 20
1496.7832560946
 30
0.0
 10
611.8328793261
 20
1496.7735321109
 30
0.0
 10
611.9494645765
 20
1496.7350170317
 30
0.0
 10
612.0256590661
 20
1496.6910261612
 30
0.0
  0
SPLINE
  5
2F5
100
AcDbEntity
  8
7
100
AcDbSpline
 62
7
  6
BYLAYER
 70
0
 71
3
 72
9
 73
5
 74
0
 42
0.0000001
 43
0.0000001
 44
0.0000000001
 40
0.0
 40
0.0
 40
0.0
 40
0.0
 40
0.2773091446
 40
1.0
 40
1.0
 40
1.0
 40
1.0
 10
611.029643884
 20
1496.5930597078
 30
0.0
 10
611.0845611885
 20
1496.6246928954
 30
0.0
 10
611.2874917136
 20
1496.7286100901
 30
0.0
 10
611.5183645499
 20
1496.7888148686
 30
0.0
 10
611.6834623836
 20
1496.7841323669
 30
0.0
  0
SPLINE
  5
2F6
100
AcDbEntity
  8
7
100
AcDbSpline
 62
7
  6
BYLAYER
 70
0
 71
3
 72
11
 73
7
 74
0
 42
0.0000001
 43
0.0000001
 44
0.0000000001
 40
0.0
 40
0.0
 40
0.0
 40
0.0
 40
0.2384291463
 40
0.5025153907
 40
0.7652354843
 40
1.0
 40
1.0
 40
1.0
 40
1.0
 10
604.4906470939
 20
1493.3152774502
 30
0.0
 10
604.9806143306
 20
1493.5981584777
 30
0.0
 10
606.1225615337
 20
1494.0064077823
 30
0.0
 10
607.9432905174
 20
1494.1884170318
 30
0.0
 10
609.7509659542
 20
1493.9678970961
 30
0.0
 10
610.8715453285
 20
1493.5332749558
 30
0.0
 10
611.3441667142
 20
1493.2383940893
 30
0.0
  0
SPLINE
  5
2F7
100
AcDbEntity
  8
7
100
AcDbSpline
 62
7
  6
BYLAYER
 70
0
 71
3
 72
11
 73
7
 74
0
 42
0.0000001
 43
0.0000001
 44
0.0000000001
 40
0.0
 40
0.0
 40
0.0
 40
0.0
 40
0.2177711386
 40
0.4509502201
 40
0.7101998488
 40
1.0
 40
1.0
 40
1.0
 40
1.0
 10
532.6388123912
 20
1518.8696413272
 30
0.0
 10
532.6388137696
 20
1518.6784906448
 30
0.0
 10
532.7093755477
 20
1518.2799908753
 30
0.0
 10
533.0115510632
 20
1517.7249951651
 30
0.0
 10
533.4888962748
 20
1517.2230143755
 30
0.0
 10
533.8884990217
 20
1516.9479489095
 30
0.0
 10
534.1087953336
 20
1516.8207636518
 30
0.0
  0
SPLINE
  5
2F8
100
AcDbEntity
  8
7
100
AcDbSpline
 62
7
  6
BYLAYER
 70
0
 71
3
 72
9
 73
5
 74
0
 42
0.0000001
 43
0.0000001
 44
0.0000000001
 40
0.0
 40
0.0
 40
0.0
 40
0.0
 40
0.2306448989
 40
1.0
 40
1.0
 40
1.0
 40
1.0
 10
540.5676693205
 20
1513.0918153769
 30
0.0
 10
540.6634094187
 20
1513.0365410559
 30
0.0
 10
541.0952733299
 20
1512.8261748763
 30
0.0
 10
541.5734934743
 20
1512.7205167884
 30
0.0
 10
541.9406519546
 20
1512.6861865995
 30
0.0
  0
SPLINE
  5
2F9
100
AcDbEntity
  8
7
100
AcDbSpline
 62
7
  6
BYLAYER
 70
0
 71
3
 72
9
 73
5
 74
0
 42
0.0000001
 43
0.0000001
 44
0.0000000001
 40
0.0
 40
0.0
 40
0.0
 40
0.0
 40
0.2308081482
 40
1.0
 40
1.0
 40
1.0
 40
1.0
 10
613.3186422053
 20
1495.757432656
 30
0.0
 10
613.2762068422
 20
1495.7524815664
 30
0.0
 10
613.0937099851
 20
1495.7192352759
 30
0.0
 10
612.9207937449
 20
1495.6435239798
 30
0.0
 10
612.7974181969
 20
1495.5724578215
 30
0.0
  0
SPLINE
  5
2FA
100
AcDbEntity
  8
7
100
AcDbSpline
 62
7
  6
BYLAYER
 70
0
 71
3
 72
11
 73
7
 74
0
 42
0.0000001
 43
0.0000001
 44
0.0000000001
 40
0.0
 40
0.0
 40
0.0
 40
0.0
 40
0.217779442
 40
0.4509236993
 40
0.7102591805
 40
1.0
 40
1.0
 40
1.0
 40
1.0
 10
603.0977984129
 20
1491.373836296
 30
0.0
 10
603.0977662846
 20
1491.5549670299
 30
0.0
 10
603.1647489987
 20
1491.9325191567
 30
0.0
 10
603.4509272073
 20
1492.4585202028
 30
0.0
 10
603.9033452116
 20
1492.9340820452
 30
0.0
 10
604.2819500792
 20
1493.1947868918
 30
0.0
 10
604.4906470939
 20
1493.3152774502
 30
0.0
  0
SPLINE
  5
2FB
100
AcDbEntity
  8
7
100
AcDbSpline
 62
7
  6
BYLAYER
 70
0
 71
3
 72
9
 73
5
 74
0
 42
0.0000001
 43
0.0000001
 44
0.0000000001
 40
0.0
 40
0.0
 40
0.0
 40
0.0
 40
0.7427766025
 40
1.0
 40
1.0
 40
1.0
 40
1.0
 10
541.8523368192
 20
1521.6971263168
 30
0.0
 10
541.852351037
 20
1521.8011833433
 30
0.0
 10
541.8765059703
 20
1521.9424942128
 30
0.0
 10
541.9275630927
 20
1522.072998845
 30
0.0
 10
541.9422686735
 20
1522.1058965956
 30
0.0
  0
SPLINE
  5
2FC
100
AcDbEntity
  8
6
100
AcDbSpline
 62
7
  6
BYLAYER
 70
0
 71
3
 72
11
 73
7
 74
0
 42
0.0000001
 43
0.0000001
 44
0.0000000001
 40
0.0
 40
0.0
 40
0.0
 40
0.0
 40
0.1910035756
 40
0.4181474343
 40
0.691532456
 40
1.0
 40
1.0
 40
1.0
 40
1.0
 10
574.8660001832
 20
1523.8898656002
 30
0.0
 10
574.8661104557
 20
1523.5457023203
 30
0.0
 10
574.6072625436
 20
1522.7870215829
 30
0.0
 10
573.6626469471
 20
1521.9269847698
 30
0.0
 10
572.3247893862
 20
1521.3114561683
 30
0.0
 10
571.2873493089
 20
1521.1033067976
 30
0.0
 10
570.7343894407
 20
1521.0470135737
 30
0.0
  0
SPLINE
  5
2FD
100
AcDbEntity
  8
6
100
AcDbSpline
 62
7
  6
BYLAYER
 70
0
 71
3
 72
11
 73
7
 74
0
 42
0.0000001
 43
0.0000001
 44
0.0000000001
 40
0.0
 40
0.0
 40
0.0
 40
0.0
 40
0.2898001512
 40
0.5490497799
 40
0.7822288614
 40
1.0
 40
1.0
 40
1.0
 40
1.0
 10
544.2873019402
 20
1474.026011679
 30
0.0
 10
543.9361471474
 20
1474.2287464066
 30
0.0
 10
543.2991758857
 20
1474.6672038455
 30
0.0
 10
542.538282263
 20
1475.4673668559
 30
0.0
 10
542.0566111012
 20
1476.3520362446
 30
0.0
 10
541.9441348352
 20
1476.987249348
 30
0.0
 10
541.944132638
 20
1477.2919456803
 30
0.0
  0
SPLINE
  5
2FE
100
AcDbEntity
  8
6
100
AcDbSpline
 62
7
  6
BYLAYER
 70
0
 71
3
 72
9
 73
5
 74
0
 42
0.0000001
 43
0.0000001
 44
0.0000000001
 40
0.0
 40
0.0
 40
0.0
 40
0.0
 40
0.5255628984
 40
1.0
 40
1.0
 40
1.0
 40
1.0
 10
549.9441659451
 20
1472.6732287863
 30
0.0
 10
548.9169701556
 20
1472.6732263172
 30
0.0
 10
546.9572591619
 20
1472.8857447982
 30
0.0
 10
545.0903476448
 20
1473.5623835139
 30
0.0
 10
544.2873019402
 20
1474.026011679
 30
0.0
  0
SPLINE
  5
2FF
100
AcDbEntity
  8
6
100
AcDbSpline
 62
7
  6
BYLAYER
 70
0
 71
3
 72
11
 73
7
 74
0
 42
0.0000001
 43
0.0000001
 44
0.0000000001
 40
0.0
 40
0.0
 40
0.0
 40
0.0
 40
0.2293070026
 40
0.4889827224
 40
0.7546571795
 40
1.0
 40
1.0
 40
1.0
 40
1.0
 10
606.5856284492
 20
1516.3847974712
 30
0.0
 10
606.1250953321
 20
1516.7016643366
 30
0.0
 10
605.0104858841
 20
1517.1845505751
 30
0.0
 10
603.1799580684
 20
1517.4755267939
 30
0.0
 10
601.2905209397
 20
1517.362857004
 30
0.0
 10
600.0797332635
 20
1517.0013518867
 30
0.0
 10
599.5414656194
 20
1516.7405872823
 30
0.0
  0
SPLINE
  5
300
100
AcDbEntity
  8
6
100
AcDbSpline
 62
7
  6
BYLAYER
 70
0
 71
3
 72
9
 73
5
 74
0
 42
0.0000001
 43
0.0000001
 44
0.0000000001
 40
0.0
 40
0.0
 40
0.0
 40
0.0
 40
0.2356692222
 40
1.0
 40
1.0
 40
1.0
 40
1.0
 10
612.2963302724
 20
1511.2639736583
 30
0.0
 10
611.9184656185
 20
1511.7350564435
 30
0.0
 10
610.2248465344
 20
1513.6614660823
 30
0.0
 10
608.21189392
 20
1515.2932881497
 30
0.0
 10
606.5856284492
 20
1516.3847974712
 30
0.0
  0
SPLINE
  5
301
100
AcDbEntity
  8
6
100
AcDbSpline
 62
7
  6
BYLAYER
 70
0
 71
3
 72
9
 73
5
 74
0
 42
0.0000001
 43
0.0000001
 44
0.0000000001
 40
0.0
 40
0.0
 40
0.0
 40
0.0
 40
0.2402011136
 40
1.0
 40
1.0
 40
1.0
 40
1.0
 10
615.0632228527
 20
1506.4046112887
 30
0.0
 10
614.9134542648
 20
1506.8278423657
 30
0.0
 10
614.2073607553
 20
1508.5604485407
 30
0.0
 10
613.1848940202
 20
1510.156203771
 30
0.0
 10
612.2963302724
 20
1511.2639736583
 30
0.0
  0
SPLINE
  5
302
100
AcDbEntity
  8
6
100
AcDbSpline
 62
7
  6
BYLAYER
 70
0
 71
3
 72
9
 73
5
 74
0
 42
0.0000001
 43
0.0000001
 44
0.0000000001
 40
0.0
 40
0.0
 40
0.0
 40
0.0
 40
0.4517369589
 40
1.0
 40
1.0
 40
1.0
 40
1.0
 10
574.3388095947
 20
1482.9721919317
 30
0.0
 10
573.9457510671
 20
1483.4261845385
 30
0.0
 10
572.770162423
 20
1484.1533554811
 30
0.0
 10
571.4597054095
 20
1484.4506910309
 30
0.0
 10
570.7346351521
 20
1484.5245020926
 30
0.0
  0
SPLINE
  5
303
100
AcDbEntity
  8
6
100
AcDbSpline
 62
7
  6
BYLAYER
 70
0
 71
3
 72
9
 73
5
 74
0
 42
0.0000001
 43
0.0000001
 44
0.0000000001
 40
0.0
 40
0.0
 40
0.0
 40
0.0
 40
0.2711339726
 40
1.0
 40
1.0
 40
1.0
 40
1.0
 10
599.5414656194
 20
1516.7405872823
 30
0.0
 10
599.4141228608
 20
1516.6788958832
 30
0.0
 10
598.9543907007
 20
1516.4330267523
 30
0.0
 10
598.531392698
 20
1516.1069503836
 30
0.0
 10
598.2825057035
 20
1515.819297569
 30
0.0
  0
SPLINE
  5
304
100
AcDbEntity
  8
6
100
AcDbSpline
 62
7
  6
BYLAYER
 70
0
 71
3
 72
9
 73
5
 74
0
 42
0.0000001
 43
0.0000001
 44
0.0000000001
 40
0.0
 40
0.0
 40
0.0
 40
0.0
 40
0.4758821788
 40
1.0
 40
1.0
 40
1.0
 40
1.0
 10
580.4639555058
 20
1504.0105239098
 30
0.0
 10
580.4639475589
 20
1503.7981561022
 30
0.0
 10
580.3649933596
 20
1503.3483758376
 30
0.0
 10
580.1074651501
 20
1502.9726660444
 30
0.0
 10
579.9509840753
 20
1502.798827479
 30
0.0
  0
SPLINE
  5
305
100
AcDbEntity
  8
6
100
AcDbSpline
 62
7
  6
BYLAYER
 70
0
 71
3
 72
9
 73
5
 74
0
 42
0.0000001
 43
0.0000001
 44
0.0000000001
 40
0.0
 40
0.0
 40
0.0
 40
0.0
 40
0.4514563759
 40
1.0
 40
1.0
 40
1.0
 40
1.0
 10
579.9509840753
 20
1502.798827479
 30
0.0
 10
579.51194285
 20
1502.3110860902
 30
0.0
 10
578.1679234219
 20
1501.5904650589
 30
0.0
 10
576.7113657474
 20
1501.383619655
 30
0.0
 10
575.9140009993
 20
1501.3836177384
 30
0.0
  0
SPLINE
  5
306
100
AcDbEntity
  8
6
100
AcDbSpline
 62
7
  6
BYLAYER
 70
0
 71
3
 72
9
 73
5
 74
0
 42
0.0000001
 43
0.0000001
 44
0.0000000001
 40
0.0
 40
0.0
 40
0.0
 40
0.0
 40
0.2637079311
 40
1.0
 40
1.0
 40
1.0
 40
1.0
 10
598.9253710532
 20
1490.4484478226
 30
0.0
 10
598.8578161257
 20
1490.4019663009
 30
0.0
 10
598.607136713
 20
1490.2180832138
 30
0.0
 10
598.3787476519
 20
1490.0020874733
 30
0.0
 10
598.2338037188
 20
1489.8248561235
 30
0.0
  0
SPLINE
  5
307
100
AcDbEntity
  8
6
100
AcDbSpline
 62
7
  6
BYLAYER
 70
0
 71
3
 72
9
 73
5
 74
0
 42
0.0000001
 43
0.0000001
 44
0.0000000001
 40
0.0
 40
0.0
 40
0.0
 40
0.0
 40
0.235593978
 40
1.0
 40
1.0
 40
1.0
 40
1.0
 10
603.1923020449
 20
1494.2459489797
 30
0.0
 10
602.9098174105
 20
1493.8961970123
 30
0.0
 10
601.6435622489
 20
1492.4660212182
 30
0.0
 10
600.1397623636
 20
1491.2565862212
 30
0.0
 10
598.9253710532
 20
1490.4484478226
 30
0.0
  0
SPLINE
  5
308
100
AcDbEntity
  8
6
100
AcDbSpline
 62
7
  6
BYLAYER
 70
0
 71
3
 72
9
 73
5
 74
0
 42
0.0000001
 43
0.0000001
 44
0.0000000001
 40
0.0
 40
0.0
 40
0.0
 40
0.0
 40
0.2390454499
 40
1.0
 40
1.0
 40
1.0
 40
1.0
 10
605.4882117542
 20
1498.5740807539
 30
0.0
 10
605.3839020353
 20
1498.19622066
 30
0.0
 10
604.8560803333
 20
1496.6407922172
 30
0.0
 10
603.9763502943
 20
1495.2167006047
 30
0.0
 10
603.1923020449
 20
1494.2459489797
 30
0.0
  0
SPLINE
  5
309
100
AcDbEntity
  8
6
100
AcDbSpline
 62
7
  6
BYLAYER
 70
0
 71
3
 72
9
 73
5
 74
0
 42
0.0000001
 43
0.0000001
 44
0.0000000001
 40
0.0
 40
0.0
 40
0.0
 40
0.0
 40
0.5463784782
 40
1.0
 40
1.0
 40
1.0
 40
1.0
 10
611.1824153251
 20
1500.9250802123
 30
0.0
 10
610.1858222103
 20
1501.0147769805
 30
0.0
 10
608.3339282225
 20
1500.8770678878
 30
0.0
 10
606.5831395094
 20
1500.0528602793
 30
0.0
 10
606.0149444634
 20
1499.4468087254
 30
0.0
  0
SPLINE
  5
30A
100
AcDbEntity
  8
6
100
AcDbSpline
 62
7
  6
BYLAYER
 70
0
 71
3
 72
9
 73
5
 74
0
 42
0.0000001
 43
0.0000001
 44
0.0000000001
 40
0.0
 40
0.0
 40
0.0
 40
0.0
 40
0.2669196446
 40
1.0
 40
1.0
 40
1.0
 40
1.0
 10
606.0149444634
 20
1499.4468087254
 30
0.0
 10
605.9526196719
 20
1499.3803314884
 30
0.0
 10
605.7309931968
 20
1499.1209145083
 30
0.0
 10
605.5613114041
 20
1498.8134345189
 30
0.0
 10
605.4882117542
 20
1498.5740807539
 30
0.0
  0
SPLINE
  5
30B
100
AcDbEntity
  8
6
100
AcDbSpline
 62
7
  6
BYLAYER
 70
0
 71
3
 72
9
 73
5
 74
0
 42
0.0000001
 43
0.0000001
 44
0.0000000001
 40
0.0
 40
0.0
 40
0.0
 40
0.0
 40
0.4453075902
 40
1.0
 40
1.0
 40
1.0
 40
1.0
 10
615.0339477033
 20
1499.1742751582
 30
0.0
 10
614.6610587867
 20
1499.6956185146
 30
0.0
 10
613.3987588292
 20
1500.5369834355
 30
0.0
 10
611.977620523
 20
1500.8535090413
 30
0.0
 10
611.1824153251
 20
1500.9250802123
 30
0.0
  0
SPLINE
  5
30C
100
AcDbEntity
  8
6
100
AcDbSpline
 62
7
  6
BYLAYER
 70
0
 71
3
 72
9
 73
5
 74
0
 42
0.0000001
 43
0.0000001
 44
0.0000000001
 40
0.0
 40
0.0
 40
0.0
 40
0.0
 40
0.2711339726
 40
1.0
 40
1.0
 40
1.0
 40
1.0
 10
550.2323258147
 20
1519.231115961
 30
0.0
 10
550.1049830562
 20
1519.1694245619
 30
0.0
 10
549.6452508961
 20
1518.9235554311
 30
0.0
 10
549.2222528934
 20
1518.5974790624
 30
0.0
 10
548.9733658989
 20
1518.3098262478
 30
0.0
  0
SPLINE
  5
30D
100
AcDbEntity
  8
6
100
AcDbSpline
 62
7
  6
BYLAYER
 70
0
 71
3
 72
9
 73
5
 74
0
 42
0.0000001
 43
0.0000001
 44
0.0000000001
 40
0.0
 40
0.0
 40
0.0
 40
0.0
 40
0.2574635527
 40
1.0
 40
1.0
 40
1.0
 40
1.0
 10
556.9925307123
 20
1521.8780467771
 30
0.0
 10
556.3972124522
 20
1521.6931280031
 30
0.0
 10
554.0976656809
 20
1520.9351744783
 30
0.0
 10
551.8502219993
 20
1520.0151222586
 30
0.0
 10
550.2323258147
 20
1519.231115961
 30
0.0
  0
SPLINE
  5
30E
100
AcDbEntity
  8
6
100
AcDbSpline
 62
7
  6
BYLAYER
 70
0
 71
3
 72
10
 73
6
 74
0
 42
0.0000001
 43
0.0000001
 44
0.0000000001
 40
0.0
 40
0.0
 40
0.0
 40
0.0
 40
0.2072999786
 40
0.4516665398
 40
1.0
 40
1.0
 40
1.0
 40
1.0
 10
574.3886437448
 20
1522.6714383116
 30
0.0
 10
574.1352435448
 20
1522.9818583614
 30
0.0
 10
573.4322997171
 20
1523.5348896133
 30
0.0
 10
571.6332136318
 20
1524.2720002068
 30
0.0
 10
570.0523551507
 20
1524.3905616471
 30
0.0
 10
568.9978666626
 20
1524.283211078
 30
0.0
  0
SPLINE
  5
30F
100
AcDbEntity
  8
6
100
AcDbSpline
 62
7
  6
BYLAYER
 70
0
 71
3
 72
11
 73
7
 74
0
 42
0.0000001
 43
0.0000001
 44
0.0000000001
 40
0.0
 40
0.0
 40
0.0
 40
0.0
 40
0.1904322402
 40
0.4176663461
 40
0.6915190439
 40
1.0
 40
1.0
 40
1.0
 40
1.0
 10
615.4120673096
 20
1507.4988852716
 30
0.0
 10
615.4120528324
 20
1507.1495647672
 30
0.0
 10
615.1446095473
 20
1506.3783829356
 30
0.0
 10
614.1743065357
 20
1505.5119537527
 30
0.0
 10
612.8053593457
 20
1504.8982460612
 30
0.0
 10
611.7459916775
 20
1504.6973572919
 30
0.0
 10
611.182406152
 20
1504.6466299036
 30
0.0
  0
SPLINE
  5
310
100
AcDbEntity
  8
6
100
AcDbSpline
 62
7
  6
BYLAYER
 70
0
 71
3
 72
9
 73
5
 74
0
 42
0.0000001
 43
0.0000001
 44
0.0000000001
 40
0.0
 40
0.0
 40
0.0
 40
0.0
 40
0.2637079311
 40
1.0
 40
1.0
 40
1.0
 40
1.0
 10
549.6162671703
 20
1487.9576820948
 30
0.0
 10
549.5487122428
 20
1487.911200573
 30
0.0
 10
549.29803283
 20
1487.727317486
 30
0.0
 10
549.069643769
 20
1487.5113217454
 30
0.0
 10
548.9246998359
 20
1487.3340903956
 30
0.0
  0
SPLINE
  5
311
100
AcDbEntity
  8
6
100
AcDbSpline
 62
7
  6
BYLAYER
 70
0
 71
3
 72
11
 73
7
 74
0
 42
0.0000001
 43
0.0000001
 44
0.0000000001
 40
0.0
 40
0.0
 40
0.0
 40
0.0
 40
0.2453434937
 40
0.5110181894
 40
0.7706936429
 40
1.0
 40
1.0
 40
1.0
 40
1.0
 10
556.6604248684
 20
1488.31350577
 30
0.0
 10
556.1221542378
 20
1488.5742674116
 30
0.0
 10
554.911363214
 20
1488.9357666
 30
0.0
 10
553.0219247508
 20
1489.0484279242
 30
0.0
 10
551.1914006597
 20
1488.7574435149
 30
0.0
 10
550.0767962999
 20
1488.274551575
 30
0.0
 10
549.6162671703
 20
1487.9576820948
 30
0.0
  0
SPLINE
  5
312
100
AcDbEntity
  8
6
100
AcDbSpline
 62
7
  6
BYLAYER
 70
0
 71
3
 72
9
 73
5
 74
0
 42
0.0000001
 43
0.0000001
 44
0.0000000001
 40
0.0
 40
0.0
 40
0.0
 40
0.0
 40
0.2588804299
 40
1.0
 40
1.0
 40
1.0
 40
1.0
 10
563.2716732855
 20
1485.8917390495
 30
0.0
 10
562.6845256284
 20
1486.0498086383
 30
0.0
 10
560.4298266646
 20
1486.707785914
 30
0.0
 10
558.2292222303
 20
1487.5591833845
 30
0.0
 10
556.6604248684
 20
1488.31350577
 30
0.0
  0
SPLINE
  5
313
100
AcDbEntity
  8
6
100
AcDbSpline
 62
7
  6
BYLAYER
 70
0
 71
3
 72
9
 73
5
 74
0
 42
0.0000001
 43
0.0000001
 44
0.0000000001
 40
0.0
 40
0.0
 40
0.0
 40
0.0
 40
0.2547153844
 40
1.0
 40
1.0
 40
1.0
 40
1.0
 10
570.7346351521
 20
1484.5245020926
 30
0.0
 10
570.0935266332
 20
1484.5911735234
 30
0.0
 10
567.5818829281
 20
1484.9005974583
 30
0.0
 10
565.0928003952
 20
1485.4014623536
 30
0.0
 10
563.2716732855
 20
1485.8917390495
 30
0.0
  0
SPLINE
  5
314
100
AcDbEntity
  8
6
100
AcDbSpline
 62
7
  6
BYLAYER
 70
0
 71
3
 72
9
 73
5
 74
0
 42
0.0000001
 43
0.0000001
 44
0.0000000001
 40
0.0
 40
0.0
 40
0.0
 40
0.0
 40
0.5155790719
 40
1.0
 40
1.0
 40
1.0
 40
1.0
 10
653.0654862878
 20
1471.956032596
 30
0.0
 10
653.3306196805
 20
1471.7395511773
 30
0.0
 10
653.7752747222
 20
1471.2174407803
 30
0.0
 10
653.9441659442
 20
1470.5455723431
 30
0.0
 10
653.9441659442
 20
1470.2239715201
 30
0.0
  0
SPLINE
  5
315
100
AcDbEntity
  8
6
100
AcDbSpline
 62
7
  6
BYLAYER
 70
0
 71
3
 72
9
 73
5
 74
0
 42
0.0000001
 43
0.0000001
 44
0.0000000001
 40
0.0
 40
0.0
 40
0.0
 40
0.0
 40
0.2593736593
 40
1.0
 40
1.0
 40
1.0
 40
1.0
 10
650.9441659442
 20
1472.6734715604
 30
0.0
 10
651.1398285559
 20
1472.6734720307
 30
0.0
 10
651.8920422208
 20
1472.6146322166
 30
0.0
 10
652.6327174056
 20
1472.3093883941
 30
0.0
 10
653.0654862878
 20
1471.956032596
 30
0.0
  0
SPLINE
  5
316
100
AcDbEntity
  8
6
100
AcDbSpline
 62
7
  6
BYLAYER
 70
0
 71
3
 72
9
 73
5
 74
0
 42
0.0000001
 43
0.0000001
 44
0.0000000001
 40
0.0
 40
0.0
 40
0.0
 40
0.0
 40
0.5155790719
 40
1.0
 40
1.0
 40
1.0
 40
1.0
 10
655.4792835104
 20
1531.6614511543
 30
0.0
 10
655.9211724984
 20
1531.3006487896
 30
0.0
 10
656.6622642344
 20
1530.4304647947
 30
0.0
 10
656.9437496044
 20
1529.310684066
 30
0.0
 10
656.9437496044
 20
1528.7746826944
 30
0.0
  0
SPLINE
  5
317
100
AcDbEntity
  8
6
100
AcDbSpline
 62
7
  6
BYLAYER
 70
0
 71
3
 72
9
 73
5
 74
0
 42
0.0000001
 43
0.0000001
 44
0.0000000001
 40
0.0
 40
0.0
 40
0.0
 40
0.0
 40
0.511974183
 40
1.0
 40
1.0
 40
1.0
 40
1.0
 10
651.9437496045
 20
1532.8571827615
 30
0.0
 10
652.5899154903
 20
1532.8571843147
 30
0.0
 10
653.8605822949
 20
1532.6582338034
 30
0.0
 10
655.0021788527
 20
1532.0510071137
 30
0.0
 10
655.4792835104
 20
1531.6614511543
 30
0.0
  0
SPLINE
  5
318
100
AcDbEntity
  8
6
100
AcDbSpline
 62
7
  6
BYLAYER
 70
0
 71
3
 72
11
 73
7
 74
0
 42
0.0000001
 43
0.0000001
 44
0.0000000001
 40
0.0
 40
0.0
 40
0.0
 40
0.0
 40
0.2897999482
 40
0.5490493256
 40
0.7822283757
 40
1.0
 40
1.0
 40
1.0
 40
1.0
 10
544.2869051113
 20
1531.5041274962
 30
0.0
 10
543.9357533694
 20
1531.3013911536
 30
0.0
 10
543.2987884314
 20
1530.8629307108
 30
0.0
 10
542.5379059421
 20
1530.062763616
 30
0.0
 10
542.0562473868
 20
1529.1780911301
 30
0.0
 10
541.9437807153
 20
1528.542878077
 30
0.0
 10
541.9437829126
 20
1528.2381822304
 30
0.0
  0
SPLINE
  5
319
100
AcDbEntity
  8
6
100
AcDbSpline
 62
7
  6
BYLAYER
 70
0
 71
3
 72
9
 73
5
 74
0
 42
0.0000001
 43
0.0000001
 44
0.0000000001
 40
0.0
 40
0.0
 40
0.0
 40
0.0
 40
0.5255634317
 40
1.0
 40
1.0
 40
1.0
 40
1.0
 10
549.9437496053
 20
1532.8569375837
 30
0.0
 10
548.9165549354
 20
1532.8569351146
 30
0.0
 10
546.9568490535
 20
1532.6444079487
 30
0.0
 10
545.0899448798
 20
1531.9677599551
 30
0.0
 10
544.2869051113
 20
1531.5041274962
 30
0.0
  0
SPLINE
  5
31A
100
AcDbEntity
  8
6
100
AcDbSpline
 62
7
  6
BYLAYER
 70
0
 71
3
 72
9
 73
5
 74
0
 42
0.0000001
 43
0.0000001
 44
0.0000000001
 40
0.0
 40
0.0
 40
0.0
 40
0.0
 40
0.5433123173
 40
1.0
 40
1.0
 40
1.0
 40
1.0
 10
598.9252107799
 20
1515.1232033682
 30
0.0
 10
598.5879911358
 20
1515.3552251873
 30
0.0
 10
598.0129298485
 20
1515.8763934273
 30
0.0
 10
597.7555880865
 20
1516.6346868297
 30
0.0
 10
597.7555030367
 20
1516.9787542269
 30
0.0
  0
SPLINE
  5
31B
100
AcDbEntity
  8
6
100
AcDbSpline
 62
7
  6
BYLAYER
 70
0
 71
3
 72
9
 73
5
 74
0
 42
0.0000001
 43
0.0000001
 44
0.0000000001
 40
0.0
 40
0.0
 40
0.0
 40
0.0
 40
0.235593987
 40
1.0
 40
1.0
 40
1.0
 40
1.0
 10
603.1921965414
 20
1511.3257227242
 30
0.0
 10
602.9097068429
 20
1511.6754733582
 30
0.0
 10
601.6434311183
 20
1513.1056429678
 30
0.0
 10
600.1396140929
 20
1514.3150705767
 30
0.0
 10
598.9252107799
 20
1515.1232033682
 30
0.0
  0
SPLINE
  5
31C
100
AcDbEntity
  8
6
100
AcDbSpline
 62
7
  6
BYLAYER
 70
0
 71
3
 72
9
 73
5
 74
0
 42
0.0000001
 43
0.0000001
 44
0.0000000001
 40
0.0
 40
0.0
 40
0.0
 40
0.0
 40
0.2390452109
 40
1.0
 40
1.0
 40
1.0
 40
1.0
 10
605.4881686737
 20
1506.9976019876
 30
0.0
 10
605.3838534579
 20
1507.3754617507
 30
0.0
 10
604.8560086981
 20
1508.9308891449
 30
0.0
 10
603.9762584248
 20
1510.3549753224
 30
0.0
 10
603.1921965414
 20
1511.3257227242
 30
0.0
  0
SPLINE
  5
31D
100
AcDbEntity
  8
6
100
AcDbSpline
 62
7
  6
BYLAYER
 70
0
 71
3
 72
10
 73
6
 74
0
 42
0.0000001
 43
0.0000001
 44
0.0000000001
 40
0.0
 40
0.0
 40
0.0
 40
0.0
 40
0.2975261302
 40
0.5776268669
 40
1.0
 40
1.0
 40
1.0
 40
1.0
 10
611.182406152
 20
1504.6466299036
 30
0.0
 10
610.5430944964
 20
1504.5890865332
 30
0.0
 10
609.2755202518
 20
1504.6226946996
 30
0.0
 10
607.2111235346
 20
1505.1151397705
 30
0.0
 10
605.7543430465
 20
1506.1260966342
 30
0.0
 10
605.4881686737
 20
1506.9976019876
 30
0.0
  0
SPLINE
  5
31E
100
AcDbEntity
  8
6
100
AcDbSpline
 62
7
  6
BYLAYER
 70
0
 71
3
 72
11
 73
7
 74
0
 42
0.0000001
 43
0.0000001
 44
0.0000000001
 40
0.0
 40
0.0
 40
0.0
 40
0.0
 40
0.2944618757
 40
0.5556957675
 40
0.7869486445
 40
1.0
 40
1.0
 40
1.0
 40
1.0
 10
599.541684548
 20
1488.8310668713
 30
0.0
 10
599.2780046066
 20
1488.9588048724
 30
0.0
 10
598.7982128631
 20
1489.2411948145
 30
0.0
 10
598.217072636
 20
1489.7770586081
 30
0.0
 10
597.844264792
 20
1490.3849430434
 30
0.0
 10
597.7556377389
 20
1490.8304350274
 30
0.0
 10
597.7556901173
 20
1491.042422629
 30
0.0
  0
SPLINE
  5
31F
100
AcDbEntity
  8
6
100
AcDbSpline
 62
7
  6
BYLAYER
 70
0
 71
3
 72
11
 73
7
 74
0
 42
0.0000001
 43
0.0000001
 44
0.0000000001
 40
0.0
 40
0.0
 40
0.0
 40
0.0
 40
0.2293062555
 40
0.4889816731
 40
0.7546564
 40
1.0
 40
1.0
 40
1.0
 40
1.0
 10
606.5858422461
 20
1489.1868905466
 30
0.0
 10
606.1253133204
 20
1488.8700212066
 30
0.0
 10
605.0107093298
 20
1488.3871293159
 30
0.0
 10
603.180185521
 20
1488.0961447579
 30
0.0
 10
601.2907468005
 20
1488.2088059112
 30
0.0
 10
600.0799554121
 20
1488.5703051166
 30
0.0
 10
599.541684548
 20
1488.8310668713
 30
0.0
  0
SPLINE
  5
320
100
AcDbEntity
  8
6
100
AcDbSpline
 62
7
  6
BYLAYER
 70
0
 71
3
 72
9
 73
5
 74
0
 42
0.0000001
 43
0.0000001
 44
0.0000000001
 40
0.0
 40
0.0
 40
0.0
 40
0.0
 40
0.2356692153
 40
1.0
 40
1.0
 40
1.0
 40
1.0
 10
612.2964702134
 20
1494.3077418129
 30
0.0
 10
611.9186123812
 20
1493.8366572455
 30
0.0
 10
610.2250210109
 20
1491.9102393505
 30
0.0
 10
608.212091522
 20
1490.2784073824
 30
0.0
 10
606.5858422461
 20
1489.1868905466
 30
0.0
  0
SPLINE
  5
321
100
AcDbEntity
  8
6
100
AcDbSpline
 62
7
  6
BYLAYER
 70
0
 71
3
 72
9
 73
5
 74
0
 42
0.0000001
 43
0.0000001
 44
0.0000000001
 40
0.0
 40
0.0
 40
0.0
 40
0.0
 40
0.239151572
 40
1.0
 40
1.0
 40
1.0
 40
1.0
 10
615.3669173904
 20
1500.1344709164
 30
0.0
 10
615.2275223538
 20
1499.6260620166
 30
0.0
 10
614.5222916877
 20
1497.5337701748
 30
0.0
 10
613.345866831
 20
1495.616050149
 30
0.0
 10
612.2964702134
 20
1494.3077418129
 30
0.0
  0
SPLINE
  5
322
100
AcDbEntity
  8
6
100
AcDbSpline
 62
7
  6
BYLAYER
 70
0
 71
3
 72
9
 73
5
 74
0
 42
0.0000001
 43
0.0000001
 44
0.0000000001
 40
0.0
 40
0.0
 40
0.0
 40
0.0
 40
0.5490968504
 40
1.0
 40
1.0
 40
1.0
 40
1.0
 10
575.9140009993
 20
1501.3836177384
 30
0.0
 10
575.1122305907
 20
1501.3836158112
 30
0.0
 10
573.6492046703
 20
1501.5921990308
 30
0.0
 10
572.2999888616
 20
1502.3211937231
 30
0.0
 10
571.8634130994
 20
1502.8140235309
 30
0.0
  0
SPLINE
  5
323
100
AcDbEntity
  8
6
100
AcDbSpline
 62
7
  6
BYLAYER
 70
0
 71
3
 72
9
 73
5
 74
0
 42
0.0000001
 43
0.0000001
 44
0.0000000001
 40
0.0
 40
0.0
 40
0.0
 40
0.0
 40
0.5235690279
 40
1.0
 40
1.0
 40
1.0
 40
1.0
 10
571.8634130994
 20
1502.8140235309
 30
0.0
 10
571.7108079402
 20
1502.9862923048
 30
0.0
 10
571.4600128934
 20
1503.3581174983
 30
0.0
 10
571.3640007692
 20
1503.8011030308
 30
0.0
 10
571.3640086059
 20
1504.0105239077
 30
0.0
  0
SPLINE
  5
324
100
AcDbEntity
  8
6
100
AcDbSpline
 62
7
  6
BYLAYER
 70
0
 71
3
 72
9
 73
5
 74
0
 42
0.0000001
 43
0.0000001
 44
0.0000000001
 40
0.0
 40
0.0
 40
0.0
 40
0.0
 40
0.2547499752
 40
1.0
 40
1.0
 40
1.0
 40
1.0
 10
568.9981943769
 20
1481.2882962403
 30
0.0
 10
568.1425078241
 20
1481.3753353862
 30
0.0
 10
564.7906363669
 20
1481.7815094884
 30
0.0
 10
561.4687287713
 20
1482.4466542864
 30
0.0
 10
559.0390788328
 20
1483.1007551109
 30
0.0
  0
SPLINE
  5
325
100
AcDbEntity
  8
6
100
AcDbSpline
 62
7
  6
BYLAYER
 70
0
 71
3
 72
10
 73
6
 74
0
 42
0.0000001
 43
0.0000001
 44
0.0000000001
 40
0.0
 40
0.0
 40
0.0
 40
0.0
 40
0.4224935675
 40
0.7029850448
 40
1.0
 40
1.0
 40
1.0
 40
1.0
 10
574.7904571443
 20
1483.6298926837
 30
0.0
 10
574.5202892918
 20
1482.7452688479
 30
0.0
 10
573.0296405244
 20
1481.726930858
 30
0.0
 10
570.9319035526
 20
1481.2443560555
 30
0.0
 10
569.6451019141
 20
1481.222442026
 30
0.0
 10
568.9981943769
 20
1481.2882962403
 30
0.0
  0
SPLINE
  5
326
100
AcDbEntity
  8
6
100
AcDbSpline
 62
7
  6
BYLAYER
 70
0
 71
3
 72
11
 73
7
 74
0
 42
0.0000001
 43
0.0000001
 44
0.0000000001
 40
0.0
 40
0.0
 40
0.0
 40
0.0
 40
0.2944618757
 40
0.5556957675
 40
0.7869486445
 40
1.0
 40
1.0
 40
1.0
 40
1.0
 10
550.2325806651
 20
1486.3403011435
 30
0.0
 10
549.9689007237
 20
1486.4680391445
 30
0.0
 10
549.4891089801
 20
1486.7504290867
 30
0.0
 10
548.9079687531
 20
1487.2862928803
 30
0.0
 10
548.5351609091
 20
1487.8941773155
 30
0.0
 10
548.4465338559
 20
1488.3396692995
 30
0.0
 10
548.4465862344
 20
1488.5516569012
 30
0.0
  0
SPLINE
  5
327
100
AcDbEntity
  8
6
100
AcDbSpline
 62
7
  6
BYLAYER
 70
0
 71
3
 72
9
 73
5
 74
0
 42
0.0000001
 43
0.0000001
 44
0.0000000001
 40
0.0
 40
0.0
 40
0.0
 40
0.0
 40
0.2590400614
 40
1.0
 40
1.0
 40
1.0
 40
1.0
 10
559.0390788328
 20
1483.1007551109
 30
0.0
 10
558.2560759919
 20
1483.311552064
 30
0.0
 10
555.2514085256
 20
1484.1893918706
 30
0.0
 10
552.3198788496
 20
1485.3288473398
 30
0.0
 10
550.2325806651
 20
1486.3403011435
 30
0.0
  0
SPLINE
  5
328
100
AcDbEntity
  8
6
100
AcDbSpline
 62
7
  6
BYLAYER
 70
0
 71
3
 72
9
 73
5
 74
0
 42
0.0000001
 43
0.0000001
 44
0.0000000001
 40
0.0
 40
0.0
 40
0.0
 40
0.0
 40
0.2532418043
 40
1.0
 40
1.0
 40
1.0
 40
1.0
 10
570.7343894407
 20
1521.0470135737
 30
0.0
 10
570.2451567188
 20
1520.9961338842
 30
0.0
 10
568.3163229529
 20
1520.7672840315
 30
0.0
 10
566.400488002
 20
1520.4263114518
 30
0.0
 10
564.9861209975
 20
1520.1048979264
 30
0.0
  0
SPLINE
  5
329
100
AcDbEntity
  8
6
100
AcDbSpline
 62
7
  6
BYLAYER
 70
0
 71
3
 72
9
 73
5
 74
0
 42
0.0000001
 43
0.0000001
 44
0.0000000001
 40
0.0
 40
0.0
 40
0.0
 40
0.0
 40
0.5433123173
 40
1.0
 40
1.0
 40
1.0
 40
1.0
 10
549.6160709752
 20
1517.613732047
 30
0.0
 10
549.2788513312
 20
1517.8457538661
 30
0.0
 10
548.7037900438
 20
1518.3669221061
 30
0.0
 10
548.4464482819
 20
1519.1252155085
 30
0.0
 10
548.4463632321
 20
1519.4692829057
 30
0.0
  0
SPLINE
  5
32A
100
AcDbEntity
  8
6
100
AcDbSpline
 62
7
  6
BYLAYER
 70
0
 71
3
 72
11
 73
7
 74
0
 42
0.0000001
 43
0.0000001
 44
0.0000000001
 40
0.0
 40
0.0
 40
0.0
 40
0.0
 40
0.2453427141
 40
0.5110171401
 40
0.7706928958
 40
1.0
 40
1.0
 40
1.0
 40
1.0
 10
556.660233805
 20
1517.2579422359
 30
0.0
 10
556.1219663943
 20
1516.9971777446
 30
0.0
 10
554.9111790827
 20
1516.6356726444
 30
0.0
 10
553.0217422114
 20
1516.5230026835
 30
0.0
 10
551.1912141133
 20
1516.8139787536
 30
0.0
 10
550.0766042962
 20
1517.2968650413
 30
0.0
 10
549.6160709752
 20
1517.613732047
 30
0.0
  0
SPLINE
  5
32B
100
AcDbEntity
  8
6
100
AcDbSpline
 62
7
  6
BYLAYER
 70
0
 71
3
 72
9
 73
5
 74
0
 42
0.0000001
 43
0.0000001
 44
0.0000000001
 40
0.0
 40
0.0
 40
0.0
 40
0.0
 40
0.2588805612
 40
1.0
 40
1.0
 40
1.0
 40
1.0
 10
563.2714472936
 20
1519.6797407393
 30
0.0
 10
562.6843020193
 20
1519.5216683556
 30
0.0
 10
560.4296136962
 20
1518.8636805943
 30
0.0
 10
558.2290210436
 20
1518.0122725268
 30
0.0
 10
556.660233805
 20
1517.2579422359
 30
0.0
  0
SPLINE
  5
32C
100
AcDbEntity
  8
6
100
AcDbSpline
 62
7
  6
BYLAYER
 70
0
 71
3
 72
11
 73
7
 74
0
 42
0.0000001
 43
0.0000001
 44
0.0000000001
 40
0.0
 40
0.0
 40
0.0
 40
0.0
 40
0.213051754
 40
0.444304758
 40
0.7055385298
 40
1.0
 40
1.0
 40
1.0
 40
1.0
 10
548.4463632321
 20
1519.4692829057
 30
0.0
 10
548.4463108315
 20
1519.6812684026
 30
0.0
 10
548.5349361231
 20
1520.1267555952
 30
0.0
 10
548.9077365972
 20
1520.7346349762
 30
0.0
 10
549.4888664656
 20
1521.2704956206
 30
0.0
 10
549.9686501951
 20
1521.5528851449
 30
0.0
 10
550.2323258147
 20
1521.6806232124
 30
0.0
  0
SPLINE
  5
32D
100
AcDbEntity
  8
6
100
AcDbSpline
 62
7
  6
BYLAYER
 70
0
 71
3
 72
11
 73
7
 74
0
 42
0.0000001
 43
0.0000001
 44
0.0000000001
 40
0.0
 40
0.0
 40
0.0
 40
0.0
 40
0.213051754
 40
0.444304758
 40
0.7055385298
 40
1.0
 40
1.0
 40
1.0
 40
1.0
 10
597.7555030367
 20
1516.9787542269
 30
0.0
 10
597.7554506362
 20
1517.1907397238
 30
0.0
 10
597.8440759277
 20
1517.6362269164
 30
0.0
 10
598.2168764018
 20
1518.2441062975
 30
0.0
 10
598.7980062703
 20
1518.7799669418
 30
0.0
 10
599.2777899997
 20
1519.0623564662
 30
0.0
 10
599.5414656194
 20
1519.1900945337
 30
0.0
  0
SPLINE
  5
32E
100
AcDbEntity
  8
6
100
AcDbSpline
 62
7
  6
BYLAYER
 70
0
 71
3
 72
11
 73
7
 74
0
 42
0.0000001
 43
0.0000001
 44
0.0000000001
 40
0.0
 40
0.0
 40
0.0
 40
0.0
 40
0.3084808465
 40
0.5823337318
 40
0.8095679133
 40
1.0
 40
1.0
 40
1.0
 40
1.0
 10
611.1824153251
 20
1503.3745874637
 30
0.0
 10
611.7460050805
 20
1503.3238624698
 30
0.0
 10
612.8053817011
 20
1503.1229768761
 30
0.0
 10
614.1743418612
 20
1502.5092702828
 30
0.0
 10
615.1446559563
 20
1501.6428384885
 30
0.0
 10
615.4121030249
 20
1500.8716512102
 30
0.0
 10
615.4121175748
 20
1500.522328395
 30
0.0
  0
SPLINE
  5
32F
100
AcDbEntity
  8
6
100
AcDbSpline
 62
7
  6
BYLAYER
 70
0
 71
3
 72
9
 73
5
 74
0
 42
0.0000001
 43
0.0000001
 44
0.0000000001
 40
0.0
 40
0.0
 40
0.0
 40
0.0
 40
0.5235690279
 40
1.0
 40
1.0
 40
1.0
 40
1.0
 10
579.9645510123
 20
1505.2070242866
 30
0.0
 10
580.1171561714
 20
1505.0347555127
 30
0.0
 10
580.3679512183
 20
1504.6629303192
 30
0.0
 10
580.4639633424
 20
1504.2199447867
 30
0.0
 10
580.4639555058
 20
1504.0105239098
 30
0.0
  0
SPLINE
  5
330
100
AcDbEntity
  8
6
100
AcDbSpline
 62
7
  6
BYLAYER
 70
0
 71
3
 72
11
 73
7
 74
0
 42
0.0000001
 43
0.0000001
 44
0.0000000001
 40
0.0
 40
0.0
 40
0.0
 40
0.0
 40
0.3084674474
 40
0.5818526558
 40
0.8089965849
 40
1.0
 40
1.0
 40
1.0
 40
1.0
 10
570.7346351521
 20
1486.9740093439
 30
0.0
 10
571.2875992924
 20
1486.9177184261
 30
0.0
 10
572.3250483399
 20
1486.7095720935
 30
0.0
 10
573.6629188428
 20
1486.0940444372
 30
0.0
 10
574.6075454483
 20
1485.2340049236
 30
0.0
 10
574.8663970603
 20
1484.4753187311
 30
0.0
 10
574.8662868282
 20
1484.1311531456
 30
0.0
  0
SPLINE
  5
331
100
AcDbEntity
  8
6
100
AcDbSpline
 62
7
  6
BYLAYER
 70
0
 71
3
 72
9
 73
5
 74
0
 42
0.0000001
 43
0.0000001
 44
0.0000000001
 40
0.0
 40
0.0
 40
0.0
 40
0.0
 40
0.2448195009
 40
1.0
 40
1.0
 40
1.0
 40
1.0
 10
563.2716732855
 20
1488.3412463009
 30
0.0
 10
563.8699070418
 20
1488.180192156
 30
0.0
 10
566.3273439974
 20
1487.5745418334
 30
0.0
 10
568.8338460122
 20
1487.1716799848
 30
0.0
 10
570.7346351521
 20
1486.9740093439
 30
0.0
  0
SPLINE
  5
332
100
AcDbEntity
  8
6
100
AcDbSpline
 62
7
  6
BYLAYER
 70
0
 71
3
 72
9
 73
5
 74
0
 42
0.0000001
 43
0.0000001
 44
0.0000000001
 40
0.0
 40
0.0
 40
0.0
 40
0.0
 40
0.24086164
 40
1.0
 40
1.0
 40
1.0
 40
1.0
 10
556.6604248684
 20
1490.7630130214
 30
0.0
 10
557.1702989322
 20
1490.5178510716
 30
0.0
 10
559.3135097925
 20
1489.5551093935
 30
0.0
 10
561.549861163
 20
1488.8047858056
 30
0.0
 10
563.2716732855
 20
1488.3412463009
 30
0.0
  0
SPLINE
  5
333
100
AcDbEntity
  8
6
100
AcDbSpline
 62
7
  6
BYLAYER
 70
0
 71
3
 72
11
 73
7
 74
0
 42
0.0000001
 43
0.0000001
 44
0.0000000001
 40
0.0
 40
0.0
 40
0.0
 40
0.0
 40
0.2293062555
 40
0.4889816731
 40
0.7546564
 40
1.0
 40
1.0
 40
1.0
 40
1.0
 10
549.6162671703
 20
1490.4071893462
 30
0.0
 10
550.076796096
 20
1490.7240586861
 30
0.0
 10
551.1914000867
 20
1491.2069505768
 30
0.0
 10
553.0219238954
 20
1491.4979351349
 30
0.0
 10
554.911362616
 20
1491.3852739816
 30
0.0
 10
556.1221540043
 20
1491.0237747761
 30
0.0
 10
556.6604248684
 20
1490.7630130214
 30
0.0
  0
SPLINE
  5
334
100
AcDbEntity
  8
6
100
AcDbSpline
 62
7
  6
BYLAYER
 70
0
 71
3
 72
9
 73
5
 74
0
 42
0.0000001
 43
0.0000001
 44
0.0000000001
 40
0.0
 40
0.0
 40
0.0
 40
0.0
 40
0.4744371016
 40
1.0
 40
1.0
 40
1.0
 40
1.0
 10
544.2873019402
 20
1476.4755189304
 30
0.0
 10
545.0903476448
 20
1476.0118907653
 30
0.0
 10
546.9572591619
 20
1475.3352520496
 30
0.0
 10
548.9169701556
 20
1475.1227335686
 30
0.0
 10
549.9441659451
 20
1475.1227360376
 30
0.0
  0
SPLINE
  5
335
100
AcDbEntity
  8
6
100
AcDbSpline
 62
7
  6
BYLAYER
 70
0
 71
3
 72
10
 73
6
 74
0
 42
0.0000001
 43
0.0000001
 44
0.0000000001
 40
0.0
 40
0.0
 40
0.0
 40
0.0
 40
0.2970140709
 40
0.5775054208
 40
1.0
 40
1.0
 40
1.0
 40
1.0
 10
568.9978666626
 20
1526.7327183294
 30
0.0
 10
569.6447736934
 20
1526.7985756988
 30
0.0
 10
570.931576545
 20
1526.7766678616
 30
0.0
 10
573.0293219022
 20
1526.2941013847
 30
0.0
 10
574.5199819417
 20
1525.275774394
 30
0.0
 10
574.7901632019
 20
1524.3911497319
 30
0.0
  0
SPLINE
  5
336
100
AcDbEntity
  8
6
100
AcDbSpline
 62
7
  6
BYLAYER
 70
0
 71
3
 72
9
 73
5
 74
0
 42
0.0000001
 43
0.0000001
 44
0.0000000001
 40
0.0
 40
0.0
 40
0.0
 40
0.0
 40
0.2424017489
 40
1.0
 40
1.0
 40
1.0
 40
1.0
 10
550.2323258147
 20
1521.6806232124
 30
0.0
 10
550.7605006255
 20
1521.9365681747
 30
0.0
 10
552.9611103324
 20
1522.9474233175
 30
0.0
 10
555.2407430187
 20
1523.7834107452
 30
0.0
 10
556.9925307123
 20
1524.3275540285
 30
0.0
  0
SPLINE
  5
337
100
AcDbEntity
  8
6
100
AcDbSpline
 62
7
  6
BYLAYER
 70
0
 71
3
 72
11
 73
7
 74
0
 42
0.0000001
 43
0.0000001
 44
0.0000000001
 40
0.0
 40
0.0
 40
0.0
 40
0.0
 40
0.2177711386
 40
0.4509502201
 40
0.7101998488
 40
1.0
 40
1.0
 40
1.0
 40
1.0
 10
541.944132638
 20
1479.7414529317
 30
0.0
 10
541.9441348352
 20
1479.4367565994
 30
0.0
 10
542.0566111012
 20
1478.801543496
 30
0.0
 10
542.538282263
 20
1477.9168741073
 30
0.0
 10
543.2991758857
 20
1477.1167110968
 30
0.0
 10
543.9361471474
 20
1476.678253658
 30
0.0
 10
544.2873019402
 20
1476.4755189304
 30
0.0
  0
SPLINE
  5
338
100
AcDbEntity
  8
6
100
AcDbSpline
 62
7
  6
BYLAYER
 70
0
 71
3
 72
9
 73
5
 74
0
 42
0.0000001
 43
0.0000001
 44
0.0000000001
 40
0.0
 40
0.0
 40
0.0
 40
0.0
 40
0.4566883439
 40
1.0
 40
1.0
 40
1.0
 40
1.0
 10
548.4465862344
 20
1488.5516569012
 30
0.0
 10
548.4466712464
 20
1488.8957199534
 30
0.0
 10
548.7040057258
 20
1489.6540029133
 30
0.0
 10
549.2790545156
 20
1490.1751684126
 30
0.0
 10
549.6162671703
 20
1490.4071893462
 30
0.0
  0
SPLINE
  5
339
100
AcDbEntity
  8
6
100
AcDbSpline
 62
7
  6
BYLAYER
 70
0
 71
3
 72
9
 73
5
 74
0
 42
0.0000001
 43
0.0000001
 44
0.0000000001
 40
0.0
 40
0.0
 40
0.0
 40
0.0
 40
0.4758821788
 40
1.0
 40
1.0
 40
1.0
 40
1.0
 10
571.3640086059
 20
1504.0105239077
 30
0.0
 10
571.3640165528
 20
1504.2228917153
 30
0.0
 10
571.4629707521
 20
1504.6726719799
 30
0.0
 10
571.7204989615
 20
1505.0483817731
 30
0.0
 10
571.8769800363
 20
1505.2222203385
 30
0.0
  0
SPLINE
  5
33A
100
AcDbEntity
  8
6
100
AcDbSpline
 62
7
  6
BYLAYER
 70
0
 71
3
 72
9
 73
5
 74
0
 42
0.0000001
 43
0.0000001
 44
0.0000000001
 40
0.0
 40
0.0
 40
0.0
 40
0.0
 40
0.488025817
 40
1.0
 40
1.0
 40
1.0
 40
1.0
 10
655.4796998501
 20
1473.9272496082
 30
0.0
 10
655.0025951924
 20
1474.3168055677
 30
0.0
 10
653.8609986346
 20
1474.9240322574
 30
0.0
 10
652.5903318301
 20
1475.1229827687
 30
0.0
 10
651.9441659442
 20
1475.1229812155
 30
0.0
  0
SPLINE
  5
33B
100
AcDbEntity
  8
6
100
AcDbSpline
 62
7
  6
BYLAYER
 70
0
 71
3
 72
9
 73
5
 74
0
 42
0.0000001
 43
0.0000001
 44
0.0000000001
 40
0.0
 40
0.0
 40
0.0
 40
0.0
 40
0.4844209281
 40
1.0
 40
1.0
 40
1.0
 40
1.0
 10
656.9441659442
 20
1471.0404811484
 30
0.0
 10
656.9441659442
 20
1471.57648252
 30
0.0
 10
656.6626805742
 20
1472.6962632487
 30
0.0
 10
655.9215888381
 20
1473.5664472436
 30
0.0
 10
655.4796998501
 20
1473.9272496082
 30
0.0
  0
SPLINE
  5
33C
100
AcDbEntity
  8
6
100
AcDbSpline
 62
7
  6
BYLAYER
 70
0
 71
3
 72
9
 73
5
 74
0
 42
0.0000001
 43
0.0000001
 44
0.0000000001
 40
0.0
 40
0.0
 40
0.0
 40
0.0
 40
0.4566883439
 40
1.0
 40
1.0
 40
1.0
 40
1.0
 10
597.7556901173
 20
1491.042422629
 30
0.0
 10
597.7557751293
 20
1491.3864856813
 30
0.0
 10
598.0131096087
 20
1492.1447686411
 30
0.0
 10
598.5881583986
 20
1492.6659341404
 30
0.0
 10
598.9253710532
 20
1492.897955074
 30
0.0
  0
SPLINE
  5
33D
100
AcDbEntity
  8
6
100
AcDbSpline
 62
7
  6
BYLAYER
 70
0
 71
3
 72
9
 73
5
 74
0
 42
0.0000001
 43
0.0000001
 44
0.0000000001
 40
0.0
 40
0.0
 40
0.0
 40
0.0
 40
0.2635658215
 40
1.0
 40
1.0
 40
1.0
 40
1.0
 10
612.2963302724
 20
1513.7134809097
 30
0.0
 10
612.6597652883
 20
1513.2603875131
 30
0.0
 10
613.9636764427
 20
1511.4843729647
 30
0.0
 10
614.9377005541
 20
1509.4519404656
 30
0.0
 10
615.3668614862
 20
1507.8867665674
 30
0.0
  0
SPLINE
  5
33E
100
AcDbEntity
  8
6
100
AcDbSpline
 62
7
  6
BYLAYER
 70
0
 71
3
 72
9
 73
5
 74
0
 42
0.0000001
 43
0.0000001
 44
0.0000000001
 40
0.0
 40
0.0
 40
0.0
 40
0.0
 40
0.2652665173
 40
1.0
 40
1.0
 40
1.0
 40
1.0
 10
606.5856284492
 20
1518.8343047226
 30
0.0
 10
607.1499397359
 20
1518.4555528885
 30
0.0
 10
609.2304274519
 20
1516.96154335
 30
0.0
 10
611.1184817535
 20
1515.1819012953
 30
0.0
 10
612.2963302724
 20
1513.7134809097
 30
0.0
  0
SPLINE
  5
33F
100
AcDbEntity
  8
6
100
AcDbSpline
 62
7
  6
BYLAYER
 70
0
 71
3
 72
11
 73
7
 74
0
 42
0.0000001
 43
0.0000001
 44
0.0000000001
 40
0.0
 40
0.0
 40
0.0
 40
0.0
 40
0.2453427141
 40
0.5110171401
 40
0.7706928958
 40
1.0
 40
1.0
 40
1.0
 40
1.0
 10
599.5414656194
 20
1519.1900945337
 30
0.0
 10
600.0797330301
 20
1519.450859025
 30
0.0
 10
601.2905203417
 20
1519.8123641252
 30
0.0
 10
603.179957213
 20
1519.9250340861
 30
0.0
 10
605.0104853111
 20
1519.634058016
 30
0.0
 10
606.1250951282
 20
1519.1511717283
 30
0.0
 10
606.5856284492
 20
1518.8343047226
 30
0.0
  0
SPLINE
  5
340
100
AcDbEntity
  8
6
100
AcDbSpline
 62
7
  6
BYLAYER
 70
0
 71
3
 72
10
 73
6
 74
0
 42
0.0000001
 43
0.0000001
 44
0.0000000001
 40
0.0
 40
0.0
 40
0.0
 40
0.0
 40
0.4223721467
 40
0.7024730042
 40
1.0
 40
1.0
 40
1.0
 40
1.0
 10
605.4882117542
 20
1501.0235880053
 30
0.0
 10
605.754372921
 20
1501.8950925537
 30
0.0
 10
607.2111421232
 20
1502.9060601822
 30
0.0
 10
609.2755304079
 20
1503.3985134653
 30
0.0
 10
610.543103282
 20
1503.4321277208
 30
0.0
 10
611.1824153251
 20
1503.3745874637
 30
0.0
  0
SPLINE
  5
341
100
AcDbEntity
  8
6
100
AcDbSpline
 62
7
  6
BYLAYER
 70
0
 71
3
 72
9
 73
5
 74
0
 42
0.0000001
 43
0.0000001
 44
0.0000000001
 40
0.0
 40
0.0
 40
0.0
 40
0.0
 40
0.2636892241
 40
1.0
 40
1.0
 40
1.0
 40
1.0
 10
603.1923020449
 20
1496.6954562311
 30
0.0
 10
603.4639229578
 20
1497.0317575274
 30
0.0
 10
604.4382001036
 20
1498.3497501961
 30
0.0
 10
605.1669994293
 20
1499.8600020944
 30
0.0
 10
605.4882117542
 20
1501.0235880053
 30
0.0
  0
SPLINE
  5
342
100
AcDbEntity
  8
6
100
AcDbSpline
 62
7
  6
BYLAYER
 70
0
 71
3
 72
9
 73
5
 74
0
 42
0.0000001
 43
0.0000001
 44
0.0000000001
 40
0.0
 40
0.0
 40
0.0
 40
0.0
 40
0.2653356643
 40
1.0
 40
1.0
 40
1.0
 40
1.0
 10
598.9253710532
 20
1492.897955074
 30
0.0
 10
599.346830462
 20
1493.178422769
 30
0.0
 10
600.9004880629
 20
1494.2849384148
 30
0.0
 10
602.3115672066
 20
1495.6049942906
 30
0.0
 10
603.1923020449
 20
1496.6954562311
 30
0.0
  0
SPLINE
  5
343
100
AcDbEntity
  8
5
100
AcDbSpline
 62
7
  6
BYLAYER
 70
0
 71
3
 72
8
 73
4
 74
0
 42
0.0000001
 43
0.0000001
 44
0.0000000001
 40
0.0
 40
0.0
 40
0.0
 40
0.0
 40
1.0
 40
1.0
 40
1.0
 40
1.0
 10
542.4810281336
 20
188.8707684511
 30
0.0
 10
542.1231468148
 20
188.8455133496
 30
0.0
 10
541.7493508421
 20
188.88837005
 30
0.0
 10
541.4148400471
 20
189.0180596277
 30
0.0
  0
ENDSEC
  0
SECTION
  2
OBJECTS
  0
DICTIONARY
  5
C
100
AcDbDictionary
280
0
281
1
  3
ACAD_GROUP
350
D
  3
ACAD_MLINESTYLE
350
17
  3
ACAD_LAYOUT
350
1A
  3
ACAD_PLOTSETTINGS
350
19
  3
ACAD_PLOTSTYLENAME
350
E
  0
DICTIONARY
  5
D
102
{ACAD_REACTORS
330
C
102
}
100
AcDbDictionary
280
0
281
1
  0
ACDBDICTIONARYWDFLT
  5
E
102
{ACAD_REACTORS
330
C
102
}
100
AcDbDictionary
281
1
  3
Normal
350
F
100
AcDbDictionaryWithDefault
340
F
  0
DICTIONARY
  5
17
102
{ACAD_REACTORS
330
C
102
}
100
AcDbDictionary
280
0
281
1
  3
Standard
350
18
  0
DICTIONARY
  5
19
102
{ACAD_REACTORS
330
C
102
}
100
AcDbDictionary
281
1
  0
DICTIONARY
  5
1A
102
{ACAD_REACTORS
330
C
102
}
100
AcDbDictionary
281
1
  3
Model
350
344
  3
Layout1
350
345
  0
ACDBPLACEHOLDER
  5
F
102
{ACAD_REACTORS
330
E
102
}
  0
MLINESTYLE
  5
18
102
{ACAD_REACTORS
330
17
102
}
100
AcDbMlineStyle
  2
STANDARD
 70
0
  3

 62
256
 51
90.0
 52
90.0
 71
2
 49
0.5
 62
256
  6
BYLAYER
 49
-0.5
 62
256
  6
BYLAYER
  0
LAYOUT
  5
344
102
{ACAD_REACTORS
330
1A
102
}
100
AcDbPlotSettings
  1

  2
none_device
  4

  6

 40
0.0
 41
0.0
 42
0.0
 43
0.0
 44
210.0
 45
297.0
 46
0.0
 47
0.0
 48
0.0
 49
0.0
140
0.0
141
0.0
142
1.0
143
1.0
 70
1024
 72
1
 73
0
 74
0
  7

 75
0
147
1.0
148
0.0
149
0.0
100
AcDbLayout
  1
Model
 70
0
 71
0
 10
0.0
 20
0.0
 11
210.0
 21
297.0
 12
0.0
 22
0.0
 32
0.0
 14
0.0
 24
0.0
 34
0.0
 15
0.0
 25
0.0
 35
0.0
146
0.0
 13
0.0
 23
0.0
 33
0.0
 16
1.0
 26
0.0
 36
0.0
 17
0.0
 27
1.0
 37
0.0
 76
0
330
215
345
0
346
0
  0
LAYOUT
  5
345
102
{ACAD_REACTORS
330
1A
102
}
100
AcDbPlotSettings
  1

  2
none_device
  4

  6

 40
0.0
 41
0.0
 42
0.0
 43
0.0
 44
210.0
 45
297.0
 46
0.0
 47
0.0
 48
0.0
 49
0.0
140
0.0
141
0.0
142
1.0
143
1.0
 70
0
 72
1
 73
0
 74
0
  7

 75
0
147
1.0
148
0.0
149
0.0
100
AcDbLayout
  1
Layout1
 70
0
 71
1
 10
0.0
 20
0.0
 11
210.0
 21
297.0
 12
0.0
 22
0.0
 32
0.0
 14
0.0
 24
0.0
 34
0.0
 15
0.0
 25
0.0
 35
0.0
146
0.0
 13
0.0
 23
0.0
 33
0.0
 16
1.0
 26
0.0
 36
0.0
 17
0.0
 27
1.0
 37
0.0
 76
0
330
216
345
0
346
0
  0
ENDSEC
  0
EOF
