999
DXF file: C:\Users\sesa63760\Dev\_Creo\CAD\MCADID0004267_3D-CAD\drw0001_1.dxf
999
Pro/ENGINEER 2019471 by Parametric Technology Corporation
  0
SECTION
  2
HEADER
  9
$ACADVER
  1
AC1024
  9
$DWGCODEPAGE
  3
ANSI_1252
  9
$EXTMAX
 10
207.0153154534
 20
292.7788032841
 30
0.0
  9
$EXTMIN
 10
0.0
 20
0.0
 30
0.0
  9
$LIMMIN
 10
0.0
 20
0.0
  9
$LIMMAX
 10
207.0153154534
 20
292.7788032841
  9
$VIEWCTR
 10
103.5076577267
 20
146.389401642
  9
$VIEWSIZE
 40
292.7788032841
  9
$CLAYER
  8
0
  9
$LTSCALE
 40
19.0848405104
  9
$CELTYPE
  6
BYLAYER
  9
$DIMSCALE
 40
1.0
  9
$DIMASZ
 40
2.4644680411
  9
$DIMEXO
 40
1.0
  9
$DIMDLI
 40
13.1858898072
  9
$DIMEXE
 40
1.0
  9
$DIMCEN
 40
3.1229739017
  9
$DIMLFAC
 40
1.0
  9
$DIMBLK
  1
_FILLED
  9
$DIMALT
 70
0
  9
$DIMALTF
 40
0.0393700787
  9
$DIMTXT
 40
3.4502552576
  9
$DIMTOL
 70
1
  9
$DIMLIM
 70
0
  9
$DIMTFAC
 40
1.0
  9
$DIMTP
 40
0.01
  9
$DIMTM
 40
0.01
  9
$DIMGAP
 40
0.625
  9
$DIMDSEP
 70
46
  9
$AUNITS
 70
0
  9
$PDMODE
 70
3
  9
$PDSIZE
 40
0.3125
  9
$HANDSEED
  5
43C
  9
$TILEMODE
 70
1
  9
$MEASUREMENT
 70
1
  9
$INSUNITS
 70
4
  0
ENDSEC
  0
SECTION
  2
CLASSES
  0
CLASS
  1
ACDBDICTIONARYWDFLT
  2
AcDbDictionaryWithDefault
  3
AutoCAD 2000
 90
0
 91
1
280
0
281
0
  0
CLASS
  1
ACDBPLACEHOLDER
  2
AcDbPlaceHolder
  3
AutoCAD 2000
 90
0
 91
1
280
0
281
0
  0
CLASS
  1
LAYOUT
  2
AcDbLayout
  3
AutoCAD 2000
 90
0
 91
0
280
0
281
0
  0
ENDSEC
  0
SECTION
  2
TABLES
  0
TABLE
  2
VPORT
  5
8
100
AcDbSymbolTable
 70
2
  0
VPORT
  5
1F4
100
AcDbSymbolTableRecord
100
AcDbViewportTableRecord
  2
*ACTIVE
 70
0
 10
0.0
 20
0.0
 11
1.0
 21
1.0
 12
103.5076577267
 22
146.389401642
 13
0.0
 23
0.0
 14
1.0
 24
1.0
 15
0.0
 25
0.0
 16
0.0
 26
0.0
 36
1.0
 17
0.0
 27
0.0
 37
0.0
 40
292.7788032841
 41
0.7070707071
 42
50.0
 43
0.0
 44
0.0
 50
0.0
 51
0.0
 71
0
 72
100
 73
1
 74
1
 75
0
 76
0
 77
0
 78
0
  0
ENDTAB
  0
TABLE
  2
LTYPE
  5
5
100
AcDbSymbolTable
 70
6
  0
LTYPE
  5
14
100
AcDbSymbolTableRecord
100
AcDbLinetypeTableRecord
  2
BYBLOCK
 70
0
  3

 72
65
 73
0
 40
0.0
  0
LTYPE
  5
15
100
AcDbSymbolTableRecord
100
AcDbLinetypeTableRecord
  2
BYLAYER
 70
0
  3

 72
65
 73
0
 40
0.0
  0
LTYPE
  5
16
100
AcDbSymbolTableRecord
100
AcDbLinetypeTableRecord
  2
CONTINUOUS
 70
64
  3
Solid line
 72
65
 73
0
 40
0.0
  0
LTYPE
  5
1F5
100
AcDbSymbolTableRecord
100
AcDbLinetypeTableRecord
  2
CENTER
 70
64
  3
____ _ ____ _ ____ _ ____ _ ____ _ ____ _ ____
 72
65
 73
4
 40
0.6
 49
0.375
 74
0
 49
-0.075
 74
0
 49
0.075
 74
0
 49
-0.075
 74
0
  0
LTYPE
  5
1F6
100
AcDbSymbolTableRecord
100
AcDbLinetypeTableRecord
  2
HIDDEN
 70
64
  3
- - - - - - - - - - - - - - - - - - - -
 72
65
 73
2
 40
0.2
 49
0.1
 74
0
 49
-0.1
 74
0
  0
LTYPE
  5
1F7
100
AcDbSymbolTableRecord
100
AcDbLinetypeTableRecord
  2
PHANTOM
 70
64
  3
_____ _ _ _____ _ _ _____ _ _ _____
 72
65
 73
6
 40
0.8
 49
0.45
 74
0
 49
-0.05
 74
0
 49
0.1
 74
0
 49
-0.05
 74
0
 49
0.1
 74
0
 49
-0.05
 74
0
  0
LTYPE
  5
1F8
100
AcDbSymbolTableRecord
100
AcDbLinetypeTableRecord
  2
DOT
 70
64
  3
. . . . . . . . . . . . . . . . . . . .
 72
65
 73
2
 40
0.2
 49
0.1
 74
0
 49
-0.1
 74
0
  0
LTYPE
  5
1F9
100
AcDbSymbolTableRecord
100
AcDbLinetypeTableRecord
  2
DASHED
 70
64
  3
- - - - - - - - - - - - - - - - - - - -
 72
65
 73
2
 40
0.2
 49
0.1
 74
0
 49
-0.1
 74
0
  0
ENDTAB
  0
TABLE
  2
LAYER
  5
2
100
AcDbSymbolTable
 70
36
  0
LAYER
  5
10
100
AcDbSymbolTableRecord
100
AcDbLayerTableRecord
  2
0
 70
0
 62
7
  6
CONTINUOUS
370
-3
390
F
  0
LAYER
  5
1FA
100
AcDbSymbolTableRecord
100
AcDbLayerTableRecord
  2
DEFAULT_1
 70
0
 62
7
  6
CENTER
370
-3
390
F
  0
LAYER
  5
1FB
100
AcDbSymbolTableRecord
100
AcDbLayerTableRecord
  2
DEFAULT_2
 70
0
 62
7
  6
HIDDEN
370
-3
390
F
  0
LAYER
  5
1FC
100
AcDbSymbolTableRecord
100
AcDbLayerTableRecord
  2
DEFAULT_3
 70
0
 62
7
  6
PHANTOM
370
-3
390
F
  0
LAYER
  5
1FD
100
AcDbSymbolTableRecord
100
AcDbLayerTableRecord
  2
00_COMPONENTS
 70
0
 62
7
  6
CONTINUOUS
370
-3
390
F
  0
LAYER
  5
1FE
100
AcDbSymbolTableRecord
100
AcDbLayerTableRecord
  2
01_1_DEFAULT_DATUMS
 70
0
 62
7
  6
CONTINUOUS
370
-3
390
F
  0
LAYER
  5
1FF
100
AcDbSymbolTableRecord
100
AcDbLayerTableRecord
  2
01_PLANES
 70
0
 62
7
  6
CONTINUOUS
370
-3
390
F
  0
LAYER
  5
200
100
AcDbSymbolTableRecord
100
AcDbLayerTableRecord
  2
02_COORD_SYS
 70
0
 62
7
  6
CONTINUOUS
370
-3
390
F
  0
LAYER
  5
201
100
AcDbSymbolTableRecord
100
AcDbLayerTableRecord
  2
03_AXES
 70
0
 62
7
  6
CONTINUOUS
370
-3
390
F
  0
LAYER
  5
202
100
AcDbSymbolTableRecord
100
AcDbLayerTableRecord
  2
04_POINTS
 70
0
 62
7
  6
CONTINUOUS
370
-3
390
F
  0
LAYER
  5
203
100
AcDbSymbolTableRecord
100
AcDbLayerTableRecord
  2
05_CURVES
 70
0
 62
7
  6
CONTINUOUS
370
-3
390
F
  0
LAYER
  5
204
100
AcDbSymbolTableRecord
100
AcDbLayerTableRecord
  2
06_SURFS
 70
0
 62
7
  6
CONTINUOUS
370
-3
390
F
  0
LAYER
  5
205
100
AcDbSymbolTableRecord
100
AcDbLayerTableRecord
  2
07_COSMETICS
 70
0
 62
7
  6
CONTINUOUS
370
-3
390
F
  0
LAYER
  5
206
100
AcDbSymbolTableRecord
100
AcDbLayerTableRecord
  2
10_NOTES
 70
0
 62
7
  6
CONTINUOUS
370
-3
390
F
  0
LAYER
  5
207
100
AcDbSymbolTableRecord
100
AcDbLayerTableRecord
  2
11_NOTES_PUB
 70
0
 62
7
  6
CONTINUOUS
370
-3
390
F
  0
LAYER
  5
208
100
AcDbSymbolTableRecord
100
AcDbLayerTableRecord
  2
13_REF_GTOL
 70
0
 62
7
  6
CONTINUOUS
370
-3
390
F
  0
LAYER
  5
209
100
AcDbSymbolTableRecord
100
AcDbLayerTableRecord
  2
16_MISC
 70
0
 62
7
  6
CONTINUOUS
370
-3
390
F
  0
LAYER
  5
20A
100
AcDbSymbolTableRecord
100
AcDbLayerTableRecord
  2
17_NO_PRINT
 70
0
 62
7
  6
CONTINUOUS
370
-3
390
F
  0
LAYER
  5
20B
100
AcDbSymbolTableRecord
100
AcDbLayerTableRecord
  2
18_DATUM_CAMS_JOINTS
 70
0
 62
7
  6
CONTINUOUS
370
-3
390
F
  0
LAYER
  5
20C
100
AcDbSymbolTableRecord
100
AcDbLayerTableRecord
  2
19_DATUM_FUNCTIONAL
 70
0
 62
7
  6
CONTINUOUS
370
-3
390
F
  0
LAYER
  5
20D
100
AcDbSymbolTableRecord
100
AcDbLayerTableRecord
  2
20_DATUM_KINEMATIC_SCHEME
 70
0
 62
7
  6
CONTINUOUS
370
-3
390
F
  0
ENDTAB
  0
TABLE
  2
STYLE
  5
3
100
AcDbSymbolTable
 70
1
  0
STYLE
  5
11
100
AcDbSymbolTableRecord
100
AcDbTextStyleTableRecord
  2
STANDARD
 70
0
 40
0.0
 41
1.0
 50
0.0
 71
0
 42
0.2
  3
ARIAL.TTF
  4

  0
STYLE
  5
20E
100
AcDbSymbolTableRecord
100
AcDbTextStyleTableRecord
  2
TEXTSTYLE_1
 70
0
 40
0.0
 41
0.8
 50
0.0
 71
0
 42
0.2
  3
gdt
  4

  0
ENDTAB
  0
TABLE
  2
VIEW
  5
6
100
AcDbSymbolTable
 70
0
  0
ENDTAB
  0
TABLE
  2
UCS
  5
7
100
AcDbSymbolTable
 70
0
  0
ENDTAB
  0
TABLE
  2
APPID
  5
9
100
AcDbSymbolTable
 70
1
  0
APPID
  5
20F
100
AcDbSymbolTableRecord
100
AcDbRegAppTableRecord
  2
ACAD
 70
0
  0
ENDTAB
  0
TABLE
  2
BLOCK_RECORD
  5
1
100
AcDbSymbolTable
 70
0
  0
BLOCK_RECORD
  5
210
100
AcDbSymbolTableRecord
100
AcDbBlockTableRecord
  2
*Model_Space
  0
BLOCK_RECORD
  5
211
100
AcDbSymbolTableRecord
100
AcDbBlockTableRecord
  2
*Paper_Space
  0
BLOCK_RECORD
  5
212
100
AcDbSymbolTableRecord
100
AcDbBlockTableRecord
  2
_FILLED
  0
ENDTAB
  0
TABLE
  2
DIMSTYLE
  5
A
100
AcDbSymbolTable
 70
1
100
AcDbDimStyleTable
 71
0
  0
DIMSTYLE
105
213
100
AcDbSymbolTableRecord
100
AcDbDimStyleTableRecord
  2
STANDARD
 70
0
  3

  4

 40
1.0
 41
2.4644680411
 42
1.0
 43
0.38
 44
1.0
 45
0.0
 46
0.0
 47
0.01
 48
0.01
140
3.4502552576
141
0.09
142
0.0
143
25.4
144
1.0
145
0.0
146
1.0
147
0.625
 71
1
 72
0
 73
0
 74
0
 75
0
 76
0
 77
1
 78
8
 79
2
170
0
171
1
172
0
173
0
174
0
175
0
176
0
177
0
178
0
270
2
179
2
271
2
272
2
273
2
274
2
275
0
280
0
281
0
282
0
283
1
284
8
285
0
286
0
287
3
288
0
340
11
278
46
341
212
342
212
343
212
344
212
  0
ENDTAB
  0
ENDSEC
  0
SECTION
  2
BLOCKS
  0
BLOCK
  5
20
100
AcDbEntity
  8
0
100
AcDbBlockBegin
  2
*Model_Space
 70
0
 10
0.0
 20
0.0
 30
0.0
  3
*Model_Space
  1

  0
ENDBLK
  5
21
100
AcDbEntity
  8
0
100
AcDbBlockEnd
  0
BLOCK
  5
1C
100
AcDbEntity
  8
0
100
AcDbBlockBegin
  2
*Paper_Space
 70
0
 10
0.0
 20
0.0
 30
0.0
  3
*Paper_Space
  1

  0
ENDBLK
  5
1D
100
AcDbEntity
  8
0
100
AcDbBlockEnd
  0
BLOCK
  5
214
100
AcDbEntity
  8
0
100
AcDbBlockBegin
  2
_FILLED
 70
64
 10
0.0
 20
0.0
  3
_FILLED
  1

  0
SOLID
  5
215
100
AcDbEntity
  8
0
  6
BYBLOCK
 62
0
100
AcDbTrace
 10
0.0
 20
0.0
 11
-1.0
 21
0.25
 12
-1.0
 22
-0.25
 13
-1.0
 23
-0.25
  0
ENDBLK
  5
216
100
AcDbEntity
  8
0
  6
BYBLOCK
 62
0
100
AcDbBlockEnd
  0
ENDSEC
  0
SECTION
  2
ENTITIES
  0
LINE
  5
217
100
AcDbEntity
  8
0
100
AcDbLine
 62
7
  6
BYLAYER
 10
33.816621909
 20
230.3865421343
 11
31.6953103974
 21
229.1618096727
  0
LINE
  5
218
100
AcDbEntity
  8
0
100
AcDbLine
 62
7
  6
BYLAYER
 10
41.5948288857
 20
225.8958938346
 11
39.473517374
 21
224.671161373
  0
LINE
  5
219
100
AcDbEntity
  8
0
100
AcDbLine
 62
7
  6
BYLAYER
 10
26.0027707806
 20
201.3844956901
 11
25.3960930776
 21
200.0772838349
  0
LINE
  5
21A
100
AcDbEntity
  8
0
100
AcDbLine
 62
7
  6
BYLAYER
 10
43.7161757249
 20
222.2217168458
 11
45.8374872365
 21
223.4464493074
  0
LINE
  5
21B
100
AcDbEntity
  8
0
100
AcDbLine
 62
7
  6
BYLAYER
 10
41.5948288857
 20
219.3638744975
 11
39.473517374
 21
218.1391420359
  0
LINE
  5
21C
100
AcDbEntity
  8
0
100
AcDbLine
 62
7
  6
BYLAYER
 10
31.6953103974
 20
213.6482637472
 11
33.816621909
 21
214.8729962088
  0
LINE
  5
21D
100
AcDbEntity
  8
0
100
AcDbLine
 62
7
  6
BYLAYER
 10
35.0820821368
 20
198.5789024879
 11
36.5804849048
 21
201.8075193511
  0
LINE
  5
21E
100
AcDbEntity
  8
0
100
AcDbLine
 62
7
  6
BYLAYER
 10
24.2707937058
 20
185.9755445905
 11
24.977897543
 21
187.2002911615
  0
LINE
  5
21F
100
AcDbEntity
  8
0
100
AcDbLine
 62
7
  6
BYLAYER
 10
27.0992267185
 20
185.9755688979
 11
26.3921228813
 21
184.7508223269
  0
LINE
  5
220
100
AcDbEntity
  8
0
100
AcDbLine
 62
7
  6
BYLAYER
 10
38.0592802599
 20
212.4235516817
 11
35.9379687483
 21
211.1988192201
  0
LINE
  5
221
100
AcDbEntity
  8
0
100
AcDbLine
 62
7
  6
BYLAYER
 10
31.1296273276
 20
207.6061515042
 11
27.8062392927
 21
205.687403981
  0
LINE
  5
222
100
AcDbEntity
  8
0
100
AcDbLine
 62
7
  6
BYLAYER
 10
53.6156942132
 20
218.9558010077
 11
51.4943827015
 21
217.7310685461
  0
LINE
  5
223
100
AcDbEntity
  8
0
100
AcDbLine
 62
7
  6
BYLAYER
 10
185.3185774438
 20
63.1264106434
 11
185.5373168455
 21
63.1480671257
  0
LINE
  5
224
100
AcDbEntity
  8
0
100
AcDbLine
 62
7
  6
BYLAYER
 10
185.7560562473
 20
63.8841632231
 11
185.5373168455
 21
63.8625067407
  0
LINE
  5
225
100
AcDbEntity
  8
0
100
AcDbLine
 62
7
  6
BYLAYER
 10
24.0161583604
 20
144.5100299018
 11
24.0161583604
 21
177.1701265869
  0
LINE
  5
226
100
AcDbEntity
  8
0
100
AcDbLine
 62
7
  6
BYLAYER
 10
24.2707937058
 20
142.7009164826
 11
24.2707937058
 21
185.9755445905
  0
LINE
  5
227
100
AcDbEntity
  8
0
100
AcDbLine
 62
7
  6
BYLAYER
 10
24.9882889912
 20
196.0937139559
 11
24.9882889912
 21
193.6442067046
  0
LINE
  5
228
100
AcDbEntity
  8
0
100
AcDbLine
 62
7
  6
BYLAYER
 10
24.9882889912
 20
189.4456391068
 11
24.9882889912
 21
192.7116487753
  0
LINE
  5
229
100
AcDbEntity
  8
0
100
AcDbLine
 62
7
  6
BYLAYER
 10
24.9882889912
 20
196.1388113214
 11
24.9882889912
 21
197.4452151888
  0
LINE
  5
22A
100
AcDbEntity
  8
0
100
AcDbLine
 62
7
  6
BYLAYER
 10
25.3960930776
 20
196.6393789207
 11
25.3960930776
 21
200.0772838349
  0
LINE
  5
22B
100
AcDbEntity
  8
0
100
AcDbLine
 62
7
  6
BYLAYER
 10
26.0027707806
 20
200.9507626081
 11
26.0027707806
 21
202.5837674423
  0
LINE
  5
22C
100
AcDbEntity
  8
0
100
AcDbLine
 62
7
  6
BYLAYER
 10
26.3921228813
 20
184.7508223269
 11
26.3921228813
 21
141.476194219
  0
LINE
  5
22D
100
AcDbEntity
  8
0
100
AcDbLine
 62
7
  6
BYLAYER
 10
27.8062392927
 20
205.687403981
 11
27.8062392927
 21
204.7713489677
  0
LINE
  5
22E
100
AcDbEntity
  8
0
100
AcDbLine
 62
7
  6
BYLAYER
 10
29.3306277838
 20
165.5103840017
 11
31.2830601804
 21
170.5425236053
  0
LINE
  5
22F
100
AcDbEntity
  8
0
100
AcDbLine
 62
7
  6
BYLAYER
 10
36.5804849048
 20
198.3696144368
 11
35.0820821368
 21
195.1409975737
  0
LINE
  5
230
100
AcDbEntity
  8
0
100
AcDbLine
 62
7
  6
BYLAYER
 10
53.6156942132
 20
208.341269585
 11
51.4943827015
 21
207.1165371234
  0
LINE
  5
231
100
AcDbEntity
  8
0
100
AcDbLine
 62
7
  6
BYLAYER
 10
47.2517243506
 20
204.6669671478
 11
49.3730358623
 21
205.8916996094
  0
LINE
  5
232
100
AcDbEntity
  8
0
100
AcDbLine
 62
7
  6
BYLAYER
 10
29.4898862232
 20
197.7137847298
 11
29.4898862232
 21
194.2758798156
  0
LINE
  5
233
100
AcDbEntity
  8
0
100
AcDbLine
 62
7
  6
BYLAYER
 10
31.6953103974
 20
229.1618096727
 11
31.6953103974
 21
218.54727825
  0
LINE
  5
234
100
AcDbEntity
  8
0
100
AcDbLine
 62
7
  6
BYLAYER
 10
31.6953103974
 20
208.585948761
 11
31.6953103974
 21
213.6482637472
  0
LINE
  5
235
100
AcDbEntity
  8
0
100
AcDbLine
 62
7
  6
BYLAYER
 10
35.0820821368
 20
198.5789024879
 11
35.0820821368
 21
195.1409975737
  0
LINE
  5
236
100
AcDbEntity
  8
0
100
AcDbLine
 62
7
  6
BYLAYER
 10
35.2309473421
 20
191.1947621774
 11
35.2309473421
 21
193.6442694288
  0
LINE
  5
237
100
AcDbEntity
  8
0
100
AcDbLine
 62
7
  6
BYLAYER
 10
36.0027707806
 20
200.9507626081
 11
36.0027707806
 21
202.5837674423
  0
LINE
  5
238
100
AcDbEntity
  8
0
100
AcDbLine
 62
7
  6
BYLAYER
 10
34.6064758886
 20
168.623792059
 11
32.654043492
 21
163.5916524554
  0
LINE
  5
239
100
AcDbEntity
  8
0
100
AcDbLine
 62
7
  6
BYLAYER
 10
29.3306277838
 20
149.1803356591
 11
31.2830601804
 21
154.2124752627
  0
LINE
  5
23A
100
AcDbEntity
  8
0
100
AcDbLine
 62
7
  6
BYLAYER
 10
35.2309473421
 20
193.6442694288
 11
37.7058107724
 21
195.0731239674
  0
LINE
  5
23B
100
AcDbEntity
  8
0
100
AcDbLine
 62
7
  6
BYLAYER
 10
24.977897543
 20
187.2002911615
 11
25.8197223252
 21
187.6863160249
  0
LINE
  5
23C
100
AcDbEntity
  8
0
100
AcDbLine
 62
7
  6
BYLAYER
 10
53.6156942132
 20
203.4422550823
 11
51.4943827015
 21
202.2175226206
  0
LINE
  5
23D
100
AcDbEntity
  8
0
100
AcDbLine
 62
7
  6
BYLAYER
 10
37.7058107724
 20
192.623616716
 11
35.2309473421
 21
191.1947621774
  0
LINE
  5
23E
100
AcDbEntity
  8
0
100
AcDbLine
 62
7
  6
BYLAYER
 10
27.9410515006
 20
186.4615937613
 11
27.0992267185
 21
185.9755688979
  0
LINE
  5
23F
100
AcDbEntity
  8
0
100
AcDbLine
 62
7
  6
BYLAYER
 10
47.6053115968
 20
194.2566628544
 11
50.9286996317
 21
196.1754103776
  0
LINE
  5
240
100
AcDbEntity
  8
0
100
AcDbLine
 62
7
  6
BYLAYER
 10
185.6864486181
 20
79.2440732693
 11
185.9051880198
 21
79.2657297516
  0
LINE
  5
241
100
AcDbEntity
  8
0
100
AcDbLine
 62
7
  6
BYLAYER
 10
186.1239274215
 20
80.001825849
 11
185.9051880198
 21
79.9801693666
  0
LINE
  5
242
100
AcDbEntity
  8
0
100
AcDbLine
 62
7
  6
BYLAYER
 10
36.5804849048
 20
201.8075193511
 11
36.5804849048
 21
198.3696144368
  0
LINE
  5
243
100
AcDbEntity
  8
0
100
AcDbLine
 62
7
  6
BYLAYER
 10
36.9882889912
 20
189.4456391068
 11
36.9882889912
 21
192.2093577953
  0
LINE
  5
244
100
AcDbEntity
  8
0
100
AcDbLine
 62
7
  6
BYLAYER
 10
36.9882889912
 20
196.1388113214
 11
36.9882889912
 21
197.4452151888
  0
LINE
  5
245
100
AcDbEntity
  8
0
100
AcDbLine
 62
7
  6
BYLAYER
 10
37.7057842767
 20
155.0132826847
 11
37.7057842767
 21
162.6033499851
  0
LINE
  5
246
100
AcDbEntity
  8
0
100
AcDbLine
 62
7
  6
BYLAYER
 10
37.7057842767
 20
171.3433310273
 11
37.7057842767
 21
191.2827287888
  0
LINE
  5
247
100
AcDbEntity
  8
0
100
AcDbLine
 62
7
  6
BYLAYER
 10
37.7058107724
 20
195.0731239674
 11
37.7058107724
 21
192.623616716
  0
LINE
  5
248
100
AcDbEntity
  8
0
100
AcDbLine
 62
7
  6
BYLAYER
 10
39.473517374
 20
224.671161373
 11
39.473517374
 21
218.1391420359
  0
LINE
  5
249
100
AcDbEntity
  8
0
100
AcDbLine
 62
7
  6
BYLAYER
 10
41.5948288857
 20
225.8958938346
 11
41.5948288857
 21
219.3638744975
  0
LINE
  5
24A
100
AcDbEntity
  8
0
100
AcDbLine
 62
7
  6
BYLAYER
 10
43.7161757249
 20
215.6896975088
 11
43.7161757249
 21
222.2217168458
  0
LINE
  5
24B
100
AcDbEntity
  8
0
100
AcDbLine
 62
7
  6
BYLAYER
 10
38.511340682
 20
163.0684354163
 11
39.0459292016
 21
164.4462675327
  0
LINE
  5
24C
100
AcDbEntity
  8
0
100
AcDbLine
 62
7
  6
BYLAYER
 10
39.5340149326
 20
165.7042447825
 11
40.4637730787
 21
168.10057502
  0
LINE
  5
24D
100
AcDbEntity
  8
0
100
AcDbLine
 62
7
  6
BYLAYER
 10
34.6064758886
 20
152.2937437164
 11
32.654043492
 21
147.2616041128
  0
LINE
  5
24E
100
AcDbEntity
  8
0
100
AcDbLine
 62
7
  6
BYLAYER
 10
38.511340682
 20
146.7383870737
 11
39.0459292016
 21
148.1162191901
  0
LINE
  5
24F
100
AcDbEntity
  8
0
100
AcDbLine
 62
7
  6
BYLAYER
 10
39.5340149326
 20
149.3741964399
 11
40.4637730787
 21
151.7705266774
  0
LINE
  5
250
100
AcDbEntity
  8
0
100
AcDbLine
 62
7
  6
BYLAYER
 10
50.9286996317
 20
193.7259031263
 11
47.6053115968
 21
191.8071556031
  0
LINE
  5
251
100
AcDbEntity
  8
0
100
AcDbLine
 62
7
  6
BYLAYER
 10
24.0161583604
 20
177.1701265869
 11
24.2707937058
 21
177.3171394946
  0
LINE
  5
252
100
AcDbEntity
  8
0
100
AcDbLine
 62
7
  6
BYLAYER
 10
46.1910921465
 20
192.6236371121
 11
46.1910921465
 21
195.0731443635
  0
LINE
  5
253
100
AcDbEntity
  8
0
100
AcDbLine
 62
7
  6
BYLAYER
 10
47.6053115968
 20
194.2566628544
 11
47.6053115968
 21
191.8071556031
  0
LINE
  5
254
100
AcDbEntity
  8
0
100
AcDbLine
 62
7
  6
BYLAYER
 10
51.4943827015
 20
217.7310685461
 11
51.4943827015
 21
207.1165371234
  0
LINE
  5
255
100
AcDbEntity
  8
0
100
AcDbLine
 62
7
  6
BYLAYER
 10
51.4943827015
 20
202.2175226206
 11
51.4943827015
 21
197.1552076344
  0
LINE
  5
256
100
AcDbEntity
  8
0
100
AcDbLine
 62
7
  6
BYLAYER
 10
31.2830601804
 20
170.5425236053
 11
35.1879249738
 21
172.7969848875
  0
LINE
  5
257
100
AcDbEntity
  8
0
100
AcDbLine
 62
7
  6
BYLAYER
 10
38.511340682
 20
170.8782533413
 11
34.6064758886
 21
168.623792059
  0
LINE
  5
258
100
AcDbEntity
  8
0
100
AcDbLine
 62
7
  6
BYLAYER
 10
31.2830601804
 20
146.4026573377
 11
29.3306277838
 21
149.1803356591
  0
LINE
  5
259
100
AcDbEntity
  8
0
100
AcDbLine
 62
7
  6
BYLAYER
 10
32.654043492
 20
147.2616041128
 11
34.6064758887
 21
144.4839257915
  0
LINE
  5
25A
100
AcDbEntity
  8
0
100
AcDbLine
 62
7
  6
BYLAYER
 10
53.6156942132
 20
218.9558010077
 11
53.6156942132
 21
208.341269585
  0
LINE
  5
25B
100
AcDbEntity
  8
0
100
AcDbLine
 62
7
  6
BYLAYER
 10
53.6156942132
 20
198.3799400961
 11
53.6156942132
 21
203.4422550823
  0
LINE
  5
25C
100
AcDbEntity
  8
0
100
AcDbLine
 62
7
  6
BYLAYER
 10
34.6064758887
 20
160.8139741341
 11
38.511340682
 21
163.0684354163
  0
LINE
  5
25D
100
AcDbEntity
  8
0
100
AcDbLine
 62
7
  6
BYLAYER
 10
31.2830601804
 20
162.7327056803
 11
29.3306277838
 21
165.5103840017
  0
LINE
  5
25E
100
AcDbEntity
  8
0
100
AcDbLine
 62
7
  6
BYLAYER
 10
40.4637730787
 20
151.7705266774
 11
38.511340682
 21
154.5482049987
  0
LINE
  5
25F
100
AcDbEntity
  8
0
100
AcDbLine
 62
7
  6
BYLAYER
 10
32.654043492
 20
163.5916524554
 11
34.6064758887
 21
160.8139741341
  0
LINE
  5
260
100
AcDbEntity
  8
0
100
AcDbLine
 62
7
  6
BYLAYER
 10
31.2830601804
 20
154.2124752627
 11
35.1879249738
 21
156.466936545
  0
LINE
  5
261
100
AcDbEntity
  8
0
100
AcDbLine
 62
7
  6
BYLAYER
 10
38.511340682
 20
154.5482049987
 11
34.6064758886
 21
152.2937437164
  0
LINE
  5
262
100
AcDbEntity
  8
0
100
AcDbLine
 62
7
  6
BYLAYER
 10
26.3921228813
 20
141.476194219
 11
27.0992267185
 21
141.0679359558
  0
LINE
  5
263
100
AcDbEntity
  8
0
100
AcDbLine
 62
7
  6
BYLAYER
 10
143.9021195489
 20
73.6333008218
 11
141.7807903735
 21
74.8580230854
  0
LINE
  5
264
100
AcDbEntity
  8
0
100
AcDbLine
 62
7
  6
BYLAYER
 10
26.3921228813
 20
141.476194219
 11
24.2707937058
 21
142.7009164826
  0
LINE
  5
265
100
AcDbEntity
  8
0
100
AcDbLine
 62
7
  6
BYLAYER
 10
143.9021195489
 20
73.6333008218
 11
144.6092233861
 21
73.2250425586
  0
LINE
  5
266
100
AcDbEntity
  8
0
100
AcDbLine
 62
7
  6
BYLAYER
 10
24.0161583604
 20
144.5100299018
 11
24.2707937058
 21
144.3630194423
  0
LINE
  5
267
100
AcDbEntity
  8
0
100
AcDbLine
 62
7
  6
BYLAYER
 10
116.3698901879
 20
91.190784213
 11
117.4305547756
 21
90.5784230812
  0
LINE
  5
268
100
AcDbEntity
  8
0
100
AcDbLine
 62
7
  6
BYLAYER
 10
40.4637730787
 20
168.10057502
 11
38.511340682
 21
170.8782533413
  0
LINE
  5
269
100
AcDbEntity
  8
0
100
AcDbLine
 62
7
  6
BYLAYER
 10
27.0992267185
 20
141.0679359558
 11
33.8111963171
 21
144.9430702789
  0
LINE
  5
26A
100
AcDbEntity
  8
0
100
AcDbLine
 62
7
  6
BYLAYER
 10
34.6064758887
 20
144.4839257915
 11
38.511340682
 21
146.7383870737
  0
LINE
  5
26B
100
AcDbEntity
  8
0
100
AcDbLine
 62
7
  6
BYLAYER
 10
31.2830601804
 20
146.4026573377
 11
34.6064758886
 21
144.4839257915
  0
LINE
  5
26C
100
AcDbEntity
  8
0
100
AcDbLine
 62
7
  6
BYLAYER
 10
171.5835111082
 20
65.4019867071
 11
174.9069268164
 21
63.4832551609
  0
LINE
  5
26D
100
AcDbEntity
  8
0
100
AcDbLine
 62
7
  6
BYLAYER
 10
29.6541763041
 20
147.8599673988
 11
30.6414102665
 21
147.2900004993
  0
LINE
  5
26E
100
AcDbEntity
  8
0
100
AcDbLine
 62
7
  6
BYLAYER
 10
160.6812688596
 20
72.2131516005
 11
161.668502822
 21
71.6431847009
  0
LINE
  5
26F
100
AcDbEntity
  8
0
100
AcDbLine
 62
7
  6
BYLAYER
 10
29.3306277838
 20
149.1803356591
 11
32.654043492
 21
147.2616041129
  0
LINE
  5
270
100
AcDbEntity
  8
0
100
AcDbLine
 62
7
  6
BYLAYER
 10
169.6310787115
 20
68.1796650285
 11
172.9544944197
 21
66.2609334823
  0
LINE
  5
271
100
AcDbEntity
  8
0
100
AcDbLine
 62
7
  6
BYLAYER
 10
128.9085215973
 20
93.3124624589
 11
119.7160951704
 21
98.6195922676
  0
LINE
  5
272
100
AcDbEntity
  8
0
100
AcDbLine
 62
7
  6
BYLAYER
 10
36.5547897698
 20
146.6317081476
 11
35.3089295161
 21
147.3509896282
  0
LINE
  5
273
100
AcDbEntity
  8
0
100
AcDbLine
 62
7
  6
BYLAYER
 10
124.3884978613
 20
98.3035967343
 11
141.7807903735
 21
88.2623791333
  0
LINE
  5
274
100
AcDbEntity
  8
0
100
AcDbLine
 62
7
  6
BYLAYER
 10
148.0161202191
 20
84.6624912088
 11
160.4763578296
 21
77.4687324148
  0
LINE
  5
275
100
AcDbEntity
  8
0
100
AcDbLine
 62
7
  6
BYLAYER
 10
162.4045212776
 20
76.355531913
 11
170.9002003229
 21
71.4506602923
  0
LINE
  5
276
100
AcDbEntity
  8
0
100
AcDbLine
 62
7
  6
BYLAYER
 10
175.4254013036
 20
68.8380933921
 11
185.3185705571
 21
63.1263986762
  0
LINE
  5
277
100
AcDbEntity
  8
0
100
AcDbLine
 62
7
  6
BYLAYER
 10
124.8259904382
 20
99.0613732483
 11
141.7807903735
 21
89.2727363902
  0
LINE
  5
278
100
AcDbEntity
  8
0
100
AcDbLine
 62
7
  6
BYLAYER
 10
148.4782891479
 20
85.4060211467
 11
160.9287681042
 21
78.2178963868
  0
LINE
  5
279
100
AcDbEntity
  8
0
100
AcDbLine
 62
7
  6
BYLAYER
 10
162.8407016136
 20
77.1140660325
 11
171.220470119
 21
72.2761138792
  0
LINE
  5
27A
100
AcDbEntity
  8
0
100
AcDbLine
 62
7
  6
BYLAYER
 10
175.8643185395
 20
69.5950473974
 11
185.756063134
 21
63.8841751902
  0
LINE
  5
27B
100
AcDbEntity
  8
0
100
AcDbLine
 62
7
  6
BYLAYER
 10
31.2830601804
 20
154.2124752627
 11
34.6064758886
 21
152.2937437164
  0
LINE
  5
27C
100
AcDbEntity
  8
0
100
AcDbLine
 62
7
  6
BYLAYER
 10
171.5835111082
 20
73.2118046321
 11
174.9069268164
 21
71.2930730859
  0
LINE
  5
27D
100
AcDbEntity
  8
0
100
AcDbLine
 62
7
  6
BYLAYER
 10
131.4084791798
 20
97.6426139673
 11
122.2160527529
 21
102.9497437761
  0
LINE
  5
27E
100
AcDbEntity
  8
0
100
AcDbLine
 62
7
  6
BYLAYER
 10
39.0547473523
 20
150.9618596561
 11
37.8088870545
 21
151.6811411621
  0
LINE
  5
27F
100
AcDbEntity
  8
0
100
AcDbLine
 62
7
  6
BYLAYER
 10
34.5406318557
 20
156.3237481549
 11
34.7402745536
 21
156.2084869971
  0
LINE
  5
280
100
AcDbEntity
  8
0
100
AcDbLine
 62
7
  6
BYLAYER
 10
165.5677244111
 20
80.6769323566
 11
166.5549583735
 21
80.106965457
  0
LINE
  5
281
100
AcDbEntity
  8
0
100
AcDbLine
 62
7
  6
BYLAYER
 10
35.1879249738
 20
156.466936545
 11
38.511340682
 21
154.5482049987
  0
LINE
  5
282
100
AcDbEntity
  8
0
100
AcDbLine
 62
7
  6
BYLAYER
 10
175.4883759016
 20
75.4662659144
 11
178.8117916098
 21
73.5475343682
  0
LINE
  5
283
100
AcDbEntity
  8
0
100
AcDbLine
 62
7
  6
BYLAYER
 10
31.2830601804
 20
162.7327056803
 11
34.6064758886
 21
160.813974134
  0
LINE
  5
284
100
AcDbEntity
  8
0
100
AcDbLine
 62
7
  6
BYLAYER
 10
171.5835111082
 20
81.7320350497
 11
174.9069268164
 21
79.8133035035
  0
LINE
  5
285
100
AcDbEntity
  8
0
100
AcDbLine
 62
7
  6
BYLAYER
 10
29.6541763041
 20
164.1900157414
 11
30.6414102665
 21
163.6200488419
  0
LINE
  5
286
100
AcDbEntity
  8
0
100
AcDbLine
 62
7
  6
BYLAYER
 10
160.6812688596
 20
88.543199943
 11
161.668502822
 21
87.9732330435
  0
LINE
  5
287
100
AcDbEntity
  8
0
100
AcDbLine
 62
7
  6
BYLAYER
 10
29.3306277838
 20
165.5103840017
 11
32.654043492
 21
163.5916524554
  0
LINE
  5
288
100
AcDbEntity
  8
0
100
AcDbLine
 62
7
  6
BYLAYER
 10
169.6310787115
 20
84.5097133711
 11
172.9544944197
 21
82.5909818249
  0
LINE
  5
289
100
AcDbEntity
  8
0
100
AcDbLine
 62
7
  6
BYLAYER
 10
128.9085215973
 20
109.6425108015
 11
119.7160951704
 21
114.9496406102
  0
LINE
  5
28A
100
AcDbEntity
  8
0
100
AcDbLine
 62
7
  6
BYLAYER
 10
36.5547897698
 20
162.9617564902
 11
35.3089295161
 21
163.6810379708
  0
LINE
  5
28B
100
AcDbEntity
  8
0
100
AcDbLine
 62
7
  6
BYLAYER
 10
124.3884978613
 20
114.6336450769
 11
141.7807903735
 21
104.5924274759
  0
LINE
  5
28C
100
AcDbEntity
  8
0
100
AcDbLine
 62
7
  6
BYLAYER
 10
148.0161202191
 20
100.9925395514
 11
160.4763578296
 21
93.7987807574
  0
LINE
  5
28D
100
AcDbEntity
  8
0
100
AcDbLine
 62
7
  6
BYLAYER
 10
162.4045212776
 20
92.6855802556
 11
170.9002003229
 21
87.7807086349
  0
LINE
  5
28E
100
AcDbEntity
  8
0
100
AcDbLine
 62
7
  6
BYLAYER
 10
175.4254013036
 20
85.1681417347
 11
185.6864417314
 21
79.2440613021
  0
LINE
  5
28F
100
AcDbEntity
  8
0
100
AcDbLine
 62
7
  6
BYLAYER
 10
124.8259904382
 20
115.3914215909
 11
141.7807903735
 21
105.6027847328
  0
LINE
  5
290
100
AcDbEntity
  8
0
100
AcDbLine
 62
7
  6
BYLAYER
 10
148.4782891479
 20
101.7360694893
 11
160.9287681042
 21
94.5479447294
  0
LINE
  5
291
100
AcDbEntity
  8
0
100
AcDbLine
 62
7
  6
BYLAYER
 10
162.8407016136
 20
93.4441143751
 11
171.220470119
 21
88.6061622218
  0
LINE
  5
292
100
AcDbEntity
  8
0
100
AcDbLine
 62
7
  6
BYLAYER
 10
175.8643185395
 20
85.92509574
 11
186.1239343083
 21
80.0018378161
  0
LINE
  5
293
100
AcDbEntity
  8
0
100
AcDbLine
 62
7
  6
BYLAYER
 10
31.2830601804
 20
170.5425236053
 11
34.6064758886
 21
168.623792059
  0
LINE
  5
294
100
AcDbEntity
  8
0
100
AcDbLine
 62
7
  6
BYLAYER
 10
171.5835111082
 20
89.5418529747
 11
174.9069268164
 21
87.6231214285
  0
LINE
  5
295
100
AcDbEntity
  8
0
100
AcDbLine
 62
7
  6
BYLAYER
 10
131.4084791798
 20
113.9726623099
 11
122.2160527529
 21
119.2797921187
  0
LINE
  5
296
100
AcDbEntity
  8
0
100
AcDbLine
 62
7
  6
BYLAYER
 10
39.0547473523
 20
167.2919079987
 11
37.8088870545
 21
168.0111895047
  0
LINE
  5
297
100
AcDbEntity
  8
0
100
AcDbLine
 62
7
  6
BYLAYER
 10
117.4305547756
 20
123.2385197664
 11
116.3698901879
 21
123.8508808982
  0
LINE
  5
298
100
AcDbEntity
  8
0
100
AcDbLine
 62
7
  6
BYLAYER
 10
24.2707937058
 20
177.0231161275
 11
24.0161583604
 21
177.1701265869
  0
LINE
  5
299
100
AcDbEntity
  8
0
100
AcDbLine
 62
7
  6
BYLAYER
 10
34.5406318557
 20
172.6537964975
 11
34.7402745536
 21
172.5385353397
  0
LINE
  5
29A
100
AcDbEntity
  8
0
100
AcDbLine
 62
7
  6
BYLAYER
 10
165.5677244111
 20
97.0069806992
 11
166.5549583735
 21
96.4370137996
  0
LINE
  5
29B
100
AcDbEntity
  8
0
100
AcDbLine
 62
7
  6
BYLAYER
 10
35.1879249738
 20
172.7969848875
 11
38.511340682
 21
170.8782533413
  0
LINE
  5
29C
100
AcDbEntity
  8
0
100
AcDbLine
 62
7
  6
BYLAYER
 10
175.4883759016
 20
91.796314257
 11
178.8117916098
 21
89.8775827107
  0
LINE
  5
29D
100
AcDbEntity
  8
0
100
AcDbLine
 62
7
  6
BYLAYER
 10
123.44092856
 20
127.9333224369
 11
124.5015931477
 21
127.3209613051
  0
LINE
  5
29E
100
AcDbEntity
  8
0
100
AcDbLine
 62
7
  6
BYLAYER
 10
159.1048255533
 20
179.5298679365
 11
156.9835140416
 21
178.3051354749
  0
LINE
  5
29F
100
AcDbEntity
  8
0
100
AcDbLine
 62
7
  6
BYLAYER
 10
143.9021195489
 20
116.9079289297
 11
141.7807903735
 21
118.1326511933
  0
LINE
  5
2A0
100
AcDbEntity
  8
0
100
AcDbLine
 62
7
  6
BYLAYER
 10
26.3921228813
 20
184.7508223269
 11
24.2707937058
 21
185.9755445905
  0
LINE
  5
2A1
100
AcDbEntity
  8
0
100
AcDbLine
 62
7
  6
BYLAYER
 10
144.6092233861
 20
118.1326755007
 11
142.4878942107
 21
119.3573977643
  0
LINE
  5
2A2
100
AcDbEntity
  8
0
100
AcDbLine
 62
7
  6
BYLAYER
 10
27.0992267185
 20
185.9755688979
 11
24.977897543
 21
187.2002911615
  0
LINE
  5
2A3
100
AcDbEntity
  8
0
100
AcDbLine
 62
7
  6
BYLAYER
 10
161.2261723925
 20
175.8556909478
 11
163.3474839042
 21
177.0804234094
  0
LINE
  5
2A4
100
AcDbEntity
  8
0
100
AcDbLine
 62
7
  6
BYLAYER
 10
159.1048255533
 20
172.9978485995
 11
156.9835140416
 21
171.7731161379
  0
LINE
  5
2A5
100
AcDbEntity
  8
0
100
AcDbLine
 62
7
  6
BYLAYER
 10
149.205307065
 20
167.2822378492
 11
151.3266185767
 21
168.5069703108
  0
LINE
  5
2A6
100
AcDbEntity
  8
0
100
AcDbLine
 62
7
  6
BYLAYER
 10
155.5692769276
 20
166.0575257837
 11
153.4479654159
 21
164.8327933221
  0
LINE
  5
2A7
100
AcDbEntity
  8
0
100
AcDbLine
 62
7
  6
BYLAYER
 10
29.4898862232
 20
194.2758798156
 11
25.3960930776
 21
196.6393789207
  0
LINE
  5
2A8
100
AcDbEntity
  8
0
100
AcDbLine
 62
7
  6
BYLAYER
 10
37.7057842767
 20
191.2827287888
 11
36.9986804395
 21
191.6909870521
  0
LINE
  5
2A9
100
AcDbEntity
  8
0
100
AcDbLine
 62
7
  6
BYLAYER
 10
36.9882889912
 20
191.6969864218
 11
36.9986804395
 21
191.6909870521
  0
LINE
  5
2AA
100
AcDbEntity
  8
0
100
AcDbLine
 62
7
  6
BYLAYER
 10
155.2157809443
 20
123.4398353916
 11
154.4982856589
 21
123.8540930246
  0
LINE
  5
2AB
100
AcDbEntity
  8
0
100
AcDbLine
 62
7
  6
BYLAYER
 10
25.3960930776
 20
200.0772838349
 11
29.4898862232
 21
197.7137847298
  0
LINE
  5
2AC
100
AcDbEntity
  8
0
100
AcDbLine
 62
7
  6
BYLAYER
 10
171.5835111082
 20
65.4019867071
 11
169.6310787115
 21
68.1796650285
  0
LINE
  5
2AD
100
AcDbEntity
  8
0
100
AcDbLine
 62
7
  6
BYLAYER
 10
116.3698901879
 20
91.190784213
 11
116.3698901879
 21
123.8508808982
  0
LINE
  5
2AE
100
AcDbEntity
  8
0
100
AcDbLine
 62
7
  6
BYLAYER
 10
117.4305547756
 20
90.5784230812
 11
117.4305547756
 21
123.2385197664
  0
LINE
  5
2AF
100
AcDbEntity
  8
0
100
AcDbLine
 62
7
  6
BYLAYER
 10
148.0607856589
 20
160.9059351317
 11
145.3162359604
 21
159.321378083
  0
LINE
  5
2B0
100
AcDbEntity
  8
0
100
AcDbLine
 62
7
  6
BYLAYER
 10
171.1256908808
 20
172.5897751097
 11
169.0043793691
 21
171.3650426481
  0
LINE
  5
2B1
100
AcDbEntity
  8
0
100
AcDbLine
 62
7
  6
BYLAYER
 10
146.7304907382
 20
153.6059871236
 11
144.255627308
 21
152.177132585
  0
LINE
  5
2B2
100
AcDbEntity
  8
0
100
AcDbLine
 62
7
  6
BYLAYER
 10
47.6053115968
 20
191.8071556031
 11
46.1910921465
 21
192.6236371121
  0
LINE
  5
2B3
100
AcDbEntity
  8
0
100
AcDbLine
 62
7
  6
BYLAYER
 10
27.8062392927
 20
205.687403981
 11
28.7423569595
 21
205.1469484209
  0
LINE
  5
2B4
100
AcDbEntity
  8
0
100
AcDbLine
 62
7
  6
BYLAYER
 10
46.1910921465
 20
195.0731443635
 11
47.6053115968
 21
194.2566628544
  0
LINE
  5
2B5
100
AcDbEntity
  8
0
100
AcDbLine
 62
7
  6
BYLAYER
 10
33.1096005029
 20
203.3261590339
 11
32.7560485843
 21
203.5302881655
  0
LINE
  5
2B6
100
AcDbEntity
  8
0
100
AcDbLine
 62
7
  6
BYLAYER
 10
150.6195971705
 20
135.4832656367
 11
150.2660452519
 21
135.6873947683
  0
LINE
  5
2B7
100
AcDbEntity
  8
0
100
AcDbLine
 62
7
  6
BYLAYER
 10
36.5804849048
 20
201.8075193511
 11
36.0027707806
 21
202.1410552107
  0
LINE
  5
2B8
100
AcDbEntity
  8
0
100
AcDbLine
 62
7
  6
BYLAYER
 10
31.1296273276
 20
207.6061515042
 11
50.9286996317
 21
196.1754103776
  0
LINE
  5
2B9
100
AcDbEntity
  8
0
100
AcDbLine
 62
7
  6
BYLAYER
 10
172.9544944197
 20
66.2609334823
 11
174.9069268164
 21
63.4832551609
  0
LINE
  5
2BA
100
AcDbEntity
  8
0
100
AcDbLine
 62
7
  6
BYLAYER
 10
124.5015931477
 20
127.3209613051
 11
124.5015931477
 21
117.9602646082
  0
LINE
  5
2BB
100
AcDbEntity
  8
0
100
AcDbLine
 62
7
  6
BYLAYER
 10
124.5015931477
 20
112.1867945688
 11
124.5015931477
 21
101.6302162656
  0
LINE
  5
2BC
100
AcDbEntity
  8
0
100
AcDbLine
 62
7
  6
BYLAYER
 10
124.5015931477
 20
95.8567462262
 11
124.5015931477
 21
94.6608646199
  0
LINE
  5
2BD
100
AcDbEntity
  8
0
100
AcDbLine
 62
7
  6
BYLAYER
 10
143.5127674482
 20
189.8101113923
 11
142.9060897453
 21
188.5028995371
  0
LINE
  5
2BE
100
AcDbEntity
  8
0
100
AcDbLine
 62
7
  6
BYLAYER
 10
171.1256908808
 20
161.975243687
 11
169.0043793691
 21
160.7505112254
  0
LINE
  5
2BF
100
AcDbEntity
  8
0
100
AcDbLine
 62
7
  6
BYLAYER
 10
164.7617210183
 20
158.3009412497
 11
166.8830325299
 21
159.5256737113
  0
LINE
  5
2C0
100
AcDbEntity
  8
0
100
AcDbLine
 62
7
  6
BYLAYER
 10
152.7409440098
 20
147.2782435308
 11
155.21580744
 21
148.7070980693
  0
LINE
  5
2C1
100
AcDbEntity
  8
0
100
AcDbLine
 62
7
  6
BYLAYER
 10
171.1256908808
 20
157.0762291842
 11
169.0043793691
 21
155.8514967226
  0
LINE
  5
2C2
100
AcDbEntity
  8
0
100
AcDbLine
 62
7
  6
BYLAYER
 10
51.4943827015
 20
197.1552076344
 11
31.6953103974
 21
208.585948761
  0
LINE
  5
2C3
100
AcDbEntity
  8
0
100
AcDbLine
 62
7
  6
BYLAYER
 10
31.6953103974
 20
213.6482637472
 11
35.9379687483
 21
211.1988192201
  0
LINE
  5
2C4
100
AcDbEntity
  8
0
100
AcDbLine
 62
7
  6
BYLAYER
 10
47.2517243506
 20
204.6669671478
 11
51.4943827015
 21
202.2175226206
  0
LINE
  5
2C5
100
AcDbEntity
  8
0
100
AcDbLine
 62
7
  6
BYLAYER
 10
53.6156942132
 20
203.4422550823
 11
49.3730358623
 21
205.8916996094
  0
LINE
  5
2C6
100
AcDbEntity
  8
0
100
AcDbLine
 62
7
  6
BYLAYER
 10
38.0592802599
 20
212.4235516817
 11
33.816621909
 21
214.8729962088
  0
LINE
  5
2C7
100
AcDbEntity
  8
0
100
AcDbLine
 62
7
  6
BYLAYER
 10
171.5835111082
 20
81.7320350497
 11
169.6310787115
 21
84.5097133711
  0
LINE
  5
2C8
100
AcDbEntity
  8
0
100
AcDbLine
 62
7
  6
BYLAYER
 10
180.7642240064
 20
70.7698560468
 11
178.8117916098
 21
73.5475343682
  0
LINE
  5
2C9
100
AcDbEntity
  8
0
100
AcDbLine
 62
7
  6
BYLAYER
 10
172.9544944197
 20
82.5909818249
 11
174.9069268164
 21
79.8133035035
  0
LINE
  5
2CA
100
AcDbEntity
  8
0
100
AcDbLine
 62
7
  6
BYLAYER
 10
152.5920788045
 20
187.0045181901
 11
154.0904815725
 21
190.2331350533
  0
LINE
  5
2CB
100
AcDbEntity
  8
0
100
AcDbLine
 62
7
  6
BYLAYER
 10
154.0904815725
 20
186.795230139
 11
152.5920788045
 21
183.5666132759
  0
LINE
  5
2CC
100
AcDbEntity
  8
0
100
AcDbLine
 62
7
  6
BYLAYER
 10
116.3698901879
 20
123.8508808982
 11
123.44092856
 21
127.9333224369
  0
LINE
  5
2CD
100
AcDbEntity
  8
0
100
AcDbLine
 62
7
  6
BYLAYER
 10
155.21580744
 20
146.2575908179
 11
152.7409440098
 21
144.8287362794
  0
LINE
  5
2CE
100
AcDbEntity
  8
0
100
AcDbLine
 62
7
  6
BYLAYER
 10
117.4305547756
 20
123.2385197664
 11
124.5015931477
 21
127.3209613051
  0
LINE
  5
2CF
100
AcDbEntity
  8
0
100
AcDbLine
 62
7
  6
BYLAYER
 10
165.1153082645
 20
147.8906369564
 11
168.4386962994
 21
149.8093844796
  0
LINE
  5
2D0
100
AcDbEntity
  8
0
100
AcDbLine
 62
7
  6
BYLAYER
 10
146.7304807995
 20
135.6873686337
 11
146.3769198276
 21
135.4832342752
  0
LINE
  5
2D1
100
AcDbEntity
  8
0
100
AcDbLine
 62
7
  6
BYLAYER
 10
168.4386962994
 20
147.3598772282
 11
165.1153082645
 21
145.441129705
  0
LINE
  5
2D2
100
AcDbEntity
  8
0
100
AcDbLine
 62
7
  6
BYLAYER
 10
152.5920788045
 20
183.5666132759
 11
146.9998828909
 21
182.7014955178
  0
LINE
  5
2D3
100
AcDbEntity
  8
0
100
AcDbLine
 62
7
  6
BYLAYER
 10
51.4943827015
 20
207.1165371234
 11
47.2517243506
 21
209.5659816505
  0
LINE
  5
2D4
100
AcDbEntity
  8
0
100
AcDbLine
 62
7
  6
BYLAYER
 10
35.9379687483
 20
216.0978337229
 11
31.6953103974
 21
218.54727825
  0
LINE
  5
2D5
100
AcDbEntity
  8
0
100
AcDbLine
 62
7
  6
BYLAYER
 10
165.1153082645
 20
145.441129705
 11
163.7010888142
 21
146.2576112141
  0
LINE
  5
2D6
100
AcDbEntity
  8
0
100
AcDbLine
 62
7
  6
BYLAYER
 10
146.7304554106
 20
156.0553893225
 11
145.3162359604
 21
156.8718708316
  0
LINE
  5
2D7
100
AcDbEntity
  8
0
100
AcDbLine
 62
7
  6
BYLAYER
 10
145.3162359604
 20
159.321378083
 11
146.7304554106
 21
158.5048965739
  0
LINE
  5
2D8
100
AcDbEntity
  8
0
100
AcDbLine
 62
7
  6
BYLAYER
 10
163.7010888142
 20
148.7071184654
 11
165.1153082645
 21
147.8906369564
  0
LINE
  5
2D9
100
AcDbEntity
  8
0
100
AcDbLine
 62
7
  6
BYLAYER
 10
180.7642240064
 20
87.0999043894
 11
178.8117916098
 21
89.8775827108
  0
LINE
  5
2DA
100
AcDbEntity
  8
0
100
AcDbLine
 62
7
  6
BYLAYER
 10
141.7807903735
 20
74.8580230854
 11
141.7807903735
 21
118.1326511933
  0
LINE
  5
2DB
100
AcDbEntity
  8
0
100
AcDbLine
 62
7
  6
BYLAYER
 10
142.4982856589
 20
149.7276880579
 11
142.4982856589
 21
147.2781808065
  0
LINE
  5
2DC
100
AcDbEntity
  8
0
100
AcDbLine
 62
7
  6
BYLAYER
 10
142.4982856589
 20
121.6027457096
 11
142.4982856589
 21
124.8687553781
  0
LINE
  5
2DD
100
AcDbEntity
  8
0
100
AcDbLine
 62
7
  6
BYLAYER
 10
142.4982856589
 20
179.2430822079
 11
142.4982856589
 21
180.5494860753
  0
LINE
  5
2DE
100
AcDbEntity
  8
0
100
AcDbLine
 62
7
  6
BYLAYER
 10
142.9060897453
 20
185.0649946229
 11
142.9060897453
 21
188.5028995371
  0
LINE
  5
2DF
100
AcDbEntity
  8
0
100
AcDbLine
 62
7
  6
BYLAYER
 10
143.4982856589
 20
139.3214487966
 11
143.4982856589
 21
140.3012516972
  0
LINE
  5
2E0
100
AcDbEntity
  8
0
100
AcDbLine
 62
7
  6
BYLAYER
 10
143.5127674482
 20
189.3763783103
 11
143.5127674482
 21
191.0093831445
  0
LINE
  5
2E1
100
AcDbEntity
  8
0
100
AcDbLine
 62
7
  6
BYLAYER
 10
143.9021195489
 20
116.9079289297
 11
143.9021195489
 21
73.6333008218
  0
LINE
  5
2E2
100
AcDbEntity
  8
0
100
AcDbLine
 62
7
  6
BYLAYER
 10
146.9998828909
 20
186.139400432
 11
152.5920788045
 21
187.0045181901
  0
LINE
  5
2E3
100
AcDbEntity
  8
0
100
AcDbLine
 62
7
  6
BYLAYER
 10
148.9357856589
 20
161.0691404582
 11
168.4386962994
 21
149.8093844796
  0
LINE
  5
2E4
100
AcDbEntity
  8
0
100
AcDbLine
 62
7
  6
BYLAYER
 10
31.6953103974
 20
229.1618096727
 11
39.473517374
 21
224.671161373
  0
LINE
  5
2E5
100
AcDbEntity
  8
0
100
AcDbLine
 62
7
  6
BYLAYER
 10
51.4943827015
 20
217.7310685461
 11
43.7161757249
 21
222.2217168458
  0
LINE
  5
2E6
100
AcDbEntity
  8
0
100
AcDbLine
 62
7
  6
BYLAYER
 10
169.0043793691
 20
150.7891817364
 11
149.205307065
 21
162.219922863
  0
LINE
  5
2E7
100
AcDbEntity
  8
0
100
AcDbLine
 62
7
  6
BYLAYER
 10
33.816621909
 20
230.3865421343
 11
41.5948288857
 21
225.8958938346
  0
LINE
  5
2E8
100
AcDbEntity
  8
0
100
AcDbLine
 62
7
  6
BYLAYER
 10
45.8374872365
 20
223.4464493074
 11
53.6156942132
 21
218.9558010077
  0
LINE
  5
2E9
100
AcDbEntity
  8
0
100
AcDbLine
 62
7
  6
BYLAYER
 10
149.205307065
 20
167.2822378492
 11
153.4479654159
 21
164.8327933221
  0
LINE
  5
2EA
100
AcDbEntity
  8
0
100
AcDbLine
 62
7
  6
BYLAYER
 10
164.7617210183
 20
158.3009412497
 11
169.0043793691
 21
155.8514967226
  0
LINE
  5
2EB
100
AcDbEntity
  8
0
100
AcDbLine
 62
7
  6
BYLAYER
 10
145.3162359604
 20
159.321378083
 11
145.3162359604
 21
156.8718708316
  0
LINE
  5
2EC
100
AcDbEntity
  8
0
100
AcDbLine
 62
7
  6
BYLAYER
 10
145.4982856589
 20
134.2585331751
 11
145.4982856589
 21
124.8687553781
  0
LINE
  5
2ED
100
AcDbEntity
  8
0
100
AcDbLine
 62
7
  6
BYLAYER
 10
146.7304554106
 20
158.5048965739
 11
146.7304554106
 21
156.0553893225
  0
LINE
  5
2EE
100
AcDbEntity
  8
0
100
AcDbLine
 62
7
  6
BYLAYER
 10
146.9998828909
 20
186.139400432
 11
146.9998828909
 21
182.7014955178
  0
LINE
  5
2EF
100
AcDbEntity
  8
0
100
AcDbLine
 62
7
  6
BYLAYER
 10
148.0607856589
 20
134.6667843837
 11
148.0607856589
 21
136.4685821705
  0
LINE
  5
2F0
100
AcDbEntity
  8
0
100
AcDbLine
 62
7
  6
BYLAYER
 10
148.0607856589
 20
138.4776031648
 11
148.0607856589
 21
143.8272806285
  0
LINE
  5
2F1
100
AcDbEntity
  8
0
100
AcDbLine
 62
7
  6
BYLAYER
 10
148.0607856589
 20
148.0442970688
 11
148.0607856589
 21
175.8179198793
  0
LINE
  5
2F2
100
AcDbEntity
  8
0
100
AcDbLine
 62
7
  6
BYLAYER
 10
148.0607856589
 20
178.7250513396
 11
148.0607856589
 21
182.8656181341
  0
LINE
  5
2F3
100
AcDbEntity
  8
0
100
AcDbLine
 62
7
  6
BYLAYER
 10
148.0607856589
 20
189.4540112807
 11
148.0607856589
 21
196.7211978496
  0
LINE
  5
2F4
100
AcDbEntity
  8
0
100
AcDbLine
 62
7
  6
BYLAYER
 10
148.9357856589
 20
134.6667843837
 11
148.9357856589
 21
136.4513639803
  0
LINE
  5
2F5
100
AcDbEntity
  8
0
100
AcDbLine
 62
7
  6
BYLAYER
 10
148.9357856589
 20
138.4825896637
 11
148.9357856589
 21
143.8272855736
  0
LINE
  5
2F6
100
AcDbEntity
  8
0
100
AcDbLine
 62
7
  6
BYLAYER
 10
148.9357856589
 20
148.0177524454
 11
148.9357856589
 21
175.8007026495
  0
LINE
  5
2F7
100
AcDbEntity
  8
0
100
AcDbLine
 62
7
  6
BYLAYER
 10
148.9357856589
 20
178.7250239466
 11
148.9357856589
 21
183.0009814243
  0
LINE
  5
2F8
100
AcDbEntity
  8
0
100
AcDbLine
 62
7
  6
BYLAYER
 10
148.9357856589
 20
189.4543931291
 11
148.9357856589
 21
196.7211978496
  0
LINE
  5
2F9
100
AcDbEntity
  8
0
100
AcDbLine
 62
7
  6
BYLAYER
 10
149.205307065
 20
181.0290625076
 11
149.205307065
 21
178.7632484464
  0
LINE
  5
2FA
100
AcDbEntity
  8
0
100
AcDbLine
 62
7
  6
BYLAYER
 10
149.205307065
 20
175.810288218
 11
149.205307065
 21
172.1812523519
  0
LINE
  5
2FB
100
AcDbEntity
  8
0
100
AcDbLine
 62
7
  6
BYLAYER
 10
149.205307065
 20
162.219922863
 11
149.205307065
 21
167.2822378492
  0
LINE
  5
2FC
100
AcDbEntity
  8
0
100
AcDbLine
 62
7
  6
BYLAYER
 10
151.4982856589
 20
134.2585331751
 11
151.4982856589
 21
124.8687553781
  0
LINE
  5
2FD
100
AcDbEntity
  8
0
100
AcDbLine
 62
7
  6
BYLAYER
 10
152.5920788045
 20
187.0045181901
 11
152.5920788045
 21
183.5666132759
  0
LINE
  5
2FE
100
AcDbEntity
  8
0
100
AcDbLine
 62
7
  6
BYLAYER
 10
152.7409440098
 20
144.8287362794
 11
152.7409440098
 21
147.2782435308
  0
LINE
  5
2FF
100
AcDbEntity
  8
0
100
AcDbLine
 62
7
  6
BYLAYER
 10
141.7807903735
 20
118.1326511933
 11
142.4878942107
 21
119.3573977643
  0
LINE
  5
300
100
AcDbEntity
  8
0
100
AcDbLine
 62
7
  6
BYLAYER
 10
142.4878942107
 20
119.3573977643
 11
143.3297189928
 21
119.8434226277
  0
LINE
  5
301
100
AcDbEntity
  8
0
100
AcDbLine
 62
7
  6
BYLAYER
 10
145.4510481682
 20
118.6187003641
 11
144.6092233861
 21
118.1326755007
  0
LINE
  5
302
100
AcDbEntity
  8
0
100
AcDbLine
 62
7
  6
BYLAYER
 10
171.1256908808
 20
157.0762291842
 11
166.8830325299
 21
159.5256737113
  0
LINE
  5
303
100
AcDbEntity
  8
0
100
AcDbLine
 62
7
  6
BYLAYER
 10
155.5692769276
 20
166.0575257837
 11
151.3266185767
 21
168.5069703108
  0
LINE
  5
304
100
AcDbEntity
  8
0
100
AcDbLine
 62
7
  6
BYLAYER
 10
169.0043793691
 20
160.7505112254
 11
164.7617210183
 21
163.1999557525
  0
LINE
  5
305
100
AcDbEntity
  8
0
100
AcDbLine
 62
7
  6
BYLAYER
 10
153.4479654159
 20
169.7318078248
 11
149.205307065
 21
172.1812523519
  0
LINE
  5
306
100
AcDbEntity
  8
0
100
AcDbLine
 62
7
  6
BYLAYER
 10
153.4982856589
 20
139.3214487966
 11
153.4982856589
 21
140.3012516972
  0
LINE
  5
307
100
AcDbEntity
  8
0
100
AcDbLine
 62
7
  6
BYLAYER
 10
153.5127674482
 20
189.3763783103
 11
153.5127674482
 21
191.0093831445
  0
LINE
  5
308
100
AcDbEntity
  8
0
100
AcDbLine
 62
7
  6
BYLAYER
 10
154.0904815725
 20
190.2331350533
 11
154.0904815725
 21
186.795230139
  0
LINE
  5
309
100
AcDbEntity
  8
0
100
AcDbLine
 62
7
  6
BYLAYER
 10
154.4982856589
 20
121.6027457096
 11
154.4982856589
 21
124.8687553781
  0
LINE
  5
30A
100
AcDbEntity
  8
0
100
AcDbLine
 62
7
  6
BYLAYER
 10
154.4982856589
 20
179.2430822079
 11
154.4982856589
 21
180.5494860753
  0
LINE
  5
30B
100
AcDbEntity
  8
0
100
AcDbLine
 62
7
  6
BYLAYER
 10
155.2157809443
 20
80.1652072838
 11
155.2157809443
 21
80.5058591866
  0
LINE
  5
30C
100
AcDbEntity
  8
0
100
AcDbLine
 62
7
  6
BYLAYER
 10
155.2157809443
 20
81.5162164435
 11
155.2157809443
 21
96.8359075292
  0
LINE
  5
30D
100
AcDbEntity
  8
0
100
AcDbLine
 62
7
  6
BYLAYER
 10
155.2157809443
 20
97.8462647861
 11
155.2157809443
 21
123.4398353916
  0
LINE
  5
30E
100
AcDbEntity
  8
0
100
AcDbLine
 62
7
  6
BYLAYER
 10
155.21580744
 20
148.7070980693
 11
155.21580744
 21
146.2575908179
  0
LINE
  5
30F
100
AcDbEntity
  8
0
100
AcDbLine
 62
7
  6
BYLAYER
 10
156.9835140416
 20
178.3051354749
 11
156.9835140416
 21
171.7731161379
  0
LINE
  5
310
100
AcDbEntity
  8
0
100
AcDbLine
 62
7
  6
BYLAYER
 10
159.1048255533
 20
179.5298679365
 11
159.1048255533
 21
172.9978485995
  0
LINE
  5
311
100
AcDbEntity
  8
0
100
AcDbLine
 62
7
  6
BYLAYER
 10
144.6092233861
 20
118.1326755007
 11
143.9021195489
 21
116.9079289297
  0
LINE
  5
312
100
AcDbEntity
  8
0
100
AcDbLine
 62
7
  6
BYLAYER
 10
124.5015931477
 20
94.6608646199
 11
117.4305547756
 21
90.5784230812
  0
LINE
  5
313
100
AcDbEntity
  8
0
100
AcDbLine
 62
7
  6
BYLAYER
 10
146.9998828909
 20
182.7014955178
 11
142.9060897453
 21
185.0649946229
  0
LINE
  5
314
100
AcDbEntity
  8
0
100
AcDbLine
 62
7
  6
BYLAYER
 10
169.0043793691
 20
171.3650426481
 11
161.2261723925
 21
175.8556909478
  0
LINE
  5
315
100
AcDbEntity
  8
0
100
AcDbLine
 62
7
  6
BYLAYER
 10
154.4982856589
 20
179.7399502909
 11
156.9835140416
 21
178.3051354749
  0
LINE
  5
316
100
AcDbEntity
  8
0
100
AcDbLine
 62
7
  6
BYLAYER
 10
142.9060897453
 20
188.5028995371
 11
146.9998828909
 21
186.139400432
  0
LINE
  5
317
100
AcDbEntity
  8
0
100
AcDbLine
 62
7
  6
BYLAYER
 10
152.2141007863
 20
183.5081397351
 11
159.1048255533
 21
179.5298679365
  0
LINE
  5
318
100
AcDbEntity
  8
0
100
AcDbLine
 62
7
  6
BYLAYER
 10
163.3474839042
 20
177.0804234094
 11
171.1256908808
 21
172.5897751097
  0
LINE
  5
319
100
AcDbEntity
  8
0
100
AcDbLine
 62
7
  6
BYLAYER
 10
161.2261723925
 20
169.3236716108
 11
161.2261723925
 21
175.8556909478
  0
LINE
  5
31A
100
AcDbEntity
  8
0
100
AcDbLine
 62
7
  6
BYLAYER
 10
163.7010888142
 20
146.2576112141
 11
163.7010888142
 21
148.7071184654
  0
LINE
  5
31B
100
AcDbEntity
  8
0
100
AcDbLine
 62
7
  6
BYLAYER
 10
165.1153082645
 20
147.8906369564
 11
165.1153082645
 21
145.441129705
  0
LINE
  5
31C
100
AcDbEntity
  8
0
100
AcDbLine
 62
7
  6
BYLAYER
 10
35.0820821368
 20
195.1409975737
 11
29.4898862232
 21
194.2758798156
  0
LINE
  5
31D
100
AcDbEntity
  8
0
100
AcDbLine
 62
7
  6
BYLAYER
 10
29.4898862232
 20
197.7137847298
 11
35.0820821368
 21
198.5789024879
  0
LINE
  5
31E
100
AcDbEntity
  8
0
100
AcDbLine
 62
7
  6
BYLAYER
 10
154.0904815725
 20
190.2331350533
 11
153.5127674482
 21
190.5666709129
  0
LINE
  5
31F
100
AcDbEntity
  8
0
100
AcDbLine
 62
7
  6
BYLAYER
 10
169.0043793691
 20
171.3650426481
 11
169.0043793691
 21
160.7505112254
  0
LINE
  5
320
100
AcDbEntity
  8
0
100
AcDbLine
 62
7
  6
BYLAYER
 10
169.0043793691
 20
155.8514967226
 11
169.0043793691
 21
150.7891817364
  0
LINE
  5
321
100
AcDbEntity
  8
0
100
AcDbLine
 62
7
  6
BYLAYER
 10
171.1256908808
 20
172.5897751097
 11
171.1256908808
 21
161.975243687
  0
LINE
  5
322
100
AcDbEntity
  8
0
100
AcDbLine
 62
7
  6
BYLAYER
 10
171.1256908808
 20
152.013914198
 11
171.1256908808
 21
157.0762291842
  0
LINE
  5
323
100
AcDbEntity
  8
0
100
AcDbLine
 62
7
  6
BYLAYER
 10
154.5086771071
 20
78.9404607128
 11
155.2157809443
 21
80.1652072838
  0
LINE
  5
324
100
AcDbEntity
  8
0
100
AcDbLine
 62
7
  6
BYLAYER
 10
169.6310787115
 20
84.5097133711
 11
171.5835111082
 21
89.5418529747
  0
LINE
  5
325
100
AcDbEntity
  8
0
100
AcDbLine
 62
7
  6
BYLAYER
 10
174.9069268164
 20
87.6231214285
 11
172.9544944197
 21
82.5909818249
  0
LINE
  5
326
100
AcDbEntity
  8
0
100
AcDbLine
 62
7
  6
BYLAYER
 10
171.5835111082
 20
89.5418529747
 11
175.4883759016
 21
91.796314257
  0
LINE
  5
327
100
AcDbEntity
  8
0
100
AcDbLine
 62
7
  6
BYLAYER
 10
144.6092233861
 20
73.2250425586
 11
154.5086771071
 21
78.9404607128
  0
LINE
  5
328
100
AcDbEntity
  8
0
100
AcDbLine
 62
7
  6
BYLAYER
 10
178.8117916098
 20
89.8775827108
 11
174.9069268164
 21
87.6231214285
  0
LINE
  5
329
100
AcDbEntity
  8
0
100
AcDbLine
 62
7
  6
BYLAYER
 10
169.6310787115
 20
68.1796650285
 11
171.5835111082
 21
73.2118046321
  0
LINE
  5
32A
100
AcDbEntity
  8
0
100
AcDbLine
 62
7
  6
BYLAYER
 10
178.8117916098
 20
82.0677647858
 11
179.1748325989
 21
83.0034555387
  0
LINE
  5
32B
100
AcDbEntity
  8
0
100
AcDbLine
 62
7
  6
BYLAYER
 10
179.4951023951
 20
83.8289091257
 11
180.7642240064
 21
87.0999043894
  0
LINE
  5
32C
100
AcDbEntity
  8
0
100
AcDbLine
 62
7
  6
BYLAYER
 10
174.9069268164
 20
71.2930730859
 11
172.9544944197
 21
66.2609334823
  0
LINE
  5
32D
100
AcDbEntity
  8
0
100
AcDbLine
 62
7
  6
BYLAYER
 10
174.9069268164
 20
79.8133035035
 11
178.8117916098
 21
82.0677647858
  0
LINE
  5
32E
100
AcDbEntity
  8
0
100
AcDbLine
 62
7
  6
BYLAYER
 10
178.8117916098
 20
65.7377164432
 11
179.1748325989
 21
66.6734071962
  0
LINE
  5
32F
100
AcDbEntity
  8
0
100
AcDbLine
 62
7
  6
BYLAYER
 10
179.4951023951
 20
67.4988607831
 11
180.7642240064
 21
70.7698560468
  0
LINE
  5
330
100
AcDbEntity
  8
0
100
AcDbLine
 62
7
  6
BYLAYER
 10
171.5835111082
 20
73.2118046321
 11
175.4883759016
 21
75.4662659144
  0
LINE
  5
331
100
AcDbEntity
  8
0
100
AcDbLine
 62
7
  6
BYLAYER
 10
178.8117916098
 20
73.5475343682
 11
174.9069268164
 21
71.2930730859
  0
LINE
  5
332
100
AcDbEntity
  8
0
100
AcDbLine
 62
7
  6
BYLAYER
 10
174.9069268164
 20
63.4832551609
 11
178.8117916098
 21
65.7377164432
  0
ARC
  5
333
100
AcDbEntity
  8
0
100
AcDbCircle
 62
7
  6
BYLAYER
 10
31.8683549327
 20
199.5989327354
 40
6.8404485214
100
AcDbArc
 50
292.2862704734
 51
295.5828120251
  0
ARC
  5
334
100
AcDbEntity
  8
0
100
AcDbCircle
 62
7
  6
BYLAYER
 10
32.1770871885
 20
198.9503470389
 40
6.1221337328
100
AcDbArc
 50
295.5978269091
 51
299.9221504291
  0
ARC
  5
335
100
AcDbEntity
  8
0
100
AcDbCircle
 62
7
  6
BYLAYER
 10
29.4075461538
 20
198.2623126561
 40
5.3303018445
100
AcDbArc
 50
236.6163643159
 51
240.0405879369
  0
ARC
  5
336
100
AcDbEntity
  8
0
100
AcDbCircle
 62
7
  6
BYLAYER
 10
29.0725680943
 20
197.7636238551
 40
4.7295780656
100
AcDbArc
 50
232.0197991436
 51
236.6806759357
  0
ARC
  5
337
100
AcDbEntity
  8
0
100
AcDbCircle
 62
7
  6
BYLAYER
 10
147.7872857554
 20
146.0601057776
 40
2.8206891476
100
AcDbArc
 50
119.7272574753
 51
119.9996410947
  0
ARC
  5
338
100
AcDbEntity
  8
0
100
AcDbCircle
 62
7
  6
BYLAYER
 10
27.0202797907
 20
192.7096393697
 40
2.0319847391
100
AcDbArc
 50
168.7053995387
 51
179.9433408913
  0
ARC
  5
339
100
AcDbEntity
  8
0
100
AcDbCircle
 62
7
  6
BYLAYER
 10
27.0053570546
 20
196.0940525764
 40
2.0170454577
100
AcDbArc
 50
180.0096187829
 51
191.2868067386
  0
ARC
  5
33A
100
AcDbEntity
  8
0
100
AcDbCircle
 62
7
  6
BYLAYER
 10
26.9885136128
 20
196.1387454948
 40
2.0002198959
100
AcDbArc
 50
179.9981086972
 51
181.2638291809
  0
ARC
  5
33B
100
AcDbEntity
  8
0
100
AcDbCircle
 62
7
  6
BYLAYER
 10
31.4559702698
 20
165.0308314163
 40
1.6290498234
100
AcDbArc
 50
239.9986506353
 51
240.927054972
  0
ARC
  5
33C
100
AcDbEntity
  8
0
100
AcDbCircle
 62
7
  6
BYLAYER
 10
31.4559702695
 20
148.7007830732
 40
1.6290498229
100
AcDbArc
 50
239.9986506351
 51
240.9270549722
  0
ARC
  5
33D
100
AcDbEntity
  8
0
100
AcDbCircle
 62
7
  6
BYLAYER
 10
147.8591339217
 20
162.3431677181
 40
1.362726077
100
AcDbArc
 50
322.2621973627
 51
330.0280144162
  0
SPLINE
  5
33E
100
AcDbEntity
  8
0
100
AcDbSpline
 62
7
  6
BYLAYER
 70
0
 71
3
 72
25
 73
21
 74
0
 42
0.0000001
 43
0.0000001
 44
0.0000000001
 40
0.0
 40
0.0
 40
0.0
 40
0.0
 40
0.0623846458
 40
0.1287223262
 40
0.1983155149
 40
0.2702917949
 40
0.3436690864
 40
0.4174006504
 40
0.4904248613
 40
0.5617113084
 40
0.6303087055
 40
0.6953964915
 40
0.7563442906
 40
0.8127818088
 40
0.8646826169
 40
0.9124576046
 40
0.9351022006
 40
0.9571075412
 40
0.9786679854
 40
1.0
 40
1.0
 40
1.0
 40
1.0
 10
28.6421139831
 20
150.0969570173
 30
0.0
 10
28.6421139831
 20
150.2996847543
 30
0.0
 10
28.6695756082
 20
150.7182657591
 30
0.0
 10
28.782592977
 20
151.3538240174
 30
0.0
 10
28.9663213353
 20
152.0050642105
 30
0.0
 10
29.2168513421
 20
152.6580634735
 30
0.0
 10
29.5288366915
 20
153.2989781024
 30
0.0
 10
29.8956295655
 20
153.9141327489
 30
0.0
 10
30.3094029334
 20
154.4904078096
 30
0.0
 10
30.7613445498
 20
155.0155220082
 30
0.0
 10
31.2418646669
 20
155.4783126373
 30
0.0
 10
31.7408555845
 20
155.8689683504
 30
0.0
 10
32.247938852
 20
156.1792135005
 30
0.0
 10
32.7528710272
 20
156.4023561126
 30
0.0
 10
33.2454134092
 20
156.5332742583
 30
0.0
 10
33.6448949454
 20
156.5626066411
 30
0.0
 10
33.9445088296
 20
156.5344837903
 30
0.0
 10
34.155458072
 20
156.4894999849
 30
0.0
 10
34.3552698406
 20
156.4204256986
 30
0.0
 10
34.4805966374
 20
156.3584069132
 30
0.0
 10
34.5406299286
 20
156.3237448218
 30
0.0
  0
SPLINE
  5
33F
100
AcDbEntity
  8
0
100
AcDbSpline
 62
7
  6
BYLAYER
 70
0
 71
3
 72
15
 73
11
 74
0
 42
0.0000001
 43
0.0000001
 44
0.0000000001
 40
0.0
 40
0.0
 40
0.0
 40
0.0
 40
0.1080121377
 40
0.2180611197
 40
0.3319978735
 40
0.4513559424
 40
0.5772769893
 40
0.7104924103
 40
0.8514102244
 40
1.0
 40
1.0
 40
1.0
 40
1.0
 10
29.6541782312
 20
147.859970732
 30
0.0
 10
29.5740621345
 20
147.906228257
 30
0.0
 10
29.4200191023
 20
148.013704694
 30
0.0
 10
29.2164935197
 20
148.2140175902
 30
0.0
 10
29.0414462483
 20
148.4517515926
 30
0.0
 10
28.8965062452
 20
148.7242485141
 30
0.0
 10
28.7828135363
 20
149.0287241621
 30
0.0
 10
28.7012171186
 20
149.3622361487
 30
0.0
 10
28.6523738869
 20
149.7215599267
 30
0.0
 10
28.6421139831
 20
149.9696913305
 30
0.0
 10
28.6421139831
 20
150.0969570173
 30
0.0
  0
SPLINE
  5
340
100
AcDbEntity
  8
0
100
AcDbSpline
 62
7
  6
BYLAYER
 70
0
 71
3
 72
12
 73
8
 74
0
 42
0.0000001
 43
0.0000001
 44
0.0000000001
 40
0.0
 40
0.0
 40
0.0
 40
0.0
 40
0.2167181829
 40
0.3337910319
 40
0.4566403787
 40
0.7186652673
 40
1.0
 40
1.0
 40
1.0
 40
1.0
 10
34.2923535755
 20
155.9573744424
 30
0.0
 10
34.0898632711
 20
155.9276991557
 30
0.0
 10
33.7828282432
 20
155.8442807562
 30
0.0
 10
33.3856813113
 20
155.6757010422
 30
0.0
 10
32.9660551089
 20
155.4540349964
 30
0.0
 10
32.4461719355
 20
155.0957742113
 30
0.0
 10
32.063922047
 20
154.7513621026
 30
0.0
 10
31.8768299341
 20
154.5627396708
 30
0.0
  0
SPLINE
  5
341
100
AcDbEntity
  8
0
100
AcDbSpline
 62
7
  6
BYLAYER
 70
0
 71
3
 72
11
 73
7
 74
0
 42
0.0000001
 43
0.0000001
 44
0.0000000001
 40
0.0
 40
0.0
 40
0.0
 40
0.0
 40
0.2598952591
 40
0.517496877
 40
0.766161175
 40
1.0
 40
1.0
 40
1.0
 40
1.0
 10
30.9857084168
 20
153.4794489795
 30
0.0
 10
30.8026810199
 20
153.2121544816
 30
0.0
 10
30.468863062
 20
152.658259969
 30
0.0
 10
30.0714577047
 20
151.78757579
 30
0.0
 10
29.7901725728
 20
150.9066700909
 30
0.0
 10
29.6832630398
 20
150.3123576309
 30
0.0
 10
29.6545274117
 20
150.0223035079
 30
0.0
  0
SPLINE
  5
342
100
AcDbEntity
  8
0
100
AcDbSpline
 62
7
  6
BYLAYER
 70
0
 71
3
 72
11
 73
7
 74
0
 42
0.0000001
 43
0.0000001
 44
0.0000000001
 40
0.0
 40
0.0
 40
0.0
 40
0.0
 40
0.2714865925
 40
0.5254168199
 40
0.7662353257
 40
1.0
 40
1.0
 40
1.0
 40
1.0
 10
29.7689165101
 20
148.4850518958
 30
0.0
 10
29.8079945737
 20
148.3537185605
 30
0.0
 10
29.9019437213
 20
148.1043506404
 30
0.0
 10
30.098916529
 20
147.7690904814
 30
0.0
 10
30.3443557404
 20
147.4920319065
 30
0.0
 10
30.539235534
 20
147.3489986204
 30
0.0
 10
30.6414121328
 20
147.2900037257
 30
0.0
  0
SPLINE
  5
343
100
AcDbEntity
  8
0
100
AcDbSpline
 62
7
  6
BYLAYER
 70
0
 71
3
 72
25
 73
21
 74
0
 42
0.0000001
 43
0.0000001
 44
0.0000000001
 40
0.0
 40
0.0
 40
0.0
 40
0.0
 40
0.0623846458
 40
0.1287223262
 40
0.1983155149
 40
0.2702917949
 40
0.3436690864
 40
0.4174006504
 40
0.4904248613
 40
0.5617113084
 40
0.6303087055
 40
0.6953964915
 40
0.7563442906
 40
0.8127818088
 40
0.8646826169
 40
0.9124576046
 40
0.9351022006
 40
0.9571075412
 40
0.9786679854
 40
1.0
 40
1.0
 40
1.0
 40
1.0
 10
28.6421139831
 20
166.4270053599
 30
0.0
 10
28.6421139831
 20
166.6297330969
 30
0.0
 10
28.6695756082
 20
167.0483141017
 30
0.0
 10
28.782592977
 20
167.6838723599
 30
0.0
 10
28.9663213353
 20
168.3351125531
 30
0.0
 10
29.2168513421
 20
168.9881118161
 30
0.0
 10
29.5288366915
 20
169.629026445
 30
0.0
 10
29.8956295655
 20
170.2441810915
 30
0.0
 10
30.3094029334
 20
170.8204561522
 30
0.0
 10
30.7613445498
 20
171.3455703508
 30
0.0
 10
31.2418646669
 20
171.8083609799
 30
0.0
 10
31.7408555845
 20
172.1990166929
 30
0.0
 10
32.247938852
 20
172.5092618431
 30
0.0
 10
32.7528710272
 20
172.7324044552
 30
0.0
 10
33.2454134092
 20
172.8633226009
 30
0.0
 10
33.6448949454
 20
172.8926549837
 30
0.0
 10
33.9445088296
 20
172.8645321329
 30
0.0
 10
34.155458072
 20
172.8195483275
 30
0.0
 10
34.3552698406
 20
172.7504740412
 30
0.0
 10
34.4805966374
 20
172.6884552558
 30
0.0
 10
34.5406299286
 20
172.6537931644
 30
0.0
  0
SPLINE
  5
344
100
AcDbEntity
  8
0
100
AcDbSpline
 62
7
  6
BYLAYER
 70
0
 71
3
 72
15
 73
11
 74
0
 42
0.0000001
 43
0.0000001
 44
0.0000000001
 40
0.0
 40
0.0
 40
0.0
 40
0.0
 40
0.1080121377
 40
0.2180611197
 40
0.3319978735
 40
0.4513559424
 40
0.5772769893
 40
0.7104924103
 40
0.8514102244
 40
1.0
 40
1.0
 40
1.0
 40
1.0
 10
29.6541782312
 20
164.1900190746
 30
0.0
 10
29.5740621345
 20
164.2362765996
 30
0.0
 10
29.4200191023
 20
164.3437530366
 30
0.0
 10
29.2164935197
 20
164.5440659328
 30
0.0
 10
29.0414462483
 20
164.7817999352
 30
0.0
 10
28.8965062452
 20
165.0542968567
 30
0.0
 10
28.7828135363
 20
165.3587725047
 30
0.0
 10
28.7012171186
 20
165.6922844913
 30
0.0
 10
28.6523738869
 20
166.0516082693
 30
0.0
 10
28.6421139831
 20
166.2997396731
 30
0.0
 10
28.6421139831
 20
166.4270053599
 30
0.0
  0
SPLINE
  5
345
100
AcDbEntity
  8
0
100
AcDbSpline
 62
7
  6
BYLAYER
 70
0
 71
3
 72
12
 73
8
 74
0
 42
0.0000001
 43
0.0000001
 44
0.0000000001
 40
0.0
 40
0.0
 40
0.0
 40
0.0
 40
0.2167181829
 40
0.3337910319
 40
0.4566403787
 40
0.7186652673
 40
1.0
 40
1.0
 40
1.0
 40
1.0
 10
34.2923535755
 20
172.287422785
 30
0.0
 10
34.0898632711
 20
172.2577474983
 30
0.0
 10
33.7828282432
 20
172.1743290988
 30
0.0
 10
33.3856813113
 20
172.0057493848
 30
0.0
 10
32.9660551089
 20
171.784083339
 30
0.0
 10
32.4461719355
 20
171.4258225539
 30
0.0
 10
32.063922047
 20
171.0814104452
 30
0.0
 10
31.8768299341
 20
170.8927880134
 30
0.0
  0
SPLINE
  5
346
100
AcDbEntity
  8
0
100
AcDbSpline
 62
7
  6
BYLAYER
 70
0
 71
3
 72
11
 73
7
 74
0
 42
0.0000001
 43
0.0000001
 44
0.0000000001
 40
0.0
 40
0.0
 40
0.0
 40
0.0
 40
0.2598952591
 40
0.517496877
 40
0.766161175
 40
1.0
 40
1.0
 40
1.0
 40
1.0
 10
30.9857084168
 20
169.8094973221
 30
0.0
 10
30.8026810199
 20
169.5422028242
 30
0.0
 10
30.468863062
 20
168.9883083116
 30
0.0
 10
30.0714577047
 20
168.1176241326
 30
0.0
 10
29.7901725728
 20
167.2367184335
 30
0.0
 10
29.6832630398
 20
166.6424059735
 30
0.0
 10
29.6545274117
 20
166.3523518505
 30
0.0
  0
SPLINE
  5
347
100
AcDbEntity
  8
0
100
AcDbSpline
 62
7
  6
BYLAYER
 70
0
 71
3
 72
11
 73
7
 74
0
 42
0.0000001
 43
0.0000001
 44
0.0000000001
 40
0.0
 40
0.0
 40
0.0
 40
0.0
 40
0.2714865925
 40
0.5254168199
 40
0.7662353257
 40
1.0
 40
1.0
 40
1.0
 40
1.0
 10
29.7689165101
 20
164.8151002384
 30
0.0
 10
29.8079945737
 20
164.6837669031
 30
0.0
 10
29.9019437213
 20
164.434398983
 30
0.0
 10
30.098916529
 20
164.099138824
 30
0.0
 10
30.3443557404
 20
163.8220802491
 30
0.0
 10
30.539235534
 20
163.679046963
 30
0.0
 10
30.6414121328
 20
163.6200520683
 30
0.0
  0
SPLINE
  5
348
100
AcDbEntity
  8
0
100
AcDbSpline
 62
7
  6
BYLAYER
 70
0
 71
3
 72
11
 73
7
 74
0
 42
0.0000001
 43
0.0000001
 44
0.0000000001
 40
0.0
 40
0.0
 40
0.0
 40
0.0
 40
0.2629331091
 40
0.5150735462
 40
0.7595371889
 40
1.0
 40
1.0
 40
1.0
 40
1.0
 10
25.3908149524
 20
198.6926317233
 30
0.0
 10
25.3260745086
 20
198.5957976869
 30
0.0
 10
25.210807134
 20
198.3979629228
 30
0.0
 10
25.0829695766
 20
198.0854651752
 30
0.0
 10
25.0055965658
 20
197.7669517003
 30
0.0
 10
24.9882971215
 20
197.551743008
 30
0.0
 10
24.9882935702
 20
197.4452151851
 30
0.0
  0
SPLINE
  5
349
100
AcDbEntity
  8
0
100
AcDbSpline
 62
7
  6
BYLAYER
 70
0
 71
3
 72
11
 73
7
 74
0
 42
0.0000001
 43
0.0000001
 44
0.0000000001
 40
0.0
 40
0.0
 40
0.0
 40
0.0
 40
0.2413896824
 40
0.4863727674
 40
0.7382862966
 40
1.0
 40
1.0
 40
1.0
 40
1.0
 10
36.9882844123
 20
197.4452151926
 30
0.0
 10
36.9882877679
 20
197.5458731275
 30
0.0
 10
36.9728493789
 20
197.7490079517
 30
0.0
 10
36.9038557742
 20
198.0501226612
 30
0.0
 10
36.7896785834
 20
198.3461912886
 30
0.0
 10
36.6864067153
 20
198.5346031439
 30
0.0
 10
36.6283236469
 20
198.6269955214
 30
0.0
  0
SPLINE
  5
34A
100
AcDbEntity
  8
0
100
AcDbSpline
 62
7
  6
BYLAYER
 70
0
 71
3
 72
25
 73
21
 74
0
 42
0.0000001
 43
0.0000001
 44
0.0000000001
 40
0.0
 40
0.0
 40
0.0
 40
0.0
 40
0.0622646529
 40
0.1284577156
 40
0.1978917787
 40
0.2697072162
 40
0.342935802
 40
0.4165447605
 40
0.4894854581
 40
0.5607384086
 40
0.6293600214
 40
0.6945327482
 40
0.7556227658
 40
0.8122476314
 40
0.8643573448
 40
0.9123255027
 40
0.9350444231
 40
0.9571008718
 40
0.9786824159
 40
1.0
 40
1.0
 40
1.0
 40
1.0
 10
35.2309473421
 20
193.6893667943
 30
0.0
 10
35.0165795992
 20
193.565602259
 30
0.0
 10
34.5573551171
 20
193.3389697305
 30
0.0
 10
33.8167125022
 20
193.0698833801
 30
0.0
 10
33.0164395968
 20
192.865606738
 30
0.0
 10
32.1734532924
 20
192.7304791914
 30
0.0
 10
31.3054558281
 20
192.6672986026
 30
0.0
 10
30.4307654888
 20
192.677408025
 30
0.0
 10
29.5678420769
 20
192.7605896164
 30
0.0
 10
28.7348786453
 20
192.9150951136
 30
0.0
 10
27.9493872222
 20
193.1376912964
 30
0.0
 10
27.22780141
 20
193.4237864174
 30
0.0
 10
26.5851361494
 20
193.76757217
 30
0.0
 10
26.034683089
 20
194.1624079293
 30
0.0
 10
25.5880986071
 20
194.6006995552
 30
0.0
 10
25.3057372094
 20
195.0033716003
 30
0.0
 10
25.1459477875
 20
195.3364136056
 30
0.0
 10
25.059616065
 20
195.5863577895
 30
0.0
 10
25.0053227766
 20
195.8394495587
 30
0.0
 10
24.990649502
 20
196.0099018315
 30
0.0
 10
24.9887803052
 20
196.0946282613
 30
0.0
  0
SPLINE
  5
34B
100
AcDbEntity
  8
0
100
AcDbSpline
 62
7
  6
BYLAYER
 70
0
 71
3
 72
15
 73
11
 74
0
 42
0.0000001
 43
0.0000001
 44
0.0000000001
 40
0.0
 40
0.0
 40
0.0
 40
0.0
 40
0.1080119564
 40
0.2180607719
 40
0.3319973889
 40
0.4513553684
 40
0.5772763923
 40
0.7104918828
 40
0.8514098883
 40
1.0
 40
1.0
 40
1.0
 40
1.0
 10
36.9882842616
 20
196.1388113244
 30
0.0
 10
36.9882805179
 20
196.0252244836
 30
0.0
 10
36.9685647839
 20
195.795447124
 30
0.0
 10
36.8805111714
 20
195.4560615248
 30
0.0
 10
36.7351841855
 20
195.1239846412
 30
0.0
 10
36.5344102702
 20
194.8025803047
 30
0.0
 10
36.2804499816
 20
194.4947698121
 30
0.0
 10
35.9759107145
 20
194.2032621383
 30
0.0
 10
35.6238178171
 20
193.9307352159
 30
0.0
 10
35.3662721369
 20
193.7674961347
 30
0.0
 10
35.2309473421
 20
193.6893667943
 30
0.0
  0
SPLINE
  5
34C
100
AcDbEntity
  8
0
100
AcDbSpline
 62
7
  6
BYLAYER
 70
0
 71
3
 72
25
 73
21
 74
0
 42
0.0000001
 43
0.0000001
 44
0.0000000001
 40
0.0
 40
0.0
 40
0.0
 40
0.0
 40
0.0213317793
 40
0.0428919992
 40
0.0648971443
 40
0.0875415809
 40
0.1353164139
 40
0.1872172777
 40
0.2436549702
 40
0.3046029338
 40
0.3696908258
 40
0.438288319
 40
0.5095749011
 40
0.5825992549
 40
0.6563309079
 40
0.729708272
 40
0.8016846717
 40
0.8712779568
 40
0.9376156274
 40
1.0
 40
1.0
 40
1.0
 40
1.0
 10
24.9882935702
 20
197.4452151851
 30
0.0
 10
24.9882907327
 20
197.3600986689
 30
0.0
 10
24.999283351
 20
197.18875701
 30
0.0
 10
25.048501301
 20
196.9338796079
 30
0.0
 10
25.1301750624
 20
196.6819488331
 30
0.0
 10
25.2842123705
 20
196.3460865057
 30
0.0
 10
25.5606595101
 20
195.9393021953
 30
0.0
 10
26.0022637691
 20
195.4959273666
 30
0.0
 10
26.5495435467
 20
195.0959971478
 30
0.0
 10
27.1907653007
 20
194.7472545921
 30
0.0
 10
27.9125237213
 20
194.4564834176
 30
0.0
 10
28.699647376
 20
194.2296384824
 30
0.0
 10
29.5354982512
 20
194.0714442207
 30
0.0
 10
30.4023189133
 20
193.9852449228
 30
0.0
 10
31.2816397461
 20
193.9728714744
 30
0.0
 10
32.1547048833
 20
194.0345925059
 30
0.0
 10
33.0028913363
 20
194.1690817828
 30
0.0
 10
33.8081955996
 20
194.3735255657
 30
0.0
 10
34.5534111215
 20
194.6435335438
 30
0.0
 10
35.0153745982
 20
194.8713104229
 30
0.0
 10
35.2309473421
 20
194.9957706617
 30
0.0
  0
SPLINE
  5
34D
100
AcDbEntity
  8
0
100
AcDbSpline
 62
7
  6
BYLAYER
 70
0
 71
3
 72
15
 73
11
 74
0
 42
0.0000001
 43
0.0000001
 44
0.0000000001
 40
0.0
 40
0.0
 40
0.0
 40
0.0
 40
0.148590054
 40
0.2895075593
 40
0.4227228329
 40
0.548643783
 40
0.6680017296
 40
0.7819385027
 40
0.8919876359
 40
1.0
 40
1.0
 40
1.0
 40
1.0
 10
35.2309473421
 20
194.9957706617
 30
0.0
 10
35.366272088
 20
195.0738999738
 30
0.0
 10
35.6238173617
 20
195.2371386137
 30
0.0
 10
35.9759096073
 20
195.5096650764
 30
0.0
 10
36.2804483237
 20
195.8011721041
 30
0.0
 10
36.5344089438
 20
196.1089818866
 30
0.0
 10
36.7351831552
 20
196.4303861387
 30
0.0
 10
36.8805104383
 20
196.762463395
 30
0.0
 10
36.9685647563
 20
197.1018497826
 30
0.0
 10
36.9882806257
 20
197.33162792
 30
0.0
 10
36.9882844123
 20
197.4452151926
 30
0.0
  0
SPLINE
  5
34E
100
AcDbEntity
  8
0
100
AcDbSpline
 62
7
  6
BYLAYER
 70
0
 71
3
 72
14
 73
10
 74
0
 42
0.0000001
 43
0.0000001
 44
0.0000000001
 40
0.0
 40
0.0
 40
0.0
 40
0.0
 40
0.1080475707
 40
0.2181297112
 40
0.3321018241
 40
0.4515017425
 40
0.577452781
 40
0.7107155474
 40
1.0
 40
1.0
 40
1.0
 40
1.0
 10
35.3089317495
 20
147.350993499
 30
0.0
 10
35.2679440996
 20
147.3746607341
 30
0.0
 10
35.1891330559
 20
147.4296438678
 30
0.0
 10
35.0850109237
 20
147.5321268287
 30
0.0
 10
34.9954469377
 20
147.6537493712
 30
0.0
 10
34.9213107573
 20
147.7931616533
 30
0.0
 10
34.8631248981
 20
147.9489414266
 30
0.0
 10
34.805943474
 20
148.1827293683
 30
0.0
 10
34.7911486923
 20
148.3687346914
 30
0.0
 10
34.7911486923
 20
148.4954550104
 30
0.0
  0
SPLINE
  5
34F
100
AcDbEntity
  8
0
100
AcDbSpline
 62
7
  6
BYLAYER
 70
0
 71
3
 72
23
 73
19
 74
0
 42
0.0000001
 43
0.0000001
 44
0.0000000001
 40
0.0
 40
0.0
 40
0.0
 40
0.0
 40
0.062391157
 40
0.128744724
 40
0.1983469062
 40
0.2703351587
 40
0.3437239268
 40
0.4174686095
 40
0.4905054054
 40
0.5618039183
 40
0.6304123932
 40
0.6955102917
 40
0.7564673139
 40
0.8129132631
 40
0.8648218184
 40
0.9126041351
 40
0.9571856986
 40
1.0
 40
1.0
 40
1.0
 40
1.0
 10
34.7911486923
 20
148.4954550104
 30
0.0
 10
34.7911486923
 20
148.5991665262
 30
0.0
 10
34.8052027999
 20
148.8133186642
 30
0.0
 10
34.8630138819
 20
149.138477128
 30
0.0
 10
34.9570223267
 20
149.4716604173
 30
0.0
 10
35.0851885559
 20
149.805739555
 30
0.0
 10
35.2448073611
 20
150.1336379649
 30
0.0
 10
35.4324614285
 20
150.4483603327
 30
0.0
 10
35.6441546732
 20
150.7431914428
 30
0.0
 10
35.8753733749
 20
151.0118467814
 30
0.0
 10
36.1212131713
 20
151.2486145217
 30
0.0
 10
36.3764999737
 20
151.4484754964
 30
0.0
 10
36.6359325711
 20
151.6071954829
 30
0.0
 10
36.8942414492
 20
151.7213570515
 30
0.0
 10
37.1462850178
 20
151.7883238677
 30
0.0
 10
37.3871154294
 20
151.8060541094
 30
0.0
 10
37.6113853036
 20
151.7731862254
 30
0.0
 10
37.7472523401
 20
151.7167253383
 30
0.0
 10
37.8088848211
 20
151.6811372912
 30
0.0
  0
SPLINE
  5
350
100
AcDbEntity
  8
0
100
AcDbSpline
 62
7
  6
BYLAYER
 70
0
 71
3
 72
25
 73
21
 74
0
 42
0.0000001
 43
0.0000001
 44
0.0000000001
 40
0.0
 40
0.0
 40
0.0
 40
0.0
 40
0.0623846458
 40
0.1287223262
 40
0.1983155149
 40
0.2702917949
 40
0.3436690864
 40
0.4174006504
 40
0.4904248613
 40
0.5617113084
 40
0.6303087055
 40
0.6953964915
 40
0.7563442906
 40
0.8127818088
 40
0.8646826169
 40
0.9124576046
 40
0.9351022006
 40
0.9571075412
 40
0.9786679854
 40
1.0
 40
1.0
 40
1.0
 40
1.0
 10
159.6692065385
 20
74.4501412189
 30
0.0
 10
159.6692065385
 20
74.6528689559
 30
0.0
 10
159.6966681637
 20
75.0714499607
 30
0.0
 10
159.8096855325
 20
75.707008219
 30
0.0
 10
159.9934138908
 20
76.3582484121
 30
0.0
 10
160.2439438976
 20
77.0112476751
 30
0.0
 10
160.555929247
 20
77.652162304
 30
0.0
 10
160.922722121
 20
78.2673169505
 30
0.0
 10
161.3364954888
 20
78.8435920112
 30
0.0
 10
161.7884371053
 20
79.3687062098
 30
0.0
 10
162.2689572224
 20
79.8314968389
 30
0.0
 10
162.76794814
 20
80.222152552
 30
0.0
 10
163.2750314075
 20
80.5323977022
 30
0.0
 10
163.7799635827
 20
80.7555403142
 30
0.0
 10
164.2725059646
 20
80.8864584599
 30
0.0
 10
164.6719875009
 20
80.9157908427
 30
0.0
 10
164.9716013851
 20
80.887667992
 30
0.0
 10
165.1825506275
 20
80.8426841866
 30
0.0
 10
165.382362396
 20
80.7736099002
 30
0.0
 10
165.5076891929
 20
80.7115911148
 30
0.0
 10
165.567722484
 20
80.6769290234
 30
0.0
  0
SPLINE
  5
351
100
AcDbEntity
  8
0
100
AcDbSpline
 62
7
  6
BYLAYER
 70
0
 71
3
 72
9
 73
5
 74
0
 42
0.0000001
 43
0.0000001
 44
0.0000000001
 40
0.0
 40
0.0
 40
0.0
 40
0.0
 40
0.2754518257
 40
1.0
 40
1.0
 40
1.0
 40
1.0
 10
165.2634857429
 20
77.679980544
 30
0.0
 10
165.2634857429
 20
77.7706602559
 30
0.0
 10
165.2480701625
 20
78.0988754001
 30
0.0
 10
165.1632683012
 20
78.4296794505
 30
0.0
 10
165.0469167136
 20
78.6379002886
 30
0.0
  0
SPLINE
  5
352
100
AcDbEntity
  8
0
100
AcDbSpline
 62
7
  6
BYLAYER
 70
0
 71
3
 72
15
 73
11
 74
0
 42
0.0000001
 43
0.0000001
 44
0.0000000001
 40
0.0
 40
0.0
 40
0.0
 40
0.0
 40
0.148589718
 40
0.2895070319
 40
0.4227222358
 40
0.5486432089
 40
0.6680012449
 40
0.7819381547
 40
0.8919874545
 40
1.0
 40
1.0
 40
1.0
 40
1.0
 10
167.5670206946
 20
77.8699758385
 30
0.0
 10
167.5670206946
 20
77.9972414794
 30
0.0
 10
167.5567609365
 20
78.2453724169
 30
0.0
 10
167.5079177637
 20
78.6046955479
 30
0.0
 10
167.4263215774
 20
78.9382068828
 30
0.0
 10
167.3126295044
 20
79.2426824753
 30
0.0
 10
167.1676896817
 20
79.5151795711
 30
0.0
 10
166.9926422685
 20
79.752913935
 30
0.0
 10
166.7891164168
 20
79.9532276498
 30
0.0
 10
166.6350728911
 20
80.0607044995
 30
0.0
 10
166.5549565072
 20
80.1069622306
 30
0.0
  0
SPLINE
  5
353
100
AcDbEntity
  8
0
100
AcDbSpline
 62
7
  6
BYLAYER
 70
0
 71
3
 72
24
 73
20
 74
0
 42
0.0000001
 43
0.0000001
 44
0.0000000001
 40
0.0
 40
0.0
 40
0.0
 40
0.0
 40
0.0623883656
 40
0.1287326396
 40
0.1983306187
 40
0.2703124621
 40
0.3436952189
 40
0.4174325167
 40
0.4904623098
 40
0.5617540161
 40
0.6303563126
 40
0.6954488373
 40
0.7564011819
 40
0.812842955
 40
0.8647476581
 40
0.9125262945
 40
0.957104263
 40
0.9786663002
 40
1.0
 40
1.0
 40
1.0
 40
1.0
 10
161.9727414902
 20
74.6401365135
 30
0.0
 10
161.9727414902
 20
74.7656326311
 30
0.0
 10
161.9897429695
 20
75.0247551775
 30
0.0
 10
162.0597023317
 20
75.4181969452
 30
0.0
 10
162.1734423836
 20
75.8213472957
 30
0.0
 10
162.3285301529
 20
76.2255847724
 30
0.0
 10
162.5216649166
 20
76.6223414907
 30
0.0
 10
162.7487270183
 20
77.0031518853
 30
0.0
 10
163.004872981
 20
77.3598934725
 30
0.0
 10
163.2846458891
 20
77.6849634981
 30
0.0
 10
163.582110931
 20
77.9714515464
 30
0.0
 10
163.8910067718
 20
78.2132859213
 30
0.0
 10
164.2049243763
 20
78.405338896
 30
0.0
 10
164.5174708906
 20
78.5434842314
 30
0.0
 10
164.8224786877
 20
78.6244962774
 30
0.0
 10
165.1137799145
 20
78.6460176186
 30
0.0
 10
165.3427912795
 20
78.6123074991
 30
0.0
 10
165.5094484531
 20
78.554662716
 30
0.0
 10
165.5870380045
 20
78.5162685123
 30
0.0
 10
165.6242032968
 20
78.4948138994
 30
0.0
  0
SPLINE
  5
354
100
AcDbEntity
  8
0
100
AcDbSpline
 62
7
  6
BYLAYER
 70
0
 71
3
 72
20
 73
16
 74
0
 42
0.0000001
 43
0.0000001
 44
0.0000000001
 40
0.0
 40
0.0
 40
0.0
 40
0.0
 40
0.0457307527
 40
0.0922290926
 40
0.140200984
 40
0.1902422974
 40
0.2428126439
 40
0.2982298146
 40
0.3566746397
 40
0.4182054769
 40
0.4827756822
 40
0.550247182
 40
0.69289758
 40
0.8438424426
 40
1.0
 40
1.0
 40
1.0
 40
1.0
 10
161.6685046883
 20
71.6431879273
 30
0.0
 10
161.7439945364
 20
71.5996014732
 30
0.0
 10
161.9036384853
 20
71.523879972
 30
0.0
 10
162.1611352801
 20
71.448644749
 30
0.0
 10
162.4351217011
 20
71.4118497969
 30
0.0
 10
162.7229960909
 20
71.4136289359
 30
0.0
 10
163.0222786618
 20
71.4537205066
 30
0.0
 10
163.3304481028
 20
71.5316252083
 30
0.0
 10
163.6449579838
 20
71.6465568754
 30
0.0
 10
163.9632132917
 20
71.7974622054
 30
0.0
 10
164.2825871703
 20
71.9830414583
 30
0.0
 10
164.7142801854
 20
72.2800901826
 30
0.0
 10
165.2382092845
 20
72.7297873163
 30
0.0
 10
165.8174228262
 20
73.3641651095
 30
0.0
 10
166.1625051893
 20
73.8387253811
 30
0.0
 10
166.3245960033
 20
74.0883796002
 30
0.0
  0
SPLINE
  5
355
100
AcDbEntity
  8
0
100
AcDbSpline
 62
7
  6
BYLAYER
 70
0
 71
3
 72
11
 73
7
 74
0
 42
0.0000001
 43
0.0000001
 44
0.0000000001
 40
0.0
 40
0.0
 40
0.0
 40
0.0
 40
0.2665213103
 40
0.5250247054
 40
0.7707854979
 40
1.0
 40
1.0
 40
1.0
 40
1.0
 10
166.7642639845
 20
74.8496338298
 30
0.0
 10
166.8914714048
 20
75.0990312262
 30
0.0
 10
167.1177683071
 20
75.6032010818
 30
0.0
 10
167.3711253573
 20
76.3738377563
 30
0.0
 10
167.5281998168
 20
77.1298569592
 30
0.0
 10
167.5670206946
 20
77.6291988561
 30
0.0
 10
167.5670206946
 20
77.8699758385
 30
0.0
  0
SPLINE
  5
356
100
AcDbEntity
  8
0
100
AcDbSpline
 62
7
  6
BYLAYER
 70
0
 71
3
 72
15
 73
11
 74
0
 42
0.0000001
 43
0.0000001
 44
0.0000000001
 40
0.0
 40
0.0
 40
0.0
 40
0.0
 40
0.1080121377
 40
0.2180611197
 40
0.3319978735
 40
0.4513559424
 40
0.5772769893
 40
0.7104924103
 40
0.8514102244
 40
1.0
 40
1.0
 40
1.0
 40
1.0
 10
160.6812707867
 20
72.2131549336
 30
0.0
 10
160.60115469
 20
72.2594124586
 30
0.0
 10
160.4471116578
 20
72.3668888956
 30
0.0
 10
160.2435860752
 20
72.5672017918
 30
0.0
 10
160.0685388037
 20
72.8049357942
 30
0.0
 10
159.9235988007
 20
73.0774327157
 30
0.0
 10
159.8099060917
 20
73.3819083637
 30
0.0
 10
159.728309674
 20
73.7154203503
 30
0.0
 10
159.6794664423
 20
74.0747441283
 30
0.0
 10
159.6692065385
 20
74.3228755321
 30
0.0
 10
159.6692065385
 20
74.4501412189
 30
0.0
  0
SPLINE
  5
357
100
AcDbEntity
  8
0
100
AcDbSpline
 62
7
  6
BYLAYER
 70
0
 71
3
 72
14
 73
10
 74
0
 42
0.0000001
 43
0.0000001
 44
0.0000000001
 40
0.0
 40
0.0
 40
0.0
 40
0.0
 40
0.0984254728
 40
0.2047725137
 40
0.319585874
 40
0.4427441163
 40
0.5735954981
 40
0.7110788321
 40
1.0
 40
1.0
 40
1.0
 40
1.0
 10
162.2035812072
 20
73.6840775043
 30
0.0
 10
162.2939980355
 20
73.6864761834
 30
0.0
 10
162.4818806659
 20
73.7102418869
 30
0.0
 10
162.7642272044
 20
73.7947584639
 30
0.0
 10
163.052499822
 20
73.9274166855
 30
0.0
 10
163.3416052415
 20
74.1056661508
 30
0.0
 10
163.6265925837
 20
74.3262799772
 30
0.0
 10
164.0002603614
 20
74.6772255041
 30
0.0
 10
164.2495664159
 20
74.9826362168
 30
0.0
 10
164.4012668782
 20
75.200535875
 30
0.0
  0
SPLINE
  5
358
100
AcDbEntity
  8
0
100
AcDbSpline
 62
7
  6
BYLAYER
 70
0
 71
3
 72
11
 73
7
 74
0
 42
0.0000001
 43
0.0000001
 44
0.0000000001
 40
0.0
 40
0.0
 40
0.0
 40
0.0
 40
0.2665062338
 40
0.5244802368
 40
0.770021173
 40
1.0
 40
1.0
 40
1.0
 40
1.0
 10
164.8408214709
 20
75.9619465453
 30
0.0
 10
164.9081076174
 20
76.1052536353
 30
0.0
 10
165.0275972237
 20
76.3935896058
 30
0.0
 10
165.1609736548
 20
76.8319432192
 30
0.0
 10
165.2433171997
 20
77.260672885
 30
0.0
 10
165.2634857429
 20
77.5433623045
 30
0.0
 10
165.2634857429
 20
77.679980544
 30
0.0
  0
SPLINE
  5
359
100
AcDbEntity
  8
0
100
AcDbSpline
 62
7
  6
BYLAYER
 70
0
 71
3
 72
14
 73
10
 74
0
 42
0.0000001
 43
0.0000001
 44
0.0000000001
 40
0.0
 40
0.0
 40
0.0
 40
0.0
 40
0.108046815
 40
0.2181299997
 40
0.3321035649
 40
0.451502324
 40
0.5774599731
 40
0.7107185984
 40
1.0
 40
1.0
 40
1.0
 40
1.0
 10
162.5992578987
 20
73.2553362585
 30
0.0
 10
162.5496599889
 20
73.2839679169
 30
0.0
 10
162.454308309
 20
73.350512104
 30
0.0
 10
162.3283069163
 20
73.4745028978
 30
0.0
 10
162.2199462556
 20
73.6216768833
 30
0.0
 10
162.1302303848
 20
73.7903631671
 30
0.0
 10
162.0598323606
 20
73.9788609072
 30
0.0
 10
161.9906432109
 20
74.2617435477
 30
0.0
 10
161.9727414902
 20
74.4868064812
 30
0.0
 10
161.9727414902
 20
74.6401365135
 30
0.0
  0
SPLINE
  5
35A
100
AcDbEntity
  8
0
100
AcDbSpline
 62
7
  6
BYLAYER
 70
0
 71
3
 72
11
 73
7
 74
0
 42
0.0000001
 43
0.0000001
 44
0.0000000001
 40
0.0
 40
0.0
 40
0.0
 40
0.0
 40
0.2299792903
 40
0.4755196608
 40
0.7334932417
 40
1.0
 40
1.0
 40
1.0
 40
1.0
 10
166.2507197053
 20
77.1100136444
 30
0.0
 10
166.2507197053
 20
76.9734005678
 30
0.0
 10
166.2305527664
 20
76.6907224654
 30
0.0
 10
166.1482152604
 20
76.2620097086
 30
0.0
 10
166.0148485684
 20
75.8236725296
 30
0.0
 10
165.8953671933
 20
75.535346565
 30
0.0
 10
165.8280856186
 20
75.3920439462
 30
0.0
  0
SPLINE
  5
35B
100
AcDbEntity
  8
0
100
AcDbSpline
 62
7
  6
BYLAYER
 70
0
 71
3
 72
18
 73
14
 74
0
 42
0.0000001
 43
0.0000001
 44
0.0000000001
 40
0.0
 40
0.0
 40
0.0
 40
0.0
 40
0.1566536764
 40
0.307403606
 40
0.4494896636
 40
0.5808192924
 40
0.7002843963
 40
0.7556649236
 40
0.8083238472
 40
0.8585812274
 40
0.9068838575
 40
0.9538017222
 40
1.0
 40
1.0
 40
1.0
 40
1.0
 10
165.3884668666
 20
74.630520189
 30
0.0
 10
165.2878454036
 20
74.4859930101
 30
0.0
 10
165.0756735595
 20
74.212254726
 30
0.0
 10
164.7237038434
 20
73.8482514341
 30
0.0
 10
164.3524794066
 20
73.5468479242
 30
0.0
 10
163.9733014387
 20
73.317401277
 30
0.0
 10
163.6516237935
 20
73.1889631106
 30
0.0
 10
163.4018698231
 20
73.1318320986
 30
0.0
 10
163.2246239744
 20
73.1118241256
 30
0.0
 10
163.0541655769
 20
73.1138037191
 30
0.0
 10
162.8918551895
 20
73.1379110481
 30
0.0
 10
162.7391145945
 20
73.1840008553
 30
0.0
 10
162.6442359115
 20
73.2293715533
 30
0.0
 10
162.5992578987
 20
73.2553362585
 30
0.0
  0
SPLINE
  5
35C
100
AcDbEntity
  8
0
100
AcDbSpline
 62
7
  6
BYLAYER
 70
0
 71
3
 72
25
 73
21
 74
0
 42
0.0000001
 43
0.0000001
 44
0.0000000001
 40
0.0
 40
0.0
 40
0.0
 40
0.0
 40
0.0213320596
 40
0.0428925477
 40
0.0648979385
 40
0.0875425888
 40
0.1353177319
 40
0.1872187319
 40
0.2436563931
 40
0.3046041823
 40
0.3696917909
 40
0.4382889311
 40
0.5095751324
 40
0.58259912
 40
0.6563304618
 40
0.7297076086
 40
0.8016839203
 40
0.8712772753
 40
0.9376151931
 40
1.0
 40
1.0
 40
1.0
 40
1.0
 10
166.5549565072
 20
80.1069622306
 30
0.0
 10
166.4949231023
 20
80.1416244178
 30
0.0
 10
166.3695959116
 20
80.2036430555
 30
0.0
 10
166.1697837948
 20
80.2727177073
 30
0.0
 10
165.9588339856
 20
80.3177012358
 30
0.0
 10
165.659219263
 20
80.3458240988
 30
0.0
 10
165.2597364239
 20
80.3164910008
 30
0.0
 10
164.7671926867
 20
80.1855717663
 30
0.0
 10
164.2622598736
 20
79.9624279561
 30
0.0
 10
163.755177147
 20
79.6521822129
 30
0.0
 10
163.256187757
 20
79.2615269068
 30
0.0
 10
162.7756694944
 20
78.7987375541
 30
0.0
 10
162.3237295146
 20
78.2736250705
 30
0.0
 10
161.9099573783
 20
77.6973518991
 30
0.0
 10
161.5431652441
 20
77.0821990509
 30
0.0
 10
161.2311799718
 20
76.4412855978
 30
0.0
 10
160.9806494607
 20
75.7882863428
 30
0.0
 10
160.7969202273
 20
75.137044917
 30
0.0
 10
160.6839023193
 20
74.5014848791
 30
0.0
 10
160.6564405009
 20
74.0829025804
 30
0.0
 10
160.6564405009
 20
73.8801743194
 30
0.0
  0
SPLINE
  5
35D
100
AcDbEntity
  8
0
100
AcDbSpline
 62
7
  6
BYLAYER
 70
0
 71
3
 72
14
 73
10
 74
0
 42
0.0000001
 43
0.0000001
 44
0.0000000001
 40
0.0
 40
0.0
 40
0.0
 40
0.0
 40
0.108046815
 40
0.2181299997
 40
0.3321035649
 40
0.451502324
 40
0.5774599731
 40
0.7107185984
 40
1.0
 40
1.0
 40
1.0
 40
1.0
 10
165.6242032968
 20
78.4948138994
 30
0.0
 10
165.6738012066
 20
78.466182241
 30
0.0
 10
165.7691528865
 20
78.3996380539
 30
0.0
 10
165.8951542792
 20
78.2756472601
 30
0.0
 10
166.0035149398
 20
78.1284732746
 30
0.0
 10
166.0932308107
 20
77.9597869908
 30
0.0
 10
166.1636288349
 20
77.7712892507
 30
0.0
 10
166.2328179846
 20
77.4884066102
 30
0.0
 10
166.2507197053
 20
77.2633436767
 30
0.0
 10
166.2507197053
 20
77.1100136444
 30
0.0
  0
SPLINE
  5
35E
100
AcDbEntity
  8
0
100
AcDbSpline
 62
7
  6
BYLAYER
 70
0
 71
3
 72
15
 73
11
 74
0
 42
0.0000001
 43
0.0000001
 44
0.0000000001
 40
0.0
 40
0.0
 40
0.0
 40
0.0
 40
0.148589718
 40
0.2895070319
 40
0.4227222358
 40
0.5486432089
 40
0.6680012449
 40
0.7819381547
 40
0.8919874545
 40
1.0
 40
1.0
 40
1.0
 40
1.0
 10
160.6564405009
 20
73.8801743194
 30
0.0
 10
160.6564405009
 20
73.7529086785
 30
0.0
 10
160.666700259
 20
73.504777741
 30
0.0
 10
160.7155434318
 20
73.14545461
 30
0.0
 10
160.7971396181
 20
72.8119432751
 30
0.0
 10
160.9108316911
 20
72.5074676826
 30
0.0
 10
161.0557715137
 20
72.2349705868
 30
0.0
 10
161.230818927
 20
71.9972362229
 30
0.0
 10
161.4343447787
 20
71.7969225081
 30
0.0
 10
161.5883883043
 20
71.6894456584
 30
0.0
 10
161.6685046883
 20
71.6431879273
 30
0.0
  0
SPLINE
  5
35F
100
AcDbEntity
  8
0
100
AcDbSpline
 62
7
  6
BYLAYER
 70
0
 71
3
 72
15
 73
11
 74
0
 42
0.0000001
 43
0.0000001
 44
0.0000000001
 40
0.0
 40
0.0
 40
0.0
 40
0.0
 40
0.1485900547
 40
0.2895075613
 40
0.4227228337
 40
0.5486437822
 40
0.6680017281
 40
0.7819385013
 40
0.8919876353
 40
1.0
 40
1.0
 40
1.0
 40
1.0
 10
144.9627370331
 20
142.3424554698
 30
0.0
 10
144.849966411
 20
142.2773477094
 30
0.0
 10
144.6353453485
 20
142.1413155078
 30
0.0
 10
144.3419351429
 20
141.9142101223
 30
0.0
 10
144.0881528806
 20
141.6712875998
 30
0.0
 10
143.8765190328
 20
141.41477945
 30
0.0
 10
143.7092071905
 20
141.1469425753
 30
0.0
 10
143.5881011209
 20
140.8702115283
 30
0.0
 10
143.5147225215
 20
140.5873895375
 30
0.0
 10
143.4982926305
 20
140.3959077551
 30
0.0
 10
143.4982894751
 20
140.3012516941
 30
0.0
  0
SPLINE
  5
360
100
AcDbEntity
  8
0
100
AcDbSpline
 62
7
  6
BYLAYER
 70
0
 71
3
 72
24
 73
20
 74
0
 42
0.0000001
 43
0.0000001
 44
0.0000000001
 40
0.0
 40
0.0
 40
0.0
 40
0.0
 40
0.0623879379
 40
0.1287319695
 40
0.1983298655
 40
0.2703118111
 40
0.3436948231
 40
0.4174324546
 40
0.4904626248
 40
0.5617547124
 40
0.6303573482
 40
0.6954501309
 40
0.7564026223
 40
0.8128444047
 40
0.8647489607
 40
0.9125272874
 40
0.9571048024
 40
0.9786665757
 40
1.0
 40
1.0
 40
1.0
 40
1.0
 10
150.7610367794
 20
138.9948812827
 30
0.0
 10
150.6460667716
 20
138.928503714
 30
0.0
 10
150.3996853802
 20
138.8070238104
 30
0.0
 10
150.0022394228
 20
138.6630158861
 30
0.0
 10
149.5727414459
 20
138.5539813892
 30
0.0
 10
149.1203767474
 20
138.4822515158
 30
0.0
 10
148.6547406002
 20
138.4493341741
 30
0.0
 10
148.1857678139
 20
138.4559328725
 30
0.0
 10
147.7234617387
 20
138.5019065235
 30
0.0
 10
147.2776739745
 20
138.586277128
 30
0.0
 10
146.8578746166
 20
138.7072626736
 30
0.0
 10
146.4729380577
 20
138.8623383845
 30
0.0
 10
146.1309519678
 20
139.0483449012
 30
0.0
 10
145.8390779312
 20
139.2616079983
 30
0.0
 10
145.6035333402
 20
139.498183479
 30
0.0
 10
145.4297403053
 20
139.7536677348
 30
0.0
 10
145.3394937316
 20
139.9812999873
 30
0.0
 10
145.3041556042
 20
140.1644674687
 30
0.0
 10
145.2982912295
 20
140.255856156
 30
0.0
 10
145.2982891278
 20
140.3012516995
 30
0.0
  0
SPLINE
  5
361
100
AcDbEntity
  8
0
100
AcDbSpline
 62
7
  6
BYLAYER
 70
0
 71
3
 72
20
 73
16
 74
0
 42
0.0000001
 43
0.0000001
 44
0.0000000001
 40
0.0
 40
0.0
 40
0.0
 40
0.0
 40
0.0457140242
 40
0.0921974744
 40
0.1401578399
 40
0.1901920082
 40
0.2427600097
 40
0.2981795149
 40
0.3566308316
 40
0.4181714134
 40
0.482753462
 40
0.5502376351
 40
0.692909912
 40
0.8438619901
 40
1.0
 40
1.0
 40
1.0
 40
1.0
 10
153.4982818427
 20
140.3012517003
 30
0.0
 10
153.4982848201
 20
140.3905672241
 30
0.0
 10
153.4836694668
 20
140.5710249677
 30
0.0
 10
153.4184204932
 20
140.8380550544
 30
0.0
 10
153.3105563143
 20
141.1000091778
 30
0.0
 10
153.161296006
 20
141.3545040575
 30
0.0
 10
152.9721484096
 20
141.5994685725
 30
0.0
 10
152.7448552882
 20
141.8329171371
 30
0.0
 10
152.4814259735
 20
142.0529884467
 30
0.0
 10
152.1841334436
 20
142.2579158901
 30
0.0
 10
151.8554865988
 20
142.4460316381
 30
0.0
 10
151.3702594339
 20
142.6765703496
 30
0.0
 10
150.7022533857
 20
142.9105474439
 30
0.0
 10
149.8420723694
 20
143.0986942311
 30
0.0
 10
149.2439159501
 20
143.1611345254
 30
0.0
 10
148.9392532166
 20
143.1767099921
 30
0.0
  0
SPLINE
  5
362
100
AcDbEntity
  8
0
100
AcDbSpline
 62
7
  6
BYLAYER
 70
0
 71
3
 72
11
 73
7
 74
0
 42
0.0000001
 43
0.0000001
 44
0.0000000001
 40
0.0
 40
0.0
 40
0.0
 40
0.0
 40
0.2665184138
 40
0.5250409499
 40
0.7708114596
 40
1.0
 40
1.0
 40
1.0
 40
1.0
 10
148.0599939052
 20
143.1768486513
 30
0.0
 10
147.7730011505
 20
143.1622706998
 30
0.0
 10
147.2086137239
 20
143.1052703812
 30
0.0
 10
146.3933838155
 20
142.9356284373
 30
0.0
 10
145.6405863764
 20
142.6876616269
 30
0.0
 10
145.1767437727
 20
142.4660115809
 30
0.0
 10
144.9627370331
 20
142.3424554698
 30
0.0
  0
SPLINE
  5
363
100
AcDbEntity
  8
0
100
AcDbSpline
 62
7
  6
BYLAYER
 70
0
 71
3
 72
25
 73
21
 74
0
 42
0.0000001
 43
0.0000001
 44
0.0000000001
 40
0.0
 40
0.0
 40
0.0
 40
0.0
 40
0.0623842124
 40
0.1287216456
 40
0.1983147642
 40
0.2702911326
 40
0.3436686421
 40
0.417400518
 40
0.4904250955
 40
0.5617119244
 40
0.6303096751
 40
0.6953977441
 40
0.7563457168
 40
0.8127832652
 40
0.864683936
 40
0.9124586132
 40
0.935102995
 40
0.9571080897
 40
0.9786682656
 40
1.0
 40
1.0
 40
1.0
 40
1.0
 10
152.0338342846
 20
137.280245024
 30
0.0
 10
151.8541907933
 20
137.1765284251
 30
0.0
 10
151.4692224717
 20
136.9867148489
 30
0.0
 10
150.8482113874
 20
136.7617086331
 30
0.0
 10
150.1771260406
 20
136.5913386698
 30
0.0
 10
149.4703042445
 20
136.479263822
 30
0.0
 10
148.7427488757
 20
136.4278290964
 30
0.0
 10
148.0099795364
 20
136.4381400412
 30
0.0
 10
147.2876266738
 20
136.5099729167
 30
0.0
 10
146.591081915
 20
136.6418020463
 30
0.0
 10
145.9351434534
 20
136.8308404871
 30
0.0
 10
145.3336769644
 20
137.0731509484
 30
0.0
 10
144.7993257603
 20
137.3637705276
 30
0.0
 10
144.3432606774
 20
137.6970457549
 30
0.0
 10
143.9752587948
 20
138.0665241305
 30
0.0
 10
143.7448874842
 20
138.4055102627
 30
0.0
 10
143.6165234804
 20
138.6853947825
 30
0.0
 10
143.5484625499
 20
138.8953367323
 30
0.0
 10
143.5074474453
 20
139.1077340709
 30
0.0
 10
143.4982872627
 20
139.2505185135
 30
0.0
 10
143.4982896005
 20
139.3214487942
 30
0.0
  0
SPLINE
  5
364
100
AcDbEntity
  8
0
100
AcDbSpline
 62
7
  6
BYLAYER
 70
0
 71
3
 72
11
 73
7
 74
0
 42
0.0000001
 43
0.0000001
 44
0.0000000001
 40
0.0
 40
0.0
 40
0.0
 40
0.0
 40
0.2773722262
 40
0.5358863919
 40
0.7760598363
 40
1.0
 40
1.0
 40
1.0
 40
1.0
 10
146.2355345384
 20
140.6278192111
 30
0.0
 10
146.1424091281
 20
140.5740535513
 30
0.0
 10
145.9677983273
 20
140.4604696779
 30
0.0
 10
145.7374816575
 20
140.2654833157
 30
0.0
 10
145.5514766427
 20
140.054564792
 30
0.0
 10
145.4562802382
 20
139.9004923002
 30
0.0
 10
145.4182061287
 20
139.8224692647
 30
0.0
  0
SPLINE
  5
365
100
AcDbEntity
  8
0
100
AcDbSpline
 62
7
  6
BYLAYER
 70
0
 71
3
 72
15
 73
11
 74
0
 42
0.0000001
 43
0.0000001
 44
0.0000000001
 40
0.0
 40
0.0
 40
0.0
 40
0.0
 40
0.1080119571
 40
0.2180607735
 40
0.3319973907
 40
0.4513553693
 40
0.5772763914
 40
0.7104918806
 40
0.8514098874
 40
1.0
 40
1.0
 40
1.0
 40
1.0
 10
153.4982817172
 20
139.3214487991
 30
0.0
 10
153.4982785975
 20
139.2267930978
 30
0.0
 10
153.4818488193
 20
139.0353119633
 30
0.0
 10
153.4084708076
 20
138.7524906294
 30
0.0
 10
153.2873649858
 20
138.4757598931
 30
0.0
 10
153.1200533903
 20
138.2079229481
 30
0.0
 10
152.9084198188
 20
137.951414207
 30
0.0
 10
152.6546370978
 20
137.7084911461
 30
0.0
 10
152.361226349
 20
137.4813853775
 30
0.0
 10
152.1466049477
 20
137.3453528081
 30
0.0
 10
152.0338342846
 20
137.280245024
 30
0.0
  0
SPLINE
  5
366
100
AcDbEntity
  8
0
100
AcDbSpline
 62
7
  6
BYLAYER
 70
0
 71
3
 72
15
 73
11
 74
0
 42
0.0000001
 43
0.0000001
 44
0.0000000001
 40
0.0
 40
0.0
 40
0.0
 40
0.0
 40
0.0963129837
 40
0.2006981553
 40
0.3141703712
 40
0.4368422964
 40
0.5681076342
 40
0.7068110804
 40
0.8513911387
 40
1.0
 40
1.0
 40
1.0
 40
1.0
 10
151.5840550152
 20
139.8106643032
 30
0.0
 10
151.5414775532
 20
139.9001784111
 30
0.0
 10
151.4310890008
 20
140.0768427807
 30
0.0
 10
151.2098469601
 20
140.3147126167
 30
0.0
 10
150.9322923983
 20
140.5308186127
 30
0.0
 10
150.6043354881
 20
140.721021878
 30
0.0
 10
150.2326862713
 20
140.8817524784
 30
0.0
 10
149.8249747526
 20
141.0098012481
 30
0.0
 10
149.3896648795
 20
141.1025689097
 30
0.0
 10
149.0897154999
 20
141.1392838908
 30
0.0
 10
148.9372556546
 20
141.1514761259
 30
0.0
  0
SPLINE
  5
367
100
AcDbEntity
  8
0
100
AcDbSpline
 62
7
  6
BYLAYER
 70
0
 71
3
 72
11
 73
7
 74
0
 42
0.0000001
 43
0.0000001
 44
0.0000000001
 40
0.0
 40
0.0
 40
0.0
 40
0.0
 40
0.2665236715
 40
0.5245747119
 40
0.7701398058
 40
1.0
 40
1.0
 40
1.0
 40
1.0
 10
148.0581409318
 20
141.1513811039
 30
0.0
 10
147.888961052
 20
141.1378198048
 30
0.0
 10
147.5569891845
 20
141.095567687
 30
0.0
 10
147.0781141516
 20
140.9859366712
 30
0.0
 10
146.6356313076
 20
140.8335376121
 30
0.0
 10
146.3622993701
 20
140.7010064839
 30
0.0
 10
146.2355345384
 20
140.6278192111
 30
0.0
  0
SPLINE
  5
368
100
AcDbEntity
  8
0
100
AcDbSpline
 62
7
  6
BYLAYER
 70
0
 71
3
 72
14
 73
10
 74
0
 42
0.0000001
 43
0.0000001
 44
0.0000000001
 40
0.0
 40
0.0
 40
0.0
 40
0.0
 40
0.1080466664
 40
0.2181297145
 40
0.332103147
 40
0.4515017799
 40
0.5774593591
 40
0.7107180372
 40
1.0
 40
1.0
 40
1.0
 40
1.0
 10
151.69828219
 20
140.3012516949
 30
0.0
 10
151.6982849946
 20
140.2406720743
 30
0.0
 10
151.6877553128
 20
140.1181258115
 30
0.0
 10
151.6408097184
 20
139.9371181131
 30
0.0
 10
151.5632960694
 20
139.7600094154
 30
0.0
 10
151.4562140697
 20
139.588603158
 30
0.0
 10
151.3207657585
 20
139.4244154285
 30
0.0
 10
151.0982124668
 20
139.2114144346
 30
0.0
 10
150.9015016788
 20
139.0759782461
 30
0.0
 10
150.7610367794
 20
138.9948812827
 30
0.0
  0
SPLINE
  5
369
100
AcDbEntity
  8
0
100
AcDbSpline
 62
7
  6
BYLAYER
 70
0
 71
3
 72
11
 73
7
 74
0
 42
0.0000001
 43
0.0000001
 44
0.0000000001
 40
0.0
 40
0.0
 40
0.0
 40
0.0
 40
0.2298605393
 40
0.4754250607
 40
0.7334757163
 40
1.0
 40
1.0
 40
1.0
 40
1.0
 10
146.2355345384
 20
141.6076221117
 30
0.0
 10
146.3622952549
 20
141.6808070086
 30
0.0
 10
146.6356174032
 20
141.8133342154
 30
0.0
 10
147.0780839698
 20
141.9657303622
 30
0.0
 10
147.5569415404
 20
142.075361727
 30
0.0
 10
147.8889018096
 20
142.1176158462
 30
0.0
 10
148.0580761634
 20
142.1311788162
 30
0.0
  0
SPLINE
  5
36A
100
AcDbEntity
  8
0
100
AcDbSpline
 62
7
  6
BYLAYER
 70
0
 71
3
 72
18
 73
14
 74
0
 42
0.0000001
 43
0.0000001
 44
0.0000000001
 40
0.0
 40
0.0
 40
0.0
 40
0.0
 40
0.156597922
 40
0.3073886876
 40
0.4495652011
 40
0.580988661
 40
0.700509993
 40
0.7558950698
 40
0.8085398964
 40
0.8587642583
 40
0.9070168735
 40
0.9538717578
 40
1.0
 40
1.0
 40
1.0
 40
1.0
 10
148.9373151162
 20
142.131274267
 30
0.0
 10
149.1242955361
 20
142.1163193085
 30
0.0
 10
149.4901424433
 20
142.0680307014
 30
0.0
 10
150.014196279
 20
141.9393741944
 30
0.0
 10
150.4910911093
 20
141.7592330815
 30
0.0
 10
150.9059753218
 20
141.5330598641
 30
0.0
 10
151.1968751701
 20
141.3056127601
 30
0.0
 10
151.3833699905
 20
141.1061705994
 30
0.0
 10
151.4967043962
 20
140.9536592097
 30
0.0
 10
151.5860530886
 20
140.7956428467
 30
0.0
 10
151.6505504495
 20
140.6333131086
 30
0.0
 10
151.6895613271
 20
140.4680715269
 30
0.0
 10
151.6982796319
 20
140.3565054392
 30
0.0
 10
151.69828219
 20
140.3012516949
 30
0.0
  0
SPLINE
  5
36B
100
AcDbEntity
  8
0
100
AcDbSpline
 62
7
  6
BYLAYER
 70
0
 71
3
 72
25
 73
21
 74
0
 42
0.0000001
 43
0.0000001
 44
0.0000000001
 40
0.0
 40
0.0
 40
0.0
 40
0.0
 40
0.0213317795
 40
0.0428919996
 40
0.0648971447
 40
0.0875415813
 40
0.1353164148
 40
0.1872172787
 40
0.2436549708
 40
0.3046029339
 40
0.3696908251
 40
0.4382883179
 40
0.5095748997
 40
0.5825992532
 40
0.6563309067
 40
0.7297082716
 40
0.8016846715
 40
0.871277956
 40
0.9376156265
 40
1.0
 40
1.0
 40
1.0
 40
1.0
 10
143.4982894751
 20
140.3012516941
 30
0.0
 10
143.4982871105
 20
140.2303212632
 30
0.0
 10
143.5074476253
 20
140.0875365462
 30
0.0
 10
143.5484625855
 20
139.8751387104
 30
0.0
 10
143.6165240523
 20
139.665196397
 30
0.0
 10
143.7448884784
 20
139.3853111232
 30
0.0
 10
143.9752610962
 20
139.0463241965
 30
0.0
 10
144.3432646471
 20
138.676845173
 30
0.0
 10
144.7993311267
 20
138.3435699932
 30
0.0
 10
145.3336825837
 20
138.0529512
 30
0.0
 10
145.9351479284
 20
137.8106418897
 30
0.0
 10
146.5910843024
 20
137.6216044448
 30
0.0
 10
147.2876266946
 20
137.4897758921
 30
0.0
 10
148.0099772459
 20
137.4179431433
 30
0.0
 10
148.74274461
 20
137.4076319346
 30
0.0
 10
149.4702988963
 20
137.4590661274
 30
0.0
 10
150.1771209419
 20
137.5711405246
 30
0.0
 10
150.8482078267
 20
137.7415103428
 30
0.0
 10
151.4692207624
 20
137.9665169908
 30
0.0
 10
151.8541903289
 20
138.1563310575
 30
0.0
 10
152.0338342846
 20
138.2600479246
 30
0.0
  0
SPLINE
  5
36C
100
AcDbEntity
  8
0
100
AcDbSpline
 62
7
  6
BYLAYER
 70
0
 71
3
 72
14
 73
10
 74
0
 42
0.0000001
 43
0.0000001
 44
0.0000000001
 40
0.0
 40
0.0
 40
0.0
 40
0.0
 40
0.1080466664
 40
0.2181297145
 40
0.332103147
 40
0.4515017799
 40
0.5774593591
 40
0.7107180372
 40
1.0
 40
1.0
 40
1.0
 40
1.0
 10
145.2982891278
 20
140.3012516995
 30
0.0
 10
145.2982863231
 20
140.3618313201
 30
0.0
 10
145.308816005
 20
140.4843775828
 30
0.0
 10
145.3557615994
 20
140.6653852813
 30
0.0
 10
145.4332752484
 20
140.842493979
 30
0.0
 10
145.5403572481
 20
141.0139002364
 30
0.0
 10
145.6758055593
 20
141.1780879658
 30
0.0
 10
145.8983588509
 20
141.3910889597
 30
0.0
 10
146.095069639
 20
141.5265251482
 30
0.0
 10
146.2355345384
 20
141.6076221117
 30
0.0
  0
SPLINE
  5
36D
100
AcDbEntity
  8
0
100
AcDbSpline
 62
7
  6
BYLAYER
 70
0
 71
3
 72
15
 73
11
 74
0
 42
0.0000001
 43
0.0000001
 44
0.0000000001
 40
0.0
 40
0.0
 40
0.0
 40
0.0
 40
0.1485900547
 40
0.2895075613
 40
0.4227228337
 40
0.5486437822
 40
0.6680017281
 40
0.7819385013
 40
0.8919876353
 40
1.0
 40
1.0
 40
1.0
 40
1.0
 10
152.0338342846
 20
138.2600479246
 30
0.0
 10
152.1466049067
 20
138.325155685
 30
0.0
 10
152.3612259692
 20
138.4611878865
 30
0.0
 10
152.6546361749
 20
138.688293272
 30
0.0
 10
152.9084184372
 20
138.9312157946
 30
0.0
 10
153.120052285
 20
139.1877239444
 30
0.0
 10
153.2873641273
 20
139.4555608191
 30
0.0
 10
153.4084701969
 20
139.7322918661
 30
0.0
 10
153.4818487963
 20
140.0151138569
 30
0.0
 10
153.4982786872
 20
140.2065956393
 30
0.0
 10
153.4982818427
 20
140.3012517003
 30
0.0
  0
SPLINE
  5
36E
100
AcDbEntity
  8
0
100
AcDbSpline
 62
7
  6
BYLAYER
 70
0
 71
3
 72
14
 73
10
 74
0
 42
0.0000001
 43
0.0000001
 44
0.0000000001
 40
0.0
 40
0.0
 40
0.0
 40
0.0
 40
0.1080475707
 40
0.2181297112
 40
0.3321018241
 40
0.4515017425
 40
0.577452781
 40
0.7107155474
 40
1.0
 40
1.0
 40
1.0
 40
1.0
 10
35.3089317495
 20
163.6810418416
 30
0.0
 10
35.2679440996
 20
163.7047090767
 30
0.0
 10
35.1891330559
 20
163.7596922104
 30
0.0
 10
35.0850109237
 20
163.8621751713
 30
0.0
 10
34.9954469377
 20
163.9837977138
 30
0.0
 10
34.9213107573
 20
164.1232099959
 30
0.0
 10
34.8631248981
 20
164.2789897692
 30
0.0
 10
34.805943474
 20
164.5127777109
 30
0.0
 10
34.7911486923
 20
164.698783034
 30
0.0
 10
34.7911486923
 20
164.825503353
 30
0.0
  0
SPLINE
  5
36F
100
AcDbEntity
  8
0
100
AcDbSpline
 62
7
  6
BYLAYER
 70
0
 71
3
 72
23
 73
19
 74
0
 42
0.0000001
 43
0.0000001
 44
0.0000000001
 40
0.0
 40
0.0
 40
0.0
 40
0.0
 40
0.062391157
 40
0.128744724
 40
0.1983469062
 40
0.2703351587
 40
0.3437239268
 40
0.4174686095
 40
0.4905054054
 40
0.5618039183
 40
0.6304123932
 40
0.6955102917
 40
0.7564673139
 40
0.8129132631
 40
0.8648218184
 40
0.9126041351
 40
0.9571856986
 40
1.0
 40
1.0
 40
1.0
 40
1.0
 10
34.7911486923
 20
164.825503353
 30
0.0
 10
34.7911486923
 20
164.9292148688
 30
0.0
 10
34.8052027999
 20
165.1433670068
 30
0.0
 10
34.8630138819
 20
165.4685254706
 30
0.0
 10
34.9570223267
 20
165.8017087599
 30
0.0
 10
35.0851885559
 20
166.1357878975
 30
0.0
 10
35.2448073611
 20
166.4636863075
 30
0.0
 10
35.4324614285
 20
166.7784086753
 30
0.0
 10
35.6441546732
 20
167.0732397854
 30
0.0
 10
35.8753733749
 20
167.341895124
 30
0.0
 10
36.1212131713
 20
167.5786628643
 30
0.0
 10
36.3764999737
 20
167.778523839
 30
0.0
 10
36.6359325711
 20
167.9372438255
 30
0.0
 10
36.8942414492
 20
168.0514053941
 30
0.0
 10
37.1462850178
 20
168.1183722103
 30
0.0
 10
37.3871154294
 20
168.136102452
 30
0.0
 10
37.6113853036
 20
168.1032345679
 30
0.0
 10
37.7472523401
 20
168.0467736809
 30
0.0
 10
37.8088848211
 20
168.0111856338
 30
0.0
  0
SPLINE
  5
370
100
AcDbEntity
  8
0
100
AcDbSpline
 62
7
  6
BYLAYER
 70
0
 71
3
 72
25
 73
21
 74
0
 42
0.0000001
 43
0.0000001
 44
0.0000000001
 40
0.0
 40
0.0
 40
0.0
 40
0.0
 40
0.0623846458
 40
0.1287223262
 40
0.1983155149
 40
0.2702917949
 40
0.3436690864
 40
0.4174006504
 40
0.4904248613
 40
0.5617113084
 40
0.6303087055
 40
0.6953964915
 40
0.7563442906
 40
0.8127818088
 40
0.8646826169
 40
0.9124576046
 40
0.9351022006
 40
0.9571075412
 40
0.9786679854
 40
1.0
 40
1.0
 40
1.0
 40
1.0
 10
159.6692065385
 20
90.7801895615
 30
0.0
 10
159.6692065385
 20
90.9829172985
 30
0.0
 10
159.6966681637
 20
91.4014983033
 30
0.0
 10
159.8096855325
 20
92.0370565616
 30
0.0
 10
159.9934138908
 20
92.6882967547
 30
0.0
 10
160.2439438976
 20
93.3412960177
 30
0.0
 10
160.555929247
 20
93.9822106466
 30
0.0
 10
160.922722121
 20
94.5973652931
 30
0.0
 10
161.3364954888
 20
95.1736403538
 30
0.0
 10
161.7884371053
 20
95.6987545524
 30
0.0
 10
162.2689572224
 20
96.1615451815
 30
0.0
 10
162.76794814
 20
96.5522008946
 30
0.0
 10
163.2750314075
 20
96.8624460447
 30
0.0
 10
163.7799635827
 20
97.0855886568
 30
0.0
 10
164.2725059646
 20
97.2165068025
 30
0.0
 10
164.6719875009
 20
97.2458391853
 30
0.0
 10
164.9716013851
 20
97.2177163346
 30
0.0
 10
165.1825506275
 20
97.1727325291
 30
0.0
 10
165.382362396
 20
97.1036582428
 30
0.0
 10
165.5076891929
 20
97.0416394574
 30
0.0
 10
165.567722484
 20
97.006977366
 30
0.0
  0
SPLINE
  5
371
100
AcDbEntity
  8
0
100
AcDbSpline
 62
7
  6
BYLAYER
 70
0
 71
3
 72
9
 73
5
 74
0
 42
0.0000001
 43
0.0000001
 44
0.0000000001
 40
0.0
 40
0.0
 40
0.0
 40
0.0
 40
0.2754518257
 40
1.0
 40
1.0
 40
1.0
 40
1.0
 10
165.2634857429
 20
94.0100288866
 30
0.0
 10
165.2634857429
 20
94.1007085985
 30
0.0
 10
165.2480701625
 20
94.4289237427
 30
0.0
 10
165.1632683012
 20
94.7597277931
 30
0.0
 10
165.0469167136
 20
94.9679486312
 30
0.0
  0
SPLINE
  5
372
100
AcDbEntity
  8
0
100
AcDbSpline
 62
7
  6
BYLAYER
 70
0
 71
3
 72
15
 73
11
 74
0
 42
0.0000001
 43
0.0000001
 44
0.0000000001
 40
0.0
 40
0.0
 40
0.0
 40
0.0
 40
0.148589718
 40
0.2895070319
 40
0.4227222358
 40
0.5486432089
 40
0.6680012449
 40
0.7819381547
 40
0.8919874545
 40
1.0
 40
1.0
 40
1.0
 40
1.0
 10
167.5670206946
 20
94.2000241811
 30
0.0
 10
167.5670206946
 20
94.327289822
 30
0.0
 10
167.5567609365
 20
94.5754207595
 30
0.0
 10
167.5079177637
 20
94.9347438905
 30
0.0
 10
167.4263215774
 20
95.2682552254
 30
0.0
 10
167.3126295044
 20
95.5727308179
 30
0.0
 10
167.1676896817
 20
95.8452279137
 30
0.0
 10
166.9926422685
 20
96.0829622776
 30
0.0
 10
166.7891164168
 20
96.2832759924
 30
0.0
 10
166.6350728911
 20
96.3907528421
 30
0.0
 10
166.5549565072
 20
96.4370105731
 30
0.0
  0
SPLINE
  5
373
100
AcDbEntity
  8
0
100
AcDbSpline
 62
7
  6
BYLAYER
 70
0
 71
3
 72
24
 73
20
 74
0
 42
0.0000001
 43
0.0000001
 44
0.0000000001
 40
0.0
 40
0.0
 40
0.0
 40
0.0
 40
0.0623883656
 40
0.1287326396
 40
0.1983306187
 40
0.2703124621
 40
0.3436952189
 40
0.4174325167
 40
0.4904623098
 40
0.5617540161
 40
0.6303563126
 40
0.6954488373
 40
0.7564011819
 40
0.812842955
 40
0.8647476581
 40
0.9125262945
 40
0.957104263
 40
0.9786663002
 40
1.0
 40
1.0
 40
1.0
 40
1.0
 10
161.9727414902
 20
90.9701848561
 30
0.0
 10
161.9727414902
 20
91.0956809737
 30
0.0
 10
161.9897429695
 20
91.35480352
 30
0.0
 10
162.0597023317
 20
91.7482452878
 30
0.0
 10
162.1734423836
 20
92.1513956383
 30
0.0
 10
162.3285301529
 20
92.555633115
 30
0.0
 10
162.5216649166
 20
92.9523898332
 30
0.0
 10
162.7487270183
 20
93.3332002279
 30
0.0
 10
163.004872981
 20
93.6899418151
 30
0.0
 10
163.2846458891
 20
94.0150118407
 30
0.0
 10
163.582110931
 20
94.301499889
 30
0.0
 10
163.8910067718
 20
94.5433342639
 30
0.0
 10
164.2049243763
 20
94.7353872386
 30
0.0
 10
164.5174708906
 20
94.873532574
 30
0.0
 10
164.8224786877
 20
94.9545446199
 30
0.0
 10
165.1137799145
 20
94.9760659612
 30
0.0
 10
165.3427912795
 20
94.9423558417
 30
0.0
 10
165.5094484531
 20
94.8847110586
 30
0.0
 10
165.5870380045
 20
94.8463168549
 30
0.0
 10
165.6242032968
 20
94.824862242
 30
0.0
  0
SPLINE
  5
374
100
AcDbEntity
  8
0
100
AcDbSpline
 62
7
  6
BYLAYER
 70
0
 71
3
 72
20
 73
16
 74
0
 42
0.0000001
 43
0.0000001
 44
0.0000000001
 40
0.0
 40
0.0
 40
0.0
 40
0.0
 40
0.0457307527
 40
0.0922290926
 40
0.140200984
 40
0.1902422974
 40
0.2428126439
 40
0.2982298146
 40
0.3566746397
 40
0.4182054769
 40
0.4827756822
 40
0.550247182
 40
0.69289758
 40
0.8438424426
 40
1.0
 40
1.0
 40
1.0
 40
1.0
 10
161.6685046883
 20
87.9732362699
 30
0.0
 10
161.7439945364
 20
87.9296498158
 30
0.0
 10
161.9036384853
 20
87.8539283146
 30
0.0
 10
162.1611352801
 20
87.7786930916
 30
0.0
 10
162.4351217011
 20
87.7418981395
 30
0.0
 10
162.7229960909
 20
87.7436772785
 30
0.0
 10
163.0222786618
 20
87.7837688492
 30
0.0
 10
163.3304481028
 20
87.8616735509
 30
0.0
 10
163.6449579838
 20
87.9766052179
 30
0.0
 10
163.9632132917
 20
88.127510548
 30
0.0
 10
164.2825871703
 20
88.3130898008
 30
0.0
 10
164.7142801854
 20
88.6101385252
 30
0.0
 10
165.2382092845
 20
89.0598356589
 30
0.0
 10
165.8174228262
 20
89.6942134521
 30
0.0
 10
166.1625051893
 20
90.1687737237
 30
0.0
 10
166.3245960033
 20
90.4184279428
 30
0.0
  0
SPLINE
  5
375
100
AcDbEntity
  8
0
100
AcDbSpline
 62
7
  6
BYLAYER
 70
0
 71
3
 72
11
 73
7
 74
0
 42
0.0000001
 43
0.0000001
 44
0.0000000001
 40
0.0
 40
0.0
 40
0.0
 40
0.0
 40
0.2665213103
 40
0.5250247054
 40
0.7707854979
 40
1.0
 40
1.0
 40
1.0
 40
1.0
 10
166.7642639845
 20
91.1796821724
 30
0.0
 10
166.8914714048
 20
91.4290795688
 30
0.0
 10
167.1177683071
 20
91.9332494244
 30
0.0
 10
167.3711253573
 20
92.7038860989
 30
0.0
 10
167.5281998168
 20
93.4599053018
 30
0.0
 10
167.5670206946
 20
93.9592471987
 30
0.0
 10
167.5670206946
 20
94.2000241811
 30
0.0
  0
SPLINE
  5
376
100
AcDbEntity
  8
0
100
AcDbSpline
 62
7
  6
BYLAYER
 70
0
 71
3
 72
15
 73
11
 74
0
 42
0.0000001
 43
0.0000001
 44
0.0000000001
 40
0.0
 40
0.0
 40
0.0
 40
0.0
 40
0.1080121377
 40
0.2180611197
 40
0.3319978735
 40
0.4513559424
 40
0.5772769893
 40
0.7104924103
 40
0.8514102244
 40
1.0
 40
1.0
 40
1.0
 40
1.0
 10
160.6812707867
 20
88.5432032762
 30
0.0
 10
160.60115469
 20
88.5894608012
 30
0.0
 10
160.4471116578
 20
88.6969372382
 30
0.0
 10
160.2435860752
 20
88.8972501344
 30
0.0
 10
160.0685388037
 20
89.1349841368
 30
0.0
 10
159.9235988007
 20
89.4074810583
 30
0.0
 10
159.8099060917
 20
89.7119567063
 30
0.0
 10
159.728309674
 20
90.0454686929
 30
0.0
 10
159.6794664423
 20
90.4047924709
 30
0.0
 10
159.6692065385
 20
90.6529238747
 30
0.0
 10
159.6692065385
 20
90.7801895615
 30
0.0
  0
SPLINE
  5
377
100
AcDbEntity
  8
0
100
AcDbSpline
 62
7
  6
BYLAYER
 70
0
 71
3
 72
14
 73
10
 74
0
 42
0.0000001
 43
0.0000001
 44
0.0000000001
 40
0.0
 40
0.0
 40
0.0
 40
0.0
 40
0.0984254728
 40
0.2047725137
 40
0.319585874
 40
0.4427441163
 40
0.5735954981
 40
0.7110788321
 40
1.0
 40
1.0
 40
1.0
 40
1.0
 10
162.2035812072
 20
90.0141258469
 30
0.0
 10
162.2939980355
 20
90.016524526
 30
0.0
 10
162.4818806659
 20
90.0402902295
 30
0.0
 10
162.7642272044
 20
90.1248068065
 30
0.0
 10
163.052499822
 20
90.2574650281
 30
0.0
 10
163.3416052415
 20
90.4357144934
 30
0.0
 10
163.6265925837
 20
90.6563283198
 30
0.0
 10
164.0002603614
 20
91.0072738467
 30
0.0
 10
164.2495664159
 20
91.3126845594
 30
0.0
 10
164.4012668782
 20
91.5305842176
 30
0.0
  0
SPLINE
  5
378
100
AcDbEntity
  8
0
100
AcDbSpline
 62
7
  6
BYLAYER
 70
0
 71
3
 72
11
 73
7
 74
0
 42
0.0000001
 43
0.0000001
 44
0.0000000001
 40
0.0
 40
0.0
 40
0.0
 40
0.0
 40
0.2665062338
 40
0.5244802368
 40
0.770021173
 40
1.0
 40
1.0
 40
1.0
 40
1.0
 10
164.8408214709
 20
92.2919948879
 30
0.0
 10
164.9081076174
 20
92.4353019779
 30
0.0
 10
165.0275972237
 20
92.7236379483
 30
0.0
 10
165.1609736548
 20
93.1619915618
 30
0.0
 10
165.2433171997
 20
93.5907212276
 30
0.0
 10
165.2634857429
 20
93.873410647
 30
0.0
 10
165.2634857429
 20
94.0100288866
 30
0.0
  0
SPLINE
  5
379
100
AcDbEntity
  8
0
100
AcDbSpline
 62
7
  6
BYLAYER
 70
0
 71
3
 72
14
 73
10
 74
0
 42
0.0000001
 43
0.0000001
 44
0.0000000001
 40
0.0
 40
0.0
 40
0.0
 40
0.0
 40
0.108046815
 40
0.2181299997
 40
0.3321035649
 40
0.451502324
 40
0.5774599731
 40
0.7107185984
 40
1.0
 40
1.0
 40
1.0
 40
1.0
 10
162.5992578987
 20
89.5853846011
 30
0.0
 10
162.5496599889
 20
89.6140162595
 30
0.0
 10
162.454308309
 20
89.6805604466
 30
0.0
 10
162.3283069163
 20
89.8045512404
 30
0.0
 10
162.2199462556
 20
89.9517252259
 30
0.0
 10
162.1302303848
 20
90.1204115097
 30
0.0
 10
162.0598323606
 20
90.3089092498
 30
0.0
 10
161.9906432109
 20
90.5917918903
 30
0.0
 10
161.9727414902
 20
90.8168548238
 30
0.0
 10
161.9727414902
 20
90.9701848561
 30
0.0
  0
SPLINE
  5
37A
100
AcDbEntity
  8
0
100
AcDbSpline
 62
7
  6
BYLAYER
 70
0
 71
3
 72
11
 73
7
 74
0
 42
0.0000001
 43
0.0000001
 44
0.0000000001
 40
0.0
 40
0.0
 40
0.0
 40
0.0
 40
0.2299792903
 40
0.4755196608
 40
0.7334932417
 40
1.0
 40
1.0
 40
1.0
 40
1.0
 10
166.2507197053
 20
93.440061987
 30
0.0
 10
166.2507197053
 20
93.3034489104
 30
0.0
 10
166.2305527664
 20
93.020770808
 30
0.0
 10
166.1482152604
 20
92.5920580512
 30
0.0
 10
166.0148485684
 20
92.1537208722
 30
0.0
 10
165.8953671933
 20
91.8653949076
 30
0.0
 10
165.8280856186
 20
91.7220922888
 30
0.0
  0
SPLINE
  5
37B
100
AcDbEntity
  8
0
100
AcDbSpline
 62
7
  6
BYLAYER
 70
0
 71
3
 72
18
 73
14
 74
0
 42
0.0000001
 43
0.0000001
 44
0.0000000001
 40
0.0
 40
0.0
 40
0.0
 40
0.0
 40
0.1566536764
 40
0.307403606
 40
0.4494896636
 40
0.5808192924
 40
0.7002843963
 40
0.7556649236
 40
0.8083238472
 40
0.8585812274
 40
0.9068838575
 40
0.9538017222
 40
1.0
 40
1.0
 40
1.0
 40
1.0
 10
165.3884668666
 20
90.9605685315
 30
0.0
 10
165.2878454036
 20
90.8160413527
 30
0.0
 10
165.0756735595
 20
90.5423030686
 30
0.0
 10
164.7237038434
 20
90.1782997767
 30
0.0
 10
164.3524794066
 20
89.8768962667
 30
0.0
 10
163.9733014387
 20
89.6474496196
 30
0.0
 10
163.6516237935
 20
89.5190114532
 30
0.0
 10
163.4018698231
 20
89.4618804412
 30
0.0
 10
163.2246239744
 20
89.4418724682
 30
0.0
 10
163.0541655769
 20
89.4438520617
 30
0.0
 10
162.8918551895
 20
89.4679593907
 30
0.0
 10
162.7391145945
 20
89.5140491979
 30
0.0
 10
162.6442359115
 20
89.5594198959
 30
0.0
 10
162.5992578987
 20
89.5853846011
 30
0.0
  0
SPLINE
  5
37C
100
AcDbEntity
  8
0
100
AcDbSpline
 62
7
  6
BYLAYER
 70
0
 71
3
 72
25
 73
21
 74
0
 42
0.0000001
 43
0.0000001
 44
0.0000000001
 40
0.0
 40
0.0
 40
0.0
 40
0.0
 40
0.0213320596
 40
0.0428925477
 40
0.0648979385
 40
0.0875425888
 40
0.1353177319
 40
0.1872187319
 40
0.2436563931
 40
0.3046041823
 40
0.3696917909
 40
0.4382889311
 40
0.5095751324
 40
0.58259912
 40
0.6563304618
 40
0.7297076086
 40
0.8016839203
 40
0.8712772753
 40
0.9376151931
 40
1.0
 40
1.0
 40
1.0
 40
1.0
 10
166.5549565072
 20
96.4370105731
 30
0.0
 10
166.4949231023
 20
96.4716727604
 30
0.0
 10
166.3695959116
 20
96.5336913981
 30
0.0
 10
166.1697837948
 20
96.6027660499
 30
0.0
 10
165.9588339856
 20
96.6477495784
 30
0.0
 10
165.659219263
 20
96.6758724414
 30
0.0
 10
165.2597364239
 20
96.6465393434
 30
0.0
 10
164.7671926867
 20
96.5156201089
 30
0.0
 10
164.2622598736
 20
96.2924762987
 30
0.0
 10
163.755177147
 20
95.9822305555
 30
0.0
 10
163.256187757
 20
95.5915752493
 30
0.0
 10
162.7756694944
 20
95.1287858967
 30
0.0
 10
162.3237295146
 20
94.6036734131
 30
0.0
 10
161.9099573783
 20
94.0274002417
 30
0.0
 10
161.5431652441
 20
93.4122473935
 30
0.0
 10
161.2311799718
 20
92.7713339404
 30
0.0
 10
160.9806494607
 20
92.1183346854
 30
0.0
 10
160.7969202273
 20
91.4670932596
 30
0.0
 10
160.6839023193
 20
90.8315332217
 30
0.0
 10
160.6564405009
 20
90.412950923
 30
0.0
 10
160.6564405009
 20
90.2102226619
 30
0.0
  0
SPLINE
  5
37D
100
AcDbEntity
  8
0
100
AcDbSpline
 62
7
  6
BYLAYER
 70
0
 71
3
 72
14
 73
10
 74
0
 42
0.0000001
 43
0.0000001
 44
0.0000000001
 40
0.0
 40
0.0
 40
0.0
 40
0.0
 40
0.108046815
 40
0.2181299997
 40
0.3321035649
 40
0.451502324
 40
0.5774599731
 40
0.7107185984
 40
1.0
 40
1.0
 40
1.0
 40
1.0
 10
165.6242032968
 20
94.824862242
 30
0.0
 10
165.6738012066
 20
94.7962305835
 30
0.0
 10
165.7691528865
 20
94.7296863965
 30
0.0
 10
165.8951542792
 20
94.6056956027
 30
0.0
 10
166.0035149398
 20
94.4585216172
 30
0.0
 10
166.0932308107
 20
94.2898353334
 30
0.0
 10
166.1636288349
 20
94.1013375933
 30
0.0
 10
166.2328179846
 20
93.8184549528
 30
0.0
 10
166.2507197053
 20
93.5933920193
 30
0.0
 10
166.2507197053
 20
93.440061987
 30
0.0
  0
SPLINE
  5
37E
100
AcDbEntity
  8
0
100
AcDbSpline
 62
7
  6
BYLAYER
 70
0
 71
3
 72
15
 73
11
 74
0
 42
0.0000001
 43
0.0000001
 44
0.0000000001
 40
0.0
 40
0.0
 40
0.0
 40
0.0
 40
0.148589718
 40
0.2895070319
 40
0.4227222358
 40
0.5486432089
 40
0.6680012449
 40
0.7819381547
 40
0.8919874545
 40
1.0
 40
1.0
 40
1.0
 40
1.0
 10
160.6564405009
 20
90.2102226619
 30
0.0
 10
160.6564405009
 20
90.0829570211
 30
0.0
 10
160.666700259
 20
89.8348260836
 30
0.0
 10
160.7155434318
 20
89.4755029526
 30
0.0
 10
160.7971396181
 20
89.1419916177
 30
0.0
 10
160.9108316911
 20
88.8375160252
 30
0.0
 10
161.0557715137
 20
88.5650189294
 30
0.0
 10
161.230818927
 20
88.3272845655
 30
0.0
 10
161.4343447787
 20
88.1269708506
 30
0.0
 10
161.5883883043
 20
88.019494001
 30
0.0
 10
161.6685046883
 20
87.9732362699
 30
0.0
  0
SPLINE
  5
37F
100
AcDbEntity
  8
0
100
AcDbSpline
 62
7
  6
BYLAYER
 70
0
 71
3
 72
25
 73
21
 74
0
 42
0.0000001
 43
0.0000001
 44
0.0000000001
 40
0.0
 40
0.0
 40
0.0
 40
0.0
 40
0.0213317919
 40
0.0428920932
 40
0.06489711
 40
0.0875417619
 40
0.13531649
 40
0.187217183
 40
0.2436547188
 40
0.3046025432
 40
0.3696903324
 40
0.4382877442
 40
0.5095743387
 40
0.5825987976
 40
0.6563305403
 40
0.7297079711
 40
0.8016844361
 40
0.8712776087
 40
0.9376159469
 40
1.0
 40
1.0
 40
1.0
 40
1.0
 10
36.0027638643
 20
202.5837674417
 30
0.0
 10
36.002763766
 20
202.6546978977
 30
0.0
 10
35.9936189608
 20
202.7974842534
 30
0.0
 10
35.9525829411
 20
203.0098779922
 30
0.0
 10
35.8845410251
 20
203.2198267172
 30
0.0
 10
35.7561553242
 20
203.4997032195
 30
0.0
 10
35.5257936881
 20
203.8386941556
 30
0.0
 10
35.1577878348
 20
204.2081709341
 30
0.0
 10
34.7017246144
 20
204.5414465669
 30
0.0
 10
34.167374731
 20
204.8320657105
 30
0.0
 10
33.5659111211
 20
205.0743758684
 30
0.0
 10
32.9099757207
 20
205.2634142165
 30
0.0
 10
32.2134335442
 20
205.3952436983
 30
0.0
 10
31.491082518
 20
205.4670772104
 30
0.0
 10
30.7583144639
 20
205.4773886166
 30
0.0
 10
30.0307595364
 20
205.4259548267
 30
0.0
 10
29.3239377975
 20
205.3138794238
 30
0.0
 10
28.6528486522
 20
205.1435105563
 30
0.0
 10
28.031835957
 20
204.9185013163
 30
0.0
 10
27.6468651477
 20
204.7286875261
 30
0.0
 10
27.4672221548
 20
204.6249712149
 30
0.0
  0
SPLINE
  5
380
100
AcDbEntity
  8
0
100
AcDbSpline
 62
7
  6
BYLAYER
 70
0
 71
3
 72
14
 73
10
 74
0
 42
0.0000001
 43
0.0000001
 44
0.0000000001
 40
0.0
 40
0.0
 40
0.0
 40
0.0
 40
0.1080474441
 40
0.2181294093
 40
0.3321013267
 40
0.451501092
 40
0.5774520678
 40
0.7107149076
 40
1.0
 40
1.0
 40
1.0
 40
1.0
 10
33.7382840752
 20
202.5754064558
 30
0.0
 10
33.7382806959
 20
202.5233454911
 30
0.0
 10
33.7292476435
 20
202.4180313172
 30
0.0
 10
33.6888869304
 20
202.2624823939
 30
0.0
 10
33.6222874257
 20
202.1102752761
 30
0.0
 10
33.5302567977
 20
201.9629806105
 30
0.0
 10
33.4138623584
 20
201.8218782771
 30
0.0
 10
33.2226051655
 20
201.638829852
 30
0.0
 10
33.0535540147
 20
201.5224377807
 30
0.0
 10
32.9328407354
 20
201.4527443523
 30
0.0
  0
SPLINE
  5
381
100
AcDbEntity
  8
0
100
AcDbSpline
 62
7
  6
BYLAYER
 70
0
 71
3
 72
15
 73
11
 74
0
 42
0.0000001
 43
0.0000001
 44
0.0000000001
 40
0.0
 40
0.0
 40
0.0
 40
0.0
 40
0.1485856678
 40
0.2895088089
 40
0.4227238345
 40
0.5486431073
 40
0.6680018528
 40
0.781938763
 40
0.8919876394
 40
1.0
 40
1.0
 40
1.0
 40
1.0
 10
27.4672221548
 20
204.6249712149
 30
0.0
 10
27.354454896
 20
204.5598653963
 30
0.0
 10
27.1398345827
 20
204.4238302151
 30
0.0
 10
26.8464214624
 20
204.1967276889
 30
0.0
 10
26.5926350117
 20
203.9538044342
 30
0.0
 10
26.3810076735
 20
203.697292303
 30
0.0
 10
26.2136939102
 20
203.4294582984
 30
0.0
 10
26.0925814352
 20
203.1527286301
 30
0.0
 10
26.0192130386
 20
202.8699045628
 30
0.0
 10
26.0027775658
 20
202.6784234719
 30
0.0
 10
26.0027776969
 20
202.5837674429
 30
0.0
  0
SPLINE
  5
382
100
AcDbEntity
  8
0
100
AcDbSpline
 62
7
  6
BYLAYER
 70
0
 71
3
 72
23
 73
19
 74
0
 42
0.0000001
 43
0.0000001
 44
0.0000000001
 40
0.0
 40
0.0
 40
0.0
 40
0.0
 40
0.062390731
 40
0.1287440575
 40
0.1983461496
 40
0.2703344586
 40
0.3437234599
 40
0.4174684792
 40
0.4905056242
 40
0.5618045145
 40
0.630413348
 40
0.6955115452
 40
0.7564687586
 40
0.8129147507
 40
0.8648231715
 40
0.9126051711
 40
0.9571862575
 40
1.0
 40
1.0
 40
1.0
 40
1.0
 10
32.9328407354
 20
201.4527443523
 30
0.0
 10
32.8340424635
 20
201.395703484
 30
0.0
 10
32.6223054207
 20
201.2913091351
 30
0.0
 10
32.2807539446
 20
201.1675460746
 30
0.0
 10
31.9116484644
 20
201.0738519364
 30
0.0
 10
31.5229020617
 20
201.0122046229
 30
0.0
 10
31.1227440212
 20
200.9839192789
 30
0.0
 10
30.719718039
 20
200.9895877578
 30
0.0
 10
30.3224193125
 20
201.0290967513
 30
0.0
 10
29.9393173746
 20
201.1016026997
 30
0.0
 10
29.5785509627
 20
201.2055750954
 30
0.0
 10
29.2477474204
 20
201.3388454415
 30
0.0
 10
28.9538562287
 20
201.4986924236
 30
0.0
 10
28.7030313149
 20
201.6819756739
 30
0.0
 10
28.5006120791
 20
201.8852470866
 30
0.0
 10
28.3512650176
 20
202.1049162124
 30
0.0
 10
28.2592282502
 20
202.3366378602
 30
0.0
 10
28.2382888258
 20
202.4971209246
 30
0.0
 10
28.2382939073
 20
202.5754063987
 30
0.0
  0
SPLINE
  5
383
100
AcDbEntity
  8
0
100
AcDbSpline
 62
7
  6
BYLAYER
 70
0
 71
3
 72
25
 73
21
 74
0
 42
0.0000001
 43
0.0000001
 44
0.0000000001
 40
0.0
 40
0.0
 40
0.0
 40
0.0
 40
0.0623838846
 40
0.1287219263
 40
0.1983148945
 40
0.2702912954
 40
0.3436688888
 40
0.4174008729
 40
0.4904255102
 40
0.5617122509
 40
0.6303098301
 40
0.6953977595
 40
0.7563456197
 40
0.8127830873
 40
0.8646836913
 40
0.9124583627
 40
0.9351029942
 40
0.9571079857
 40
0.9786682514
 40
1.0
 40
1.0
 40
1.0
 40
1.0
 10
34.5383194012
 20
198.9095588323
 30
0.0
 10
34.3586768944
 20
198.8058428018
 30
0.0
 10
33.9737075446
 20
198.6160295679
 30
0.0
 10
33.3526970285
 20
198.3910208918
 30
0.0
 10
32.6816098795
 20
198.2206518431
 30
0.0
 10
31.9747885714
 20
198.1085759676
 30
0.0
 10
31.2472325567
 20
198.0571415262
 30
0.0
 10
30.5144625546
 20
198.0674525921
 30
0.0
 10
29.7921096317
 20
198.1392860814
 30
0.0
 10
29.0955658333
 20
198.2711158081
 30
0.0
 10
28.439628998
 20
198.4601546438
 30
0.0
 10
27.8381644111
 20
198.7024654483
 30
0.0
 10
27.3038143798
 20
198.993085082
 30
0.0
 10
26.8477517509
 20
199.3263608334
 30
0.0
 10
26.4797466836
 20
199.6958373886
 30
0.0
 10
26.2493856435
 20
200.0348280417
 30
0.0
 10
26.1210001843
 20
200.3147042808
 30
0.0
 10
26.0529585109
 20
200.5246527963
 30
0.0
 10
26.011922608
 20
200.7370462073
 30
0.0
 10
26.002777928
 20
200.8798322969
 30
0.0
 10
26.0027777479
 20
200.9507626089
 30
0.0
  0
SPLINE
  5
384
100
AcDbEntity
  8
0
100
AcDbSpline
 62
7
  6
BYLAYER
 70
0
 71
3
 72
14
 73
10
 74
0
 42
0.0000001
 43
0.0000001
 44
0.0000000001
 40
0.0
 40
0.0
 40
0.0
 40
0.0
 40
0.1080474441
 40
0.2181294093
 40
0.3321013267
 40
0.451501092
 40
0.5774520678
 40
0.7107149076
 40
1.0
 40
1.0
 40
1.0
 40
1.0
 10
28.2382939073
 20
202.5754063987
 30
0.0
 10
28.2382972866
 20
202.6274673634
 30
0.0
 10
28.247330339
 20
202.7327815373
 30
0.0
 10
28.2876910521
 20
202.8883304606
 30
0.0
 10
28.3542905568
 20
203.0405375785
 30
0.0
 10
28.4463211848
 20
203.187832244
 30
0.0
 10
28.5627156241
 20
203.3289345775
 30
0.0
 10
28.753972817
 20
203.5119830025
 30
0.0
 10
28.9230239678
 20
203.6283750739
 30
0.0
 10
29.0437372471
 20
203.6980685022
 30
0.0
  0
SPLINE
  5
385
100
AcDbEntity
  8
0
100
AcDbSpline
 62
7
  6
BYLAYER
 70
0
 71
3
 72
25
 73
21
 74
0
 42
0.0000001
 43
0.0000001
 44
0.0000000001
 40
0.0
 40
0.0
 40
0.0
 40
0.0
 40
0.0213317919
 40
0.0428920932
 40
0.06489711
 40
0.0875417619
 40
0.13531649
 40
0.187217183
 40
0.2436547188
 40
0.3046025432
 40
0.3696903324
 40
0.4382877442
 40
0.5095743387
 40
0.5825987976
 40
0.6563305403
 40
0.7297079711
 40
0.8016844361
 40
0.8712776087
 40
0.9376159469
 40
1.0
 40
1.0
 40
1.0
 40
1.0
 10
26.0027776969
 20
202.5837674429
 30
0.0
 10
26.0027777951
 20
202.5128369869
 30
0.0
 10
26.0119226003
 20
202.3700506313
 30
0.0
 10
26.05295862
 20
202.1576568925
 30
0.0
 10
26.1210005361
 20
201.9477081674
 30
0.0
 10
26.2493862369
 20
201.6678316652
 30
0.0
 10
26.4797478731
 20
201.328840729
 30
0.0
 10
26.8477537264
 20
200.9593639505
 30
0.0
 10
27.3038169467
 20
200.6260883177
 30
0.0
 10
27.8381668301
 20
200.3354691742
 30
0.0
 10
28.4396304401
 20
200.0931590163
 30
0.0
 10
29.0955658404
 20
199.9041206682
 30
0.0
 10
29.792108017
 20
199.7722911863
 30
0.0
 10
30.5144590431
 20
199.7004576742
 30
0.0
 10
31.2472270972
 20
199.6901462681
 30
0.0
 10
31.9747820248
 20
199.741580058
 30
0.0
 10
32.6816037637
 20
199.8536554609
 30
0.0
 10
33.3526929089
 20
200.0240243283
 30
0.0
 10
33.9737056041
 20
200.2490335684
 30
0.0
 10
34.3586764134
 20
200.4388473585
 30
0.0
 10
34.5383194063
 20
200.5425636697
 30
0.0
  0
SPLINE
  5
386
100
AcDbEntity
  8
0
100
AcDbSpline
 62
7
  6
BYLAYER
 70
0
 71
3
 72
15
 73
11
 74
0
 42
0.0000001
 43
0.0000001
 44
0.0000000001
 40
0.0
 40
0.0
 40
0.0
 40
0.0
 40
0.1080121178
 40
0.2180610032
 40
0.3319980056
 40
0.4513564381
 40
0.5772769912
 40
0.7104919899
 40
0.8514108741
 40
1.0
 40
1.0
 40
1.0
 40
1.0
 10
36.0027651856
 20
200.9507626107
 30
0.0
 10
36.0027623324
 20
200.8561067981
 30
0.0
 10
35.9863327913
 20
200.6646255111
 30
0.0
 10
35.9129553968
 20
200.3818034872
 30
0.0
 10
35.7918478765
 20
200.1050726707
 30
0.0
 10
35.6245361029
 20
199.8372356919
 30
0.0
 10
35.4129037087
 20
199.5807266728
 30
0.0
 10
35.1591208654
 20
199.3378039218
 30
0.0
 10
34.865710172
 20
199.1106991868
 30
0.0
 10
34.6510892803
 20
198.9746661637
 30
0.0
 10
34.5383194012
 20
198.9095588323
 30
0.0
  0
SPLINE
  5
387
100
AcDbEntity
  8
0
100
AcDbSpline
 62
7
  6
BYLAYER
 70
0
 71
3
 72
15
 73
11
 74
0
 42
0.0000001
 43
0.0000001
 44
0.0000000001
 40
0.0
 40
0.0
 40
0.0
 40
0.0
 40
0.1485856678
 40
0.2895088089
 40
0.4227238345
 40
0.5486431073
 40
0.6680018528
 40
0.781938763
 40
0.8919876394
 40
1.0
 40
1.0
 40
1.0
 40
1.0
 10
34.5383194063
 20
200.5425636697
 30
0.0
 10
34.6510866652
 20
200.6076694884
 30
0.0
 10
34.8657069785
 20
200.7437046695
 30
0.0
 10
35.1591200987
 20
200.9708071958
 30
0.0
 10
35.4129065495
 20
201.2137304504
 30
0.0
 10
35.6245338876
 20
201.4702425817
 30
0.0
 10
35.7918476509
 20
201.7380765863
 30
0.0
 10
35.9129601259
 20
202.0148062546
 30
0.0
 10
35.9863285225
 20
202.2976303219
 30
0.0
 10
36.0027639954
 20
202.4891114127
 30
0.0
 10
36.0027638643
 20
202.5837674417
 30
0.0
  0
SPLINE
  5
388
100
AcDbEntity
  8
0
100
AcDbSpline
 62
7
  6
BYLAYER
 70
0
 71
3
 72
23
 73
19
 74
0
 42
0.0000001
 43
0.0000001
 44
0.0000000001
 40
0.0
 40
0.0
 40
0.0
 40
0.0
 40
0.062390731
 40
0.1287440575
 40
0.1983461496
 40
0.2703344586
 40
0.3437234599
 40
0.4174684792
 40
0.4905056242
 40
0.5618045145
 40
0.630413348
 40
0.6955115452
 40
0.7564687586
 40
0.8129147507
 40
0.8648231715
 40
0.9126051711
 40
0.9571862575
 40
1.0
 40
1.0
 40
1.0
 40
1.0
 10
29.0437372471
 20
203.6980685022
 30
0.0
 10
29.142535519
 20
203.7551093706
 30
0.0
 10
29.3542725618
 20
203.8595037194
 30
0.0
 10
29.6958240379
 20
203.9832667799
 30
0.0
 10
30.0649295181
 20
204.0769609181
 30
0.0
 10
30.4536759208
 20
204.1386082316
 30
0.0
 10
30.8538339613
 20
204.1668935756
 30
0.0
 10
31.2568599435
 20
204.1612250968
 30
0.0
 10
31.65415867
 20
204.1217161033
 30
0.0
 10
32.0372606079
 20
204.0492101549
 30
0.0
 10
32.3980270198
 20
203.9452377592
 30
0.0
 10
32.7288305621
 20
203.8119674131
 30
0.0
 10
33.0227217538
 20
203.652120431
 30
0.0
 10
33.2735466676
 20
203.4688371807
 30
0.0
 10
33.4759659034
 20
203.265565768
 30
0.0
 10
33.6253129649
 20
203.0458966421
 30
0.0
 10
33.7173497323
 20
202.8141749943
 30
0.0
 10
33.7382891567
 20
202.6536919299
 30
0.0
 10
33.7382840752
 20
202.5754064558
 30
0.0
  0
SPLINE
  5
389
100
AcDbEntity
  8
0
100
AcDbSpline
 62
7
  6
BYLAYER
 70
0
 71
3
 72
15
 73
11
 74
0
 42
0.0000001
 43
0.0000001
 44
0.0000000001
 40
0.0
 40
0.0
 40
0.0
 40
0.0
 40
0.0869241835
 40
0.1863937465
 40
0.3037874828
 40
0.4375979431
 40
0.5820957183
 40
0.7293802427
 40
0.871202141
 40
1.0
 40
1.0
 40
1.0
 40
1.0
 10
148.9357670164
 20
196.7211978369
 30
0.0
 10
148.9357491827
 20
196.7464291233
 30
0.0
 10
148.9205610895
 20
196.8010323898
 30
0.0
 10
148.8610291735
 20
196.8687150518
 30
0.0
 10
148.7731808095
 20
196.9222375556
 30
0.0
 10
148.6635049222
 20
196.9588843679
 30
0.0
 10
148.5405693937
 20
196.9761360555
 30
0.0
 10
148.4141484469
 20
196.9726766746
 30
0.0
 10
148.2946468111
 20
196.9487357071
 30
0.0
 10
148.2213023182
 20
196.9184960325
 30
0.0
 10
148.1889251541
 20
196.8998031797
 30
0.0
  0
SPLINE
  5
38A
100
AcDbEntity
  8
0
100
AcDbSpline
 62
7
  6
BYLAYER
 70
0
 71
3
 72
15
 73
11
 74
0
 42
0.0000001
 43
0.0000001
 44
0.0000000001
 40
0.0
 40
0.0
 40
0.0
 40
0.0
 40
0.1287967955
 40
0.2706054081
 40
0.4178806294
 40
0.5623772076
 40
0.6961938611
 40
0.8135926843
 40
0.9130671628
 40
1.0
 40
1.0
 40
1.0
 40
1.0
 10
148.8076461636
 20
134.4881790535
 30
0.0
 10
148.7752692735
 20
134.4694863589
 30
0.0
 10
148.7019289784
 20
134.4392475707
 30
0.0
 10
148.582434491
 20
134.4153069331
 30
0.0
 10
148.4560205809
 20
134.4118436556
 30
0.0
 10
148.3330861874
 20
134.4290939014
 30
0.0
 10
148.2234062376
 20
134.4657379477
 30
0.0
 10
148.1355525527
 20
134.5192599153
 30
0.0
 10
148.0760120378
 20
134.5869431652
 30
0.0
 10
148.0608235479
 20
134.6415506099
 30
0.0
 10
148.0608044422
 20
134.6667844022
 30
0.0
  0
SPLINE
  5
38B
100
AcDbEntity
  8
0
100
AcDbSpline
 62
7
  6
BYLAYER
 70
0
 71
3
 72
11
 73
7
 74
0
 42
0.0000001
 43
0.0000001
 44
0.0000000001
 40
0.0
 40
0.0
 40
0.0
 40
0.0
 40
0.2893980704
 40
0.5491296536
 40
0.782314874
 40
1.0
 40
1.0
 40
1.0
 40
1.0
 10
148.1889251541
 20
196.8998031797
 30
0.0
 10
148.1697491081
 20
196.8887319504
 30
0.0
 10
148.1349471095
 20
196.864709719
 30
0.0
 10
148.0932686462
 20
196.8210083548
 30
0.0
 10
148.0669404289
 20
196.772583608
 30
0.0
 10
148.0607925291
 20
196.7378534822
 30
0.0
 10
148.0608043014
 20
196.7211978624
 30
0.0
  0
SPLINE
  5
38C
100
AcDbEntity
  8
0
100
AcDbSpline
 62
7
  6
BYLAYER
 70
0
 71
3
 72
11
 73
7
 74
0
 42
0.0000001
 43
0.0000001
 44
0.0000000001
 40
0.0
 40
0.0
 40
0.0
 40
0.0
 40
0.2176895918
 40
0.4508850862
 40
0.7106199654
 40
1.0
 40
1.0
 40
1.0
 40
1.0
 10
148.9357668756
 20
134.6667843651
 30
0.0
 10
148.9357794866
 20
134.6501284473
 30
0.0
 10
148.9296282524
 20
134.6153976676
 30
0.0
 10
148.9033012363
 20
134.5669712991
 30
0.0
 10
148.8616214304
 20
134.5232714946
 30
0.0
 10
148.826820965
 20
134.4992495642
 30
0.0
 10
148.8076461636
 20
134.4881790535
 30
0.0
  0
SPLINE
  5
38D
100
AcDbEntity
  8
0
100
AcDbSpline
 62
7
  6
BYLAYER
 70
0
 71
3
 72
15
 73
11
 74
0
 42
0.0000001
 43
0.0000001
 44
0.0000000001
 40
0.0
 40
0.0
 40
0.0
 40
0.0
 40
0.0869241835
 40
0.1863937465
 40
0.3037874828
 40
0.4375979431
 40
0.5820957183
 40
0.7293802427
 40
0.871202141
 40
1.0
 40
1.0
 40
1.0
 40
1.0
 10
148.0608043014
 20
196.7211978624
 30
0.0
 10
148.0608221351
 20
196.6959665759
 30
0.0
 10
148.0760102283
 20
196.6413633094
 30
0.0
 10
148.1355421442
 20
196.5736806474
 30
0.0
 10
148.2233905083
 20
196.5201581436
 30
0.0
 10
148.3330663956
 20
196.4835113313
 30
0.0
 10
148.456001924
 20
196.4662596437
 30
0.0
 10
148.5824228709
 20
196.4697190246
 30
0.0
 10
148.7019245066
 20
196.4936599921
 30
0.0
 10
148.7752689996
 20
196.5238996667
 30
0.0
 10
148.8076461636
 20
196.5425925195
 30
0.0
  0
SPLINE
  5
38E
100
AcDbEntity
  8
0
100
AcDbSpline
 62
7
  6
BYLAYER
 70
0
 71
3
 72
11
 73
7
 74
0
 42
0.0000001
 43
0.0000001
 44
0.0000000001
 40
0.0
 40
0.0
 40
0.0
 40
0.0
 40
0.2893980704
 40
0.5491296536
 40
0.782314874
 40
1.0
 40
1.0
 40
1.0
 40
1.0
 10
148.8076461636
 20
196.5425925195
 30
0.0
 10
148.8268222097
 20
196.5536637488
 30
0.0
 10
148.8616242083
 20
196.5776859802
 30
0.0
 10
148.9033026716
 20
196.6213873444
 30
0.0
 10
148.9296308888
 20
196.6698120912
 30
0.0
 10
148.9357787887
 20
196.704542217
 30
0.0
 10
148.9357670164
 20
196.7211978369
 30
0.0
  0
SPLINE
  5
38F
100
AcDbEntity
  8
0
100
AcDbSpline
 62
7
  6
BYLAYER
 70
0
 71
3
 72
15
 73
11
 74
0
 42
0.0000001
 43
0.0000001
 44
0.0000000001
 40
0.0
 40
0.0
 40
0.0
 40
0.0
 40
0.148590054
 40
0.2895075593
 40
0.4227228329
 40
0.548643783
 40
0.6680017296
 40
0.7819385027
 40
0.8919876359
 40
1.0
 40
1.0
 40
1.0
 40
1.0
 10
144.255627308
 20
182.9989306024
 30
0.0
 10
144.1203025622
 20
182.9208012903
 30
0.0
 10
143.8627572884
 20
182.7575626504
 30
0.0
 10
143.5106650428
 20
182.4850361877
 30
0.0
 10
143.2061263264
 20
182.19352916
 30
0.0
 10
142.9521657063
 20
181.8857193775
 30
0.0
 10
142.7513914949
 20
181.5643151254
 30
0.0
 10
142.6060642118
 20
181.2322378691
 30
0.0
 10
142.5180098938
 20
180.8928514815
 30
0.0
 10
142.4982940245
 20
180.6630733441
 30
0.0
 10
142.4982902378
 20
180.5494860715
 30
0.0
  0
SPLINE
  5
390
100
AcDbEntity
  8
0
100
AcDbSpline
 62
7
  6
BYLAYER
 70
0
 71
3
 72
23
 73
19
 74
0
 42
0.0000001
 43
0.0000001
 44
0.0000000001
 40
0.0
 40
0.0
 40
0.0
 40
0.0
 40
0.0623919227
 40
0.1287428254
 40
0.198345841
 40
0.270333723
 40
0.3437232364
 40
0.4174680389
 40
0.4905050962
 40
0.5618037881
 40
0.630412456
 40
0.6955106486
 40
0.7564680256
 40
0.8129142703
 40
0.8648229441
 40
0.9126051204
 40
0.9571863142
 40
1.0
 40
1.0
 40
1.0
 40
1.0
 10
150.7610367794
 20
179.2431156608
 30
0.0
 10
150.6460692488
 20
179.1767395223
 30
0.0
 10
150.3996875882
 20
179.0552610925
 30
0.0
 10
150.0022447632
 20
178.9112503528
 30
0.0
 10
149.5727454834
 20
178.8022194237
 30
0.0
 10
149.1203830062
 20
178.7304870046
 30
0.0
 10
148.6547447482
 20
178.6975713657
 30
0.0
 10
148.1857682645
 20
178.7041694475
 30
0.0
 10
147.7234579209
 20
178.7501443924
 30
0.0
 10
147.2776674685
 20
178.8345160939
 30
0.0
 10
146.8578671983
 20
178.9555023719
 30
0.0
 10
146.4729315184
 20
179.1105794916
 30
0.0
 10
146.1309470312
 20
179.2965818994
 30
0.0
 10
145.8390753821
 20
179.5098559969
 30
0.0
 10
145.603530163
 20
179.7463898876
 30
0.0
 10
145.4297437081
 20
180.0020053086
 30
0.0
 10
145.3226429233
 20
180.2716460675
 30
0.0
 10
145.2982870231
 20
180.4583903136
 30
0.0
 10
145.2982870643
 20
180.5494860752
 30
0.0
  0
SPLINE
  5
391
100
AcDbEntity
  8
0
100
AcDbSpline
 62
7
  6
BYLAYER
 70
0
 71
3
 72
15
 73
11
 74
0
 42
0.0000001
 43
0.0000001
 44
0.0000000001
 40
0.0
 40
0.0
 40
0.0
 40
0.0
 40
0.1020910871
 40
0.2072442136
 40
0.31809177
 40
0.4365676701
 40
0.5638350985
 40
0.7003449839
 40
0.8459460852
 40
1.0
 40
1.0
 40
1.0
 40
1.0
 10
154.4982810799
 20
180.549486079
 30
0.0
 10
154.4982858939
 20
180.6938919585
 30
0.0
 10
154.4660210101
 20
180.9879590919
 30
0.0
 10
154.3230295772
 20
181.4176812923
 30
0.0
 10
154.0888688311
 20
181.831830308
 30
0.0
 10
153.7684046977
 20
182.224049522
 30
0.0
 10
153.3672178503
 20
182.589048995
 30
0.0
 10
152.8916464214
 20
182.9218128153
 30
0.0
 10
152.3490145709
 20
183.2176368187
 30
0.0
 10
151.9580156677
 20
183.383132089
 30
0.0
 10
151.7538447417
 20
183.4592726738
 30
0.0
  0
SPLINE
  5
392
100
AcDbEntity
  8
0
100
AcDbSpline
 62
7
  6
BYLAYER
 70
0
 71
3
 72
9
 73
5
 74
0
 42
0.0000001
 43
0.0000001
 44
0.0000000001
 40
0.0
 40
0.0
 40
0.0
 40
0.0
 40
0.5142672329
 40
1.0
 40
1.0
 40
1.0
 40
1.0
 10
145.5325553902
 20
183.5607796401
 30
0.0
 10
145.3050388348
 20
183.4860920105
 30
0.0
 10
144.8688591305
 20
183.3208827664
 30
0.0
 10
144.4515011042
 20
183.1120177163
 30
0.0
 10
144.255627308
 20
182.9989306024
 30
0.0
  0
SPLINE
  5
393
100
AcDbEntity
  8
0
100
AcDbSpline
 62
7
  6
BYLAYER
 70
0
 71
3
 72
25
 73
21
 74
0
 42
0.0000001
 43
0.0000001
 44
0.0000000001
 40
0.0
 40
0.0
 40
0.0
 40
0.0
 40
0.0623842116
 40
0.1287216447
 40
0.1983147638
 40
0.2702911319
 40
0.3436686405
 40
0.4174005158
 40
0.4904250932
 40
0.5617119217
 40
0.6303096723
 40
0.6953977418
 40
0.7563457153
 40
0.8127832644
 40
0.8646839357
 40
0.912458613
 40
0.935102995
 40
0.9571080899
 40
0.9786682657
 40
1.0
 40
1.0
 40
1.0
 40
1.0
 10
152.7409440098
 20
176.7936376807
 30
0.0
 10
152.525371823
 20
176.6691777636
 30
0.0
 10
152.0634098406
 20
176.4414014733
 30
0.0
 10
151.3181965414
 20
176.1713940142
 30
0.0
 10
150.512894125
 20
175.9669500573
 30
0.0
 10
149.6647079724
 20
175.8324602395
 30
0.0
 10
148.7916415369
 20
175.7707385683
 30
0.0
 10
147.9123183359
 20
175.7831116997
 30
0.0
 10
147.0454949051
 20
175.8693111483
 30
0.0
 10
146.2096411963
 20
176.0275060996
 30
0.0
 10
145.4225150418
 20
176.2543522262
 30
0.0
 10
144.7007552495
 20
176.5451247781
 30
0.0
 10
144.0595337963
 20
176.8938682747
 30
0.0
 10
143.5122556889
 20
177.2937985506
 30
0.0
 10
143.070653425
 20
177.7371726045
 30
0.0
 10
142.7942078495
 20
178.1439559656
 30
0.0
 10
142.6401710452
 20
178.4798173914
 30
0.0
 10
142.5584979268
 20
178.731747732
 30
0.0
 10
142.5092798027
 20
178.9866245384
 30
0.0
 10
142.4982875832
 20
179.1579658687
 30
0.0
 10
142.4982903885
 20
179.2430822049
 30
0.0
  0
SPLINE
  5
394
100
AcDbEntity
  8
0
100
AcDbSpline
 62
7
  6
BYLAYER
 70
0
 71
3
 72
10
 73
6
 74
0
 42
0.0000001
 43
0.0000001
 44
0.0000000001
 40
0.0
 40
0.0
 40
0.0
 40
0.0
 40
0.272608494
 40
0.5301640688
 40
1.0
 40
1.0
 40
1.0
 40
1.0
 10
146.2355345384
 20
180.5494526223
 30
0.0
 10
146.1584929322
 20
180.5049728957
 30
0.0
 10
146.0123118455
 20
180.4117217261
 30
0.0
 10
145.7560782101
 20
180.2093688743
 30
0.0
 10
145.5942531405
 20
180.0310386796
 30
0.0
 10
145.5095548208
 20
179.9032363228
 30
0.0
  0
SPLINE
  5
395
100
AcDbEntity
  8
0
100
AcDbSpline
 62
7
  6
BYLAYER
 70
0
 71
3
 72
15
 73
11
 74
0
 42
0.0000001
 43
0.0000001
 44
0.0000000001
 40
0.0
 40
0.0
 40
0.0
 40
0.0
 40
0.1080119564
 40
0.2180607719
 40
0.3319973889
 40
0.4513553684
 40
0.5772763923
 40
0.7104918828
 40
0.8514098883
 40
1.0
 40
1.0
 40
1.0
 40
1.0
 10
154.4982809292
 20
179.2430822108
 30
0.0
 10
154.4982771855
 20
179.12949537
 30
0.0
 10
154.4785614515
 20
178.8997180104
 30
0.0
 10
154.390507839
 20
178.5603324112
 30
0.0
 10
154.2451808531
 20
178.2282555277
 30
0.0
 10
154.0444069379
 20
177.9068511911
 30
0.0
 10
153.7904466492
 20
177.5990406985
 30
0.0
 10
153.4859073822
 20
177.3075330247
 30
0.0
 10
153.1338144847
 20
177.0350061023
 30
0.0
 10
152.8762688046
 20
176.8717670211
 30
0.0
 10
152.7409440098
 20
176.7936376807
 30
0.0
  0
SPLINE
  5
396
100
AcDbEntity
  8
0
100
AcDbSpline
 62
7
  6
BYLAYER
 70
0
 71
3
 72
13
 73
9
 74
0
 42
0.0000001
 43
0.0000001
 44
0.0000000001
 40
0.0
 40
0.0
 40
0.0
 40
0.0
 40
0.2054900823
 40
0.3208131954
 40
0.4442435526
 40
0.5750952857
 40
0.7123071271
 40
1.0
 40
1.0
 40
1.0
 40
1.0
 10
151.487353141
 20
179.9027283313
 30
0.0
 10
151.3780740803
 20
180.067769701
 30
0.0
 10
151.1561463329
 20
180.2924451057
 30
0.0
 10
150.8020747056
 20
180.5331362771
 30
0.0
 10
150.4855509033
 20
180.6981072479
 30
0.0
 10
150.1344025629
 20
180.8371734965
 30
0.0
 10
149.6200190121
 20
180.9874735701
 30
0.0
 10
149.2132623301
 20
181.051057791
 30
0.0
 10
148.9370189606
 20
181.0731285767
 30
0.0
  0
SPLINE
  5
397
100
AcDbEntity
  8
0
100
AcDbSpline
 62
7
  6
BYLAYER
 70
0
 71
3
 72
11
 73
7
 74
0
 42
0.0000001
 43
0.0000001
 44
0.0000000001
 40
0.0
 40
0.0
 40
0.0
 40
0.0
 40
0.2665224448
 40
0.524575942
 40
0.7701459531
 40
1.0
 40
1.0
 40
1.0
 40
1.0
 10
148.0594879875
 20
181.0731235856
 30
0.0
 10
147.8901859153
 20
181.0595956252
 30
0.0
 10
147.5579689355
 20
181.0173850819
 30
0.0
 10
147.0787317823
 20
180.9077590179
 30
0.0
 10
146.6359177862
 20
180.7553005371
 30
0.0
 10
146.3623855489
 20
180.6226896502
 30
0.0
 10
146.2355345384
 20
180.5494526223
 30
0.0
  0
SPLINE
  5
398
100
AcDbEntity
  8
0
100
AcDbSpline
 62
7
  6
BYLAYER
 70
0
 71
3
 72
14
 73
10
 74
0
 42
0.0000001
 43
0.0000001
 44
0.0000000001
 40
0.0
 40
0.0
 40
0.0
 40
0.0
 40
0.1080477643
 40
0.2181301772
 40
0.332102076
 40
0.4515011856
 40
0.5774554135
 40
0.71071542
 40
1.0
 40
1.0
 40
1.0
 40
1.0
 10
151.6982842535
 20
180.5494860753
 30
0.0
 10
151.6982842261
 20
180.4889058472
 30
0.0
 10
151.6877550397
 20
180.3663594306
 30
0.0
 10
151.6408060715
 20
180.1853534952
 30
0.0
 10
151.5632998934
 20
180.0082424804
 30
0.0
 10
151.4562122901
 20
179.8368424257
 30
0.0
 10
151.3207695226
 20
179.6726518381
 30
0.0
 10
151.0982151777
 20
179.4596509072
 30
0.0
 10
150.9015029308
 20
179.3242133471
 30
0.0
 10
150.7610367794
 20
179.2431156608
 30
0.0
  0
SPLINE
  5
399
100
AcDbEntity
  8
0
100
AcDbSpline
 62
7
  6
BYLAYER
 70
0
 71
3
 72
11
 73
7
 74
0
 42
0.0000001
 43
0.0000001
 44
0.0000000001
 40
0.0
 40
0.0
 40
0.0
 40
0.0
 40
0.2298517132
 40
0.4754203568
 40
0.7334748545
 40
1.0
 40
1.0
 40
1.0
 40
1.0
 10
146.2355345384
 20
181.8558564897
 30
0.0
 10
146.3623816597
 20
181.9290912722
 30
0.0
 10
146.6359057449
 20
182.0616991402
 30
0.0
 10
147.0787083628
 20
182.2141557992
 30
0.0
 10
147.5579363974
 20
182.3237830555
 30
0.0
 10
147.8901486194
 20
182.365995361
 30
0.0
 10
148.0594488453
 20
182.3795243066
 30
0.0
  0
SPLINE
  5
39A
100
AcDbEntity
  8
0
100
AcDbSpline
 62
7
  6
BYLAYER
 70
0
 71
3
 72
17
 73
13
 74
0
 42
0.0000001
 43
0.0000001
 44
0.0000000001
 40
0.0
 40
0.0
 40
0.0
 40
0.0
 40
0.1566263292
 40
0.3074443429
 40
0.4496456132
 40
0.5810913228
 40
0.7006329267
 40
0.8085091725
 40
0.8587412667
 40
0.907002132
 40
0.9538642405
 40
1.0
 40
1.0
 40
1.0
 40
1.0
 10
148.9371289219
 20
182.3795234848
 30
0.0
 10
149.1241217238
 20
182.3645798267
 30
0.0
 10
149.4899898121
 20
182.3162969758
 30
0.0
 10
150.0140880578
 20
182.1876389877
 30
0.0
 10
150.4909800897
 20
182.0075359288
 30
0.0
 10
150.905998072
 20
181.7812321108
 30
0.0
 10
151.2463989178
 20
181.5152322918
 30
0.0
 10
151.4640686614
 20
181.259627222
 30
0.0
 10
151.5860335681
 20
181.0438981088
 30
0.0
 10
151.6505555014
 20
180.8815620413
 30
0.0
 10
151.6895498783
 20
180.716311427
 30
0.0
 10
151.6982842785
 20
180.6047421715
 30
0.0
 10
151.6982842535
 20
180.5494860753
 30
0.0
  0
SPLINE
  5
39B
100
AcDbEntity
  8
0
100
AcDbSpline
 62
7
  6
BYLAYER
 70
0
 71
3
 72
25
 73
21
 74
0
 42
0.0000001
 43
0.0000001
 44
0.0000000001
 40
0.0
 40
0.0
 40
0.0
 40
0.0
 40
0.0213317793
 40
0.0428919992
 40
0.0648971443
 40
0.0875415809
 40
0.1353164139
 40
0.1872172777
 40
0.2436549702
 40
0.3046029338
 40
0.3696908258
 40
0.438288319
 40
0.5095749011
 40
0.5825992549
 40
0.6563309079
 40
0.729708272
 40
0.8016846717
 40
0.8712779568
 40
0.9376156274
 40
1.0
 40
1.0
 40
1.0
 40
1.0
 10
142.4982902378
 20
180.5494860715
 30
0.0
 10
142.4982874004
 20
180.4643695553
 30
0.0
 10
142.5092800187
 20
180.2930278964
 30
0.0
 10
142.5584979687
 20
180.0381504944
 30
0.0
 10
142.64017173
 20
179.7862197195
 30
0.0
 10
142.7942090381
 20
179.4503573921
 30
0.0
 10
143.0706561777
 20
179.0435730818
 30
0.0
 10
143.5122604367
 20
178.600198253
 30
0.0
 10
144.0595402143
 20
178.2002680342
 30
0.0
 10
144.7007619684
 20
177.8515254785
 30
0.0
 10
145.4225203889
 20
177.5607543041
 30
0.0
 10
146.2096440436
 20
177.3339093688
 30
0.0
 10
147.0454949189
 20
177.1757151071
 30
0.0
 10
147.9123155809
 20
177.0895158092
 30
0.0
 10
148.7916364137
 20
177.0771423608
 30
0.0
 10
149.664701551
 20
177.1388633924
 30
0.0
 10
150.512888004
 20
177.2733526692
 30
0.0
 10
151.3181922672
 20
177.4777964521
 30
0.0
 10
152.0634077891
 20
177.7478044302
 30
0.0
 10
152.5253712658
 20
177.9755813093
 30
0.0
 10
152.7409440098
 20
178.1000415481
 30
0.0
  0
SPLINE
  5
39C
100
AcDbEntity
  8
0
100
AcDbSpline
 62
7
  6
BYLAYER
 70
0
 71
3
 72
14
 73
10
 74
0
 42
0.0000001
 43
0.0000001
 44
0.0000000001
 40
0.0
 40
0.0
 40
0.0
 40
0.0
 40
0.1080477643
 40
0.2181301772
 40
0.332102076
 40
0.4515011856
 40
0.5774554135
 40
0.71071542
 40
1.0
 40
1.0
 40
1.0
 40
1.0
 10
145.2982870643
 20
180.5494860752
 30
0.0
 10
145.2982870917
 20
180.6100663033
 30
0.0
 10
145.308816278
 20
180.7326127199
 30
0.0
 10
145.3557652462
 20
180.9136186553
 30
0.0
 10
145.4332714243
 20
181.0907296702
 30
0.0
 10
145.5403590277
 20
181.2621297249
 30
0.0
 10
145.6758017952
 20
181.4263203124
 30
0.0
 10
145.8983561401
 20
181.6393212433
 30
0.0
 10
146.095068387
 20
181.7747588035
 30
0.0
 10
146.2355345384
 20
181.8558564897
 30
0.0
  0
SPLINE
  5
39D
100
AcDbEntity
  8
0
100
AcDbSpline
 62
7
  6
BYLAYER
 70
0
 71
3
 72
15
 73
11
 74
0
 42
0.0000001
 43
0.0000001
 44
0.0000000001
 40
0.0
 40
0.0
 40
0.0
 40
0.0
 40
0.148590054
 40
0.2895075593
 40
0.4227228329
 40
0.548643783
 40
0.6680017296
 40
0.7819385027
 40
0.8919876359
 40
1.0
 40
1.0
 40
1.0
 40
1.0
 10
152.7409440098
 20
178.1000415481
 30
0.0
 10
152.8762687556
 20
178.1781708602
 30
0.0
 10
153.1338140293
 20
178.3414095001
 30
0.0
 10
153.485906275
 20
178.6139359628
 30
0.0
 10
153.7904449913
 20
178.9054429905
 30
0.0
 10
154.0444056115
 20
179.2132527731
 30
0.0
 10
154.2451798228
 20
179.5346570251
 30
0.0
 10
154.390507106
 20
179.8667342814
 30
0.0
 10
154.4785614239
 20
180.206120669
 30
0.0
 10
154.4982772933
 20
180.4358988064
 30
0.0
 10
154.4982810799
 20
180.549486079
 30
0.0
  0
SPLINE
  5
39E
100
AcDbEntity
  8
0
100
AcDbSpline
 62
7
  6
BYLAYER
 70
0
 71
3
 72
14
 73
10
 74
0
 42
0.0000001
 43
0.0000001
 44
0.0000000001
 40
0.0
 40
0.0
 40
0.0
 40
0.0
 40
0.1080475707
 40
0.2181297112
 40
0.3321018241
 40
0.4515017425
 40
0.577452781
 40
0.7107155474
 40
1.0
 40
1.0
 40
1.0
 40
1.0
 10
175.6093826773
 20
66.3503228685
 30
0.0
 10
175.5683950274
 20
66.3739901036
 30
0.0
 10
175.4895839837
 20
66.4289732373
 30
0.0
 10
175.3854618514
 20
66.5314561981
 30
0.0
 10
175.2958978654
 20
66.6530787407
 30
0.0
 10
175.2217616851
 20
66.7924910227
 30
0.0
 10
175.1635758258
 20
66.948270796
 30
0.0
 10
175.1063944018
 20
67.1820587377
 30
0.0
 10
175.09159962
 20
67.3680640608
 30
0.0
 10
175.09159962
 20
67.4947843799
 30
0.0
  0
SPLINE
  5
39F
100
AcDbEntity
  8
0
100
AcDbSpline
 62
7
  6
BYLAYER
 70
0
 71
3
 72
23
 73
19
 74
0
 42
0.0000001
 43
0.0000001
 44
0.0000000001
 40
0.0
 40
0.0
 40
0.0
 40
0.0
 40
0.062391157
 40
0.128744724
 40
0.1983469062
 40
0.2703351587
 40
0.3437239268
 40
0.4174686095
 40
0.4905054054
 40
0.5618039183
 40
0.6304123932
 40
0.6955102917
 40
0.7564673139
 40
0.8129132631
 40
0.8648218184
 40
0.9126041351
 40
0.9571856986
 40
1.0
 40
1.0
 40
1.0
 40
1.0
 10
175.09159962
 20
67.4947843799
 30
0.0
 10
175.09159962
 20
67.5984958957
 30
0.0
 10
175.1056537276
 20
67.8126480336
 30
0.0
 10
175.1634648097
 20
68.1378064975
 30
0.0
 10
175.2574732545
 20
68.4709897868
 30
0.0
 10
175.3856394836
 20
68.8050689244
 30
0.0
 10
175.5452582888
 20
69.1329673343
 30
0.0
 10
175.7329123563
 20
69.4476897021
 30
0.0
 10
175.944605601
 20
69.7425208123
 30
0.0
 10
176.1758243027
 20
70.0111761508
 30
0.0
 10
176.4216640991
 20
70.2479438911
 30
0.0
 10
176.6769509015
 20
70.4478048658
 30
0.0
 10
176.9363834988
 20
70.6065248524
 30
0.0
 10
177.1946923769
 20
70.720686421
 30
0.0
 10
177.4467359456
 20
70.7876532372
 30
0.0
 10
177.6875663571
 20
70.8053834789
 30
0.0
 10
177.9118362314
 20
70.7725155948
 30
0.0
 10
178.0477032678
 20
70.7160547078
 30
0.0
 10
178.1093357489
 20
70.6804666606
 30
0.0
  0
SPLINE
  5
3A0
100
AcDbEntity
  8
0
100
AcDbSpline
 62
7
  6
BYLAYER
 70
0
 71
3
 72
11
 73
7
 74
0
 42
0.0000001
 43
0.0000001
 44
0.0000000001
 40
0.0
 40
0.0
 40
0.0
 40
0.0
 40
0.2304811175
 40
0.4759562808
 40
0.7336076645
 40
1.0
 40
1.0
 40
1.0
 40
1.0
 10
178.6271188061
 20
69.5360051492
 30
0.0
 10
178.6271188061
 20
69.4289753358
 30
0.0
 10
178.6121466754
 20
69.2078006456
 30
0.0
 10
178.5507255885
 20
68.8721017175
 30
0.0
 10
178.4509921334
 20
68.5283800957
 30
0.0
 10
178.3614900601
 20
68.3016610242
 30
0.0
 10
178.3110456762
 20
68.1887072051
 30
0.0
  0
SPLINE
  5
3A1
100
AcDbEntity
  8
0
100
AcDbSpline
 62
7
  6
BYLAYER
 70
0
 71
3
 72
17
 73
13
 74
0
 42
0.0000001
 43
0.0000001
 44
0.0000000001
 40
0.0
 40
0.0
 40
0.0
 40
0.0
 40
0.1568689575
 40
0.3074632167
 40
0.449207185
 40
0.5801899369
 40
0.6994631041
 40
0.8074061388
 40
0.8578099444
 40
0.9063267168
 40
0.953509297
 40
1.0
 40
1.0
 40
1.0
 40
1.0
 10
177.8678476903
 20
67.421152479
 30
0.0
 10
177.784793206
 20
67.3065798601
 30
0.0
 10
177.6105363804
 20
67.0900305795
 30
0.0
 10
177.3233171368
 20
66.8030020437
 30
0.0
 10
177.0221485693
 20
66.5665410154
 30
0.0
 10
176.7155845801
 20
66.3876361734
 30
0.0
 10
176.4122352775
 20
66.2716695663
 30
0.0
 10
176.1629014836
 20
66.2301221227
 30
0.0
 10
175.9758658572
 20
66.2342900957
 30
0.0
 10
175.8452314919
 20
66.2547710474
 30
0.0
 10
175.7222153424
 20
66.292605129
 30
0.0
 10
175.6457014763
 20
66.329351538
 30
0.0
 10
175.6093826773
 20
66.3503228685
 30
0.0
  0
SPLINE
  5
3A2
100
AcDbEntity
  8
0
100
AcDbSpline
 62
7
  6
BYLAYER
 70
0
 71
3
 72
14
 73
10
 74
0
 42
0.0000001
 43
0.0000001
 44
0.0000000001
 40
0.0
 40
0.0
 40
0.0
 40
0.0
 40
0.1080475707
 40
0.2181297112
 40
0.3321018241
 40
0.4515017425
 40
0.577452781
 40
0.7107155474
 40
1.0
 40
1.0
 40
1.0
 40
1.0
 10
178.1093357489
 20
70.6804666606
 30
0.0
 10
178.1503233987
 20
70.6567994256
 30
0.0
 10
178.2291344425
 20
70.6018162919
 30
0.0
 10
178.3332565747
 20
70.499333331
 30
0.0
 10
178.4228205607
 20
70.3777107884
 30
0.0
 10
178.4969567411
 20
70.2382985064
 30
0.0
 10
178.5551426003
 20
70.0825187331
 30
0.0
 10
178.6123240244
 20
69.8487307914
 30
0.0
 10
178.6271188061
 20
69.6627254683
 30
0.0
 10
178.6271188061
 20
69.5360051492
 30
0.0
  0
SPLINE
  5
3A3
100
AcDbEntity
  8
0
100
AcDbSpline
 62
7
  6
BYLAYER
 70
0
 71
3
 72
14
 73
10
 74
0
 42
0.0000001
 43
0.0000001
 44
0.0000000001
 40
0.0
 40
0.0
 40
0.0
 40
0.0
 40
0.1080475707
 40
0.2181297112
 40
0.3321018241
 40
0.4515017425
 40
0.577452781
 40
0.7107155474
 40
1.0
 40
1.0
 40
1.0
 40
1.0
 10
175.6093826773
 20
82.6803712111
 30
0.0
 10
175.5683950274
 20
82.7040384462
 30
0.0
 10
175.4895839837
 20
82.7590215798
 30
0.0
 10
175.3854618514
 20
82.8615045407
 30
0.0
 10
175.2958978654
 20
82.9831270833
 30
0.0
 10
175.2217616851
 20
83.1225393653
 30
0.0
 10
175.1635758258
 20
83.2783191386
 30
0.0
 10
175.1063944018
 20
83.5121070803
 30
0.0
 10
175.09159962
 20
83.6981124034
 30
0.0
 10
175.09159962
 20
83.8248327225
 30
0.0
  0
SPLINE
  5
3A4
100
AcDbEntity
  8
0
100
AcDbSpline
 62
7
  6
BYLAYER
 70
0
 71
3
 72
23
 73
19
 74
0
 42
0.0000001
 43
0.0000001
 44
0.0000000001
 40
0.0
 40
0.0
 40
0.0
 40
0.0
 40
0.062391157
 40
0.128744724
 40
0.1983469062
 40
0.2703351587
 40
0.3437239268
 40
0.4174686095
 40
0.4905054054
 40
0.5618039183
 40
0.6304123932
 40
0.6955102917
 40
0.7564673139
 40
0.8129132631
 40
0.8648218184
 40
0.9126041351
 40
0.9571856986
 40
1.0
 40
1.0
 40
1.0
 40
1.0
 10
175.09159962
 20
83.8248327225
 30
0.0
 10
175.09159962
 20
83.9285442383
 30
0.0
 10
175.1056537276
 20
84.1426963762
 30
0.0
 10
175.1634648097
 20
84.4678548401
 30
0.0
 10
175.2574732545
 20
84.8010381294
 30
0.0
 10
175.3856394836
 20
85.135117267
 30
0.0
 10
175.5452582888
 20
85.4630156769
 30
0.0
 10
175.7329123563
 20
85.7777380447
 30
0.0
 10
175.944605601
 20
86.0725691549
 30
0.0
 10
176.1758243027
 20
86.3412244934
 30
0.0
 10
176.4216640991
 20
86.5779922337
 30
0.0
 10
176.6769509015
 20
86.7778532084
 30
0.0
 10
176.9363834988
 20
86.9365731949
 30
0.0
 10
177.1946923769
 20
87.0507347636
 30
0.0
 10
177.4467359456
 20
87.1177015798
 30
0.0
 10
177.6875663571
 20
87.1354318215
 30
0.0
 10
177.9118362314
 20
87.1025639374
 30
0.0
 10
178.0477032678
 20
87.0461030504
 30
0.0
 10
178.1093357489
 20
87.0105150032
 30
0.0
  0
SPLINE
  5
3A5
100
AcDbEntity
  8
0
100
AcDbSpline
 62
7
  6
BYLAYER
 70
0
 71
3
 72
11
 73
7
 74
0
 42
0.0000001
 43
0.0000001
 44
0.0000000001
 40
0.0
 40
0.0
 40
0.0
 40
0.0
 40
0.2304811175
 40
0.4759562808
 40
0.7336076645
 40
1.0
 40
1.0
 40
1.0
 40
1.0
 10
178.6271188061
 20
85.8660534918
 30
0.0
 10
178.6271188061
 20
85.7590236784
 30
0.0
 10
178.6121466754
 20
85.5378489882
 30
0.0
 10
178.5507255885
 20
85.2021500601
 30
0.0
 10
178.4509921334
 20
84.8584284383
 30
0.0
 10
178.3614900601
 20
84.6317093668
 30
0.0
 10
178.3110456762
 20
84.5187555477
 30
0.0
  0
SPLINE
  5
3A6
100
AcDbEntity
  8
0
100
AcDbSpline
 62
7
  6
BYLAYER
 70
0
 71
3
 72
17
 73
13
 74
0
 42
0.0000001
 43
0.0000001
 44
0.0000000001
 40
0.0
 40
0.0
 40
0.0
 40
0.0
 40
0.1568689575
 40
0.3074632167
 40
0.449207185
 40
0.5801899369
 40
0.6994631041
 40
0.8074061388
 40
0.8578099444
 40
0.9063267168
 40
0.953509297
 40
1.0
 40
1.0
 40
1.0
 40
1.0
 10
177.8678476903
 20
83.7512008216
 30
0.0
 10
177.784793206
 20
83.6366282027
 30
0.0
 10
177.6105363804
 20
83.4200789221
 30
0.0
 10
177.3233171368
 20
83.1330503863
 30
0.0
 10
177.0221485693
 20
82.896589358
 30
0.0
 10
176.7155845801
 20
82.717684516
 30
0.0
 10
176.4122352775
 20
82.6017179089
 30
0.0
 10
176.1629014836
 20
82.5601704653
 30
0.0
 10
175.9758658572
 20
82.5643384383
 30
0.0
 10
175.8452314919
 20
82.58481939
 30
0.0
 10
175.7222153424
 20
82.6226534716
 30
0.0
 10
175.6457014763
 20
82.6593998805
 30
0.0
 10
175.6093826773
 20
82.6803712111
 30
0.0
  0
SPLINE
  5
3A7
100
AcDbEntity
  8
0
100
AcDbSpline
 62
7
  6
BYLAYER
 70
0
 71
3
 72
14
 73
10
 74
0
 42
0.0000001
 43
0.0000001
 44
0.0000000001
 40
0.0
 40
0.0
 40
0.0
 40
0.0
 40
0.1080475707
 40
0.2181297112
 40
0.3321018241
 40
0.4515017425
 40
0.577452781
 40
0.7107155474
 40
1.0
 40
1.0
 40
1.0
 40
1.0
 10
178.1093357489
 20
87.0105150032
 30
0.0
 10
178.1503233987
 20
86.9868477682
 30
0.0
 10
178.2291344425
 20
86.9318646345
 30
0.0
 10
178.3332565747
 20
86.8293816736
 30
0.0
 10
178.4228205607
 20
86.707759131
 30
0.0
 10
178.4969567411
 20
86.568346849
 30
0.0
 10
178.5551426003
 20
86.4125670757
 30
0.0
 10
178.6123240244
 20
86.178779134
 30
0.0
 10
178.6271188061
 20
85.9927738109
 30
0.0
 10
178.6271188061
 20
85.8660534918
 30
0.0
  0
SPLINE
  5
3A8
100
AcDbEntity
  8
0
100
AcDbSpline
 62
7
  6
BYLAYER
 70
0
 71
3
 72
18
 73
14
 74
0
 42
0.0000001
 43
0.0000001
 44
0.0000000001
 40
0.0
 40
0.0
 40
0.0
 40
0.0
 40
0.0456971025
 40
0.0921670865
 40
0.1401197076
 40
0.1901534517
 40
0.2427303243
 40
0.2981666513
 40
0.4180839442
 40
0.5501236875
 40
0.6928646295
 40
0.8438615594
 40
1.0
 40
1.0
 40
1.0
 40
1.0
 10
153.5127605319
 20
191.0093831439
 30
0.0
 10
153.5127604079
 20
191.0989076638
 30
0.0
 10
153.4980897725
 20
191.2797974492
 30
0.0
 10
153.4325205791
 20
191.5474451644
 30
0.0
 10
153.3241503056
 20
191.8099788949
 30
0.0
 10
153.1742129436
 20
192.0650057963
 30
0.0
 10
152.9841948379
 20
192.3104370818
 30
0.0
 10
152.6716485695
 20
192.6305003846
 30
0.0
 10
152.1854401075
 20
192.9924134864
 30
0.0
 10
151.4951075522
 20
193.3467593214
 30
0.0
 10
150.7051549098
 20
193.6220167375
 30
0.0
 10
149.8420051042
 20
193.8092174653
 30
0.0
 10
149.2420365128
 20
193.8707002321
 30
0.0
 10
148.9365162901
 20
193.8857061838
 30
0.0
  0
SPLINE
  5
3A9
100
AcDbEntity
  8
0
100
AcDbSpline
 62
7
  6
BYLAYER
 70
0
 71
3
 72
11
 73
7
 74
0
 42
0.0000001
 43
0.0000001
 44
0.0000000001
 40
0.0
 40
0.0
 40
0.0
 40
0.0
 40
0.2665247675
 40
0.5250142372
 40
0.7707664094
 40
1.0
 40
1.0
 40
1.0
 40
1.0
 10
148.0562415902
 20
193.8840336155
 30
0.0
 10
147.7708914159
 20
193.8689247685
 30
0.0
 10
147.2098311358
 20
193.8112022445
 30
0.0
 10
146.399500063
 20
193.6413599153
 30
0.0
 10
145.6512062189
 20
193.394068214
 30
0.0
 10
145.1900611671
 20
193.1734707686
 30
0.0
 10
144.9772188225
 20
193.0505869171
 30
0.0
  0
SPLINE
  5
3AA
100
AcDbEntity
  8
0
100
AcDbSpline
 62
7
  6
BYLAYER
 70
0
 71
3
 72
14
 73
10
 74
0
 42
0.0000001
 43
0.0000001
 44
0.0000000001
 40
0.0
 40
0.0
 40
0.0
 40
0.0
 40
0.1080474441
 40
0.2181294093
 40
0.3321013267
 40
0.451501092
 40
0.5774520678
 40
0.7107149076
 40
1.0
 40
1.0
 40
1.0
 40
1.0
 10
151.2482807428
 20
191.001022158
 30
0.0
 10
151.2482773635
 20
190.9489611933
 30
0.0
 10
151.2392443111
 20
190.8436470194
 30
0.0
 10
151.198883598
 20
190.6880980961
 30
0.0
 10
151.1322840933
 20
190.5358909783
 30
0.0
 10
151.0402534653
 20
190.3885963127
 30
0.0
 10
150.923859026
 20
190.2474939793
 30
0.0
 10
150.7326018331
 20
190.0644455542
 30
0.0
 10
150.5635506824
 20
189.9480534829
 30
0.0
 10
150.442837403
 20
189.8783600545
 30
0.0
  0
SPLINE
  5
3AB
100
AcDbEntity
  8
0
100
AcDbSpline
 62
7
  6
BYLAYER
 70
0
 71
3
 72
15
 73
11
 74
0
 42
0.0000001
 43
0.0000001
 44
0.0000000001
 40
0.0
 40
0.0
 40
0.0
 40
0.0
 40
0.1485856678
 40
0.2895088089
 40
0.4227238345
 40
0.5486431073
 40
0.6680018528
 40
0.781938763
 40
0.8919876394
 40
1.0
 40
1.0
 40
1.0
 40
1.0
 10
144.9772188225
 20
193.0505869171
 30
0.0
 10
144.8644515636
 20
192.9854810985
 30
0.0
 10
144.6498312503
 20
192.8494459173
 30
0.0
 10
144.3564181301
 20
192.6223433911
 30
0.0
 10
144.1026316793
 20
192.3794201364
 30
0.0
 10
143.8910043412
 20
192.1229080052
 30
0.0
 10
143.7236905779
 20
191.8550740006
 30
0.0
 10
143.6025781029
 20
191.5783443323
 30
0.0
 10
143.5292097062
 20
191.295520265
 30
0.0
 10
143.5127742334
 20
191.1040391741
 30
0.0
 10
143.5127743645
 20
191.0093831451
 30
0.0
  0
SPLINE
  5
3AC
100
AcDbEntity
  8
0
100
AcDbSpline
 62
7
  6
BYLAYER
 70
0
 71
3
 72
23
 73
19
 74
0
 42
0.0000001
 43
0.0000001
 44
0.0000000001
 40
0.0
 40
0.0
 40
0.0
 40
0.0
 40
0.062390731
 40
0.1287440575
 40
0.1983461496
 40
0.2703344586
 40
0.3437234599
 40
0.4174684792
 40
0.4905056242
 40
0.5618045145
 40
0.630413348
 40
0.6955115452
 40
0.7564687586
 40
0.8129147507
 40
0.8648231715
 40
0.9126051711
 40
0.9571862575
 40
1.0
 40
1.0
 40
1.0
 40
1.0
 10
150.442837403
 20
189.8783600545
 30
0.0
 10
150.3440391312
 20
189.8213191862
 30
0.0
 10
150.1323020883
 20
189.7169248373
 30
0.0
 10
149.7907506123
 20
189.5931617768
 30
0.0
 10
149.421645132
 20
189.4994676386
 30
0.0
 10
149.0328987293
 20
189.4378203251
 30
0.0
 10
148.6327406888
 20
189.4095349811
 30
0.0
 10
148.2297147067
 20
189.41520346
 30
0.0
 10
147.8324159802
 20
189.4547124535
 30
0.0
 10
147.4493140422
 20
189.5272184019
 30
0.0
 10
147.0885476303
 20
189.6311907976
 30
0.0
 10
146.757744088
 20
189.7644611437
 30
0.0
 10
146.4638528963
 20
189.9243081258
 30
0.0
 10
146.2130279825
 20
190.1075913761
 30
0.0
 10
146.0106087467
 20
190.3108627888
 30
0.0
 10
145.8612616852
 20
190.5305319146
 30
0.0
 10
145.7692249179
 20
190.7622535624
 30
0.0
 10
145.7482854935
 20
190.9227366268
 30
0.0
 10
145.748290575
 20
191.0010221009
 30
0.0
  0
SPLINE
  5
3AD
100
AcDbEntity
  8
0
100
AcDbSpline
 62
7
  6
BYLAYER
 70
0
 71
3
 72
25
 73
21
 74
0
 42
0.0000001
 43
0.0000001
 44
0.0000000001
 40
0.0
 40
0.0
 40
0.0
 40
0.0
 40
0.0623838846
 40
0.1287219263
 40
0.1983148945
 40
0.2702912954
 40
0.3436688888
 40
0.4174008729
 40
0.4904255102
 40
0.5617122509
 40
0.6303098301
 40
0.6953977595
 40
0.7563456197
 40
0.8127830873
 40
0.8646836913
 40
0.9124583627
 40
0.9351029942
 40
0.9571079857
 40
0.9786682514
 40
1.0
 40
1.0
 40
1.0
 40
1.0
 10
152.0483160689
 20
187.3351745345
 30
0.0
 10
151.8686735621
 20
187.231458504
 30
0.0
 10
151.4837042122
 20
187.0416452701
 30
0.0
 10
150.8626936962
 20
186.816636594
 30
0.0
 10
150.1916065471
 20
186.6462675453
 30
0.0
 10
149.484785239
 20
186.5341916698
 30
0.0
 10
148.7572292243
 20
186.4827572284
 30
0.0
 10
148.0244592223
 20
186.4930682943
 30
0.0
 10
147.3021062994
 20
186.5649017836
 30
0.0
 10
146.6055625009
 20
186.6967315103
 30
0.0
 10
145.9496256656
 20
186.885770346
 30
0.0
 10
145.3481610787
 20
187.1280811505
 30
0.0
 10
144.8138110475
 20
187.4187007842
 30
0.0
 10
144.3577484185
 20
187.7519765356
 30
0.0
 10
143.9897433513
 20
188.1214530908
 30
0.0
 10
143.7593823112
 20
188.4604437439
 30
0.0
 10
143.630996852
 20
188.740319983
 30
0.0
 10
143.5629551785
 20
188.9502684985
 30
0.0
 10
143.5219192756
 20
189.1626619095
 30
0.0
 10
143.5127745957
 20
189.3054479991
 30
0.0
 10
143.5127744156
 20
189.3763783111
 30
0.0
  0
SPLINE
  5
3AE
100
AcDbEntity
  8
0
100
AcDbSpline
 62
7
  6
BYLAYER
 70
0
 71
3
 72
14
 73
10
 74
0
 42
0.0000001
 43
0.0000001
 44
0.0000000001
 40
0.0
 40
0.0
 40
0.0
 40
0.0
 40
0.1080474441
 40
0.2181294093
 40
0.3321013267
 40
0.451501092
 40
0.5774520678
 40
0.7107149076
 40
1.0
 40
1.0
 40
1.0
 40
1.0
 10
145.748290575
 20
191.0010221009
 30
0.0
 10
145.7482939542
 20
191.0530830656
 30
0.0
 10
145.7573270066
 20
191.1583972395
 30
0.0
 10
145.7976877197
 20
191.3139461628
 30
0.0
 10
145.8642872245
 20
191.4661532806
 30
0.0
 10
145.9563178524
 20
191.6134479462
 30
0.0
 10
146.0727122917
 20
191.7545502797
 30
0.0
 10
146.2639694847
 20
191.9375987047
 30
0.0
 10
146.4330206354
 20
192.0539907761
 30
0.0
 10
146.5537339147
 20
192.1236842044
 30
0.0
  0
SPLINE
  5
3AF
100
AcDbEntity
  8
0
100
AcDbSpline
 62
7
  6
BYLAYER
 70
0
 71
3
 72
25
 73
21
 74
0
 42
0.0000001
 43
0.0000001
 44
0.0000000001
 40
0.0
 40
0.0
 40
0.0
 40
0.0
 40
0.0213317919
 40
0.0428920932
 40
0.06489711
 40
0.0875417619
 40
0.13531649
 40
0.187217183
 40
0.2436547188
 40
0.3046025432
 40
0.3696903324
 40
0.4382877442
 40
0.5095743387
 40
0.5825987976
 40
0.6563305403
 40
0.7297079711
 40
0.8016844361
 40
0.8712776087
 40
0.9376159469
 40
1.0
 40
1.0
 40
1.0
 40
1.0
 10
143.5127743645
 20
191.0093831451
 30
0.0
 10
143.5127744628
 20
190.9384526891
 30
0.0
 10
143.521919268
 20
190.7956663335
 30
0.0
 10
143.5629552877
 20
190.5832725947
 30
0.0
 10
143.6309972037
 20
190.3733238696
 30
0.0
 10
143.7593829046
 20
190.0934473674
 30
0.0
 10
143.9897445407
 20
189.7544564312
 30
0.0
 10
144.357750394
 20
189.3849796527
 30
0.0
 10
144.8138136144
 20
189.0517040199
 30
0.0
 10
145.3481634977
 20
188.7610848764
 30
0.0
 10
145.9496271077
 20
188.5187747185
 30
0.0
 10
146.605562508
 20
188.3297363704
 30
0.0
 10
147.3021046846
 20
188.1979068885
 30
0.0
 10
148.0244557107
 20
188.1260733764
 30
0.0
 10
148.7572237649
 20
188.1157619703
 30
0.0
 10
149.4847786924
 20
188.1671957602
 30
0.0
 10
150.1916004313
 20
188.2792711631
 30
0.0
 10
150.8626895766
 20
188.4496400305
 30
0.0
 10
151.4837022717
 20
188.6746492706
 30
0.0
 10
151.8686730811
 20
188.8644630607
 30
0.0
 10
152.0483160739
 20
188.9681793719
 30
0.0
  0
SPLINE
  5
3B0
100
AcDbEntity
  8
0
100
AcDbSpline
 62
7
  6
BYLAYER
 70
0
 71
3
 72
15
 73
11
 74
0
 42
0.0000001
 43
0.0000001
 44
0.0000000001
 40
0.0
 40
0.0
 40
0.0
 40
0.0
 40
0.1080121178
 40
0.2180610032
 40
0.3319980056
 40
0.4513564381
 40
0.5772769912
 40
0.7104919899
 40
0.8514108741
 40
1.0
 40
1.0
 40
1.0
 40
1.0
 10
153.5127618532
 20
189.3763783129
 30
0.0
 10
153.512759
 20
189.2817225003
 30
0.0
 10
153.4963294589
 20
189.0902412133
 30
0.0
 10
153.4229520644
 20
188.8074191894
 30
0.0
 10
153.3018445441
 20
188.5306883729
 30
0.0
 10
153.1345327706
 20
188.2628513941
 30
0.0
 10
152.9229003764
 20
188.006342375
 30
0.0
 10
152.669117533
 20
187.763419624
 30
0.0
 10
152.3757068396
 20
187.536314889
 30
0.0
 10
152.161085948
 20
187.4002818659
 30
0.0
 10
152.0483160689
 20
187.3351745345
 30
0.0
  0
SPLINE
  5
3B1
100
AcDbEntity
  8
0
100
AcDbSpline
 62
7
  6
BYLAYER
 70
0
 71
3
 72
15
 73
11
 74
0
 42
0.0000001
 43
0.0000001
 44
0.0000000001
 40
0.0
 40
0.0
 40
0.0
 40
0.0
 40
0.1485856678
 40
0.2895088089
 40
0.4227238345
 40
0.5486431073
 40
0.6680018528
 40
0.781938763
 40
0.8919876394
 40
1.0
 40
1.0
 40
1.0
 40
1.0
 10
152.0483160739
 20
188.9681793719
 30
0.0
 10
152.1610833328
 20
189.0332851906
 30
0.0
 10
152.3757036461
 20
189.1693203717
 30
0.0
 10
152.6691167664
 20
189.396422898
 30
0.0
 10
152.9229032171
 20
189.6393461526
 30
0.0
 10
153.1345305552
 20
189.8958582839
 30
0.0
 10
153.3018443185
 20
190.1636922885
 30
0.0
 10
153.4229567936
 20
190.4404219568
 30
0.0
 10
153.4963251902
 20
190.7232460241
 30
0.0
 10
153.512760663
 20
190.9147271149
 30
0.0
 10
153.5127605319
 20
191.0093831439
 30
0.0
  0
SPLINE
  5
3B2
100
AcDbEntity
  8
0
100
AcDbSpline
 62
7
  6
BYLAYER
 70
0
 71
3
 72
11
 73
7
 74
0
 42
0.0000001
 43
0.0000001
 44
0.0000000001
 40
0.0
 40
0.0
 40
0.0
 40
0.0
 40
0.2302175105
 40
0.475725104
 40
0.7335391132
 40
1.0
 40
1.0
 40
1.0
 40
1.0
 10
146.5537339147
 20
192.1236842044
 30
0.0
 10
146.6585114896
 20
192.1841772044
 30
0.0
 10
146.8838785853
 20
192.2942032995
 30
0.0
 10
147.2482097596
 20
192.4223425784
 30
0.0
 10
147.6423039274
 20
192.5165468635
 30
0.0
 10
147.9156270114
 20
192.5548044252
 30
0.0
 10
148.0550420104
 20
192.567952062
 30
0.0
  0
SPLINE
  5
3B3
100
AcDbEntity
  8
0
100
AcDbSpline
 62
7
  6
BYLAYER
 70
0
 71
3
 72
17
 73
13
 74
0
 42
0.0000001
 43
0.0000001
 44
0.0000000001
 40
0.0
 40
0.0
 40
0.0
 40
0.0
 40
0.1567830285
 40
0.3074748584
 40
0.4494062103
 40
0.5805748309
 40
0.6999524623
 40
0.8078629596
 40
0.8581943928
 40
0.9066049047
 40
0.9536553604
 40
1.0
 40
1.0
 40
1.0
 40
1.0
 10
148.9414201754
 20
192.5679608852
 30
0.0
 10
149.0986371776
 20
192.5531438672
 30
0.0
 10
149.4057580716
 20
192.5083723677
 30
0.0
 10
149.8448515562
 20
192.3946469234
 30
0.0
 10
150.2433904878
 20
192.2385773182
 30
0.0
 10
150.5895208719
 20
192.0445517025
 30
0.0
 10
150.8729487896
 20
191.817951382
 30
0.0
 10
151.0538113788
 20
191.6012500568
 30
0.0
 10
151.1550759703
 20
191.4187871294
 30
0.0
 10
151.2086607391
 20
191.2815419586
 30
0.0
 10
151.241036086
 20
191.1419230427
 30
0.0
 10
151.2482837727
 20
191.0477010146
 30
0.0
 10
151.2482807428
 20
191.001022158
 30
0.0
  0
SPLINE
  5
3B4
100
AcDbEntity
  8
0
100
AcDbSpline
 62
7
  6
BYLAYER
 70
0
 71
3
 72
11
 73
7
 74
0
 42
0.0000001
 43
0.0000001
 44
0.0000000001
 40
0.0
 40
0.0
 40
0.0
 40
0.0
 40
0.2897907763
 40
0.5490582719
 40
0.7822302075
 40
1.0
 40
1.0
 40
1.0
 40
1.0
 10
39.5725281541
 20
149.8173942865
 30
0.0
 10
39.5725281541
 20
149.9441048616
 30
0.0
 10
39.5533849447
 20
150.185007652
 30
0.0
 10
39.455730928
 20
150.5159687976
 30
0.0
 10
39.2915443106
 20
150.7845563757
 30
0.0
 10
39.1372011992
 20
150.9142348906
 30
0.0
 10
39.0547430454
 20
150.9618521974
 30
0.0
  0
SPLINE
  5
3B5
100
AcDbEntity
  8
0
100
AcDbSpline
 62
7
  6
BYLAYER
 70
0
 71
3
 72
18
 73
14
 74
0
 42
0.0000001
 43
0.0000001
 44
0.0000000001
 40
0.0
 40
0.0
 40
0.0
 40
0.0
 40
0.0428479692
 40
0.087465359
 40
0.1352869735
 40
0.1872385635
 40
0.2437294857
 40
0.3047348395
 40
0.4383689438
 40
0.5826762915
 40
0.72979168
 40
0.8713430671
 40
1.0
 40
1.0
 40
1.0
 40
1.0
 10
36.5547940767
 20
162.9617639489
 30
0.0
 10
36.6164240242
 20
162.9261743561
 30
0.0
 10
36.7522962916
 20
162.8697309574
 30
0.0
 10
36.9765599764
 20
162.836840329
 30
0.0
 10
37.2173969897
 20
162.8545737507
 30
0.0
 10
37.469434028
 20
162.9215564558
 30
0.0
 10
37.7277622979
 20
163.0357057894
 30
0.0
 10
38.0843673933
 20
163.2539698689
 30
0.0
 10
38.5091677011
 20
163.6302228861
 30
0.0
 10
38.945732197
 20
164.1891436651
 30
0.0
 10
39.2896480145
 20
164.8247371062
 30
0.0
 10
39.5127373884
 20
165.4844362811
 30
0.0
 10
39.5725281541
 20
165.93375121
 30
0.0
 10
39.5725281541
 20
166.1474426291
 30
0.0
  0
SPLINE
  5
3B6
100
AcDbEntity
  8
0
100
AcDbSpline
 62
7
  6
BYLAYER
 70
0
 71
3
 72
11
 73
7
 74
0
 42
0.0000001
 43
0.0000001
 44
0.0000000001
 40
0.0
 40
0.0
 40
0.0
 40
0.0
 40
0.2897907763
 40
0.5490582719
 40
0.7822302075
 40
1.0
 40
1.0
 40
1.0
 40
1.0
 10
39.5725281541
 20
166.1474426291
 30
0.0
 10
39.5725281541
 20
166.2741532042
 30
0.0
 10
39.5533849447
 20
166.5150559946
 30
0.0
 10
39.455730928
 20
166.8460171402
 30
0.0
 10
39.2915443106
 20
167.1146047183
 30
0.0
 10
39.1372011992
 20
167.2442832332
 30
0.0
 10
39.0547430454
 20
167.29190054
 30
0.0
  0
SPLINE
  5
3B7
100
AcDbEntity
  8
0
100
AcDbSpline
 62
7
  6
BYLAYER
 70
0
 71
3
 72
18
 73
14
 74
0
 42
0.0000001
 43
0.0000001
 44
0.0000000001
 40
0.0
 40
0.0
 40
0.0
 40
0.0
 40
0.0428479692
 40
0.087465359
 40
0.1352869735
 40
0.1872385635
 40
0.2437294857
 40
0.3047348395
 40
0.4383689438
 40
0.5826762915
 40
0.72979168
 40
0.8713430671
 40
1.0
 40
1.0
 40
1.0
 40
1.0
 10
36.5547940767
 20
146.6317156063
 30
0.0
 10
36.6164240242
 20
146.5961260135
 30
0.0
 10
36.7522962916
 20
146.5396826148
 30
0.0
 10
36.9765599764
 20
146.5067919864
 30
0.0
 10
37.2173969897
 20
146.5245254081
 30
0.0
 10
37.469434028
 20
146.5915081132
 30
0.0
 10
37.7277622979
 20
146.7056574468
 30
0.0
 10
38.0843673933
 20
146.9239215263
 30
0.0
 10
38.5091677011
 20
147.3001745435
 30
0.0
 10
38.945732197
 20
147.8590953225
 30
0.0
 10
39.2896480145
 20
148.4946887636
 30
0.0
 10
39.5127373884
 20
149.1543879385
 30
0.0
 10
39.5725281541
 20
149.6037028674
 30
0.0
 10
39.5725281541
 20
149.8173942865
 30
0.0
  0
SPLINE
  5
3B8
100
AcDbEntity
  8
0
100
AcDbSpline
 62
7
  6
BYLAYER
 70
0
 71
3
 72
18
 73
14
 74
0
 42
0.0000001
 43
0.0000001
 44
0.0000000001
 40
0.0
 40
0.0
 40
0.0
 40
0.0
 40
0.0428479692
 40
0.087465359
 40
0.1352869735
 40
0.1872385635
 40
0.2437294857
 40
0.3047348395
 40
0.4383689438
 40
0.5826762915
 40
0.72979168
 40
0.8713430671
 40
1.0
 40
1.0
 40
1.0
 40
1.0
 10
39.0547430454
 20
167.29190054
 30
0.0
 10
38.9931130979
 20
167.3274901329
 30
0.0
 10
38.8572408305
 20
167.3839335315
 30
0.0
 10
38.6329771457
 20
167.4168241599
 30
0.0
 10
38.3921401325
 20
167.3990907382
 30
0.0
 10
38.1401030941
 20
167.3321080331
 30
0.0
 10
37.8817748242
 20
167.2179586995
 30
0.0
 10
37.5251697288
 20
166.99969462
 30
0.0
 10
37.100369421
 20
166.6234416028
 30
0.0
 10
36.6638049251
 20
166.0645208238
 30
0.0
 10
36.3198891076
 20
165.4289273827
 30
0.0
 10
36.0967997338
 20
164.7692282078
 30
0.0
 10
36.037008968
 20
164.3199132789
 30
0.0
 10
36.037008968
 20
164.1062218598
 30
0.0
  0
SPLINE
  5
3B9
100
AcDbEntity
  8
0
100
AcDbSpline
 62
7
  6
BYLAYER
 70
0
 71
3
 72
11
 73
7
 74
0
 42
0.0000001
 43
0.0000001
 44
0.0000000001
 40
0.0
 40
0.0
 40
0.0
 40
0.0
 40
0.2897907763
 40
0.5490582719
 40
0.7822302075
 40
1.0
 40
1.0
 40
1.0
 40
1.0
 10
36.037008968
 20
164.1062218598
 30
0.0
 10
36.037008968
 20
163.9795112847
 30
0.0
 10
36.0561521775
 20
163.7386084943
 30
0.0
 10
36.1538061941
 20
163.4076473487
 30
0.0
 10
36.3179928115
 20
163.1390597706
 30
0.0
 10
36.472335923
 20
163.0093812557
 30
0.0
 10
36.5547940767
 20
162.9617639489
 30
0.0
  0
SPLINE
  5
3BA
100
AcDbEntity
  8
0
100
AcDbSpline
 62
7
  6
BYLAYER
 70
0
 71
3
 72
11
 73
7
 74
0
 42
0.0000001
 43
0.0000001
 44
0.0000000001
 40
0.0
 40
0.0
 40
0.0
 40
0.0
 40
0.2897907763
 40
0.5490582719
 40
0.7822302075
 40
1.0
 40
1.0
 40
1.0
 40
1.0
 10
36.037008968
 20
147.7761735172
 30
0.0
 10
36.037008968
 20
147.6494629421
 30
0.0
 10
36.0561521775
 20
147.4085601517
 30
0.0
 10
36.1538061941
 20
147.0775990061
 30
0.0
 10
36.3179928115
 20
146.809011428
 30
0.0
 10
36.472335923
 20
146.6793329131
 30
0.0
 10
36.5547940767
 20
146.6317156063
 30
0.0
  0
SPLINE
  5
3BB
100
AcDbEntity
  8
0
100
AcDbSpline
 62
7
  6
BYLAYER
 70
0
 71
3
 72
18
 73
14
 74
0
 42
0.0000001
 43
0.0000001
 44
0.0000000001
 40
0.0
 40
0.0
 40
0.0
 40
0.0
 40
0.0428479692
 40
0.087465359
 40
0.1352869735
 40
0.1872385635
 40
0.2437294857
 40
0.3047348395
 40
0.4383689438
 40
0.5826762915
 40
0.72979168
 40
0.8713430671
 40
1.0
 40
1.0
 40
1.0
 40
1.0
 10
39.0547430454
 20
150.9618521974
 30
0.0
 10
38.9931130979
 20
150.9974417903
 30
0.0
 10
38.8572408305
 20
151.053885189
 30
0.0
 10
38.6329771457
 20
151.0867758173
 30
0.0
 10
38.3921401325
 20
151.0690423956
 30
0.0
 10
38.1401030941
 20
151.0020596905
 30
0.0
 10
37.8817748242
 20
150.887910357
 30
0.0
 10
37.5251697288
 20
150.6696462774
 30
0.0
 10
37.100369421
 20
150.2933932602
 30
0.0
 10
36.6638049251
 20
149.7344724812
 30
0.0
 10
36.3198891076
 20
149.0988790401
 30
0.0
 10
36.0967997338
 20
148.4391798652
 30
0.0
 10
36.037008968
 20
147.9898649363
 30
0.0
 10
36.037008968
 20
147.7761735172
 30
0.0
  0
SPLINE
  5
3BC
100
AcDbEntity
  8
0
100
AcDbSpline
 62
7
  6
BYLAYER
 70
0
 71
3
 72
11
 73
7
 74
0
 42
0.0000001
 43
0.0000001
 44
0.0000000001
 40
0.0
 40
0.0
 40
0.0
 40
0.0
 40
0.2897907763
 40
0.5490582719
 40
0.7822302075
 40
1.0
 40
1.0
 40
1.0
 40
1.0
 10
131.9262599816
 20
96.4981485978
 30
0.0
 10
131.9262599816
 20
96.6248591728
 30
0.0
 10
131.9071167722
 20
96.8657619633
 30
0.0
 10
131.8094627555
 20
97.1967231088
 30
0.0
 10
131.6452761381
 20
97.465310687
 30
0.0
 10
131.4909330267
 20
97.5949892018
 30
0.0
 10
131.4084748729
 20
97.6426065087
 30
0.0
  0
SPLINE
  5
3BD
100
AcDbEntity
  8
0
100
AcDbSpline
 62
7
  6
BYLAYER
 70
0
 71
3
 72
14
 73
10
 74
0
 42
0.0000001
 43
0.0000001
 44
0.0000000001
 40
0.0
 40
0.0
 40
0.0
 40
0.0
 40
0.0935056144
 40
0.1923035595
 40
0.3003489771
 40
0.4197332093
 40
0.5508372907
 40
0.6927122195
 40
1.0
 40
1.0
 40
1.0
 40
1.0
 10
128.9085259042
 20
109.6425182601
 30
0.0
 10
128.9814914119
 20
109.6003826943
 30
0.0
 10
129.1459719993
 20
109.5367515237
 30
0.0
 10
129.4188422516
 20
109.5150810004
 30
0.0
 10
129.7111948588
 20
109.5638487354
 30
0.0
 10
130.0145942787
 20
109.6797564699
 30
0.0
 10
130.3211358385
 20
109.8586312435
 30
0.0
 10
130.7332815148
 20
110.1822474167
 30
0.0
 10
131.0041946266
 20
110.4888334667
 30
0.0
 10
131.1667329983
 20
110.713005225
 30
0.0
  0
SPLINE
  5
3BE
100
AcDbEntity
  8
0
100
AcDbSpline
 62
7
  6
BYLAYER
 70
0
 71
3
 72
9
 73
5
 74
0
 42
0.0000001
 43
0.0000001
 44
0.0000000001
 40
0.0
 40
0.0
 40
0.0
 40
0.0
 40
0.5241735104
 40
1.0
 40
1.0
 40
1.0
 40
1.0
 10
131.6088071148
 20
111.4778169636
 30
0.0
 10
131.7083402437
 20
111.7002301333
 30
0.0
 10
131.8623141254
 20
112.141728542
 30
0.0
 10
131.9262599816
 20
112.6070029165
 30
0.0
 10
131.9262599816
 20
112.8281969404
 30
0.0
  0
SPLINE
  5
3BF
100
AcDbEntity
  8
0
100
AcDbSpline
 62
7
  6
BYLAYER
 70
0
 71
3
 72
11
 73
7
 74
0
 42
0.0000001
 43
0.0000001
 44
0.0000000001
 40
0.0
 40
0.0
 40
0.0
 40
0.0
 40
0.2897907763
 40
0.5490582719
 40
0.7822302075
 40
1.0
 40
1.0
 40
1.0
 40
1.0
 10
131.9262599816
 20
112.8281969404
 30
0.0
 10
131.9262599816
 20
112.9549075154
 30
0.0
 10
131.9071167722
 20
113.1958103058
 30
0.0
 10
131.8094627555
 20
113.5267714514
 30
0.0
 10
131.6452761381
 20
113.7953590296
 30
0.0
 10
131.4909330267
 20
113.9250375444
 30
0.0
 10
131.4084748729
 20
113.9726548513
 30
0.0
  0
SPLINE
  5
3C0
100
AcDbEntity
  8
0
100
AcDbSpline
 62
7
  6
BYLAYER
 70
0
 71
3
 72
14
 73
10
 74
0
 42
0.0000001
 43
0.0000001
 44
0.0000000001
 40
0.0
 40
0.0
 40
0.0
 40
0.0
 40
0.0935056144
 40
0.1923035595
 40
0.3003489771
 40
0.4197332093
 40
0.5508372907
 40
0.6927122195
 40
1.0
 40
1.0
 40
1.0
 40
1.0
 10
128.9085259042
 20
93.3124699175
 30
0.0
 10
128.9814914119
 20
93.2703343517
 30
0.0
 10
129.1459719993
 20
93.2067031811
 30
0.0
 10
129.4188422516
 20
93.1850326578
 30
0.0
 10
129.7111948588
 20
93.2338003928
 30
0.0
 10
130.0145942787
 20
93.3497081273
 30
0.0
 10
130.3211358385
 20
93.5285829009
 30
0.0
 10
130.7332815148
 20
93.8521990741
 30
0.0
 10
131.0041946266
 20
94.1587851241
 30
0.0
 10
131.1667329983
 20
94.3829568825
 30
0.0
  0
SPLINE
  5
3C1
100
AcDbEntity
  8
0
100
AcDbSpline
 62
7
  6
BYLAYER
 70
0
 71
3
 72
9
 73
5
 74
0
 42
0.0000001
 43
0.0000001
 44
0.0000000001
 40
0.0
 40
0.0
 40
0.0
 40
0.0
 40
0.5241735104
 40
1.0
 40
1.0
 40
1.0
 40
1.0
 10
131.6088071148
 20
95.147768621
 30
0.0
 10
131.7083402437
 20
95.3701817907
 30
0.0
 10
131.8623141254
 20
95.8116801994
 30
0.0
 10
131.9262599816
 20
96.2769545739
 30
0.0
 10
131.9262599816
 20
96.4981485978
 30
0.0
  0
SPLINE
  5
3C2
100
AcDbEntity
  8
0
100
AcDbSpline
 62
7
  6
BYLAYER
 70
0
 71
3
 72
11
 73
7
 74
0
 42
0.0000001
 43
0.0000001
 44
0.0000000001
 40
0.0
 40
0.0
 40
0.0
 40
0.0
 40
0.2177688481
 40
0.4509402855
 40
0.7102102342
 40
1.0
 40
1.0
 40
1.0
 40
1.0
 10
119.71610014
 20
114.9496492173
 30
0.0
 10
119.6336423145
 20
114.9972661449
 30
0.0
 10
119.4793003357
 20
115.1269446211
 30
0.0
 10
119.3151113966
 20
115.3955309711
 30
0.0
 10
119.2174582756
 20
115.7264928403
 30
0.0
 10
119.1983143686
 20
115.9673959277
 30
0.0
 10
119.1983143686
 20
116.0941059798
 30
0.0
  0
SPLINE
  5
3C3
100
AcDbEntity
  8
0
100
AcDbSpline
 62
7
  6
BYLAYER
 70
0
 71
3
 72
18
 73
14
 74
0
 42
0.0000001
 43
0.0000001
 44
0.0000000001
 40
0.0
 40
0.0
 40
0.0
 40
0.0
 40
0.1286550955
 40
0.2702044174
 40
0.4173192619
 40
0.5616288875
 40
0.6952651179
 40
0.7562709394
 40
0.8127618376
 40
0.8647131081
 40
0.9125344775
 40
0.9571517895
 40
1.0
 40
1.0
 40
1.0
 40
1.0
 10
119.1983143686
 20
116.0941059798
 30
0.0
 10
119.1983143686
 20
116.3077943433
 30
0.0
 10
119.2581035961
 20
116.7571026646
 30
0.0
 10
119.4811864859
 20
117.416796237
 30
0.0
 10
119.8251010018
 20
118.0523896973
 30
0.0
 10
120.261666015
 20
118.6113183107
 30
0.0
 10
120.6864725452
 20
118.98757677
 30
0.0
 10
121.0430808715
 20
119.2058437208
 30
0.0
 10
121.301409695
 20
119.319992558
 30
0.0
 10
121.553445978
 20
119.3869737651
 30
0.0
 10
121.7942817304
 20
119.4047087981
 30
0.0
 10
122.0185454709
 20
119.3718178317
 30
0.0
 10
122.1544174283
 20
119.3153731979
 30
0.0
 10
122.2160477833
 20
119.2797835116
 30
0.0
  0
SPLINE
  5
3C4
100
AcDbEntity
  8
0
100
AcDbSpline
 62
7
  6
BYLAYER
 70
0
 71
3
 72
18
 73
14
 74
0
 42
0.0000001
 43
0.0000001
 44
0.0000000001
 40
0.0
 40
0.0
 40
0.0
 40
0.0
 40
0.0428479692
 40
0.087465359
 40
0.1352869735
 40
0.1872385635
 40
0.2437294857
 40
0.3047348395
 40
0.4383689438
 40
0.5826762915
 40
0.72979168
 40
0.8713430671
 40
1.0
 40
1.0
 40
1.0
 40
1.0
 10
131.4084748729
 20
113.9726548513
 30
0.0
 10
131.3468449254
 20
114.0082444441
 30
0.0
 10
131.210972658
 20
114.0646878428
 30
0.0
 10
130.9867089732
 20
114.0975784711
 30
0.0
 10
130.7458719599
 20
114.0798450495
 30
0.0
 10
130.4938349216
 20
114.0128623443
 30
0.0
 10
130.2355066517
 20
113.8987130108
 30
0.0
 10
129.8789015563
 20
113.6804489312
 30
0.0
 10
129.4541012485
 20
113.304195914
 30
0.0
 10
129.0175367526
 20
112.7452751351
 30
0.0
 10
128.6736209351
 20
112.1096816939
 30
0.0
 10
128.4505315613
 20
111.449982519
 30
0.0
 10
128.3907407955
 20
111.0006675901
 30
0.0
 10
128.3907407955
 20
110.786976171
 30
0.0
  0
SPLINE
  5
3C5
100
AcDbEntity
  8
0
100
AcDbSpline
 62
7
  6
BYLAYER
 70
0
 71
3
 72
11
 73
7
 74
0
 42
0.0000001
 43
0.0000001
 44
0.0000000001
 40
0.0
 40
0.0
 40
0.0
 40
0.0
 40
0.2897907763
 40
0.5490582719
 40
0.7822302075
 40
1.0
 40
1.0
 40
1.0
 40
1.0
 10
128.3907407955
 20
110.786976171
 30
0.0
 10
128.3907407955
 20
110.660265596
 30
0.0
 10
128.4098840049
 20
110.4193628056
 30
0.0
 10
128.5075380216
 20
110.08840166
 30
0.0
 10
128.671724639
 20
109.8198140818
 30
0.0
 10
128.8260677504
 20
109.690135567
 30
0.0
 10
128.9085259042
 20
109.6425182601
 30
0.0
  0
SPLINE
  5
3C6
100
AcDbEntity
  8
0
100
AcDbSpline
 62
7
  6
BYLAYER
 70
0
 71
3
 72
11
 73
7
 74
0
 42
0.0000001
 43
0.0000001
 44
0.0000000001
 40
0.0
 40
0.0
 40
0.0
 40
0.0
 40
0.2897907763
 40
0.5490582719
 40
0.7822302075
 40
1.0
 40
1.0
 40
1.0
 40
1.0
 10
128.3907407955
 20
94.4569278284
 30
0.0
 10
128.3907407955
 20
94.3302172534
 30
0.0
 10
128.4098840049
 20
94.089314463
 30
0.0
 10
128.5075380216
 20
93.7583533174
 30
0.0
 10
128.671724639
 20
93.4897657392
 30
0.0
 10
128.8260677504
 20
93.3600872244
 30
0.0
 10
128.9085259042
 20
93.3124699175
 30
0.0
  0
SPLINE
  5
3C7
100
AcDbEntity
  8
0
100
AcDbSpline
 62
7
  6
BYLAYER
 70
0
 71
3
 72
18
 73
14
 74
0
 42
0.0000001
 43
0.0000001
 44
0.0000000001
 40
0.0
 40
0.0
 40
0.0
 40
0.0
 40
0.0428479692
 40
0.087465359
 40
0.1352869735
 40
0.1872385635
 40
0.2437294857
 40
0.3047348395
 40
0.4383689438
 40
0.5826762915
 40
0.72979168
 40
0.8713430671
 40
1.0
 40
1.0
 40
1.0
 40
1.0
 10
131.4084748729
 20
97.6426065087
 30
0.0
 10
131.3468449254
 20
97.6781961015
 30
0.0
 10
131.210972658
 20
97.7346395002
 30
0.0
 10
130.9867089732
 20
97.7675301285
 30
0.0
 10
130.7458719599
 20
97.7497967069
 30
0.0
 10
130.4938349216
 20
97.6828140018
 30
0.0
 10
130.2355066517
 20
97.5686646682
 30
0.0
 10
129.8789015563
 20
97.3504005886
 30
0.0
 10
129.4541012485
 20
96.9741475714
 30
0.0
 10
129.0175367526
 20
96.4152267925
 30
0.0
 10
128.6736209351
 20
95.7796333513
 30
0.0
 10
128.4505315613
 20
95.1199341764
 30
0.0
 10
128.3907407955
 20
94.6706192475
 30
0.0
 10
128.3907407955
 20
94.4569278284
 30
0.0
  0
SPLINE
  5
3C8
100
AcDbEntity
  8
0
100
AcDbSpline
 62
7
  6
BYLAYER
 70
0
 71
3
 72
11
 73
7
 74
0
 42
0.0000001
 43
0.0000001
 44
0.0000000001
 40
0.0
 40
0.0
 40
0.0
 40
0.0
 40
0.2177688481
 40
0.4509402855
 40
0.7102102342
 40
1.0
 40
1.0
 40
1.0
 40
1.0
 10
119.71610014
 20
98.6196008747
 30
0.0
 10
119.6336423145
 20
98.6672178023
 30
0.0
 10
119.4793003357
 20
98.7968962785
 30
0.0
 10
119.3151113966
 20
99.0654826286
 30
0.0
 10
119.2174582756
 20
99.3964444977
 30
0.0
 10
119.1983143686
 20
99.6373475851
 30
0.0
 10
119.1983143686
 20
99.7640576372
 30
0.0
  0
SPLINE
  5
3C9
100
AcDbEntity
  8
0
100
AcDbSpline
 62
7
  6
BYLAYER
 70
0
 71
3
 72
18
 73
14
 74
0
 42
0.0000001
 43
0.0000001
 44
0.0000000001
 40
0.0
 40
0.0
 40
0.0
 40
0.0
 40
0.1286550955
 40
0.2702044174
 40
0.4173192619
 40
0.5616288875
 40
0.6952651179
 40
0.7562709394
 40
0.8127618376
 40
0.8647131081
 40
0.9125344775
 40
0.9571517895
 40
1.0
 40
1.0
 40
1.0
 40
1.0
 10
119.1983143686
 20
99.7640576372
 30
0.0
 10
119.1983143686
 20
99.9777460007
 30
0.0
 10
119.2581035961
 20
100.427054322
 30
0.0
 10
119.4811864859
 20
101.0867478944
 30
0.0
 10
119.8251010018
 20
101.7223413547
 30
0.0
 10
120.261666015
 20
102.2812699681
 30
0.0
 10
120.6864725452
 20
102.6575284274
 30
0.0
 10
121.0430808715
 20
102.8757953782
 30
0.0
 10
121.301409695
 20
102.9899442154
 30
0.0
 10
121.553445978
 20
103.0569254225
 30
0.0
 10
121.7942817304
 20
103.0746604555
 30
0.0
 10
122.0185454709
 20
103.0417694891
 30
0.0
 10
122.1544174283
 20
102.9853248554
 30
0.0
 10
122.2160477833
 20
102.949735169
 30
0.0
  0
SPLINE
  5
3CA
100
AcDbEntity
  8
0
100
AcDbSpline
 62
7
  6
BYLAYER
 70
0
 71
3
 72
13
 73
9
 74
0
 42
0.0000001
 43
0.0000001
 44
0.0000000001
 40
0.0
 40
0.0
 40
0.0
 40
0.0
 40
0.1142400042
 40
0.2375553452
 40
0.5000087819
 40
0.7624673252
 40
0.8857474067
 40
1.0
 40
1.0
 40
1.0
 40
1.0
 10
32.7560485843
 20
203.5302881655
 30
0.0
 10
32.635047645
 20
203.60014651
 30
0.0
 10
32.3703776547
 20
203.7233835465
 30
0.0
 10
31.7838463591
 20
203.9015407123
 30
0.0
 10
30.9882303529
 20
203.9880641624
 30
0.0
 10
30.1926686566
 20
203.9015063798
 30
0.0
 10
29.6061490794
 20
203.7233776396
 30
0.0
 10
29.3415204859
 20
203.6001166183
 30
0.0
 10
29.2205073313
 20
203.5302486375
 30
0.0
  0
SPLINE
  5
3CB
100
AcDbEntity
  8
0
100
AcDbSpline
 62
7
  6
BYLAYER
 70
0
 71
3
 72
11
 73
7
 74
0
 42
0.0000001
 43
0.0000001
 44
0.0000000001
 40
0.0
 40
0.0
 40
0.0
 40
0.0
 40
0.2736146757
 40
0.5281452743
 40
0.7680103284
 40
1.0
 40
1.0
 40
1.0
 40
1.0
 10
25.8197223252
 20
187.6863160249
 30
0.0
 10
25.6896570525
 20
187.8136816423
 30
0.0
 10
25.4559604201
 20
188.0785079054
 30
0.0
 10
25.1889065005
 20
188.517691333
 30
0.0
 10
25.0252974241
 20
188.976246854
 30
0.0
 10
24.9883218628
 20
189.2912919081
 30
0.0
 10
24.9883032683
 20
189.4456391237
 30
0.0
  0
SPLINE
  5
3CC
100
AcDbEntity
  8
0
100
AcDbSpline
 62
7
  6
BYLAYER
 70
0
 71
3
 72
17
 73
13
 74
0
 42
0.0000001
 43
0.0000001
 44
0.0000000001
 40
0.0
 40
0.0
 40
0.0
 40
0.0
 40
0.0429159465
 40
0.0872571614
 40
0.1342309027
 40
0.1846917957
 40
0.2973987633
 40
0.4257872793
 40
0.5662868396
 40
0.7132319595
 40
0.8599948447
 40
1.0
 40
1.0
 40
1.0
 40
1.0
 10
36.9882747142
 20
189.4456390899
 30
0.0
 10
36.9882930682
 20
189.2932887738
 30
0.0
 10
36.9522307394
 20
188.9824510835
 30
0.0
 10
36.7928977612
 20
188.5297352874
 30
0.0
 10
36.5326325263
 20
188.095386745
 30
0.0
 10
36.0409728431
 20
187.5301412624
 30
0.0
 10
35.1898546501
 20
186.9179890617
 30
0.0
 10
33.9364943667
 20
186.3841115731
 30
0.0
 10
32.4911681573
 20
186.051776816
 30
0.0
 10
30.9476867633
 20
185.9427889019
 30
0.0
 10
29.4073442099
 20
186.0636158833
 30
0.0
 10
28.4115560137
 20
186.301442263
 30
0.0
 10
27.9410515006
 20
186.4615937613
 30
0.0
  0
SPLINE
  5
3CD
100
AcDbEntity
  8
0
100
AcDbSpline
 62
7
  6
BYLAYER
 70
0
 71
3
 72
12
 73
8
 74
0
 42
0.0000001
 43
0.0000001
 44
0.0000000001
 40
0.0
 40
0.0
 40
0.0
 40
0.0
 40
0.1081588061
 40
0.2183574122
 40
0.4513592131
 40
0.7104166268
 40
1.0
 40
1.0
 40
1.0
 40
1.0
 10
24.9882960451
 20
192.7116487747
 30
0.0
 10
24.9882950402
 20
192.5980638782
 30
0.0
 10
25.0080824264
 20
192.3682806252
 30
0.0
 10
25.127385219
 20
191.9075861735
 30
0.0
 10
25.4338533911
 20
191.3427170447
 30
0.0
 10
26.0045694229
 20
190.7432504939
 30
0.0
 10
26.4822965085
 20
190.4142368405
 30
0.0
 10
26.745665968
 20
190.2621838521
 30
0.0
  0
SPLINE
  5
3CE
100
AcDbEntity
  8
0
100
AcDbSpline
 62
7
  6
BYLAYER
 70
0
 71
3
 72
13
 73
9
 74
0
 42
0.0000001
 43
0.0000001
 44
0.0000000001
 40
0.0
 40
0.0
 40
0.0
 40
0.0
 40
0.1151755588
 40
0.2397708192
 40
0.5045807636
 40
0.7668671117
 40
0.8885047597
 40
1.0
 40
1.0
 40
1.0
 40
1.0
 10
29.2205293982
 20
201.4890673962
 30
0.0
 10
29.3471669141
 20
201.4159548463
 30
0.0
 10
29.6250988838
 20
201.2878776478
 30
0.0
 10
30.2413163931
 20
201.1068421731
 30
0.0
 10
31.0734253157
 20
201.0291094687
 30
0.0
 10
31.8985604209
 20
201.1390532614
 30
0.0
 10
32.4946812486
 20
201.3452364914
 30
0.0
 10
32.7577163887
 20
201.4847955481
 30
0.0
 10
32.8756166924
 20
201.5631367494
 30
0.0
  0
SPLINE
  5
3CF
100
AcDbEntity
  8
0
100
AcDbSpline
 62
7
  6
BYLAYER
 70
0
 71
3
 72
15
 73
11
 74
0
 42
0.0000001
 43
0.0000001
 44
0.0000000001
 40
0.0
 40
0.0
 40
0.0
 40
0.0
 40
0.1461807034
 40
0.2795942238
 40
0.4019137315
 40
0.5165714378
 40
0.6285437261
 40
0.7434205719
 40
0.8660891728
 40
1.0
 40
1.0
 40
1.0
 40
1.0
 10
32.8756166924
 20
201.5631367494
 30
0.0
 10
32.9590287092
 20
201.6185615226
 30
0.0
 10
33.1114520314
 20
201.7361426668
 30
0.0
 10
33.297788335
 20
201.9411080382
 30
0.0
 10
33.426134846
 20
202.1626626964
 30
0.0
 10
33.4914585523
 20
202.3955907801
 30
0.0
 10
33.4902265561
 20
202.6326617495
 30
0.0
 10
33.422388859
 20
202.8652793924
 30
0.0
 10
33.2918364668
 20
203.0862632188
 30
0.0
 10
33.1718085628
 20
203.2164072681
 30
0.0
 10
33.1041918349
 20
203.2784107716
 30
0.0
  0
SPLINE
  5
3D0
100
AcDbEntity
  8
0
100
AcDbSpline
 62
7
  6
BYLAYER
 70
0
 71
3
 72
9
 73
5
 74
0
 42
0.0000001
 43
0.0000001
 44
0.0000000001
 40
0.0
 40
0.0
 40
0.0
 40
0.0
 40
0.2389551234
 40
1.0
 40
1.0
 40
1.0
 40
1.0
 10
33.1041918349
 20
203.2784107716
 30
0.0
 10
33.0789366133
 20
203.3015694227
 30
0.0
 10
32.970198411
 20
203.3951480342
 30
0.0
 10
32.8505609593
 20
203.4757226548
 30
0.0
 10
32.7560485843
 20
203.5302881655
 30
0.0
  0
SPLINE
  5
3D1
100
AcDbEntity
  8
0
100
AcDbSpline
 62
7
  6
BYLAYER
 70
0
 71
3
 72
18
 73
14
 74
0
 42
0.0000001
 43
0.0000001
 44
0.0000000001
 40
0.0
 40
0.0
 40
0.0
 40
0.0
 40
0.1247321171
 40
0.2614910919
 40
0.40439001
 40
0.5465568584
 40
0.6812289586
 40
0.7440197662
 40
0.803032866
 40
0.8579847612
 40
0.9088552959
 40
0.9559595019
 40
1.0
 40
1.0
 40
1.0
 40
1.0
 10
26.745665968
 20
190.2621838521
 30
0.0
 10
27.1530123375
 20
190.0270076363
 30
0.0
 10
28.0683819825
 20
189.6380645345
 30
0.0
 10
29.56286978
 20
189.3042707922
 30
0.0
 10
31.1573216916
 20
189.2075557695
 30
0.0
 10
32.7392880694
 20
189.355218744
 30
0.0
 10
33.9857512091
 20
189.6806998934
 30
0.0
 10
34.8771489254
 20
190.0598642245
 30
0.0
 10
35.4600420831
 20
190.3862343353
 30
0.0
 10
35.9623115552
 20
190.7554853649
 30
0.0
 10
36.3748601927
 20
191.161819038
 30
0.0
 10
36.6896878461
 20
191.5984399279
 30
0.0
 10
36.8336260463
 20
191.9138534721
 30
0.0
 10
36.8850270553
 20
192.0717740104
 30
0.0
  0
SPLINE
  5
3D2
100
AcDbEntity
  8
0
100
AcDbSpline
 62
7
  6
BYLAYER
 70
0
 71
3
 72
9
 73
5
 74
0
 42
0.0000001
 43
0.0000001
 44
0.0000000001
 40
0.0
 40
0.0
 40
0.0
 40
0.0
 40
0.2632848385
 40
1.0
 40
1.0
 40
1.0
 40
1.0
 10
26.745665968
 20
186.9961741836
 30
0.0
 10
26.6577682453
 20
187.0469208093
 30
0.0
 10
26.3292684166
 20
187.2485413704
 30
0.0
 10
26.0226354355
 20
187.4876146109
 30
0.0
 10
25.8197223252
 20
187.6863160249
 30
0.0
  0
SPLINE
  5
3D3
100
AcDbEntity
  8
0
100
AcDbSpline
 62
7
  6
BYLAYER
 70
0
 71
3
 72
9
 73
5
 74
0
 42
0.0000001
 43
0.0000001
 44
0.0000000001
 40
0.0
 40
0.0
 40
0.0
 40
0.0
 40
0.2601122114
 40
1.0
 40
1.0
 40
1.0
 40
1.0
 10
27.9410515006
 20
186.4615937613
 30
0.0
 10
27.8334775019
 20
186.498210067
 30
0.0
 10
27.4230902674
 20
186.6479522946
 30
0.0
 10
27.025596597
 20
186.8345598157
 30
0.0
 10
26.745665968
 20
186.9961741836
 30
0.0
  0
SPLINE
  5
3D4
100
AcDbEntity
  8
0
100
AcDbSpline
 62
7
  6
BYLAYER
 70
0
 71
3
 72
9
 73
5
 74
0
 42
0.0000001
 43
0.0000001
 44
0.0000000001
 40
0.0
 40
0.0
 40
0.0
 40
0.0
 40
0.260967138
 40
1.0
 40
1.0
 40
1.0
 40
1.0
 10
29.2205073313
 20
203.5302486375
 30
0.0
 10
29.1897403496
 20
203.5124850572
 30
0.0
 10
29.0734118186
 20
203.4417852574
 30
0.0
 10
28.9635668153
 20
203.360057389
 30
0.0
 10
28.8885464543
 20
203.2930202903
 30
0.0
  0
SPLINE
  5
3D5
100
AcDbEntity
  8
0
100
AcDbSpline
 62
7
  6
BYLAYER
 70
0
 71
3
 72
15
 73
11
 74
0
 42
0.0000001
 43
0.0000001
 44
0.0000000001
 40
0.0
 40
0.0
 40
0.0
 40
0.0
 40
0.1326043896
 40
0.253441291
 40
0.3663131927
 40
0.4768313435
 40
0.5912080871
 40
0.71465422
 40
0.8505766973
 40
1.0
 40
1.0
 40
1.0
 40
1.0
 10
28.8885464543
 20
203.2930202903
 30
0.0
 10
28.8154755776
 20
203.2277252224
 30
0.0
 10
28.6861484881
 20
203.0902054751
 30
0.0
 10
28.5479262503
 20
202.8543516093
 30
0.0
 10
28.4812544594
 20
202.6052289391
 30
0.0
 10
28.4907028299
 20
202.3520282202
 30
0.0
 10
28.5755325837
 20
202.1054618752
 30
0.0
 10
28.730514108
 20
201.8737601724
 30
0.0
 10
28.9492187208
 20
201.6627516435
 30
0.0
 10
29.124899777
 20
201.5442779347
 30
0.0
 10
29.2205293982
 20
201.4890673962
 30
0.0
  0
SPLINE
  5
3D6
100
AcDbEntity
  8
0
100
AcDbSpline
 62
7
  6
BYLAYER
 70
0
 71
3
 72
15
 73
11
 74
0
 42
0.0000001
 43
0.0000001
 44
0.0000000001
 40
0.0
 40
0.0
 40
0.0
 40
0.0
 40
0.1141546703
 40
0.2373261017
 40
0.3669753162
 40
0.4999989361
 40
0.6330227034
 40
0.7626723508
 40
0.8858444607
 40
1.0
 40
1.0
 40
1.0
 40
1.0
 10
35.9379687483
 20
216.0978337229
 30
0.0
 10
36.0831907109
 20
216.0139916804
 30
0.0
 10
36.3700301606
 20
215.8129223554
 30
0.0
 10
36.7647058594
 20
215.4436762389
 30
0.0
 10
37.1284208396
 20
215.0071992698
 30
0.0
 10
37.447475586
 20
214.5198650983
 30
0.0
 10
37.7099947232
 20
213.9998891704
 30
0.0
 10
37.9061407932
 20
213.4666635754
 30
0.0
 10
38.0285834497
 20
212.9402392986
 30
0.0
 10
38.0592979237
 20
212.5912924146
 30
0.0
 10
38.0592979237
 20
212.4236042079
 30
0.0
  0
SPLINE
  5
3D7
100
AcDbEntity
  8
0
100
AcDbSpline
 62
7
  6
BYLAYER
 70
0
 71
3
 72
11
 73
7
 74
0
 42
0.0000001
 43
0.0000001
 44
0.0000000001
 40
0.0
 40
0.0
 40
0.0
 40
0.0
 40
0.2898002887
 40
0.5490497786
 40
0.7822282096
 40
1.0
 40
1.0
 40
1.0
 40
1.0
 10
43.7161757249
 20
215.6896975088
 30
0.0
 10
43.7161757249
 20
215.5376397199
 30
0.0
 10
43.6932114559
 20
215.2485588947
 30
0.0
 10
43.5760099422
 20
214.8514117727
 30
0.0
 10
43.3790043351
 20
214.5291052817
 30
0.0
 10
43.1937934162
 20
214.3734761341
 30
0.0
 10
43.0948372733
 20
214.3163441194
 30
0.0
  0
SPLINE
  5
3D8
100
AcDbEntity
  8
0
100
AcDbSpline
 62
7
  6
BYLAYER
 70
0
 71
3
 72
11
 73
7
 74
0
 42
0.0000001
 43
0.0000001
 44
0.0000000001
 40
0.0
 40
0.0
 40
0.0
 40
0.0
 40
0.2898002887
 40
0.5490497786
 40
0.7822282096
 40
1.0
 40
1.0
 40
1.0
 40
1.0
 10
38.0592979237
 20
212.4236042079
 30
0.0
 10
38.0592979237
 20
212.271546419
 30
0.0
 10
38.0363336547
 20
211.9824655938
 30
0.0
 10
37.919132141
 20
211.5853184718
 30
0.0
 10
37.722126534
 20
211.2630119808
 30
0.0
 10
37.536915615
 20
211.1073828332
 30
0.0
 10
37.4379594722
 20
211.0502508185
 30
0.0
  0
SPLINE
  5
3D9
100
AcDbEntity
  8
0
100
AcDbSpline
 62
7
  6
BYLAYER
 70
0
 71
3
 72
11
 73
7
 74
0
 42
0.0000001
 43
0.0000001
 44
0.0000000001
 40
0.0
 40
0.0
 40
0.0
 40
0.0
 40
0.2177727568
 40
0.4509515946
 40
0.7102007126
 40
1.0
 40
1.0
 40
1.0
 40
1.0
 10
45.7517336268
 20
209.7145500521
 30
0.0
 10
45.8506875635
 20
209.7716807931
 30
0.0
 10
46.07806631
 20
209.8542613018
 30
0.0
 10
46.4556849522
 20
209.8637216327
 30
0.0
 10
46.8582146869
 20
209.7666535932
 30
0.0
 10
47.120041673
 20
209.64200696
 30
0.0
 10
47.2517243506
 20
209.5659816505
 30
0.0
  0
SPLINE
  5
3DA
100
AcDbEntity
  8
0
100
AcDbSpline
 62
7
  6
BYLAYER
 70
0
 71
3
 72
9
 73
5
 74
0
 42
0.0000001
 43
0.0000001
 44
0.0000000001
 40
0.0
 40
0.0
 40
0.0
 40
0.0
 40
0.5255647212
 40
1.0
 40
1.0
 40
1.0
 40
1.0
 10
31.5296256623
 20
208.0284076888
 30
0.0
 10
31.5809856845
 20
208.1173663506
 30
0.0
 10
31.6605737367
 20
208.2977070221
 30
0.0
 10
31.6953103974
 20
208.4932214262
 30
0.0
 10
31.6953103974
 20
208.585948761
 30
0.0
  0
SPLINE
  5
3DB
100
AcDbEntity
  8
0
100
AcDbSpline
 62
7
  6
BYLAYER
 70
0
 71
3
 72
9
 73
5
 74
0
 42
0.0000001
 43
0.0000001
 44
0.0000000001
 40
0.0
 40
0.0
 40
0.0
 40
0.0
 40
0.4744336386
 40
1.0
 40
1.0
 40
1.0
 40
1.0
 10
31.1296273276
 20
207.6061515042
 30
0.0
 10
31.2099308777
 20
207.6525145037
 30
0.0
 10
31.3618818252
 20
207.7803541307
 30
0.0
 10
31.4782658121
 20
207.939449325
 30
0.0
 10
31.5296256623
 20
208.0284076888
 30
0.0
  0
SPLINE
  5
3DC
100
AcDbEntity
  8
0
100
AcDbSpline
 62
7
  6
BYLAYER
 70
0
 71
3
 72
14
 73
10
 74
0
 42
0.0000001
 43
0.0000001
 44
0.0000000001
 40
0.0
 40
0.0
 40
0.0
 40
0.0
 40
0.2892828214
 40
0.422549046
 40
0.5484965863
 40
0.6678952638
 40
0.7818702738
 40
0.8919539359
 40
1.0
 40
1.0
 40
1.0
 40
1.0
 10
26.745665968
 20
191.1947417813
 30
0.0
 10
26.4822894061
 20
191.3467988703
 30
0.0
 10
26.1134414045
 20
191.600744357
 30
0.0
 10
25.6961516332
 20
192.0001268434
 30
0.0
 10
25.4421886232
 20
192.3079822943
 30
0.0
 10
25.2414056778
 20
192.6293628897
 30
0.0
 10
25.0960833918
 20
192.9614526915
 30
0.0
 10
25.0080126978
 20
193.3008382138
 30
0.0
 10
24.9883116278
 20
193.5306192564
 30
0.0
 10
24.9883116253
 20
193.6442067046
 30
0.0
  0
SPLINE
  5
3DD
100
AcDbEntity
  8
0
100
AcDbSpline
 62
7
  6
BYLAYER
 70
0
 71
3
 72
15
 73
11
 74
0
 42
0.0000001
 43
0.0000001
 44
0.0000000001
 40
0.0
 40
0.0
 40
0.0
 40
0.0
 40
0.1141576923
 40
0.237324686
 40
0.3669758813
 40
0.4999994688
 40
0.6330231302
 40
0.7626745415
 40
0.8858418756
 40
1.0
 40
1.0
 40
1.0
 40
1.0
 10
35.2309473421
 20
191.1947621774
 30
0.0
 10
34.9404975576
 20
191.0270719172
 30
0.0
 10
34.3054002625
 20
190.7313231138
 30
0.0
 10
33.2711635094
 20
190.4170008447
 30
0.0
 10
32.1514598399
 20
190.2234982075
 30
0.0
 10
30.9883138932
 20
190.1582256708
 30
0.0
 10
29.8251670035
 20
190.223492669
 30
0.0
 10
28.7054605476
 20
190.4169899787
 30
0.0
 10
27.6712192875
 20
190.7313073362
 30
0.0
 10
27.0361180611
 20
191.0270529808
 30
0.0
 10
26.745665968
 20
191.1947417813
 30
0.0
  0
SPLINE
  5
3DE
100
AcDbEntity
  8
0
100
AcDbSpline
 62
7
  6
BYLAYER
 70
0
 71
3
 72
11
 73
7
 74
0
 42
0.0000001
 43
0.0000001
 44
0.0000000001
 40
0.0
 40
0.0
 40
0.0
 40
0.0
 40
0.2660577034
 40
0.5253480343
 40
0.7716845241
 40
1.0
 40
1.0
 40
1.0
 40
1.0
 10
41.9484441429
 20
193.6382242816
 30
0.0
 10
41.5576211296
 20
193.6382233422
 30
0.0
 10
40.7851892471
 20
193.5948929709
 30
0.0
 10
39.6656096595
 20
193.4013677199
 30
0.0
 10
38.6313548711
 20
193.0870572086
 30
0.0
 10
37.9962604648
 20
192.7913069231
 30
0.0
 10
37.7058107724
 20
192.623616716
 30
0.0
  0
SPLINE
  5
3DF
100
AcDbEntity
  8
0
100
AcDbSpline
 62
7
  6
BYLAYER
 70
0
 71
3
 72
11
 73
7
 74
0
 42
0.0000001
 43
0.0000001
 44
0.0000000001
 40
0.0
 40
0.0
 40
0.0
 40
0.0
 40
0.2283158492
 40
0.4746524927
 40
0.7339427064
 40
1.0
 40
1.0
 40
1.0
 40
1.0
 10
46.1910921465
 20
192.6236371121
 30
0.0
 10
45.9006401642
 20
192.7913258486
 30
0.0
 10
45.2655418668
 20
193.087072962
 30
0.0
 10
44.2312826263
 20
193.401378557
 30
0.0
 10
43.1117002915
 20
193.5948984917
 30
0.0
 10
42.3392673692
 20
193.6382252211
 30
0.0
 10
41.9484441429
 20
193.6382242816
 30
0.0
  0
SPLINE
  5
3E0
100
AcDbEntity
  8
0
100
AcDbSpline
 62
7
  6
BYLAYER
 70
0
 71
3
 72
11
 73
7
 74
0
 42
0.0000001
 43
0.0000001
 44
0.0000000001
 40
0.0
 40
0.0
 40
0.0
 40
0.0
 40
0.2660479602
 40
0.5253472236
 40
0.7716904963
 40
1.0
 40
1.0
 40
1.0
 40
1.0
 10
52.8286917213
 20
195.7316200029
 30
0.0
 10
52.9524479776
 20
195.9459733166
 30
0.0
 10
53.1732800996
 20
196.3833643004
 30
0.0
 10
53.4216886899
 20
197.0587207975
 30
0.0
 10
53.5767905076
 20
197.7255412105
 30
0.0
 10
53.6156942132
 20
198.1675359334
 30
0.0
 10
53.6156942132
 20
198.3799400961
 30
0.0
  0
SPLINE
  5
3E1
100
AcDbEntity
  8
0
100
AcDbSpline
 62
7
  6
BYLAYER
 70
0
 71
3
 72
11
 73
7
 74
0
 42
0.0000001
 43
0.0000001
 44
0.0000000001
 40
0.0
 40
0.0
 40
0.0
 40
0.0
 40
0.2283083558
 40
0.4746511559
 40
0.7339507795
 40
1.0
 40
1.0
 40
1.0
 40
1.0
 10
50.9286996317
 20
193.7259031263
 30
0.0
 10
51.1126452023
 20
193.832103517
 30
0.0
 10
51.4759685795
 20
194.0867899416
 30
0.0
 10
51.9758958813
 20
194.5545197592
 30
0.0
 10
52.4365629308
 20
195.107325372
 30
0.0
 10
52.7049356723
 20
195.5172670485
 30
0.0
 10
52.8286917213
 20
195.7316200029
 30
0.0
  0
SPLINE
  5
3E2
100
AcDbEntity
  8
0
100
AcDbSpline
 62
7
  6
BYLAYER
 70
0
 71
3
 72
15
 73
11
 74
0
 42
0.0000001
 43
0.0000001
 44
0.0000000001
 40
0.0
 40
0.0
 40
0.0
 40
0.0
 40
0.1141555516
 40
0.2373276756
 40
0.3669773296
 40
0.5000011
 40
0.6330247168
 40
0.7626739247
 40
0.885845342
 40
1.0
 40
1.0
 40
1.0
 40
1.0
 10
47.2517066868
 20
209.5659291243
 30
0.0
 10
47.2517066868
 20
209.3982408996
 30
0.0
 10
47.2824211709
 20
209.0492939772
 30
0.0
 10
47.4048638452
 20
208.5228696545
 30
0.0
 10
47.6010099452
 20
207.9896440331
 30
0.0
 10
47.8635290999
 20
207.4696681034
 30
0.0
 10
48.1825838536
 20
206.982333948
 30
0.0
 10
48.5462988259
 20
206.545857018
 30
0.0
 10
48.9409744938
 20
206.1766109399
 30
0.0
 10
49.2278139153
 20
205.9755416428
 30
0.0
 10
49.3730358623
 20
205.8916996094
 30
0.0
  0
SPLINE
  5
3E3
100
AcDbEntity
  8
0
100
AcDbSpline
 62
7
  6
BYLAYER
 70
0
 71
3
 72
15
 73
11
 74
0
 42
0.0000001
 43
0.0000001
 44
0.0000000001
 40
0.0
 40
0.0
 40
0.0
 40
0.0
 40
0.1141555516
 40
0.2373276756
 40
0.3669773296
 40
0.5000011
 40
0.6330247168
 40
0.7626739247
 40
0.885845342
 40
1.0
 40
1.0
 40
1.0
 40
1.0
 10
41.5948288857
 20
219.3638744975
 30
0.0
 10
41.5948288857
 20
219.1961862728
 30
0.0
 10
41.6255433698
 20
218.8472393504
 30
0.0
 10
41.747986044
 20
218.3208150277
 30
0.0
 10
41.944132144
 20
217.7875894063
 30
0.0
 10
42.2066512988
 20
217.2676134766
 30
0.0
 10
42.5257060524
 20
216.7802793212
 30
0.0
 10
42.8894210247
 20
216.3438023912
 30
0.0
 10
43.2840966927
 20
215.9745563131
 30
0.0
 10
43.5709361141
 20
215.773487016
 30
0.0
 10
43.7161580611
 20
215.6896449826
 30
0.0
  0
SPLINE
  5
3E4
100
AcDbEntity
  8
0
100
AcDbSpline
 62
7
  6
BYLAYER
 70
0
 71
3
 72
11
 73
7
 74
0
 42
0.0000001
 43
0.0000001
 44
0.0000000001
 40
0.0
 40
0.0
 40
0.0
 40
0.0
 40
0.2177727568
 40
0.4509515946
 40
0.7102007126
 40
1.0
 40
1.0
 40
1.0
 40
1.0
 10
37.4379594722
 20
211.0502508185
 30
0.0
 10
37.3390055354
 20
210.9931200775
 30
0.0
 10
37.1116267889
 20
210.9105395688
 30
0.0
 10
36.7340081467
 20
210.9010792379
 30
0.0
 10
36.331478412
 20
210.9981472775
 30
0.0
 10
36.0696514259
 20
211.1227939106
 30
0.0
 10
35.9379687483
 20
211.1988192201
 30
0.0
  0
SPLINE
  5
3E5
100
AcDbEntity
  8
0
100
AcDbSpline
 62
7
  6
BYLAYER
 70
0
 71
3
 72
15
 73
11
 74
0
 42
0.0000001
 43
0.0000001
 44
0.0000000001
 40
0.0
 40
0.0
 40
0.0
 40
0.0
 40
0.1141546703
 40
0.2373261017
 40
0.3669753162
 40
0.4999989361
 40
0.6330227034
 40
0.7626723508
 40
0.8858444607
 40
1.0
 40
1.0
 40
1.0
 40
1.0
 10
41.5948465495
 20
214.464912521
 30
0.0
 10
41.4496245868
 20
214.5487545634
 30
0.0
 10
41.1627851371
 20
214.7498238884
 30
0.0
 10
40.7681094384
 20
215.1190700049
 30
0.0
 10
40.4043944582
 20
215.555546974
 30
0.0
 10
40.0853397117
 20
216.0428811456
 30
0.0
 10
39.8228205745
 20
216.5628570735
 30
0.0
 10
39.6266745045
 20
217.0960826684
 30
0.0
 10
39.504231848
 20
217.6225069453
 30
0.0
 10
39.473517374
 20
217.9714538292
 30
0.0
 10
39.473517374
 20
218.1391420359
 30
0.0
  0
SPLINE
  5
3E6
100
AcDbEntity
  8
0
100
AcDbSpline
 62
7
  6
BYLAYER
 70
0
 71
3
 72
11
 73
7
 74
0
 42
0.0000001
 43
0.0000001
 44
0.0000000001
 40
0.0
 40
0.0
 40
0.0
 40
0.0
 40
0.2177727568
 40
0.4509515946
 40
0.7102007126
 40
1.0
 40
1.0
 40
1.0
 40
1.0
 10
43.0948372733
 20
214.3163441194
 30
0.0
 10
42.9958833366
 20
214.2592133784
 30
0.0
 10
42.7685045901
 20
214.1766328697
 30
0.0
 10
42.3908859479
 20
214.1671725388
 30
0.0
 10
41.9883562132
 20
214.2642405783
 30
0.0
 10
41.7265292271
 20
214.3888872115
 30
0.0
 10
41.5948465495
 20
214.464912521
 30
0.0
  0
SPLINE
  5
3E7
100
AcDbEntity
  8
0
100
AcDbSpline
 62
7
  6
BYLAYER
 70
0
 71
3
 72
9
 73
5
 74
0
 42
0.0000001
 43
0.0000001
 44
0.0000000001
 40
0.0
 40
0.0
 40
0.0
 40
0.0
 40
0.5255663614
 40
1.0
 40
1.0
 40
1.0
 40
1.0
 10
51.3286979664
 20
196.5976665622
 30
0.0
 10
51.2773381162
 20
196.5087081984
 30
0.0
 10
51.1609541293
 20
196.3496130042
 30
0.0
 10
51.0090031818
 20
196.2217733771
 30
0.0
 10
50.9286996317
 20
196.1754103776
 30
0.0
  0
SPLINE
  5
3E8
100
AcDbEntity
  8
0
100
AcDbSpline
 62
7
  6
BYLAYER
 70
0
 71
3
 72
9
 73
5
 74
0
 42
0.0000001
 43
0.0000001
 44
0.0000000001
 40
0.0
 40
0.0
 40
0.0
 40
0.0
 40
0.4744352788
 40
1.0
 40
1.0
 40
1.0
 40
1.0
 10
51.4943827015
 20
197.1552076344
 30
0.0
 10
51.4943827015
 20
197.0624802996
 30
0.0
 10
51.4596460408
 20
196.8669658956
 30
0.0
 10
51.3800579887
 20
196.6866252241
 30
0.0
 10
51.3286979664
 20
196.5976665622
 30
0.0
  0
SPLINE
  5
3E9
100
AcDbEntity
  8
0
100
AcDbSpline
 62
7
  6
BYLAYER
 70
0
 71
3
 72
11
 73
7
 74
0
 42
0.0000001
 43
0.0000001
 44
0.0000000001
 40
0.0
 40
0.0
 40
0.0
 40
0.0
 40
0.2660572936
 40
0.5253475073
 40
0.7716841508
 40
1.0
 40
1.0
 40
1.0
 40
1.0
 10
41.9484441429
 20
196.087731533
 30
0.0
 10
42.3392673692
 20
196.0877324724
 30
0.0
 10
43.1117002915
 20
196.0444057431
 30
0.0
 10
44.2312826263
 20
195.8508858084
 30
0.0
 10
45.2655418668
 20
195.5365802134
 30
0.0
 10
45.9006401642
 20
195.2408331
 30
0.0
 10
46.1910921465
 20
195.0731443635
 30
0.0
  0
SPLINE
  5
3EA
100
AcDbEntity
  8
0
100
AcDbSpline
 62
7
  6
BYLAYER
 70
0
 71
3
 72
11
 73
7
 74
0
 42
0.0000001
 43
0.0000001
 44
0.0000000001
 40
0.0
 40
0.0
 40
0.0
 40
0.0
 40
0.2283154759
 40
0.4746519657
 40
0.7339422966
 40
1.0
 40
1.0
 40
1.0
 40
1.0
 10
37.7058107724
 20
195.0731239674
 30
0.0
 10
37.9962604648
 20
195.2408141745
 30
0.0
 10
38.6313548711
 20
195.53656446
 30
0.0
 10
39.6656096595
 20
195.8508749713
 30
0.0
 10
40.7851892471
 20
196.0444002222
 30
0.0
 10
41.5576211296
 20
196.0877305936
 30
0.0
 10
41.9484441429
 20
196.087731533
 30
0.0
  0
SPLINE
  5
3EB
100
AcDbEntity
  8
0
100
AcDbSpline
 62
7
  6
BYLAYER
 70
0
 71
3
 72
9
 73
5
 74
0
 42
0.0000001
 43
0.0000001
 44
0.0000000001
 40
0.0
 40
0.0
 40
0.0
 40
0.0
 40
0.4896399784
 40
1.0
 40
1.0
 40
1.0
 40
1.0
 10
25.0273217558
 20
195.6992757597
 30
0.0
 10
25.0519879036
 20
195.5750598204
 30
0.0
 10
25.1258106515
 20
195.325581514
 30
0.0
 10
25.2406438446
 20
195.092448505
 30
0.0
 10
25.307629028
 20
194.9787072132
 30
0.0
  0
SPLINE
  5
3EC
100
AcDbEntity
  8
0
100
AcDbSpline
 62
7
  6
BYLAYER
 70
0
 71
3
 72
9
 73
5
 74
0
 42
0.0000001
 43
0.0000001
 44
0.0000000001
 40
0.0
 40
0.0
 40
0.0
 40
0.0
 40
0.2344331609
 40
1.0
 40
1.0
 40
1.0
 40
1.0
 10
25.307629028
 20
194.9787072132
 30
0.0
 10
25.3582651946
 20
194.8927266617
 30
0.0
 10
25.5949242757
 20
194.5381242951
 30
0.0
 10
25.9052893648
 20
194.236309767
 30
0.0
 10
26.1620371473
 20
194.0356594931
 30
0.0
  0
SPLINE
  5
3ED
100
AcDbEntity
  8
0
100
AcDbSpline
 62
7
  6
BYLAYER
 70
0
 71
3
 72
11
 73
7
 74
0
 42
0.0000001
 43
0.0000001
 44
0.0000000001
 40
0.0
 40
0.0
 40
0.0
 40
0.0
 40
0.2898002887
 40
0.5490497786
 40
0.7822282096
 40
1.0
 40
1.0
 40
1.0
 40
1.0
 10
45.1303951752
 20
208.3411966627
 30
0.0
 10
45.1303951752
 20
208.4932544516
 30
0.0
 10
45.1533594442
 20
208.7823352768
 30
0.0
 10
45.2705609579
 20
209.1794823989
 30
0.0
 10
45.4675665649
 20
209.5017888898
 30
0.0
 10
45.6527774839
 20
209.6574180374
 30
0.0
 10
45.7517336268
 20
209.7145500521
 30
0.0
  0
SPLINE
  5
3EE
100
AcDbEntity
  8
0
100
AcDbSpline
 62
7
  6
BYLAYER
 70
0
 71
3
 72
15
 73
11
 74
0
 42
0.0000001
 43
0.0000001
 44
0.0000000001
 40
0.0
 40
0.0
 40
0.0
 40
0.0
 40
0.1141546703
 40
0.2373261017
 40
0.3669753162
 40
0.4999989361
 40
0.6330227034
 40
0.7626723508
 40
0.8858444607
 40
1.0
 40
1.0
 40
1.0
 40
1.0
 10
47.2517243506
 20
204.6669671478
 30
0.0
 10
47.106502388
 20
204.7508091902
 30
0.0
 10
46.8196629383
 20
204.9518785152
 30
0.0
 10
46.4249872395
 20
205.3211246317
 30
0.0
 10
46.0612722593
 20
205.7576016008
 30
0.0
 10
45.7422175129
 20
206.2449357724
 30
0.0
 10
45.4796983757
 20
206.7649117003
 30
0.0
 10
45.2835523057
 20
207.2981372952
 30
0.0
 10
45.1611096492
 20
207.8245615721
 30
0.0
 10
45.1303951752
 20
208.173508456
 30
0.0
 10
45.1303951752
 20
208.3411966627
 30
0.0
  0
SPLINE
  5
3EF
100
AcDbEntity
  8
0
100
AcDbSpline
 62
7
  6
BYLAYER
 70
0
 71
3
 72
15
 73
11
 74
0
 42
0.0000001
 43
0.0000001
 44
0.0000000001
 40
0.0
 40
0.0
 40
0.0
 40
0.0
 40
0.112395175
 40
0.2329617917
 40
0.3597878538
 40
0.4905147876
 40
0.622530661
 40
0.7531429456
 40
0.8797461757
 40
1.0
 40
1.0
 40
1.0
 40
1.0
 10
26.745665968
 20
193.6442490327
 30
0.0
 10
27.0039347496
 20
193.4951408554
 30
0.0
 10
27.5639498888
 20
193.2278429952
 30
0.0
 10
28.4729553981
 20
192.9294410067
 30
0.0
 10
29.4574897434
 20
192.726143701
 30
0.0
 10
30.4879016658
 20
192.6241158459
 30
0.0
 10
31.5333500605
 20
192.6263543536
 30
0.0
 10
32.5624695173
 20
192.7328272615
 30
0.0
 10
33.5441761272
 20
192.9402747047
 30
0.0
 10
34.1672758282
 20
193.1483954664
 30
0.0
 10
34.4624886302
 20
193.2694614832
 30
0.0
  0
SPLINE
  5
3F0
100
AcDbEntity
  8
0
100
AcDbSpline
 62
7
  6
BYLAYER
 70
0
 71
3
 72
17
 73
13
 74
0
 42
0.0000001
 43
0.0000001
 44
0.0000000001
 40
0.0
 40
0.0
 40
0.0
 40
0.0
 40
0.0428584232
 40
0.0874876328
 40
0.13531965
 40
0.1872853332
 40
0.3045468388
 40
0.4382149477
 40
0.5825591641
 40
0.7297189216
 40
0.8713070875
 40
1.0
 40
1.0
 40
1.0
 40
1.0
 10
148.2092360406
 20
81.8807869915
 30
0.0
 10
148.1414466893
 20
81.9199398417
 30
0.0
 10
148.0129048107
 20
82.0182765372
 30
0.0
 10
147.8582955534
 20
82.2138777824
 30
0.0
 10
147.7426492152
 20
82.453025361
 30
0.0
 10
147.6389187796
 20
82.8376073153
 30
0.0
 10
147.6258398847
 20
83.3982839912
 30
0.0
 10
147.7709997506
 20
84.1098626775
 30
0.0
 10
148.0634263336
 20
84.8336192842
 30
0.0
 10
148.4797425912
 20
85.5106988884
 30
0.0
 10
148.9854752309
 20
86.0861326916
 30
0.0
 10
149.3806311594
 20
86.3902054956
 30
0.0
 10
149.5842046442
 20
86.5077380003
 30
0.0
  0
SPLINE
  5
3F1
100
AcDbEntity
  8
0
100
AcDbSpline
 62
7
  6
BYLAYER
 70
0
 71
3
 72
9
 73
5
 74
0
 42
0.0000001
 43
0.0000001
 44
0.0000000001
 40
0.0
 40
0.0
 40
0.0
 40
0.0
 40
0.4758871081
 40
1.0
 40
1.0
 40
1.0
 40
1.0
 10
150.2660452519
 20
135.6873947683
 30
0.0
 10
150.075520915
 20
135.7973915571
 30
0.0
 10
149.643181174
 20
135.9739593591
 30
0.0
 10
149.1865319877
 20
136.0615291601
 30
0.0
 10
148.9455649918
 20
136.0868294265
 30
0.0
  0
SPLINE
  5
3F2
100
AcDbEntity
  8
0
100
AcDbSpline
 62
7
  6
BYLAYER
 70
0
 71
3
 72
9
 73
5
 74
0
 42
0.0000001
 43
0.0000001
 44
0.0000000001
 40
0.0
 40
0.0
 40
0.0
 40
0.0
 40
0.5242147431
 40
1.0
 40
1.0
 40
1.0
 40
1.0
 10
148.0603928225
 20
136.0878215648
 30
0.0
 10
147.8176835994
 20
136.0628916627
 30
0.0
 10
147.3577555352
 20
135.9754979582
 30
0.0
 10
146.9222808085
 20
135.7980792231
 30
0.0
 10
146.730503999
 20
135.6873552403
 30
0.0
  0
SPLINE
  5
3F3
100
AcDbEntity
  8
0
100
AcDbSpline
 62
7
  6
BYLAYER
 70
0
 71
3
 72
9
 73
5
 74
0
 42
0.0000001
 43
0.0000001
 44
0.0000000001
 40
0.0
 40
0.0
 40
0.0
 40
0.0
 40
0.2396141346
 40
1.0
 40
1.0
 40
1.0
 40
1.0
 10
152.7409086822
 20
127.3182203013
 30
0.0
 10
152.6507593631
 20
127.3702668575
 30
0.0
 10
152.2685223794
 20
127.5770106292
 30
0.0
 10
151.8651422364
 20
127.7436825587
 30
0.0
 10
151.5525281958
 20
127.850415177
 30
0.0
  0
SPLINE
  5
3F4
100
AcDbEntity
  8
0
100
AcDbSpline
 62
7
  6
BYLAYER
 70
0
 71
3
 72
13
 73
9
 74
0
 42
0.0000001
 43
0.0000001
 44
0.0000000001
 40
0.0
 40
0.0
 40
0.0
 40
0.0
 40
0.301018065
 40
0.5653794352
 40
0.6839051384
 40
0.7943913638
 40
0.8988305082
 40
1.0
 40
1.0
 40
1.0
 40
1.0
 10
145.4442707283
 20
127.8504725035
 30
0.0
 10
145.0214321119
 20
127.7061313345
 30
0.0
 10
144.2475859003
 20
127.3674611986
 30
0.0
 10
143.4189769037
 20
126.7592231661
 30
0.0
 10
142.9409698472
 20
126.2003814777
 30
0.0
 10
142.6880392068
 20
125.7715316967
 30
0.0
 10
142.5332880047
 20
125.3251331772
 30
0.0
 10
142.4982940413
 20
125.0189196118
 30
0.0
 10
142.4982927128
 20
124.8687553775
 30
0.0
  0
SPLINE
  5
3F5
100
AcDbEntity
  8
0
100
AcDbSpline
 62
7
  6
BYLAYER
 70
0
 71
3
 72
11
 73
7
 74
0
 42
0.0000001
 43
0.0000001
 44
0.0000000001
 40
0.0
 40
0.0
 40
0.0
 40
0.0
 40
0.2736146757
 40
0.5281452743
 40
0.7680103284
 40
1.0
 40
1.0
 40
1.0
 40
1.0
 10
143.3297189928
 20
119.8434226277
 30
0.0
 10
143.1996537202
 20
119.9707882451
 30
0.0
 10
142.9659570877
 20
120.2356145082
 30
0.0
 10
142.6989031681
 20
120.6747979358
 30
0.0
 10
142.5352940918
 20
121.1333534568
 30
0.0
 10
142.4983185304
 20
121.4483985109
 30
0.0
 10
142.4982999359
 20
121.6027457265
 30
0.0
  0
SPLINE
  5
3F6
100
AcDbEntity
  8
0
100
AcDbSpline
 62
7
  6
BYLAYER
 70
0
 71
3
 72
17
 73
13
 74
0
 42
0.0000001
 43
0.0000001
 44
0.0000000001
 40
0.0
 40
0.0
 40
0.0
 40
0.0
 40
0.0428584232
 40
0.0874876328
 40
0.13531965
 40
0.1872853332
 40
0.3045468388
 40
0.4382149477
 40
0.5825591641
 40
0.7297189216
 40
0.8713070875
 40
1.0
 40
1.0
 40
1.0
 40
1.0
 10
148.2092360406
 20
98.210835334
 30
0.0
 10
148.1414466893
 20
98.2499881843
 30
0.0
 10
148.0129048107
 20
98.3483248798
 30
0.0
 10
147.8582955534
 20
98.543926125
 30
0.0
 10
147.7426492152
 20
98.7830737036
 30
0.0
 10
147.6389187796
 20
99.1676556579
 30
0.0
 10
147.6258398847
 20
99.7283323338
 30
0.0
 10
147.7709997506
 20
100.4399110201
 30
0.0
 10
148.0634263336
 20
101.1636676268
 30
0.0
 10
148.4797425912
 20
101.840747231
 30
0.0
 10
148.9854752309
 20
102.4161810341
 30
0.0
 10
149.3806311594
 20
102.7202538382
 30
0.0
 10
149.5842046442
 20
102.8377863429
 30
0.0
  0
SPLINE
  5
3F7
100
AcDbEntity
  8
0
100
AcDbSpline
 62
7
  6
BYLAYER
 70
0
 71
3
 72
12
 73
8
 74
0
 42
0.0000001
 43
0.0000001
 44
0.0000000001
 40
0.0
 40
0.0
 40
0.0
 40
0.0
 40
0.1081588061
 40
0.2183574122
 40
0.4513592131
 40
0.7104166268
 40
1.0
 40
1.0
 40
1.0
 40
1.0
 10
154.498278605
 20
124.8687553787
 30
0.0
 10
154.4982796099
 20
124.9823402752
 30
0.0
 10
154.4784922237
 20
125.2121235282
 30
0.0
 10
154.3591894311
 20
125.6728179799
 30
0.0
 10
154.052721259
 20
126.2376871087
 30
0.0
 10
153.4820052273
 20
126.8371536595
 30
0.0
 10
153.0042781416
 20
127.1661673129
 30
0.0
 10
152.7409086822
 20
127.3182203013
 30
0.0
  0
SPLINE
  5
3F8
100
AcDbEntity
  8
0
100
AcDbSpline
 62
7
  6
BYLAYER
 70
0
 71
3
 72
9
 73
5
 74
0
 42
0.0000001
 43
0.0000001
 44
0.0000000001
 40
0.0
 40
0.0
 40
0.0
 40
0.0
 40
0.4817612464
 40
1.0
 40
1.0
 40
1.0
 40
1.0
 10
147.6568559734
 20
99.6949813467
 30
0.0
 10
147.8338255423
 20
99.8176701875
 30
0.0
 10
148.1745195073
 20
100.1115707511
 30
0.0
 10
148.4611030061
 20
100.4571334549
 30
0.0
 10
148.5954484251
 20
100.6458396971
 30
0.0
  0
SPLINE
  5
3F9
100
AcDbEntity
  8
0
100
AcDbSpline
 62
7
  6
BYLAYER
 70
0
 71
3
 72
9
 73
5
 74
0
 42
0.0000001
 43
0.0000001
 44
0.0000000001
 40
0.0
 40
0.0
 40
0.0
 40
0.0
 40
0.5175366284
 40
1.0
 40
1.0
 40
1.0
 40
1.0
 10
149.0399493091
 20
101.4140953801
 30
0.0
 10
149.1344174408
 20
101.6198501519
 30
0.0
 10
149.2884145219
 20
102.0312581854
 30
0.0
 10
149.3744189213
 20
102.4629471613
 30
0.0
 10
149.3944003797
 20
102.673060881
 30
0.0
  0
SPLINE
  5
3FA
100
AcDbEntity
  8
0
100
AcDbSpline
 62
7
  6
BYLAYER
 70
0
 71
3
 72
17
 73
13
 74
0
 42
0.0000001
 43
0.0000001
 44
0.0000000001
 40
0.0
 40
0.0
 40
0.0
 40
0.0
 40
0.0429159465
 40
0.0872571614
 40
0.1342309027
 40
0.1846917957
 40
0.2973987633
 40
0.4257872793
 40
0.5662868396
 40
0.7132319595
 40
0.8599948447
 40
1.0
 40
1.0
 40
1.0
 40
1.0
 10
154.4982713819
 20
121.6027456927
 30
0.0
 10
154.4982897358
 20
121.4503953766
 30
0.0
 10
154.462227407
 20
121.1395576863
 30
0.0
 10
154.3028944288
 20
120.6868418902
 30
0.0
 10
154.0426291939
 20
120.2524933478
 30
0.0
 10
153.5509695108
 20
119.6872478652
 30
0.0
 10
152.6998513177
 20
119.0750956645
 30
0.0
 10
151.4464910343
 20
118.5412181759
 30
0.0
 10
150.0011648249
 20
118.2088834188
 30
0.0
 10
148.4576834309
 20
118.0998955047
 30
0.0
 10
146.9173408776
 20
118.2207224861
 30
0.0
 10
145.9215526814
 20
118.4585488658
 30
0.0
 10
145.4510481682
 20
118.6187003641
 30
0.0
  0
SPLINE
  5
3FB
100
AcDbEntity
  8
0
100
AcDbSpline
 62
7
  6
BYLAYER
 70
0
 71
3
 72
9
 73
5
 74
0
 42
0.0000001
 43
0.0000001
 44
0.0000000001
 40
0.0
 40
0.0
 40
0.0
 40
0.0
 40
0.4817612464
 40
1.0
 40
1.0
 40
1.0
 40
1.0
 10
147.6568559734
 20
83.3649330041
 30
0.0
 10
147.8338255423
 20
83.4876218449
 30
0.0
 10
148.1745195073
 20
83.7815224085
 30
0.0
 10
148.4611030061
 20
84.1270851123
 30
0.0
 10
148.5954484251
 20
84.3157913545
 30
0.0
  0
SPLINE
  5
3FC
100
AcDbEntity
  8
0
100
AcDbSpline
 62
7
  6
BYLAYER
 70
0
 71
3
 72
9
 73
5
 74
0
 42
0.0000001
 43
0.0000001
 44
0.0000000001
 40
0.0
 40
0.0
 40
0.0
 40
0.0
 40
0.5175366284
 40
1.0
 40
1.0
 40
1.0
 40
1.0
 10
149.0399493091
 20
85.0840470375
 30
0.0
 10
149.1344174408
 20
85.2898018093
 30
0.0
 10
149.2884145219
 20
85.7012098428
 30
0.0
 10
149.3744189213
 20
86.1328988187
 30
0.0
 10
149.3944003797
 20
86.3430125384
 30
0.0
  0
SPLINE
  5
3FD
100
AcDbEntity
  8
0
100
AcDbSpline
 62
7
  6
BYLAYER
 70
0
 71
3
 72
11
 73
7
 74
0
 42
0.0000001
 43
0.0000001
 44
0.0000000001
 40
0.0
 40
0.0
 40
0.0
 40
0.0
 40
0.2897450984
 40
0.5490772309
 40
0.7822207171
 40
1.0
 40
1.0
 40
1.0
 40
1.0
 10
149.5842046442
 20
102.8377863429
 30
0.0
 10
149.7048878132
 20
102.9074623871
 30
0.0
 10
149.944913223
 20
103.0216851398
 30
0.0
 10
150.3138780269
 20
103.1107469284
 30
0.0
 10
150.6600346071
 20
103.1019790025
 30
0.0
 10
150.8684735421
 20
103.0263591584
 30
0.0
 10
150.9591732479
 20
102.9739740575
 30
0.0
  0
SPLINE
  5
3FE
100
AcDbEntity
  8
0
100
AcDbSpline
 62
7
  6
BYLAYER
 70
0
 71
3
 72
11
 73
7
 74
0
 42
0.0000001
 43
0.0000001
 44
0.0000000001
 40
0.0
 40
0.0
 40
0.0
 40
0.0
 40
0.2897450984
 40
0.5490772309
 40
0.7822207171
 40
1.0
 40
1.0
 40
1.0
 40
1.0
 10
149.5842046442
 20
86.5077380003
 30
0.0
 10
149.7048878132
 20
86.5774140445
 30
0.0
 10
149.944913223
 20
86.6916367972
 30
0.0
 10
150.3138780269
 20
86.7806985858
 30
0.0
 10
150.6600346071
 20
86.7719306599
 30
0.0
 10
150.8684735421
 20
86.6963108158
 30
0.0
 10
150.9591732479
 20
86.643925715
 30
0.0
  0
SPLINE
  5
3FF
100
AcDbEntity
  8
0
100
AcDbSpline
 62
7
  6
BYLAYER
 70
0
 71
3
 72
11
 73
7
 74
0
 42
0.0000001
 43
0.0000001
 44
0.0000000001
 40
0.0
 40
0.0
 40
0.0
 40
0.0
 40
0.2177761591
 40
0.4509341948
 40
0.7102264624
 40
1.0
 40
1.0
 40
1.0
 40
1.0
 10
151.4982686213
 20
134.2585331751
 30
0.0
 10
151.4982694469
 20
134.3727966837
 30
0.0
 10
151.4560750688
 20
134.6109866202
 30
0.0
 10
151.2754942235
 20
134.9427765342
 30
0.0
 10
150.9901231421
 20
135.242806326
 30
0.0
 10
150.7512678365
 20
135.407247262
 30
0.0
 10
150.6195971705
 20
135.4832656367
 30
0.0
  0
SPLINE
  5
400
100
AcDbEntity
  8
0
100
AcDbSpline
 62
7
  6
BYLAYER
 70
0
 71
3
 72
11
 73
7
 74
0
 42
0.0000001
 43
0.0000001
 44
0.0000000001
 40
0.0
 40
0.0
 40
0.0
 40
0.0
 40
0.2898010743
 40
0.5490501865
 40
0.7822287123
 40
1.0
 40
1.0
 40
1.0
 40
1.0
 10
146.3769198276
 20
135.4832342752
 30
0.0
 10
146.2452434807
 20
135.4072087161
 30
0.0
 10
146.0063931021
 20
135.2427879294
 30
0.0
 10
145.7210778755
 20
134.9427303097
 30
0.0
 10
145.5404772894
 20
134.6109837613
 30
0.0
 10
145.4983035221
 20
134.3727896671
 30
0.0
 10
145.4983026965
 20
134.258533175
 30
0.0
  0
SPLINE
  5
401
100
AcDbEntity
  8
0
100
AcDbSpline
 62
7
  6
BYLAYER
 70
0
 71
3
 72
17
 73
13
 74
0
 42
0.0000001
 43
0.0000001
 44
0.0000000001
 40
0.0
 40
0.0
 40
0.0
 40
0.0
 40
0.1286894515
 40
0.2702733052
 40
0.4174311564
 40
0.5617777971
 40
0.695448455
 40
0.8127144874
 40
0.8646777338
 40
0.9125117275
 40
0.9571411369
 40
1.0
 40
1.0
 40
1.0
 40
1.0
 10
146.3769741472
 20
133.0338007135
 30
0.0
 10
146.5990475128
 20
132.9055894966
 30
0.0
 10
147.1018447022
 20
132.6981371507
 30
0.0
 10
147.9213114452
 20
132.5341962599
 30
0.0
 10
148.7880520211
 20
132.5101802923
 30
0.0
 10
149.6313364177
 20
132.6286775151
 30
0.0
 10
150.3827742806
 20
132.8796900756
 30
0.0
 10
150.9054117062
 20
133.1977961257
 30
0.0
 10
151.212110388
 20
133.5056223633
 30
0.0
 10
151.3750386633
 20
133.745274054
 30
0.0
 10
151.4754521497
 20
133.9980580183
 30
0.0
 10
151.4982680042
 20
134.1731325434
 30
0.0
 10
151.4982686213
 20
134.2585331751
 30
0.0
  0
SPLINE
  5
402
100
AcDbEntity
  8
0
100
AcDbSpline
 62
7
  6
BYLAYER
 70
0
 71
3
 72
11
 73
7
 74
0
 42
0.0000001
 43
0.0000001
 44
0.0000000001
 40
0.0
 40
0.0
 40
0.0
 40
0.0
 40
0.2897770231
 40
0.5490710802
 40
0.7822289222
 40
1.0
 40
1.0
 40
1.0
 40
1.0
 10
146.3769741472
 20
123.6440229165
 30
0.0
 10
146.2453020984
 20
123.7200420895
 30
0.0
 10
146.0064458125
 20
123.8844855382
 30
0.0
 10
145.7210732806
 20
124.1845174656
 30
0.0
 10
145.5405000984
 20
124.5163086002
 30
0.0
 10
145.4983052368
 20
124.7544947101
 30
0.0
 10
145.4983061105
 20
124.8687553782
 30
0.0
  0
SPLINE
  5
403
100
AcDbEntity
  8
0
100
AcDbSpline
 62
7
  6
BYLAYER
 70
0
 71
3
 72
14
 73
10
 74
0
 42
0.0000001
 43
0.0000001
 44
0.0000000001
 40
0.0
 40
0.0
 40
0.0
 40
0.0
 40
0.0932006463
 40
0.1918059915
 40
0.2998196942
 40
0.4193169787
 40
0.5506231832
 40
0.6927031227
 40
1.0
 40
1.0
 40
1.0
 40
1.0
 10
150.9591732479
 20
102.9739740575
 30
0.0
 10
151.0404670311
 20
102.9270215014
 30
0.0
 10
151.1934539918
 20
102.8033669737
 30
0.0
 10
151.3652750275
 20
102.5507366527
 30
0.0
 10
151.479165846
 20
102.2397051032
 30
0.0
 10
151.5336492638
 20
101.8804562411
 30
0.0
 10
151.5283891158
 20
101.4832224466
 30
0.0
 10
151.4401789339
 20
100.9037158718
 30
0.0
 10
151.2906443983
 20
100.4712277845
 30
0.0
 10
151.1615242076
 20
100.1899121534
 30
0.0
  0
SPLINE
  5
404
100
AcDbEntity
  8
0
100
AcDbSpline
 62
7
  6
BYLAYER
 70
0
 71
3
 72
9
 73
5
 74
0
 42
0.0000001
 43
0.0000001
 44
0.0000000001
 40
0.0
 40
0.0
 40
0.0
 40
0.0
 40
0.5243554325
 40
1.0
 40
1.0
 40
1.0
 40
1.0
 10
150.7167972304
 20
99.4211478374
 30
0.0
 10
150.557695676
 20
99.197661448
 30
0.0
 10
150.2164366092
 20
98.796945243
 30
0.0
 10
149.7997152408
 20
98.4714474069
 30
0.0
 10
149.5842046442
 20
98.3470230487
 30
0.0
  0
SPLINE
  5
405
100
AcDbEntity
  8
0
100
AcDbSpline
 62
7
  6
BYLAYER
 70
0
 71
3
 72
12
 73
8
 74
0
 42
0.0000001
 43
0.0000001
 44
0.0000000001
 40
0.0
 40
0.0
 40
0.0
 40
0.0
 40
0.1081588061
 40
0.2183574122
 40
0.4513592131
 40
0.7104166268
 40
1.0
 40
1.0
 40
1.0
 40
1.0
 10
142.4982927128
 20
124.8687553775
 30
0.0
 10
142.4982917078
 20
124.755170481
 30
0.0
 10
142.5180790941
 20
124.525387228
 30
0.0
 10
142.6373818867
 20
124.0646927763
 30
0.0
 10
142.9438500587
 20
123.4998236475
 30
0.0
 10
143.5145660905
 20
122.9003570967
 30
0.0
 10
143.9922931761
 20
122.5713434433
 30
0.0
 10
144.2556626356
 20
122.4192904549
 30
0.0
  0
SPLINE
  5
406
100
AcDbEntity
  8
0
100
AcDbSpline
 62
7
  6
BYLAYER
 70
0
 71
3
 72
17
 73
13
 74
0
 42
0.0000001
 43
0.0000001
 44
0.0000000001
 40
0.0
 40
0.0
 40
0.0
 40
0.0
 40
0.0428571966
 40
0.0874859204
 40
0.1353198756
 40
0.1872831149
 40
0.3045485576
 40
0.4382179004
 40
0.5825626851
 40
0.7297190177
 40
0.8713071057
 40
1.0
 40
1.0
 40
1.0
 40
1.0
 10
151.4982652073
 20
124.868755378
 30
0.0
 10
151.4982645543
 20
124.783358219
 30
0.0
 10
151.4754447048
 20
124.6082895904
 30
0.0
 10
151.3750395131
 20
124.355508523
 30
0.0
 10
151.2121116969
 20
124.1158583321
 30
0.0
 10
150.90541673
 20
123.8080317425
 30
0.0
 10
150.3827852753
 20
123.489925063
 30
0.0
 10
149.6313578466
 20
123.2389099022
 30
0.0
 10
148.7880848335
 20
123.1204088594
 30
0.0
 10
147.9213443242
 20
123.144419611
 30
0.0
 10
147.1018646901
 20
123.3083520402
 30
0.0
 10
146.5990530583
 20
123.515808498
 30
0.0
 10
146.3769741472
 20
123.6440229165
 30
0.0
  0
SPLINE
  5
407
100
AcDbEntity
  8
0
100
AcDbSpline
 62
7
  6
BYLAYER
 70
0
 71
3
 72
11
 73
7
 74
0
 42
0.0000001
 43
0.0000001
 44
0.0000000001
 40
0.0
 40
0.0
 40
0.0
 40
0.0
 40
0.2897450984
 40
0.5490772309
 40
0.7822207171
 40
1.0
 40
1.0
 40
1.0
 40
1.0
 10
149.5842046442
 20
98.3470230487
 30
0.0
 10
149.4635214753
 20
98.2773470045
 30
0.0
 10
149.2234960655
 20
98.1631242518
 30
0.0
 10
148.8545312616
 20
98.0740624632
 30
0.0
 10
148.5083746814
 20
98.0828303891
 30
0.0
 10
148.2999357464
 20
98.1584502332
 30
0.0
 10
148.2092360406
 20
98.210835334
 30
0.0
  0
SPLINE
  5
408
100
AcDbEntity
  8
0
100
AcDbSpline
 62
7
  6
BYLAYER
 70
0
 71
3
 72
20
 73
16
 74
0
 42
0.0000001
 43
0.0000001
 44
0.0000000001
 40
0.0
 40
0.0
 40
0.0
 40
0.0
 40
0.1370973927
 40
0.2888578029
 40
0.4426995756
 40
0.5163264955
 40
0.5857134405
 40
0.6497710039
 40
0.707920839
 40
0.7603014143
 40
0.8079870345
 40
0.8530834304
 40
0.8984179911
 40
0.9467312181
 40
1.0
 40
1.0
 40
1.0
 40
1.0
 10
146.7305260658
 20
133.646173999
 30
0.0
 10
146.9625532446
 20
133.5122160754
 30
0.0
 10
147.49858814
 20
133.3105457002
 30
0.0
 10
148.3612940039
 20
133.1951406205
 30
0.0
 10
149.1068450797
 20
133.2472720305
 30
0.0
 10
149.6719076703
 20
133.383421004
 30
0.0
 10
150.0519161997
 20
133.5259071582
 30
0.0
 10
150.3819414221
 20
133.7057741384
 30
0.0
 10
150.6516281895
 20
133.9179167926
 30
0.0
 10
150.8520929568
 20
134.1568570039
 30
0.0
 10
150.9750752819
 20
134.4166634631
 30
0.0
 10
151.0125360249
 20
134.6886265801
 30
0.0
 10
150.9609476455
 20
134.9594418291
 30
0.0
 10
150.8251765745
 20
135.2163669213
 30
0.0
 10
150.6909138484
 20
135.3651614078
 30
0.0
 10
150.6141885025
 20
135.4355173744
 30
0.0
  0
SPLINE
  5
409
100
AcDbEntity
  8
0
100
AcDbSpline
 62
7
  6
BYLAYER
 70
0
 71
3
 72
9
 73
5
 74
0
 42
0.0000001
 43
0.0000001
 44
0.0000000001
 40
0.0
 40
0.0
 40
0.0
 40
0.0
 40
0.2389551234
 40
1.0
 40
1.0
 40
1.0
 40
1.0
 10
150.6141885025
 20
135.4355173744
 30
0.0
 10
150.588933281
 20
135.4586760255
 30
0.0
 10
150.4801950786
 20
135.552254637
 30
0.0
 10
150.3605576269
 20
135.6328292576
 30
0.0
 10
150.2660452519
 20
135.6873947683
 30
0.0
  0
SPLINE
  5
40A
100
AcDbEntity
  8
0
100
AcDbSpline
 62
7
  6
BYLAYER
 70
0
 71
3
 72
11
 73
7
 74
0
 42
0.0000001
 43
0.0000001
 44
0.0000000001
 40
0.0
 40
0.0
 40
0.0
 40
0.0
 40
0.2897450984
 40
0.5490772309
 40
0.7822207171
 40
1.0
 40
1.0
 40
1.0
 40
1.0
 10
149.5842046442
 20
82.0169747061
 30
0.0
 10
149.4635214753
 20
81.9472986619
 30
0.0
 10
149.2234960655
 20
81.8330759092
 30
0.0
 10
148.8545312616
 20
81.7440141206
 30
0.0
 10
148.5083746814
 20
81.7527820466
 30
0.0
 10
148.2999357464
 20
81.8284018906
 30
0.0
 10
148.2092360406
 20
81.8807869915
 30
0.0
  0
SPLINE
  5
40B
100
AcDbEntity
  8
0
100
AcDbSpline
 62
7
  6
BYLAYER
 70
0
 71
3
 72
14
 73
10
 74
0
 42
0.0000001
 43
0.0000001
 44
0.0000000001
 40
0.0
 40
0.0
 40
0.0
 40
0.0
 40
0.0932006463
 40
0.1918059915
 40
0.2998196942
 40
0.4193169787
 40
0.5506231832
 40
0.6927031227
 40
1.0
 40
1.0
 40
1.0
 40
1.0
 10
150.9591732479
 20
86.643925715
 30
0.0
 10
151.0404670311
 20
86.5969731588
 30
0.0
 10
151.1934539918
 20
86.4733186311
 30
0.0
 10
151.3652750275
 20
86.2206883102
 30
0.0
 10
151.479165846
 20
85.9096567606
 30
0.0
 10
151.5336492638
 20
85.5504078985
 30
0.0
 10
151.5283891158
 20
85.153174104
 30
0.0
 10
151.4401789339
 20
84.5736675292
 30
0.0
 10
151.2906443983
 20
84.1411794419
 30
0.0
 10
151.1615242076
 20
83.8598638108
 30
0.0
  0
SPLINE
  5
40C
100
AcDbEntity
  8
0
100
AcDbSpline
 62
7
  6
BYLAYER
 70
0
 71
3
 72
9
 73
5
 74
0
 42
0.0000001
 43
0.0000001
 44
0.0000000001
 40
0.0
 40
0.0
 40
0.0
 40
0.0
 40
0.5243554325
 40
1.0
 40
1.0
 40
1.0
 40
1.0
 10
150.7167972304
 20
83.0910994948
 30
0.0
 10
150.557695676
 20
82.8676131054
 30
0.0
 10
150.2164366092
 20
82.4668969004
 30
0.0
 10
149.7997152408
 20
82.1413990643
 30
0.0
 10
149.5842046442
 20
82.0169747061
 30
0.0
  0
SPLINE
  5
40D
100
AcDbEntity
  8
0
100
AcDbSpline
 62
7
  6
BYLAYER
 70
0
 71
3
 72
19
 73
15
 74
0
 42
0.0000001
 43
0.0000001
 44
0.0000000001
 40
0.0
 40
0.0
 40
0.0
 40
0.0
 40
0.1286296975
 40
0.2701555046
 40
0.4172455479
 40
0.561530677
 40
0.6301821459
 40
0.6953204497
 40
0.756315865
 40
0.8127977496
 40
0.8647384199
 40
0.9125500009
 40
0.9571593078
 40
1.0
 40
1.0
 40
1.0
 40
1.0
 10
144.2556626356
 20
122.4192904549
 30
0.0
 10
144.6997999839
 20
122.1628734382
 30
0.0
 10
145.7053914451
 20
121.747989219
 30
0.0
 10
147.3443805968
 20
121.4200112257
 30
0.0
 10
149.0776147453
 20
121.3721482885
 30
0.0
 10
150.5072109763
 20
121.5726668223
 30
0.0
 10
151.5740605047
 20
121.8800219941
 30
0.0
 10
152.2958308229
 20
122.1708315342
 30
0.0
 10
152.9370418225
 20
122.5195708916
 30
0.0
 10
153.4843090831
 20
122.919447016
 30
0.0
 10
153.9259397332
 20
123.3629571663
 30
0.0
 10
154.2517747781
 20
123.8422378166
 30
0.0
 10
154.4525924279
 20
124.3478071126
 30
0.0
 10
154.4982770939
 20
124.6979508277
 30
0.0
 10
154.498278605
 20
124.8687553787
 30
0.0
  0
SPLINE
  5
40E
100
AcDbEntity
  8
0
100
AcDbSpline
 62
7
  6
BYLAYER
 70
0
 71
3
 72
9
 73
5
 74
0
 42
0.0000001
 43
0.0000001
 44
0.0000000001
 40
0.0
 40
0.0
 40
0.0
 40
0.0
 40
0.2632848385
 40
1.0
 40
1.0
 40
1.0
 40
1.0
 10
144.2556626356
 20
119.1532807863
 30
0.0
 10
144.1677649129
 20
119.2040274121
 30
0.0
 10
143.8392650842
 20
119.4056479732
 30
0.0
 10
143.5326321031
 20
119.6447212137
 30
0.0
 10
143.3297189928
 20
119.8434226277
 30
0.0
  0
SPLINE
  5
40F
100
AcDbEntity
  8
0
100
AcDbSpline
 62
7
  6
BYLAYER
 70
0
 71
3
 72
9
 73
5
 74
0
 42
0.0000001
 43
0.0000001
 44
0.0000000001
 40
0.0
 40
0.0
 40
0.0
 40
0.0
 40
0.2601122114
 40
1.0
 40
1.0
 40
1.0
 40
1.0
 10
145.4510481682
 20
118.6187003641
 30
0.0
 10
145.3434741696
 20
118.6553166698
 30
0.0
 10
144.933086935
 20
118.8050588974
 30
0.0
 10
144.5355932647
 20
118.9916664185
 30
0.0
 10
144.2556626356
 20
119.1532807863
 30
0.0
  0
SPLINE
  5
410
100
AcDbEntity
  8
0
100
AcDbSpline
 62
7
  6
BYLAYER
 70
0
 71
3
 72
9
 73
5
 74
0
 42
0.0000001
 43
0.0000001
 44
0.0000000001
 40
0.0
 40
0.0
 40
0.0
 40
0.0
 40
0.260967138
 40
1.0
 40
1.0
 40
1.0
 40
1.0
 10
146.730503999
 20
135.6873552403
 30
0.0
 10
146.6997370172
 20
135.66959166
 30
0.0
 10
146.5834084862
 20
135.5988918602
 30
0.0
 10
146.4735634829
 20
135.5171639918
 30
0.0
 10
146.3985431219
 20
135.4501268931
 30
0.0
  0
SPLINE
  5
411
100
AcDbEntity
  8
0
100
AcDbSpline
 62
7
  6
BYLAYER
 70
0
 71
3
 72
15
 73
11
 74
0
 42
0.0000001
 43
0.0000001
 44
0.0000000001
 40
0.0
 40
0.0
 40
0.0
 40
0.0
 40
0.1326043896
 40
0.253441291
 40
0.3663131927
 40
0.4768313435
 40
0.5912080871
 40
0.71465422
 40
0.8505766973
 40
1.0
 40
1.0
 40
1.0
 40
1.0
 10
146.3985431219
 20
135.4501268931
 30
0.0
 10
146.3254722453
 20
135.3848318252
 30
0.0
 10
146.1961451557
 20
135.2473120779
 30
0.0
 10
146.0579229179
 20
135.0114582121
 30
0.0
 10
145.991251127
 20
134.7623355419
 30
0.0
 10
146.0006994976
 20
134.509134823
 30
0.0
 10
146.0855292514
 20
134.262568478
 30
0.0
 10
146.2405107757
 20
134.0308667752
 30
0.0
 10
146.4592153885
 20
133.8198582463
 30
0.0
 10
146.6348964446
 20
133.7013845375
 30
0.0
 10
146.7305260658
 20
133.646173999
 30
0.0
  0
SPLINE
  5
412
100
AcDbEntity
  8
0
100
AcDbSpline
 62
7
  6
BYLAYER
 70
0
 71
3
 72
11
 73
7
 74
0
 42
0.0000001
 43
0.0000001
 44
0.0000000001
 40
0.0
 40
0.0
 40
0.0
 40
0.0
 40
0.2177761591
 40
0.4509341948
 40
0.7102264624
 40
1.0
 40
1.0
 40
1.0
 40
1.0
 10
145.4983026965
 20
134.258533175
 30
0.0
 10
145.4983018709
 20
134.1442696664
 30
0.0
 10
145.5404962489
 20
133.90607973
 30
0.0
 10
145.7210770943
 20
133.574289816
 30
0.0
 10
146.0064481757
 20
133.2742600241
 30
0.0
 10
146.2453034813
 20
133.1098190882
 30
0.0
 10
146.3769741472
 20
133.0338007135
 30
0.0
  0
SPLINE
  5
413
100
AcDbEntity
  8
0
100
AcDbSpline
 62
7
  6
BYLAYER
 70
0
 71
3
 72
15
 73
11
 74
0
 42
0.0000001
 43
0.0000001
 44
0.0000000001
 40
0.0
 40
0.0
 40
0.0
 40
0.0
 40
0.1141546703
 40
0.2373261017
 40
0.3669753162
 40
0.4999989361
 40
0.6330227034
 40
0.7626723508
 40
0.8858444607
 40
1.0
 40
1.0
 40
1.0
 40
1.0
 10
153.4479654159
 20
169.7318078248
 30
0.0
 10
153.5931873786
 20
169.6479657824
 30
0.0
 10
153.8800268282
 20
169.4468964573
 30
0.0
 10
154.274702527
 20
169.0776503409
 30
0.0
 10
154.6384175072
 20
168.6411733718
 30
0.0
 10
154.9574722536
 20
168.1538392002
 30
0.0
 10
155.2199913908
 20
167.6338632723
 30
0.0
 10
155.4161374609
 20
167.1006376774
 30
0.0
 10
155.5385801173
 20
166.5742134005
 30
0.0
 10
155.5692945914
 20
166.2252665166
 30
0.0
 10
155.5692945914
 20
166.0575783099
 30
0.0
  0
SPLINE
  5
414
100
AcDbEntity
  8
0
100
AcDbSpline
 62
7
  6
BYLAYER
 70
0
 71
3
 72
11
 73
7
 74
0
 42
0.0000001
 43
0.0000001
 44
0.0000000001
 40
0.0
 40
0.0
 40
0.0
 40
0.0
 40
0.2898002887
 40
0.5490497786
 40
0.7822282096
 40
1.0
 40
1.0
 40
1.0
 40
1.0
 10
161.2261723925
 20
169.3236716108
 30
0.0
 10
161.2261723925
 20
169.1716138218
 30
0.0
 10
161.2032081236
 20
168.8825329966
 30
0.0
 10
161.0860066098
 20
168.4853858746
 30
0.0
 10
160.8890010028
 20
168.1630793837
 30
0.0
 10
160.7037900838
 20
168.007450236
 30
0.0
 10
160.604833941
 20
167.9503182213
 30
0.0
  0
SPLINE
  5
415
100
AcDbEntity
  8
0
100
AcDbSpline
 62
7
  6
BYLAYER
 70
0
 71
3
 72
11
 73
7
 74
0
 42
0.0000001
 43
0.0000001
 44
0.0000000001
 40
0.0
 40
0.0
 40
0.0
 40
0.0
 40
0.2898002887
 40
0.5490497786
 40
0.7822282096
 40
1.0
 40
1.0
 40
1.0
 40
1.0
 10
155.5692945914
 20
166.0575783099
 30
0.0
 10
155.5692945914
 20
165.905520521
 30
0.0
 10
155.5463303224
 20
165.6164396957
 30
0.0
 10
155.4291288087
 20
165.2192925737
 30
0.0
 10
155.2321232016
 20
164.8969860828
 30
0.0
 10
155.0469122826
 20
164.7413569352
 30
0.0
 10
154.9479561398
 20
164.6842249205
 30
0.0
  0
SPLINE
  5
416
100
AcDbEntity
  8
0
100
AcDbSpline
 62
7
  6
BYLAYER
 70
0
 71
3
 72
10
 73
6
 74
0
 42
0.0000001
 43
0.0000001
 44
0.0000000001
 40
0.0
 40
0.0
 40
0.0
 40
0.0
 40
0.2301934618
 40
0.4758877293
 40
1.0
 40
1.0
 40
1.0
 40
1.0
 10
150.618319112
 20
148.5036325412
 30
0.0
 10
150.5016156341
 20
148.5709300087
 30
0.0
 10
150.2502695743
 20
148.6930648894
 30
0.0
 10
149.6966488532
 20
148.8854013905
 30
0.0
 10
149.2491430404
 20
148.964526403
 30
0.0
 10
148.9435604112
 20
148.9910096699
 30
0.0
  0
SPLINE
  5
417
100
AcDbEntity
  8
0
100
AcDbSpline
 62
7
  6
BYLAYER
 70
0
 71
3
 72
10
 73
6
 74
0
 42
0.0000001
 43
0.0000001
 44
0.0000000001
 40
0.0
 40
0.0
 40
0.0
 40
0.0
 40
0.5238024294
 40
0.7696208157
 40
1.0
 40
1.0
 40
1.0
 40
1.0
 10
148.0601549124
 20
148.9916342089
 30
0.0
 10
147.7555368254
 20
148.9656717844
 30
0.0
 10
147.3092449396
 20
148.8875588643
 30
0.0
 10
146.756613592
 20
148.6972227103
 30
0.0
 10
146.5053523373
 20
148.5762570225
 30
0.0
 10
146.388585413
 20
148.5095801334
 30
0.0
  0
SPLINE
  5
418
100
AcDbEntity
  8
0
100
AcDbSpline
 62
7
  6
BYLAYER
 70
0
 71
3
 72
12
 73
8
 74
0
 42
0.0000001
 43
0.0000001
 44
0.0000000001
 40
0.0
 40
0.0
 40
0.0
 40
0.0
 40
0.108159034
 40
0.218360774
 40
0.4513550459
 40
0.710429161
 40
1.0
 40
1.0
 40
1.0
 40
1.0
 10
151.4982736833
 20
149.7276880583
 30
0.0
 10
151.4982680234
 20
149.6708963476
 30
0.0
 10
151.4884022719
 20
149.5560022467
 30
0.0
 10
151.4287133337
 20
149.3256687896
 30
0.0
 10
151.2755172351
 20
149.0432185916
 30
0.0
 10
150.9901438095
 20
148.7435025855
 30
0.0
 10
150.7512913293
 20
148.5789888004
 30
0.0
 10
150.6196148343
 20
148.5029657943
 30
0.0
  0
SPLINE
  5
419
100
AcDbEntity
  8
0
100
AcDbSpline
 62
7
  6
BYLAYER
 70
0
 71
3
 72
11
 73
7
 74
0
 42
0.0000001
 43
0.0000001
 44
0.0000000001
 40
0.0
 40
0.0
 40
0.0
 40
0.0
 40
0.2177727568
 40
0.4509515946
 40
0.7102007126
 40
1.0
 40
1.0
 40
1.0
 40
1.0
 10
163.2617302944
 20
163.3485241541
 30
0.0
 10
163.3606842311
 20
163.4056548951
 30
0.0
 10
163.5880629776
 20
163.4882354038
 30
0.0
 10
163.9656816198
 20
163.4976957347
 30
0.0
 10
164.3682113545
 20
163.4006276951
 30
0.0
 10
164.6300383406
 20
163.275981062
 30
0.0
 10
164.7617210183
 20
163.1999557525
 30
0.0
  0
SPLINE
  5
41A
100
AcDbEntity
  8
0
100
AcDbSpline
 62
7
  6
BYLAYER
 70
0
 71
3
 72
9
 73
5
 74
0
 42
0.0000001
 43
0.0000001
 44
0.0000000001
 40
0.0
 40
0.0
 40
0.0
 40
0.0
 40
0.5255647212
 40
1.0
 40
1.0
 40
1.0
 40
1.0
 10
149.0396223299
 20
161.6623817907
 30
0.0
 10
149.0909823522
 20
161.7513404526
 30
0.0
 10
149.1705704044
 20
161.9316811241
 30
0.0
 10
149.205307065
 20
162.1271955282
 30
0.0
 10
149.205307065
 20
162.219922863
 30
0.0
  0
SPLINE
  5
41B
100
AcDbEntity
  8
0
100
AcDbSpline
 62
7
  6
BYLAYER
 70
0
 71
3
 72
14
 73
10
 74
0
 42
0.0000001
 43
0.0000001
 44
0.0000000001
 40
0.0
 40
0.0
 40
0.0
 40
0.0
 40
0.2892823528
 40
0.4225484467
 40
0.5484959445
 40
0.667894673
 40
0.7818698222
 40
0.8919536913
 40
1.0
 40
1.0
 40
1.0
 40
1.0
 10
144.255627308
 20
152.177132585
 30
0.0
 10
143.9922556691
 20
152.0250758061
 30
0.0
 10
143.6234147659
 20
151.7711313586
 30
0.0
 10
143.2061334861
 20
151.3717517737
 30
0.0
 10
142.9521756884
 20
151.0638988818
 30
0.0
 10
142.7513969456
 20
150.7425212646
 30
0.0
 10
142.6060777375
 20
150.4104347919
 30
0.0
 10
142.5180089405
 20
150.0710528392
 30
0.0
 10
142.4983082932
 20
149.8412742969
 30
0.0
 10
142.498308293
 20
149.7276880579
 30
0.0
  0
SPLINE
  5
41C
100
AcDbEntity
  8
0
100
AcDbSpline
 62
7
  6
BYLAYER
 70
0
 71
3
 72
10
 73
6
 74
0
 42
0.0000001
 43
0.0000001
 44
0.0000000001
 40
0.0
 40
0.0
 40
0.0
 40
0.0
 40
0.2285799564
 40
0.5975766683
 40
1.0
 40
1.0
 40
1.0
 40
1.0
 10
148.0768381933
 20
154.7954526416
 30
0.0
 10
147.999575271
 20
154.6812253168
 30
0.0
 10
147.7757177697
 20
154.3970523525
 30
0.0
 10
147.3296691485
 20
153.986286004
 30
0.0
 10
146.940748639
 20
153.7273788546
 30
0.0
 10
146.7304907382
 20
153.6059871236
 30
0.0
  0
SPLINE
  5
41D
100
AcDbEntity
  8
0
100
AcDbSpline
 62
7
  6
BYLAYER
 70
0
 71
3
 72
18
 73
14
 74
0
 42
0.0000001
 43
0.0000001
 44
0.0000000001
 40
0.0
 40
0.0
 40
0.0
 40
0.0
 40
0.1286546054
 40
0.2702043695
 40
0.4173204215
 40
0.5616310266
 40
0.6952672719
 40
0.7562729325
 40
0.8127635777
 40
0.864714465
 40
0.9125353671
 40
0.9571522487
 40
1.0
 40
1.0
 40
1.0
 40
1.0
 10
150.6196148343
 20
148.5029657943
 30
0.0
 10
150.3975431899
 20
148.374753436
 30
0.0
 10
149.8947320657
 20
148.167305206
 30
0.0
 10
149.0753029672
 20
148.0033271449
 30
0.0
 10
148.2084180788
 20
147.97938138
 30
0.0
 10
147.3656169261
 20
148.097719887
 30
0.0
 10
146.7197104274
 20
148.3134383759
 30
0.0
 10
146.278914913
 20
148.5530764465
 30
0.0
 10
146.0052905702
 20
148.75304929
 30
0.0
 10
145.7844602255
 20
148.9747829302
 30
0.0
 10
145.6215281255
 20
149.2144239064
 30
0.0
 10
145.5211522416
 20
149.4672186996
 30
0.0
 10
145.4982891232
 20
149.6422867492
 30
0.0
 10
145.4982976344
 20
149.7276880575
 30
0.0
  0
SPLINE
  5
41E
100
AcDbEntity
  8
0
100
AcDbSpline
 62
7
  6
BYLAYER
 70
0
 71
3
 72
14
 73
10
 74
0
 42
0.0000001
 43
0.0000001
 44
0.0000000001
 40
0.0
 40
0.0
 40
0.0
 40
0.0
 40
0.2892828214
 40
0.422549046
 40
0.5484965863
 40
0.6678952638
 40
0.7818702738
 40
0.8919539359
 40
1.0
 40
1.0
 40
1.0
 40
1.0
 10
144.2556626356
 20
144.8287158833
 30
0.0
 10
143.9922860737
 20
144.9807729722
 30
0.0
 10
143.6234380722
 20
145.234718459
 30
0.0
 10
143.2061483008
 20
145.6341009454
 30
0.0
 10
142.9521852908
 20
145.9419563963
 30
0.0
 10
142.7514023454
 20
146.2633369917
 30
0.0
 10
142.6060800594
 20
146.5954267934
 30
0.0
 10
142.5180093654
 20
146.9348123158
 30
0.0
 10
142.4983082954
 20
147.1645933584
 30
0.0
 10
142.498308293
 20
147.2781808065
 30
0.0
  0
SPLINE
  5
41F
100
AcDbEntity
  8
0
100
AcDbSpline
 62
7
  6
BYLAYER
 70
0
 71
3
 72
15
 73
11
 74
0
 42
0.0000001
 43
0.0000001
 44
0.0000000001
 40
0.0
 40
0.0
 40
0.0
 40
0.0
 40
0.1141576923
 40
0.237324686
 40
0.3669758813
 40
0.4999994688
 40
0.6330231302
 40
0.7626745415
 40
0.8858418756
 40
1.0
 40
1.0
 40
1.0
 40
1.0
 10
152.7409440098
 20
144.8287362794
 30
0.0
 10
152.4504942253
 20
144.6610460191
 30
0.0
 10
151.8153969301
 20
144.3652972157
 30
0.0
 10
150.7811601771
 20
144.0509749466
 30
0.0
 10
149.6614565076
 20
143.8574723095
 30
0.0
 10
148.4983105609
 20
143.7921997728
 30
0.0
 10
147.3351636711
 20
143.857466771
 30
0.0
 10
146.2154572153
 20
144.0509640807
 30
0.0
 10
145.1812159551
 20
144.3652814382
 30
0.0
 10
144.5461147287
 20
144.6610270828
 30
0.0
 10
144.2556626356
 20
144.8287158833
 30
0.0
  0
SPLINE
  5
420
100
AcDbEntity
  8
0
100
AcDbSpline
 62
7
  6
BYLAYER
 70
0
 71
3
 72
11
 73
7
 74
0
 42
0.0000001
 43
0.0000001
 44
0.0000000001
 40
0.0
 40
0.0
 40
0.0
 40
0.0
 40
0.2660577034
 40
0.5253480343
 40
0.7716845241
 40
1.0
 40
1.0
 40
1.0
 40
1.0
 10
159.4584408105
 20
147.2721983836
 30
0.0
 10
159.0676177972
 20
147.2721974442
 30
0.0
 10
158.2951859147
 20
147.2288670728
 30
0.0
 10
157.1756063271
 20
147.0353418218
 30
0.0
 10
156.1413515387
 20
146.7210313106
 30
0.0
 10
155.5062571325
 20
146.4252810251
 30
0.0
 10
155.21580744
 20
146.2575908179
 30
0.0
  0
SPLINE
  5
421
100
AcDbEntity
  8
0
100
AcDbSpline
 62
7
  6
BYLAYER
 70
0
 71
3
 72
11
 73
7
 74
0
 42
0.0000001
 43
0.0000001
 44
0.0000000001
 40
0.0
 40
0.0
 40
0.0
 40
0.0
 40
0.2283158492
 40
0.4746524927
 40
0.7339427064
 40
1.0
 40
1.0
 40
1.0
 40
1.0
 10
163.7010888142
 20
146.2576112141
 30
0.0
 10
163.4106368319
 20
146.4252999506
 30
0.0
 10
162.7755385345
 20
146.721047064
 30
0.0
 10
161.7412792939
 20
147.0353526589
 30
0.0
 10
160.6216969592
 20
147.2288725937
 30
0.0
 10
159.8492640368
 20
147.272199323
 30
0.0
 10
159.4584408105
 20
147.2721983836
 30
0.0
  0
SPLINE
  5
422
100
AcDbEntity
  8
0
100
AcDbSpline
 62
7
  6
BYLAYER
 70
0
 71
3
 72
10
 73
6
 74
0
 42
0.0000001
 43
0.0000001
 44
0.0000000001
 40
0.0
 40
0.0
 40
0.0
 40
0.0
 40
0.2285795751
 40
0.5975761912
 40
1.0
 40
1.0
 40
1.0
 40
1.0
 10
148.076837291
 20
154.8659047448
 30
0.0
 10
147.9995727624
 20
154.9801343012
 30
0.0
 10
147.7757100188
 20
155.2643127707
 30
0.0
 10
147.3296498167
 20
155.6750860103
 30
0.0
 10
146.9407189773
 20
155.933996342
 30
0.0
 10
146.7304554106
 20
156.0553893225
 30
0.0
  0
SPLINE
  5
423
100
AcDbEntity
  8
0
100
AcDbSpline
 62
7
  6
BYLAYER
 70
0
 71
3
 72
11
 73
7
 74
0
 42
0.0000001
 43
0.0000001
 44
0.0000000001
 40
0.0
 40
0.0
 40
0.0
 40
0.0
 40
0.2660479602
 40
0.5253472236
 40
0.7716904963
 40
1.0
 40
1.0
 40
1.0
 40
1.0
 10
170.3386883889
 20
149.3655941049
 30
0.0
 10
170.4624446453
 20
149.5799474185
 30
0.0
 10
170.6832767672
 20
150.0173384023
 30
0.0
 10
170.9316853575
 20
150.6926948995
 30
0.0
 10
171.0867871753
 20
151.3595153124
 30
0.0
 10
171.1256908808
 20
151.8015100354
 30
0.0
 10
171.1256908808
 20
152.013914198
 30
0.0
  0
SPLINE
  5
424
100
AcDbEntity
  8
0
100
AcDbSpline
 62
7
  6
BYLAYER
 70
0
 71
3
 72
11
 73
7
 74
0
 42
0.0000001
 43
0.0000001
 44
0.0000000001
 40
0.0
 40
0.0
 40
0.0
 40
0.0
 40
0.2283083558
 40
0.4746511559
 40
0.7339507795
 40
1.0
 40
1.0
 40
1.0
 40
1.0
 10
168.4386962994
 20
147.3598772282
 30
0.0
 10
168.62264187
 20
147.466077619
 30
0.0
 10
168.9859652471
 20
147.7207640435
 30
0.0
 10
169.4858925489
 20
148.1884938611
 30
0.0
 10
169.9465595985
 20
148.7412994739
 30
0.0
 10
170.21493234
 20
149.1512411505
 30
0.0
 10
170.3386883889
 20
149.3655941049
 30
0.0
  0
SPLINE
  5
425
100
AcDbEntity
  8
0
100
AcDbSpline
 62
7
  6
BYLAYER
 70
0
 71
3
 72
15
 73
11
 74
0
 42
0.0000001
 43
0.0000001
 44
0.0000000001
 40
0.0
 40
0.0
 40
0.0
 40
0.0
 40
0.1141555516
 40
0.2373276756
 40
0.3669773296
 40
0.5000011
 40
0.6330247168
 40
0.7626739247
 40
0.885845342
 40
1.0
 40
1.0
 40
1.0
 40
1.0
 10
164.7617033545
 20
163.1999032263
 30
0.0
 10
164.7617033545
 20
163.0322150015
 30
0.0
 10
164.7924178386
 20
162.6832680792
 30
0.0
 10
164.9148605128
 20
162.1568437565
 30
0.0
 10
165.1110066128
 20
161.623618135
 30
0.0
 10
165.3735257676
 20
161.1036422054
 30
0.0
 10
165.6925805213
 20
160.6163080499
 30
0.0
 10
166.0562954935
 20
160.17983112
 30
0.0
 10
166.4509711615
 20
159.8105850419
 30
0.0
 10
166.7378105829
 20
159.6095157448
 30
0.0
 10
166.8830325299
 20
159.5256737113
 30
0.0
  0
SPLINE
  5
426
100
AcDbEntity
  8
0
100
AcDbSpline
 62
7
  6
BYLAYER
 70
0
 71
3
 72
15
 73
11
 74
0
 42
0.0000001
 43
0.0000001
 44
0.0000000001
 40
0.0
 40
0.0
 40
0.0
 40
0.0
 40
0.1141555516
 40
0.2373276756
 40
0.3669773296
 40
0.5000011
 40
0.6330247168
 40
0.7626739247
 40
0.885845342
 40
1.0
 40
1.0
 40
1.0
 40
1.0
 10
159.1048255533
 20
172.9978485995
 30
0.0
 10
159.1048255533
 20
172.8301603747
 30
0.0
 10
159.1355400374
 20
172.4812134524
 30
0.0
 10
159.2579827117
 20
171.9547891297
 30
0.0
 10
159.4541288116
 20
171.4215635082
 30
0.0
 10
159.7166479664
 20
170.9015875786
 30
0.0
 10
160.0357027201
 20
170.4142534231
 30
0.0
 10
160.3994176923
 20
169.9777764932
 30
0.0
 10
160.7940933603
 20
169.6085304151
 30
0.0
 10
161.0809327817
 20
169.407461118
 30
0.0
 10
161.2261547287
 20
169.3236190845
 30
0.0
  0
SPLINE
  5
427
100
AcDbEntity
  8
0
100
AcDbSpline
 62
7
  6
BYLAYER
 70
0
 71
3
 72
11
 73
7
 74
0
 42
0.0000001
 43
0.0000001
 44
0.0000000001
 40
0.0
 40
0.0
 40
0.0
 40
0.0
 40
0.2177727568
 40
0.4509515946
 40
0.7102007126
 40
1.0
 40
1.0
 40
1.0
 40
1.0
 10
154.9479561398
 20
164.6842249205
 30
0.0
 10
154.8490022031
 20
164.6270941795
 30
0.0
 10
154.6216234565
 20
164.5445136708
 30
0.0
 10
154.2440048144
 20
164.5350533399
 30
0.0
 10
153.8414750797
 20
164.6321213794
 30
0.0
 10
153.5796480936
 20
164.7567680126
 30
0.0
 10
153.4479654159
 20
164.8327933221
 30
0.0
  0
SPLINE
  5
428
100
AcDbEntity
  8
0
100
AcDbSpline
 62
7
  6
BYLAYER
 70
0
 71
3
 72
15
 73
11
 74
0
 42
0.0000001
 43
0.0000001
 44
0.0000000001
 40
0.0
 40
0.0
 40
0.0
 40
0.0
 40
0.1141546703
 40
0.2373261017
 40
0.3669753162
 40
0.4999989361
 40
0.6330227034
 40
0.7626723508
 40
0.8858444607
 40
1.0
 40
1.0
 40
1.0
 40
1.0
 10
159.1048432171
 20
168.0988866229
 30
0.0
 10
158.9596212545
 20
168.1827286654
 30
0.0
 10
158.6727818048
 20
168.3837979904
 30
0.0
 10
158.278106106
 20
168.7530441069
 30
0.0
 10
157.9143911258
 20
169.189521076
 30
0.0
 10
157.5953363794
 20
169.6768552475
 30
0.0
 10
157.3328172422
 20
170.1968311754
 30
0.0
 10
157.1366711721
 20
170.7300567704
 30
0.0
 10
157.0142285157
 20
171.2564810472
 30
0.0
 10
156.9835140416
 20
171.6054279312
 30
0.0
 10
156.9835140416
 20
171.7731161379
 30
0.0
  0
SPLINE
  5
429
100
AcDbEntity
  8
0
100
AcDbSpline
 62
7
  6
BYLAYER
 70
0
 71
3
 72
11
 73
7
 74
0
 42
0.0000001
 43
0.0000001
 44
0.0000000001
 40
0.0
 40
0.0
 40
0.0
 40
0.0
 40
0.2177727568
 40
0.4509515946
 40
0.7102007126
 40
1.0
 40
1.0
 40
1.0
 40
1.0
 10
160.604833941
 20
167.9503182213
 30
0.0
 10
160.5058800043
 20
167.8931874803
 30
0.0
 10
160.2785012577
 20
167.8106069716
 30
0.0
 10
159.9008826155
 20
167.8011466407
 30
0.0
 10
159.4983528809
 20
167.8982146803
 30
0.0
 10
159.2365258947
 20
168.0228613135
 30
0.0
 10
159.1048432171
 20
168.0988866229
 30
0.0
  0
SPLINE
  5
42A
100
AcDbEntity
  8
0
100
AcDbSpline
 62
7
  6
BYLAYER
 70
0
 71
3
 72
9
 73
5
 74
0
 42
0.0000001
 43
0.0000001
 44
0.0000000001
 40
0.0
 40
0.0
 40
0.0
 40
0.0
 40
0.2728910202
 40
1.0
 40
1.0
 40
1.0
 40
1.0
 10
146.7304554106
 20
158.5048965739
 30
0.0
 10
146.8726145051
 20
158.4228228392
 30
0.0
 10
147.3794436467
 20
158.1003191341
 30
0.0
 10
147.8317914759
 20
157.6776930489
 30
0.0
 10
148.076837291
 20
157.3154119962
 30
0.0
  0
SPLINE
  5
42B
100
AcDbEntity
  8
0
100
AcDbSpline
 62
7
  6
BYLAYER
 70
0
 71
3
 72
9
 73
5
 74
0
 42
0.0000001
 43
0.0000001
 44
0.0000000001
 40
0.0
 40
0.0
 40
0.0
 40
0.0
 40
0.5255663614
 40
1.0
 40
1.0
 40
1.0
 40
1.0
 10
168.838694634
 20
150.2316406642
 30
0.0
 10
168.7873347839
 20
150.1426823004
 30
0.0
 10
168.6709507969
 20
149.9835871061
 30
0.0
 10
168.5189998494
 20
149.8557474791
 30
0.0
 10
168.4386962994
 20
149.8093844796
 30
0.0
  0
SPLINE
  5
42C
100
AcDbEntity
  8
0
100
AcDbSpline
 62
7
  6
BYLAYER
 70
0
 71
3
 72
9
 73
5
 74
0
 42
0.0000001
 43
0.0000001
 44
0.0000000001
 40
0.0
 40
0.0
 40
0.0
 40
0.0
 40
0.4744352788
 40
1.0
 40
1.0
 40
1.0
 40
1.0
 10
169.0043793691
 20
150.7891817364
 30
0.0
 10
169.0043793691
 20
150.6964544016
 30
0.0
 10
168.9696427085
 20
150.5009399975
 30
0.0
 10
168.8900546563
 20
150.320599326
 30
0.0
 10
168.838694634
 20
150.2316406642
 30
0.0
  0
SPLINE
  5
42D
100
AcDbEntity
  8
0
100
AcDbSpline
 62
7
  6
BYLAYER
 70
0
 71
3
 72
11
 73
7
 74
0
 42
0.0000001
 43
0.0000001
 44
0.0000000001
 40
0.0
 40
0.0
 40
0.0
 40
0.0
 40
0.2660572936
 40
0.5253475073
 40
0.7716841508
 40
1.0
 40
1.0
 40
1.0
 40
1.0
 10
159.4584408105
 20
149.721705635
 30
0.0
 10
159.8492640368
 20
149.7217065744
 30
0.0
 10
160.6216969592
 20
149.6783798451
 30
0.0
 10
161.7412792939
 20
149.4848599103
 30
0.0
 10
162.7755385345
 20
149.1705543154
 30
0.0
 10
163.4106368319
 20
148.874807202
 30
0.0
 10
163.7010888142
 20
148.7071184654
 30
0.0
  0
SPLINE
  5
42E
100
AcDbEntity
  8
0
100
AcDbSpline
 62
7
  6
BYLAYER
 70
0
 71
3
 72
11
 73
7
 74
0
 42
0.0000001
 43
0.0000001
 44
0.0000000001
 40
0.0
 40
0.0
 40
0.0
 40
0.0
 40
0.2283154759
 40
0.4746519657
 40
0.7339422966
 40
1.0
 40
1.0
 40
1.0
 40
1.0
 10
155.21580744
 20
148.7070980693
 30
0.0
 10
155.5062571325
 20
148.8747882765
 30
0.0
 10
156.1413515387
 20
149.170538562
 30
0.0
 10
157.1756063271
 20
149.4848490732
 30
0.0
 10
158.2951859147
 20
149.6783743242
 30
0.0
 10
159.0676177972
 20
149.7217046956
 30
0.0
 10
159.4584408105
 20
149.721705635
 30
0.0
  0
SPLINE
  5
42F
100
AcDbEntity
  8
0
100
AcDbSpline
 62
7
  6
BYLAYER
 70
0
 71
3
 72
10
 73
6
 74
0
 42
0.0000001
 43
0.0000001
 44
0.0000000001
 40
0.0
 40
0.0
 40
0.0
 40
0.0
 40
0.2300906307
 40
0.4758515978
 40
1.0
 40
1.0
 40
1.0
 40
1.0
 10
146.3769564834
 20
150.9524103215
 30
0.0
 10
146.4941287745
 20
151.0200593714
 30
0.0
 10
146.746655312
 20
151.142784327
 30
0.0
 10
147.3029823329
 20
151.3358603224
 30
0.0
 10
147.7527943332
 20
151.4149312308
 30
0.0
 10
148.0598913376
 20
151.4411193467
 30
0.0
  0
SPLINE
  5
430
100
AcDbEntity
  8
0
100
AcDbSpline
 62
7
  6
BYLAYER
 70
0
 71
3
 72
14
 73
10
 74
0
 42
0.0000001
 43
0.0000001
 44
0.0000000001
 40
0.0
 40
0.0
 40
0.0
 40
0.0
 40
0.3072934519
 40
0.449506347
 40
0.5809473937
 40
0.7005243669
 40
0.8085176671
 40
0.9069954728
 40
1.0
 40
1.0
 40
1.0
 40
1.0
 10
148.943439903
 20
151.4405275231
 30
0.0
 10
149.2834129866
 20
151.4110731119
 30
0.0
 10
149.779546468
 20
151.3185605257
 30
0.0
 10
150.3831156809
 20
151.0867747698
 30
0.0
 10
150.7668419572
 20
150.8748279513
 30
0.0
 10
151.0813425032
 20
150.6263503543
 30
0.0
 10
151.3168493572
 20
150.3473320751
 30
0.0
 10
151.4642306878
 20
150.0448461988
 30
0.0
 10
151.4982839764
 20
149.8309687523
 30
0.0
 10
151.4982736833
 20
149.7276880583
 30
0.0
  0
SPLINE
  5
431
100
AcDbEntity
  8
0
100
AcDbSpline
 62
7
  6
BYLAYER
 70
0
 71
3
 72
14
 73
10
 74
0
 42
0.0000001
 43
0.0000001
 44
0.0000000001
 40
0.0
 40
0.0
 40
0.0
 40
0.0
 40
0.1080460605
 40
0.21812972
 40
0.3321047289
 40
0.4515034045
 40
0.5774509436
 40
0.7107171718
 40
1.0
 40
1.0
 40
1.0
 40
1.0
 10
142.498308293
 20
149.7276880579
 30
0.0
 10
142.4983082927
 20
149.6141006137
 30
0.0
 10
142.5180093697
 20
149.3843195785
 30
0.0
 10
142.6060800503
 20
149.0449340609
 30
0.0
 10
142.7514023431
 20
148.7128442686
 30
0.0
 10
142.9521852717
 20
148.3914636688
 30
0.0
 10
143.2061482842
 20
148.0836082186
 30
0.0
 10
143.6234380566
 20
147.6842257204
 30
0.0
 10
143.9922860677
 20
147.4302802271
 30
0.0
 10
144.2556626356
 20
147.2782231347
 30
0.0
  0
SPLINE
  5
432
100
AcDbEntity
  8
0
100
AcDbSpline
 62
7
  6
BYLAYER
 70
0
 71
3
 72
11
 73
7
 74
0
 42
0.0000001
 43
0.0000001
 44
0.0000000001
 40
0.0
 40
0.0
 40
0.0
 40
0.0
 40
0.2898002887
 40
0.5490497786
 40
0.7822282096
 40
1.0
 40
1.0
 40
1.0
 40
1.0
 10
162.6403918428
 20
161.9751707647
 30
0.0
 10
162.6403918428
 20
162.1272285536
 30
0.0
 10
162.6633561118
 20
162.4163093788
 30
0.0
 10
162.7805576255
 20
162.8134565008
 30
0.0
 10
162.9775632326
 20
163.1357629918
 30
0.0
 10
163.1627741515
 20
163.2913921394
 30
0.0
 10
163.2617302944
 20
163.3485241541
 30
0.0
  0
SPLINE
  5
433
100
AcDbEntity
  8
0
100
AcDbSpline
 62
7
  6
BYLAYER
 70
0
 71
3
 72
15
 73
11
 74
0
 42
0.0000001
 43
0.0000001
 44
0.0000000001
 40
0.0
 40
0.0
 40
0.0
 40
0.0
 40
0.1141546703
 40
0.2373261017
 40
0.3669753162
 40
0.4999989361
 40
0.6330227034
 40
0.7626723508
 40
0.8858444607
 40
1.0
 40
1.0
 40
1.0
 40
1.0
 10
164.7617210183
 20
158.3009412497
 30
0.0
 10
164.6164990556
 20
158.3847832922
 30
0.0
 10
164.329659606
 20
158.5858526172
 30
0.0
 10
163.9349839072
 20
158.9550987337
 30
0.0
 10
163.571268927
 20
159.3915757028
 30
0.0
 10
163.2522141805
 20
159.8789098743
 30
0.0
 10
162.9896950433
 20
160.3988858022
 30
0.0
 10
162.7935489733
 20
160.9321113972
 30
0.0
 10
162.6711063169
 20
161.458535674
 30
0.0
 10
162.6403918428
 20
161.807482558
 30
0.0
 10
162.6403918428
 20
161.9751707647
 30
0.0
  0
SPLINE
  5
434
100
AcDbEntity
  8
0
100
AcDbSpline
 62
7
  6
BYLAYER
 70
0
 71
3
 72
12
 73
8
 74
0
 42
0.0000001
 43
0.0000001
 44
0.0000000001
 40
0.0
 40
0.0
 40
0.0
 40
0.0
 40
0.108159034
 40
0.218360774
 40
0.4513550459
 40
0.710429161
 40
1.0
 40
1.0
 40
1.0
 40
1.0
 10
145.4982976344
 20
149.7276880575
 30
0.0
 10
145.4983032944
 20
149.7844797683
 30
0.0
 10
145.5081690458
 20
149.8993738691
 30
0.0
 10
145.567857984
 20
150.1297073262
 30
0.0
 10
145.7210540827
 20
150.4121575242
 30
0.0
 10
146.0064275083
 20
150.7118735303
 30
0.0
 10
146.2452799885
 20
150.8763873154
 30
0.0
 10
146.3769564834
 20
150.9524103215
 30
0.0
  0
SPLINE
  5
435
100
AcDbEntity
  8
0
100
AcDbSpline
 62
7
  6
BYLAYER
 70
0
 71
3
 72
15
 73
11
 74
0
 42
0.0000001
 43
0.0000001
 44
0.0000000001
 40
0.0
 40
0.0
 40
0.0
 40
0.0
 40
0.1141581171
 40
0.2373254444
 40
0.3669768515
 40
0.5000005115
 40
0.6330241004
 40
0.7626752999
 40
0.8858423003
 40
1.0
 40
1.0
 40
1.0
 40
1.0
 10
144.2556626356
 20
147.2782231347
 30
0.0
 10
144.54611471
 20
147.110534345
 30
0.0
 10
145.1812158963
 20
146.8147887137
 30
0.0
 10
146.2154571014
 20
146.5004713609
 30
0.0
 10
147.3351635182
 20
146.3069740404
 30
0.0
 10
148.4983103945
 20
146.2417070241
 30
0.0
 10
149.6614563546
 20
146.3069795429
 30
0.0
 10
150.7811600632
 20
146.5004821692
 30
0.0
 10
151.8153968713
 20
146.8148044429
 30
0.0
 10
152.4504942065
 20
147.1105532597
 30
0.0
 10
152.7409440098
 20
147.2782435308
 30
0.0
  0
SPLINE
  5
436
100
AcDbEntity
  8
0
100
AcDbSpline
 62
7
  6
BYLAYER
 70
0
 71
3
 72
15
 73
11
 74
0
 42
0.0000001
 43
0.0000001
 44
0.0000000001
 40
0.0
 40
0.0
 40
0.0
 40
0.0
 40
0.1287594946
 40
0.2706314204
 40
0.417882011
 40
0.5623894944
 40
0.6962075843
 40
0.8135924465
 40
0.9130628059
 40
1.0
 40
1.0
 40
1.0
 40
1.0
 10
185.5373168455
 20
63.1480671257
 30
0.0
 10
185.5696838967
 20
63.1667541399
 30
0.0
 10
185.6325274914
 20
63.2151760025
 30
0.0
 10
185.7130382806
 20
63.3066611515
 30
0.0
 10
185.7792327863
 20
63.4144304605
 30
0.0
 10
185.8257793728
 20
63.529506573
 30
0.0
 10
185.8488632198
 20
63.6428168076
 30
0.0
 10
185.8464219573
 20
63.7456594958
 30
0.0
 10
185.8175637442
 20
63.8310382389
 30
0.0
 10
185.7779079124
 20
63.871542013
 30
0.0
 10
185.7560596043
 20
63.8841690358
 30
0.0
  0
SPLINE
  5
437
100
AcDbEntity
  8
0
100
AcDbSpline
 62
7
  6
BYLAYER
 70
0
 71
3
 72
15
 73
11
 74
0
 42
0.0000001
 43
0.0000001
 44
0.0000000001
 40
0.0
 40
0.0
 40
0.0
 40
0.0
 40
0.1287594946
 40
0.2706314204
 40
0.417882011
 40
0.5623894944
 40
0.6962075843
 40
0.8135924465
 40
0.9130628059
 40
1.0
 40
1.0
 40
1.0
 40
1.0
 10
185.5373168455
 20
63.8625067407
 30
0.0
 10
185.5049497944
 20
63.8438197266
 30
0.0
 10
185.4421061997
 20
63.7953978639
 30
0.0
 10
185.3615954104
 20
63.703912715
 30
0.0
 10
185.2954009048
 20
63.596143406
 30
0.0
 10
185.2488543183
 20
63.4810672935
 30
0.0
 10
185.2257704713
 20
63.3677570589
 30
0.0
 10
185.2282117338
 20
63.2649143706
 30
0.0
 10
185.2570699468
 20
63.1795356276
 30
0.0
 10
185.2967257786
 20
63.1390318535
 30
0.0
 10
185.3185740868
 20
63.1264048307
 30
0.0
  0
SPLINE
  5
438
100
AcDbEntity
  8
0
100
AcDbSpline
 62
7
  6
BYLAYER
 70
0
 71
3
 72
15
 73
11
 74
0
 42
0.0000001
 43
0.0000001
 44
0.0000000001
 40
0.0
 40
0.0
 40
0.0
 40
0.0
 40
0.1287594946
 40
0.2706314204
 40
0.417882011
 40
0.5623894944
 40
0.6962075843
 40
0.8135924465
 40
0.9130628059
 40
1.0
 40
1.0
 40
1.0
 40
1.0
 10
185.9051880198
 20
79.2657297516
 30
0.0
 10
185.937555071
 20
79.2844167658
 30
0.0
 10
186.0003986657
 20
79.3328386284
 30
0.0
 10
186.0809094549
 20
79.4243237774
 30
0.0
 10
186.1471039606
 20
79.5320930864
 30
0.0
 10
186.1936505471
 20
79.6471691989
 30
0.0
 10
186.2167343941
 20
79.7604794335
 30
0.0
 10
186.2142931316
 20
79.8633221217
 30
0.0
 10
186.1854349185
 20
79.9487008648
 30
0.0
 10
186.1457790867
 20
79.9892046389
 30
0.0
 10
186.1239307786
 20
80.0018316617
 30
0.0
  0
SPLINE
  5
439
100
AcDbEntity
  8
0
100
AcDbSpline
 62
7
  6
BYLAYER
 70
0
 71
3
 72
15
 73
11
 74
0
 42
0.0000001
 43
0.0000001
 44
0.0000000001
 40
0.0
 40
0.0
 40
0.0
 40
0.0
 40
0.1287594946
 40
0.2706314204
 40
0.417882011
 40
0.5623894944
 40
0.6962075843
 40
0.8135924465
 40
0.9130628059
 40
1.0
 40
1.0
 40
1.0
 40
1.0
 10
185.9051880198
 20
79.9801693666
 30
0.0
 10
185.8728209687
 20
79.9614823525
 30
0.0
 10
185.809977374
 20
79.9130604898
 30
0.0
 10
185.7294665847
 20
79.8215753409
 30
0.0
 10
185.6632720791
 20
79.7138060319
 30
0.0
 10
185.6167254926
 20
79.5987299194
 30
0.0
 10
185.5936416456
 20
79.4854196848
 30
0.0
 10
185.5960829081
 20
79.3825769965
 30
0.0
 10
185.6249411211
 20
79.2971982535
 30
0.0
 10
185.6645969529
 20
79.2566944794
 30
0.0
 10
185.686445261
 20
79.2440674566
 30
0.0
  0
ENDSEC
  0
SECTION
  2
OBJECTS
  0
DICTIONARY
  5
C
100
AcDbDictionary
280
0
281
1
  3
ACAD_GROUP
350
D
  3
ACAD_MLINESTYLE
350
17
  3
ACAD_LAYOUT
350
1A
  3
ACAD_PLOTSETTINGS
350
19
  3
ACAD_PLOTSTYLENAME
350
E
  0
DICTIONARY
  5
D
102
{ACAD_REACTORS
330
C
102
}
100
AcDbDictionary
280
0
281
1
  0
ACDBDICTIONARYWDFLT
  5
E
102
{ACAD_REACTORS
330
C
102
}
100
AcDbDictionary
281
1
  3
Normal
350
F
100
AcDbDictionaryWithDefault
340
F
  0
DICTIONARY
  5
17
102
{ACAD_REACTORS
330
C
102
}
100
AcDbDictionary
280
0
281
1
  3
Standard
350
18
  0
DICTIONARY
  5
19
102
{ACAD_REACTORS
330
C
102
}
100
AcDbDictionary
281
1
  0
DICTIONARY
  5
1A
102
{ACAD_REACTORS
330
C
102
}
100
AcDbDictionary
281
1
  3
Model
350
43A
  3
Layout1
350
43B
  0
ACDBPLACEHOLDER
  5
F
102
{ACAD_REACTORS
330
E
102
}
  0
MLINESTYLE
  5
18
102
{ACAD_REACTORS
330
17
102
}
100
AcDbMlineStyle
  2
STANDARD
 70
0
  3

 62
256
 51
90.0
 52
90.0
 71
2
 49
0.5
 62
256
  6
BYLAYER
 49
-0.5
 62
256
  6
BYLAYER
  0
LAYOUT
  5
43A
102
{ACAD_REACTORS
330
1A
102
}
100
AcDbPlotSettings
  1

  2
none_device
  4

  6

 40
0.0
 41
0.0
 42
0.0
 43
0.0
 44
210.0
 45
297.0
 46
0.0
 47
0.0
 48
0.0
 49
0.0
140
0.0
141
0.0
142
1.0
143
1.0
 70
1024
 72
1
 73
0
 74
0
  7

 75
0
147
1.0
148
0.0
149
0.0
100
AcDbLayout
  1
Model
 70
0
 71
0
 10
0.0
 20
0.0
 11
210.0
 21
297.0
 12
0.0
 22
0.0
 32
0.0
 14
0.0
 24
0.0
 34
0.0
 15
0.0
 25
0.0
 35
0.0
146
0.0
 13
0.0
 23
0.0
 33
0.0
 16
1.0
 26
0.0
 36
0.0
 17
0.0
 27
1.0
 37
0.0
 76
0
330
210
345
0
346
0
  0
LAYOUT
  5
43B
102
{ACAD_REACTORS
330
1A
102
}
100
AcDbPlotSettings
  1

  2
none_device
  4

  6

 40
0.0
 41
0.0
 42
0.0
 43
0.0
 44
210.0
 45
297.0
 46
0.0
 47
0.0
 48
0.0
 49
0.0
140
0.0
141
0.0
142
1.0
143
1.0
 70
0
 72
1
 73
0
 74
0
  7

 75
0
147
1.0
148
0.0
149
0.0
100
AcDbLayout
  1
Layout1
 70
0
 71
1
 10
0.0
 20
0.0
 11
210.0
 21
297.0
 12
0.0
 22
0.0
 32
0.0
 14
0.0
 24
0.0
 34
0.0
 15
0.0
 25
0.0
 35
0.0
146
0.0
 13
0.0
 23
0.0
 33
0.0
 16
1.0
 26
0.0
 36
0.0
 17
0.0
 27
1.0
 37
0.0
 76
0
330
211
345
0
346
0
  0
ENDSEC
  0
EOF
