999
DXF file: C:\Users\sesa63760\Dev\_Creo\CAD\MCADID0003664_3D-CAD\drw0001_1.dxf
999
Pro/ENGINEER 2019471 by Parametric Technology Corporation
  0
SECTION
  2
HEADER
  9
$ACADVER
  1
AC1024
  9
$DWGCODEPAGE
  3
ANSI_1252
  9
$EXTMAX
 10
111.0296673889
 20
157.02767245
 30
0.0
  9
$EXTMIN
 10
0.0
 20
0.0
 30
0.0
  9
$LIMMIN
 10
0.0
 20
0.0
  9
$LIMMAX
 10
111.0296673889
 20
157.02767245
  9
$VIEWCTR
 10
55.5148336945
 20
78.513836225
  9
$VIEWSIZE
 40
157.02767245
  9
$CLAYER
  8
0
  9
$LTSCALE
 40
10.2358779079
  9
$CELTYPE
  6
BYLAYER
  9
$DIMSCALE
 40
1.0
  9
$DIMASZ
 40
1.3217817546
  9
$DIMEXO
 40
1.0
  9
$DIMDLI
 40
7.0720611
  9
$DIMEXE
 40
1.0
  9
$DIMCEN
 40
1.6749618395
  9
$DIMLFAC
 40
1.0
  9
$DIMBLK
  1
_FILLED
  9
$DIMALT
 70
0
  9
$DIMALTF
 40
0.0393700787
  9
$DIMTXT
 40
1.8504944565
  9
$DIMTOL
 70
1
  9
$DIMLIM
 70
0
  9
$DIMTFAC
 40
1.0
  9
$DIMTP
 40
0.01
  9
$DIMTM
 40
0.01
  9
$DIMGAP
 40
0.625
  9
$DIMDSEP
 70
46
  9
$AUNITS
 70
0
  9
$PDMODE
 70
3
  9
$PDSIZE
 40
0.3125
  9
$HANDSEED
  5
402
  9
$TILEMODE
 70
1
  9
$MEASUREMENT
 70
1
  9
$INSUNITS
 70
4
  0
ENDSEC
  0
SECTION
  2
CLASSES
  0
CLASS
  1
ACDBDICTIONARYWDFLT
  2
AcDbDictionaryWithDefault
  3
AutoCAD 2000
 90
0
 91
1
280
0
281
0
  0
CLASS
  1
ACDBPLACEHOLDER
  2
AcDbPlaceHolder
  3
AutoCAD 2000
 90
0
 91
1
280
0
281
0
  0
CLASS
  1
LAYOUT
  2
AcDbLayout
  3
AutoCAD 2000
 90
0
 91
0
280
0
281
0
  0
ENDSEC
  0
SECTION
  2
TABLES
  0
TABLE
  2
VPORT
  5
8
100
AcDbSymbolTable
 70
2
  0
VPORT
  5
1F4
100
AcDbSymbolTableRecord
100
AcDbViewportTableRecord
  2
*ACTIVE
 70
0
 10
0.0
 20
0.0
 11
1.0
 21
1.0
 12
55.5148336945
 22
78.513836225
 13
0.0
 23
0.0
 14
1.0
 24
1.0
 15
0.0
 25
0.0
 16
0.0
 26
0.0
 36
1.0
 17
0.0
 27
0.0
 37
0.0
 40
157.02767245
 41
0.7070707071
 42
50.0
 43
0.0
 44
0.0
 50
0.0
 51
0.0
 71
0
 72
100
 73
1
 74
1
 75
0
 76
0
 77
0
 78
0
  0
ENDTAB
  0
TABLE
  2
LTYPE
  5
5
100
AcDbSymbolTable
 70
6
  0
LTYPE
  5
14
100
AcDbSymbolTableRecord
100
AcDbLinetypeTableRecord
  2
BYBLOCK
 70
0
  3

 72
65
 73
0
 40
0.0
  0
LTYPE
  5
15
100
AcDbSymbolTableRecord
100
AcDbLinetypeTableRecord
  2
BYLAYER
 70
0
  3

 72
65
 73
0
 40
0.0
  0
LTYPE
  5
16
100
AcDbSymbolTableRecord
100
AcDbLinetypeTableRecord
  2
CONTINUOUS
 70
64
  3
Solid line
 72
65
 73
0
 40
0.0
  0
LTYPE
  5
1F5
100
AcDbSymbolTableRecord
100
AcDbLinetypeTableRecord
  2
CENTER
 70
64
  3
____ _ ____ _ ____ _ ____ _ ____ _ ____ _ ____
 72
65
 73
4
 40
0.6
 49
0.375
 74
0
 49
-0.075
 74
0
 49
0.075
 74
0
 49
-0.075
 74
0
  0
LTYPE
  5
1F6
100
AcDbSymbolTableRecord
100
AcDbLinetypeTableRecord
  2
HIDDEN
 70
64
  3
- - - - - - - - - - - - - - - - - - - -
 72
65
 73
2
 40
0.2
 49
0.1
 74
0
 49
-0.1
 74
0
  0
LTYPE
  5
1F7
100
AcDbSymbolTableRecord
100
AcDbLinetypeTableRecord
  2
PHANTOM
 70
64
  3
_____ _ _ _____ _ _ _____ _ _ _____
 72
65
 73
6
 40
0.8
 49
0.45
 74
0
 49
-0.05
 74
0
 49
0.1
 74
0
 49
-0.05
 74
0
 49
0.1
 74
0
 49
-0.05
 74
0
  0
LTYPE
  5
1F8
100
AcDbSymbolTableRecord
100
AcDbLinetypeTableRecord
  2
DOT
 70
64
  3
. . . . . . . . . . . . . . . . . . . .
 72
65
 73
2
 40
0.2
 49
0.1
 74
0
 49
-0.1
 74
0
  0
LTYPE
  5
1F9
100
AcDbSymbolTableRecord
100
AcDbLinetypeTableRecord
  2
DASHED
 70
64
  3
- - - - - - - - - - - - - - - - - - - -
 72
65
 73
2
 40
0.2
 49
0.1
 74
0
 49
-0.1
 74
0
  0
ENDTAB
  0
TABLE
  2
LAYER
  5
2
100
AcDbSymbolTable
 70
36
  0
LAYER
  5
10
100
AcDbSymbolTableRecord
100
AcDbLayerTableRecord
  2
0
 70
0
 62
7
  6
CONTINUOUS
370
-3
390
F
  0
LAYER
  5
1FA
100
AcDbSymbolTableRecord
100
AcDbLayerTableRecord
  2
DEFAULT_1
 70
0
 62
7
  6
CENTER
370
-3
390
F
  0
LAYER
  5
1FB
100
AcDbSymbolTableRecord
100
AcDbLayerTableRecord
  2
DEFAULT_2
 70
0
 62
7
  6
HIDDEN
370
-3
390
F
  0
LAYER
  5
1FC
100
AcDbSymbolTableRecord
100
AcDbLayerTableRecord
  2
DEFAULT_3
 70
0
 62
7
  6
PHANTOM
370
-3
390
F
  0
LAYER
  5
1FD
100
AcDbSymbolTableRecord
100
AcDbLayerTableRecord
  2
00_COMPONENTS
 70
0
 62
7
  6
CONTINUOUS
370
-3
390
F
  0
LAYER
  5
1FE
100
AcDbSymbolTableRecord
100
AcDbLayerTableRecord
  2
01_1_DEFAULT_DATUMS
 70
0
 62
7
  6
CONTINUOUS
370
-3
390
F
  0
LAYER
  5
1FF
100
AcDbSymbolTableRecord
100
AcDbLayerTableRecord
  2
01_PLANES
 70
0
 62
7
  6
CONTINUOUS
370
-3
390
F
  0
LAYER
  5
200
100
AcDbSymbolTableRecord
100
AcDbLayerTableRecord
  2
02_COORD_SYS
 70
0
 62
7
  6
CONTINUOUS
370
-3
390
F
  0
LAYER
  5
201
100
AcDbSymbolTableRecord
100
AcDbLayerTableRecord
  2
03_AXES
 70
0
 62
7
  6
CONTINUOUS
370
-3
390
F
  0
LAYER
  5
202
100
AcDbSymbolTableRecord
100
AcDbLayerTableRecord
  2
04_POINTS
 70
0
 62
7
  6
CONTINUOUS
370
-3
390
F
  0
LAYER
  5
203
100
AcDbSymbolTableRecord
100
AcDbLayerTableRecord
  2
05_CURVES
 70
0
 62
7
  6
CONTINUOUS
370
-3
390
F
  0
LAYER
  5
204
100
AcDbSymbolTableRecord
100
AcDbLayerTableRecord
  2
06_SURFS
 70
0
 62
7
  6
CONTINUOUS
370
-3
390
F
  0
LAYER
  5
205
100
AcDbSymbolTableRecord
100
AcDbLayerTableRecord
  2
07_COSMETICS
 70
0
 62
7
  6
CONTINUOUS
370
-3
390
F
  0
LAYER
  5
206
100
AcDbSymbolTableRecord
100
AcDbLayerTableRecord
  2
10_NOTES
 70
0
 62
7
  6
CONTINUOUS
370
-3
390
F
  0
LAYER
  5
207
100
AcDbSymbolTableRecord
100
AcDbLayerTableRecord
  2
11_NOTES_PUB
 70
0
 62
7
  6
CONTINUOUS
370
-3
390
F
  0
LAYER
  5
208
100
AcDbSymbolTableRecord
100
AcDbLayerTableRecord
  2
13_REF_GTOL
 70
0
 62
7
  6
CONTINUOUS
370
-3
390
F
  0
LAYER
  5
209
100
AcDbSymbolTableRecord
100
AcDbLayerTableRecord
  2
16_MISC
 70
0
 62
7
  6
CONTINUOUS
370
-3
390
F
  0
LAYER
  5
20A
100
AcDbSymbolTableRecord
100
AcDbLayerTableRecord
  2
17_NO_PRINT
 70
0
 62
7
  6
CONTINUOUS
370
-3
390
F
  0
LAYER
  5
20B
100
AcDbSymbolTableRecord
100
AcDbLayerTableRecord
  2
18_DATUM_CAMS_JOINTS
 70
0
 62
7
  6
CONTINUOUS
370
-3
390
F
  0
LAYER
  5
20C
100
AcDbSymbolTableRecord
100
AcDbLayerTableRecord
  2
19_DATUM_FUNCTIONAL
 70
0
 62
7
  6
CONTINUOUS
370
-3
390
F
  0
LAYER
  5
20D
100
AcDbSymbolTableRecord
100
AcDbLayerTableRecord
  2
20_DATUM_KINEMATIC_SCHEME
 70
0
 62
7
  6
CONTINUOUS
370
-3
390
F
  0
ENDTAB
  0
TABLE
  2
STYLE
  5
3
100
AcDbSymbolTable
 70
1
  0
STYLE
  5
11
100
AcDbSymbolTableRecord
100
AcDbTextStyleTableRecord
  2
STANDARD
 70
0
 40
0.0
 41
1.0
 50
0.0
 71
0
 42
0.2
  3
ARIAL.TTF
  4

  0
STYLE
  5
20E
100
AcDbSymbolTableRecord
100
AcDbTextStyleTableRecord
  2
TEXTSTYLE_1
 70
0
 40
0.0
 41
0.8
 50
0.0
 71
0
 42
0.2
  3
gdt
  4

  0
ENDTAB
  0
TABLE
  2
VIEW
  5
6
100
AcDbSymbolTable
 70
0
  0
ENDTAB
  0
TABLE
  2
UCS
  5
7
100
AcDbSymbolTable
 70
0
  0
ENDTAB
  0
TABLE
  2
APPID
  5
9
100
AcDbSymbolTable
 70
1
  0
APPID
  5
20F
100
AcDbSymbolTableRecord
100
AcDbRegAppTableRecord
  2
ACAD
 70
0
  0
ENDTAB
  0
TABLE
  2
BLOCK_RECORD
  5
1
100
AcDbSymbolTable
 70
0
  0
BLOCK_RECORD
  5
210
100
AcDbSymbolTableRecord
100
AcDbBlockTableRecord
  2
*Model_Space
  0
BLOCK_RECORD
  5
211
100
AcDbSymbolTableRecord
100
AcDbBlockTableRecord
  2
*Paper_Space
  0
BLOCK_RECORD
  5
212
100
AcDbSymbolTableRecord
100
AcDbBlockTableRecord
  2
_FILLED
  0
ENDTAB
  0
TABLE
  2
DIMSTYLE
  5
A
100
AcDbSymbolTable
 70
1
100
AcDbDimStyleTable
 71
0
  0
DIMSTYLE
105
213
100
AcDbSymbolTableRecord
100
AcDbDimStyleTableRecord
  2
STANDARD
 70
0
  3

  4

 40
1.0
 41
1.3217817546
 42
1.0
 43
0.38
 44
1.0
 45
0.0
 46
0.0
 47
0.01
 48
0.01
140
1.8504944565
141
0.09
142
0.0
143
25.4
144
1.0
145
0.0
146
1.0
147
0.625
 71
1
 72
0
 73
0
 74
0
 75
0
 76
0
 77
1
 78
8
 79
2
170
0
171
1
172
0
173
0
174
0
175
0
176
0
177
0
178
0
270
2
179
2
271
2
272
2
273
2
274
2
275
0
280
0
281
0
282
0
283
1
284
8
285
0
286
0
287
3
288
0
340
11
278
46
341
212
342
212
343
212
344
212
  0
ENDTAB
  0
ENDSEC
  0
SECTION
  2
BLOCKS
  0
BLOCK
  5
20
100
AcDbEntity
  8
0
100
AcDbBlockBegin
  2
*Model_Space
 70
0
 10
0.0
 20
0.0
 30
0.0
  3
*Model_Space
  1

  0
ENDBLK
  5
21
100
AcDbEntity
  8
0
100
AcDbBlockEnd
  0
BLOCK
  5
1C
100
AcDbEntity
  8
0
100
AcDbBlockBegin
  2
*Paper_Space
 70
0
 10
0.0
 20
0.0
 30
0.0
  3
*Paper_Space
  1

  0
ENDBLK
  5
1D
100
AcDbEntity
  8
0
100
AcDbBlockEnd
  0
BLOCK
  5
214
100
AcDbEntity
  8
0
100
AcDbBlockBegin
  2
_FILLED
 70
64
 10
0.0
 20
0.0
  3
_FILLED
  1

  0
SOLID
  5
215
100
AcDbEntity
  8
0
  6
BYBLOCK
 62
0
100
AcDbTrace
 10
0.0
 20
0.0
 11
-1.0
 21
0.25
 12
-1.0
 22
-0.25
 13
-1.0
 23
-0.25
  0
ENDBLK
  5
216
100
AcDbEntity
  8
0
  6
BYBLOCK
 62
0
100
AcDbBlockEnd
  0
ENDSEC
  0
SECTION
  2
ENTITIES
  0
LINE
  5
217
100
AcDbEntity
  8
0
100
AcDbLine
 62
7
  6
BYLAYER
 10
13.0751731499
 20
56.2032610143
 11
12.8807188438
 21
61.8316985136
  0
LINE
  5
218
100
AcDbEntity
  8
0
100
AcDbLine
 62
7
  6
BYLAYER
 10
12.922164111
 20
61.8328055363
 11
13.1174696253
 21
67.6613018476
  0
LINE
  5
219
100
AcDbEntity
  8
0
100
AcDbLine
 62
7
  6
BYLAYER
 10
13.1458740278
 20
67.5939739979
 11
12.9514197216
 21
61.7908802662
  0
LINE
  5
21A
100
AcDbEntity
  8
0
100
AcDbLine
 62
7
  6
BYLAYER
 10
30.7313177574
 20
46.0097117813
 11
30.8551048984
 21
45.940783888
  0
LINE
  5
21B
100
AcDbEntity
  8
0
100
AcDbLine
 62
7
  6
BYLAYER
 10
13.0751731499
 20
56.2032610143
 11
30.7313177502
 21
46.0097117844
  0
LINE
  5
21C
100
AcDbEntity
  8
0
100
AcDbLine
 62
7
  6
BYLAYER
 10
30.5584619725
 20
51.6256796506
 11
21.5957474939
 21
56.8001882045
  0
LINE
  5
21D
100
AcDbEntity
  8
0
100
AcDbLine
 62
7
  6
BYLAYER
 10
14.190764799
 20
61.0753570252
 11
12.9461706464
 21
61.7939008619
  0
LINE
  5
21E
100
AcDbEntity
  8
0
100
AcDbLine
 62
7
  6
BYLAYER
 10
27.1418528613
 20
63.5613811099
 11
27.1312636829
 21
63.6995833907
  0
LINE
  5
21F
100
AcDbEntity
  8
0
100
AcDbLine
 62
7
  6
BYLAYER
 10
27.1312636829
 20
63.6995833907
 11
27.1261832939
 21
63.8322593432
  0
LINE
  5
220
100
AcDbEntity
  8
0
100
AcDbLine
 62
7
  6
BYLAYER
 10
13.1486932354
 20
67.7585204331
 11
13.3693951538
 21
68.1299434017
  0
LINE
  5
221
100
AcDbEntity
  8
0
100
AcDbLine
 62
7
  6
BYLAYER
 10
30.7313177216
 20
57.4412430343
 11
13.1458740278
 21
67.5939739979
  0
LINE
  5
222
100
AcDbEntity
  8
0
100
AcDbLine
 62
7
  6
BYLAYER
 10
31.0972084422
 20
58.0604913717
 11
13.5130087055
 21
68.2125041525
  0
LINE
  5
223
100
AcDbEntity
  8
0
100
AcDbLine
 62
7
  6
BYLAYER
 10
30.7313177502
 20
46.0097117844
 11
30.5584619725
 21
51.6256796506
  0
LINE
  5
224
100
AcDbEntity
  8
0
100
AcDbLine
 62
7
  6
BYLAYER
 10
28.5667921399
 20
66.12411906
 11
28.5649248399
 21
66.248724523
  0
LINE
  5
225
100
AcDbEntity
  8
0
100
AcDbLine
 62
7
  6
BYLAYER
 10
29.9791325143
 20
67.0652128308
 11
29.9805785
 21
66.9687217932
  0
LINE
  5
226
100
AcDbEntity
  8
0
100
AcDbLine
 62
7
  6
BYLAYER
 10
37.4566725681
 20
57.4412591846
 11
37.0907788215
 21
58.0605057752
  0
LINE
  5
227
100
AcDbEntity
  8
0
100
AcDbLine
 62
7
  6
BYLAYER
 10
30.7313177216
 20
57.4412430343
 11
30.5584619725
 21
51.6256796506
  0
LINE
  5
228
100
AcDbEntity
  8
0
100
AcDbLine
 62
7
  6
BYLAYER
 10
38.6646089543
 20
91.2088096749
 11
38.304886706
 21
90.5929361454
  0
LINE
  5
229
100
AcDbEntity
  8
0
100
AcDbLine
 62
7
  6
BYLAYER
 10
66.3023224823
 20
111.4538285472
 11
56.7564206799
 21
105.9425324699
  0
LINE
  5
22A
100
AcDbEntity
  8
0
100
AcDbLine
 62
7
  6
BYLAYER
 10
57.0977604165
 20
105.7313597284
 11
47.5503129991
 21
100.2191642406
  0
LINE
  5
22B
100
AcDbEntity
  8
0
100
AcDbLine
 62
7
  6
BYLAYER
 10
47.6723297217
 20
100.0830193829
 11
38.3048572715
 21
94.6747389252
  0
LINE
  5
22C
100
AcDbEntity
  8
0
100
AcDbLine
 62
7
  6
BYLAYER
 10
48.0320549675
 20
100.2835256438
 11
38.6646744655
 21
94.8753034305
  0
LINE
  5
22D
100
AcDbEntity
  8
0
100
AcDbLine
 62
7
  6
BYLAYER
 10
64.3224446916
 20
108.5144781179
 11
65.736652366
 21
109.3309664256
  0
LINE
  5
22E
100
AcDbEntity
  8
0
100
AcDbLine
 62
7
  6
BYLAYER
 10
41.6311994554
 20
95.4059218492
 11
43.0454071298
 21
96.2224101569
  0
LINE
  5
22F
100
AcDbEntity
  8
0
100
AcDbLine
 62
7
  6
BYLAYER
 10
47.6723297217
 20
100.0830193829
 11
48.0320549675
 21
100.2835256438
  0
LINE
  5
230
100
AcDbEntity
  8
0
100
AcDbLine
 62
7
  6
BYLAYER
 10
38.6645825112
 20
94.8752451826
 11
38.3048572715
 21
94.6747389252
  0
LINE
  5
231
100
AcDbEntity
  8
0
100
AcDbLine
 62
7
  6
BYLAYER
 10
37.4566725688
 20
57.4412591841
 11
37.6295297843
 21
51.6256966474
  0
LINE
  5
232
100
AcDbEntity
  8
0
100
AcDbLine
 62
7
  6
BYLAYER
 10
36.8413496867
 20
92.6871900299
 11
36.5037321409
 21
81.5199449237
  0
LINE
  5
233
100
AcDbEntity
  8
0
100
AcDbLine
 62
7
  6
BYLAYER
 10
38.3048867664
 20
90.5929401771
 11
38.057708785
 21
82.417128402
  0
LINE
  5
234
100
AcDbEntity
  8
0
100
AcDbLine
 62
7
  6
BYLAYER
 10
37.4566725954
 20
46.0097279661
 11
37.6295297843
 21
51.6256966474
  0
LINE
  5
235
100
AcDbEntity
  8
0
100
AcDbLine
 62
7
  6
BYLAYER
 10
41.624411517
 20
94.5116881198
 11
43.0386191914
 21
95.3281764275
  0
LINE
  5
236
100
AcDbEntity
  8
0
100
AcDbLine
 62
7
  6
BYLAYER
 10
64.3224446916
 20
107.616325459
 11
65.736652366
 21
108.4328137668
  0
LINE
  5
237
100
AcDbEntity
  8
0
100
AcDbLine
 62
7
  6
BYLAYER
 10
42.0910024004
 20
94.2423078418
 11
43.5052100748
 21
95.0587961495
  0
LINE
  5
238
100
AcDbEntity
  8
0
100
AcDbLine
 62
7
  6
BYLAYER
 10
64.8174214992
 20
107.3305569309
 11
66.2316291736
 21
108.1470452386
  0
LINE
  5
239
100
AcDbEntity
  8
0
100
AcDbLine
 62
7
  6
BYLAYER
 10
42.1162249189
 20
90.8904039258
 11
42.0910024004
 21
94.2423078418
  0
LINE
  5
23A
100
AcDbEntity
  8
0
100
AcDbLine
 62
7
  6
BYLAYER
 10
41.624411517
 20
94.5116881198
 11
41.6311994554
 21
95.4059218492
  0
LINE
  5
23B
100
AcDbEntity
  8
0
100
AcDbLine
 62
7
  6
BYLAYER
 10
38.9403909683
 20
64.6487476509
 11
38.9353105794
 21
64.5160716984
  0
LINE
  5
23C
100
AcDbEntity
  8
0
100
AcDbLine
 62
7
  6
BYLAYER
 10
43.5323725985
 20
91.4490785312
 11
42.3800537589
 21
90.7837909102
  0
LINE
  5
23D
100
AcDbEntity
  8
0
100
AcDbLine
 62
7
  6
BYLAYER
 10
65.2238203195
 20
103.8092788798
 11
66.2316291736
 21
104.3911341198
  0
LINE
  5
23E
100
AcDbEntity
  8
0
100
AcDbLine
 62
7
  6
BYLAYER
 10
42.711367842
 20
90.6499071638
 11
43.6737891586
 21
91.2055580532
  0
LINE
  5
23F
100
AcDbEntity
  8
0
100
AcDbLine
 62
7
  6
BYLAYER
 10
67.9264532106
 20
103.3284146235
 11
67.9994034865
 21
103.3705322335
  0
LINE
  5
240
100
AcDbEntity
  8
0
100
AcDbLine
 62
7
  6
BYLAYER
 10
45.3078894693
 20
90.2033926238
 11
45.3587592456
 21
90.2327621275
  0
LINE
  5
241
100
AcDbEntity
  8
0
100
AcDbLine
 62
7
  6
BYLAYER
 10
50.5271943396
 20
91.9028960178
 11
49.1129866652
 21
91.0864077101
  0
LINE
  5
242
100
AcDbEntity
  8
0
100
AcDbLine
 62
7
  6
BYLAYER
 10
73.2320154526
 20
105.0036144277
 11
71.8178077781
 21
104.18712612
  0
LINE
  5
243
100
AcDbEntity
  8
0
100
AcDbLine
 62
7
  6
BYLAYER
 10
43.5052100748
 20
95.0587961496
 11
43.5323725985
 21
91.4490785312
  0
LINE
  5
244
100
AcDbEntity
  8
0
100
AcDbLine
 62
7
  6
BYLAYER
 10
45.1067447166
 20
86.4868669016
 11
45.1111577118
 21
87.4869772135
  0
LINE
  5
245
100
AcDbEntity
  8
0
100
AcDbLine
 62
7
  6
BYLAYER
 10
43.0454071298
 20
96.2224101569
 11
43.0386191914
 21
95.3281764275
  0
LINE
  5
246
100
AcDbEntity
  8
0
100
AcDbLine
 62
7
  6
BYLAYER
 10
45.3587592456
 20
90.2327621275
 11
45.3585363101
 21
90.20339291
  0
LINE
  5
247
100
AcDbEntity
  8
0
100
AcDbLine
 62
7
  6
BYLAYER
 10
30.7313177227
 20
57.4412430348
 11
31.0972084422
 21
58.0604913717
  0
LINE
  5
248
100
AcDbEntity
  8
0
100
AcDbLine
 62
7
  6
BYLAYER
 10
45.1111577118
 20
87.4869772135
 11
57.6538886308
 21
94.72848306
  0
LINE
  5
249
100
AcDbEntity
  8
0
100
AcDbLine
 62
7
  6
BYLAYER
 10
57.8049466847
 20
94.7088151648
 11
66.9972965685
 21
100.0159891651
  0
LINE
  5
24A
100
AcDbEntity
  8
0
100
AcDbLine
 62
7
  6
BYLAYER
 10
80.4444875456
 20
107.3714379987
 11
67.3630665571
 21
99.8189211521
  0
LINE
  5
24B
100
AcDbEntity
  8
0
100
AcDbLine
 62
7
  6
BYLAYER
 10
45.1080650956
 20
86.6651727456
 11
58.0105288024
 21
94.1143457554
  0
LINE
  5
24C
100
AcDbEntity
  8
0
100
AcDbLine
 62
7
  6
BYLAYER
 10
58.1569588763
 20
94.0955529228
 11
67.34930876
 21
99.4027269231
  0
LINE
  5
24D
100
AcDbEntity
  8
0
100
AcDbLine
 62
7
  6
BYLAYER
 10
13.441562931
 20
68.2050748013
 11
80.2889303115
 21
106.7991899773
  0
LINE
  5
24E
100
AcDbEntity
  8
0
100
AcDbLine
 62
7
  6
BYLAYER
 10
13.5130087055
 20
68.2125041525
 11
80.3174840893
 21
106.7818557703
  0
LINE
  5
24F
100
AcDbEntity
  8
0
100
AcDbLine
 62
7
  6
BYLAYER
 10
47.5495323481
 20
100.0121227094
 11
47.550312999
 21
100.2191642406
  0
LINE
  5
250
100
AcDbEntity
  8
0
100
AcDbLine
 62
7
  6
BYLAYER
 10
85.6045260667
 20
104.6639125611
 11
89.8123964961
 21
107.0933131846
  0
LINE
  5
251
100
AcDbEntity
  8
0
100
AcDbLine
 62
7
  6
BYLAYER
 10
12.9122822404
 20
61.8499215404
 11
12.8807188438
 21
61.8316985136
  0
LINE
  5
252
100
AcDbEntity
  8
0
100
AcDbLine
 62
7
  6
BYLAYER
 10
15.6486974883
 20
63.1204383732
 11
15.2107525259
 21
62.8675922405
  0
LINE
  5
253
100
AcDbEntity
  8
0
100
AcDbLine
 62
7
  6
BYLAYER
 10
62.7385503209
 20
94.8965633703
 11
62.7447706486
 21
94.90492484
  0
LINE
  5
254
100
AcDbEntity
  8
0
100
AcDbLine
 62
7
  6
BYLAYER
 10
55.539799601
 20
96.9620703152
 11
55.5397935684
 21
97.7986115707
  0
LINE
  5
255
100
AcDbEntity
  8
0
100
AcDbLine
 62
7
  6
BYLAYER
 10
55.5397811997
 20
99.5137890457
 11
55.5397749042
 21
100.386791672
  0
LINE
  5
256
100
AcDbEntity
  8
0
100
AcDbLine
 62
7
  6
BYLAYER
 10
56.2609548258
 20
98.2368200005
 11
56.2609548258
 21
98.212324928
  0
LINE
  5
257
100
AcDbEntity
  8
0
100
AcDbLine
 62
7
  6
BYLAYER
 10
56.2997751672
 20
100.350332128
 11
56.2997811997
 21
99.4892958
  0
LINE
  5
258
100
AcDbEntity
  8
0
100
AcDbLine
 62
7
  6
BYLAYER
 10
56.2997935684
 20
97.7986133975
 11
56.299799601
 21
96.9375770695
  0
LINE
  5
259
100
AcDbEntity
  8
0
100
AcDbLine
 62
7
  6
BYLAYER
 10
56.7564206799
 20
105.9425324699
 11
56.7564206799
 21
105.534288316
  0
LINE
  5
25A
100
AcDbEntity
  8
0
100
AcDbLine
 62
7
  6
BYLAYER
 10
62.7413863902
 20
94.8958620773
 11
62.7447706486
 21
94.90492484
  0
LINE
  5
25B
100
AcDbEntity
  8
0
100
AcDbLine
 62
7
  6
BYLAYER
 10
28.5649248399
 20
66.248724523
 11
29.9791325143
 21
67.0652128308
  0
LINE
  5
25C
100
AcDbEntity
  8
0
100
AcDbLine
 62
7
  6
BYLAYER
 10
82.3116054405
 20
97.2713606909
 11
83.7258131149
 21
98.0878489987
  0
LINE
  5
25D
100
AcDbEntity
  8
0
100
AcDbLine
 62
7
  6
BYLAYER
 10
28.6492127232
 20
66.2000619918
 11
30.0634203976
 21
67.0165502996
  0
LINE
  5
25E
100
AcDbEntity
  8
0
100
AcDbLine
 62
7
  6
BYLAYER
 10
82.3891043514
 20
97.2266176861
 11
83.8033120258
 21
98.0431059938
  0
LINE
  5
25F
100
AcDbEntity
  8
0
100
AcDbLine
 62
7
  6
BYLAYER
 10
58.0105288024
 20
94.1143457554
 11
58.0118588334
 21
93.937593536
  0
LINE
  5
260
100
AcDbEntity
  8
0
100
AcDbLine
 62
7
  6
BYLAYER
 10
59.3826271907
 20
101.2181121027
 11
59.3826271907
 21
101.2426071753
  0
LINE
  5
261
100
AcDbEntity
  8
0
100
AcDbLine
 62
7
  6
BYLAYER
 10
58.1569588763
 20
94.0955529228
 11
58.1566785461
 21
94.021204737
  0
LINE
  5
262
100
AcDbEntity
  8
0
100
AcDbLine
 62
7
  6
BYLAYER
 10
61.5914125857
 20
100.8038306869
 11
61.58923001
 21
100.7693297815
  0
LINE
  5
263
100
AcDbEntity
  8
0
100
AcDbLine
 62
7
  6
BYLAYER
 10
81.2097193294
 20
90.5591869603
 11
74.1386809573
 21
86.4767454216
  0
LINE
  5
264
100
AcDbEntity
  8
0
100
AcDbLine
 62
7
  6
BYLAYER
 10
81.202307781
 20
90.391607443
 11
74.2801053461
 21
86.3950958597
  0
LINE
  5
265
100
AcDbEntity
  8
0
100
AcDbLine
 62
7
  6
BYLAYER
 10
20.6486751039
 20
54.4601714117
 11
20.2107301415
 21
54.2073252791
  0
LINE
  5
266
100
AcDbEntity
  8
0
100
AcDbLine
 62
7
  6
BYLAYER
 10
75.7785307688
 20
86.1432752696
 11
75.8019816013
 21
86.1568145332
  0
LINE
  5
267
100
AcDbEntity
  8
0
100
AcDbLine
 62
7
  6
BYLAYER
 10
77.5919577724
 20
87.1902515887
 11
77.6154086049
 21
87.2037908523
  0
LINE
  5
268
100
AcDbEntity
  8
0
100
AcDbLine
 62
7
  6
BYLAYER
 10
79.6676018735
 20
88.3886181159
 11
79.691052706
 21
88.4021573795
  0
LINE
  5
269
100
AcDbEntity
  8
0
100
AcDbLine
 62
7
  6
BYLAYER
 10
81.4810288771
 20
89.435594435
 11
81.5044797095
 21
89.4491336986
  0
LINE
  5
26A
100
AcDbEntity
  8
0
100
AcDbLine
 62
7
  6
BYLAYER
 10
34.0877999268
 20
61.2525553725
 11
38.6329210265
 21
63.8766665991
  0
LINE
  5
26B
100
AcDbEntity
  8
0
100
AcDbLine
 62
7
  6
BYLAYER
 10
87.827691555
 20
92.2791110667
 11
92.3728126548
 21
94.9032222934
  0
LINE
  5
26C
100
AcDbEntity
  8
0
100
AcDbLine
 62
7
  6
BYLAYER
 10
38.304886706
 20
90.5929361454
 11
45.1080651827
 21
86.6651845558
  0
LINE
  5
26D
100
AcDbEntity
  8
0
100
AcDbLine
 62
7
  6
BYLAYER
 10
38.6647012029
 20
91.2087516375
 11
45.1111577118
 21
87.4869772135
  0
LINE
  5
26E
100
AcDbEntity
  8
0
100
AcDbLine
 62
7
  6
BYLAYER
 10
60.8315798618
 20
101.2426106581
 11
60.8315798618
 21
101.2181155856
  0
LINE
  5
26F
100
AcDbEntity
  8
0
100
AcDbLine
 62
7
  6
BYLAYER
 10
62.1099681568
 20
93.1804814844
 11
62.1099681568
 21
93.2049765569
  0
LINE
  5
270
100
AcDbEntity
  8
0
100
AcDbLine
 62
7
  6
BYLAYER
 10
62.9098380125
 20
93.1721506603
 11
62.9098380125
 21
93.1966457328
  0
LINE
  5
271
100
AcDbEntity
  8
0
100
AcDbLine
 62
7
  6
BYLAYER
 10
62.109894144
 20
93.196645837
 11
62.1099681568
 21
93.2049765569
  0
LINE
  5
272
100
AcDbEntity
  8
0
100
AcDbLine
 62
7
  6
BYLAYER
 10
91.2347520783
 20
93.7526591419
 11
89.8205444038
 21
92.9361708342
  0
LINE
  5
273
100
AcDbEntity
  8
0
100
AcDbLine
 62
7
  6
BYLAYER
 10
37.5016494224
 20
62.7221839213
 11
36.087441748
 21
61.9056956136
  0
LINE
  5
274
100
AcDbEntity
  8
0
100
AcDbLine
 62
7
  6
BYLAYER
 10
64.313432945
 20
93.1966491067
 11
64.313432945
 21
93.1721540342
  0
LINE
  5
275
100
AcDbEntity
  8
0
100
AcDbLine
 62
7
  6
BYLAYER
 10
64.3224446916
 20
107.616325459
 11
64.3224446916
 21
108.5144781179
  0
LINE
  5
276
100
AcDbEntity
  8
0
100
AcDbLine
 62
7
  6
BYLAYER
 10
64.8174214992
 20
103.9796347915
 11
64.8174214992
 21
107.3305569309
  0
LINE
  5
277
100
AcDbEntity
  8
0
100
AcDbLine
 62
7
  6
BYLAYER
 10
65.736652366
 20
109.3309664256
 11
65.736652366
 21
108.4328137668
  0
LINE
  5
278
100
AcDbEntity
  8
0
100
AcDbLine
 62
7
  6
BYLAYER
 10
66.2316291736
 20
108.1470452386
 11
66.2316291736
 21
104.3911341198
  0
LINE
  5
279
100
AcDbEntity
  8
0
100
AcDbLine
 62
7
  6
BYLAYER
 10
66.512711707
 20
93.1945936387
 11
66.512711707
 21
93.2190887112
  0
LINE
  5
27A
100
AcDbEntity
  8
0
100
AcDbLine
 62
7
  6
BYLAYER
 10
67.3117675995
 20
93.1721612413
 11
67.3117675995
 21
93.1966563138
  0
LINE
  5
27B
100
AcDbEntity
  8
0
100
AcDbLine
 62
7
  6
BYLAYER
 10
67.3630665571
 20
99.8189211521
 11
67.3630665571
 21
99.3364836055
  0
LINE
  5
27C
100
AcDbEntity
  8
0
100
AcDbLine
 62
7
  6
BYLAYER
 10
67.3490284299
 20
99.3283787374
 11
67.34930876
 21
99.4027269231
  0
LINE
  5
27D
100
AcDbEntity
  8
0
100
AcDbLine
 62
7
  6
BYLAYER
 10
66.5118934858
 20
93.1966564302
 11
66.512711707
 21
93.2190887112
  0
LINE
  5
27E
100
AcDbEntity
  8
0
100
AcDbLine
 62
7
  6
BYLAYER
 10
97.9017087782
 20
93.1695029822
 11
87.295151246
 21
87.0458406876
  0
LINE
  5
27F
100
AcDbEntity
  8
0
100
AcDbLine
 62
7
  6
BYLAYER
 10
80.2241128738
 20
82.9633991489
 11
37.0907788215
 21
58.0605057752
  0
LINE
  5
280
100
AcDbEntity
  8
0
100
AcDbLine
 62
7
  6
BYLAYER
 10
86.5470687351
 20
86.5107811274
 11
84.7570925639
 21
85.4773440719
  0
LINE
  5
281
100
AcDbEntity
  8
0
100
AcDbLine
 62
7
  6
BYLAYER
 10
82.6579976304
 20
84.2654382811
 11
80.8680214593
 21
83.2320012256
  0
LINE
  5
282
100
AcDbEntity
  8
0
100
AcDbLine
 62
7
  6
BYLAYER
 10
87.2380305221
 20
86.9069601269
 11
86.5728973548
 21
86.5229476059
  0
LINE
  5
283
100
AcDbEntity
  8
0
100
AcDbLine
 62
7
  6
BYLAYER
 10
84.7360195187
 20
85.4624320233
 11
82.6838262501
 21
84.2776047596
  0
LINE
  5
284
100
AcDbEntity
  8
0
100
AcDbLine
 62
7
  6
BYLAYER
 10
80.8469484141
 20
83.217089177
 11
80.2699696881
 21
82.8839723427
  0
LINE
  5
285
100
AcDbEntity
  8
0
100
AcDbLine
 62
7
  6
BYLAYER
 10
87.4999344156
 20
86.4228364638
 11
86.8443766905
 21
86.044352294
  0
LINE
  5
286
100
AcDbEntity
  8
0
100
AcDbLine
 62
7
  6
BYLAYER
 10
85.0170626306
 20
84.9893583271
 11
82.9553055858
 21
83.7990094477
  0
LINE
  5
287
100
AcDbEntity
  8
0
100
AcDbLine
 62
7
  6
BYLAYER
 10
81.1279915259
 20
82.7440154808
 11
80.5698740214
 21
82.4217881128
  0
LINE
  5
288
100
AcDbEntity
  8
0
100
AcDbLine
 62
7
  6
BYLAYER
 10
86.82597707
 20
86.0278967778
 11
85.045564675
 21
84.9999813381
  0
LINE
  5
289
100
AcDbEntity
  8
0
100
AcDbLine
 62
7
  6
BYLAYER
 10
82.9369059653
 20
83.7825539315
 11
81.1564935703
 21
82.7546384918
  0
LINE
  5
28A
100
AcDbEntity
  8
0
100
AcDbLine
 62
7
  6
BYLAYER
 10
98.2676025109
 20
92.5502563837
 11
87.6425274117
 21
86.4159030309
  0
LINE
  5
28B
100
AcDbEntity
  8
0
100
AcDbLine
 62
7
  6
BYLAYER
 10
80.6085242068
 20
82.3548436283
 11
37.4566725688
 21
57.4412591841
  0
LINE
  5
28C
100
AcDbEntity
  8
0
100
AcDbLine
 62
7
  6
BYLAYER
 10
86.8741725705
 20
84.0228985803
 11
85.1064129775
 21
83.0022881956
  0
LINE
  5
28D
100
AcDbEntity
  8
0
100
AcDbLine
 62
7
  6
BYLAYER
 10
82.9851014659
 20
81.777555734
 11
81.2173418728
 21
80.7569453494
  0
LINE
  5
28E
100
AcDbEntity
  8
0
100
AcDbLine
 62
7
  6
BYLAYER
 10
57.6538886308
 20
94.72848306
 11
58.0105288024
 21
94.1143457554
  0
LINE
  5
28F
100
AcDbEntity
  8
0
100
AcDbLine
 62
7
  6
BYLAYER
 10
58.1569588763
 20
94.0955529228
 11
57.8049466847
 21
94.7088151648
  0
LINE
  5
290
100
AcDbEntity
  8
0
100
AcDbLine
 62
7
  6
BYLAYER
 10
67.9994034865
 20
103.3705322335
 11
67.9994034865
 21
103.3284147988
  0
LINE
  5
291
100
AcDbEntity
  8
0
100
AcDbLine
 62
7
  6
BYLAYER
 10
68.715362532
 20
93.1966596876
 11
68.715362532
 21
93.1721646151
  0
LINE
  5
292
100
AcDbEntity
  8
0
100
AcDbLine
 62
7
  6
BYLAYER
 10
69.4419633708
 20
96.3192050254
 11
69.4419633708
 21
96.343700098
  0
LINE
  5
293
100
AcDbEntity
  8
0
100
AcDbLine
 62
7
  6
BYLAYER
 10
69.5086851932
 20
95.0485859893
 11
69.5086793495
 21
95.883435389
  0
LINE
  5
294
100
AcDbEntity
  8
0
100
AcDbLine
 62
7
  6
BYLAYER
 10
69.9086667759
 20
97.6025236702
 11
69.9086667759
 21
97.6270187427
  0
LINE
  5
295
100
AcDbEntity
  8
0
100
AcDbLine
 62
7
  6
BYLAYER
 10
70.3086793495
 20
95.883437312
 11
70.3086851932
 21
95.0485879123
  0
LINE
  5
296
100
AcDbEntity
  8
0
100
AcDbLine
 62
7
  6
BYLAYER
 10
87.4379543744
 20
82.1513576891
 11
80.9115303957
 21
78.3833475401
  0
LINE
  5
297
100
AcDbEntity
  8
0
100
AcDbLine
 62
7
  6
BYLAYER
 10
87.5794625223
 20
82.06965977
 11
80.9234708587
 21
78.2268441298
  0
LINE
  5
298
100
AcDbEntity
  8
0
100
AcDbLine
 62
7
  6
BYLAYER
 10
98.4404597846
 20
86.7346938803
 11
37.6295297843
 21
51.6256966474
  0
LINE
  5
299
100
AcDbEntity
  8
0
100
AcDbLine
 62
7
  6
BYLAYER
 10
68.9156700684
 20
92.7347865567
 11
67.3117709303
 21
92.7347827014
  0
LINE
  5
29A
100
AcDbEntity
  8
0
100
AcDbLine
 62
7
  6
BYLAYER
 10
64.3134362757
 20
92.7347754943
 11
62.9098413432
 21
92.7347721205
  0
LINE
  5
29B
100
AcDbEntity
  8
0
100
AcDbLine
 62
7
  6
BYLAYER
 10
68.715362532
 20
93.1721646151
 11
67.3117675995
 21
93.1721612413
  0
LINE
  5
29C
100
AcDbEntity
  8
0
100
AcDbLine
 62
7
  6
BYLAYER
 10
64.313432945
 20
93.1721540342
 11
62.9098380125
 21
93.1721506603
  0
LINE
  5
29D
100
AcDbEntity
  8
0
100
AcDbLine
 62
7
  6
BYLAYER
 10
62.9098380125
 20
93.1966457328
 11
64.313432945
 21
93.1966491067
  0
LINE
  5
29E
100
AcDbEntity
  8
0
100
AcDbLine
 62
7
  6
BYLAYER
 10
67.3117675995
 20
93.1966563138
 11
68.715362532
 21
93.1966596876
  0
LINE
  5
29F
100
AcDbEntity
  8
0
100
AcDbLine
 62
7
  6
BYLAYER
 10
87.295151246
 20
74.7983044307
 11
87.1063177074
 21
74.9073250586
  0
LINE
  5
2A0
100
AcDbEntity
  8
0
100
AcDbLine
 62
7
  6
BYLAYER
 10
81.2290669888
 20
80.7772543054
 11
81.2458439172
 21
80.7675683603
  0
LINE
  5
2A1
100
AcDbEntity
  8
0
100
AcDbLine
 62
7
  6
BYLAYER
 10
57.6538886308
 20
94.72848306
 11
48.0320549675
 21
100.2835256438
  0
LINE
  5
2A2
100
AcDbEntity
  8
0
100
AcDbLine
 62
7
  6
BYLAYER
 10
57.8049466847
 20
94.7088151648
 11
47.9054105327
 21
100.4241857281
  0
LINE
  5
2A3
100
AcDbEntity
  8
0
100
AcDbLine
 62
7
  6
BYLAYER
 10
80.9349108952
 20
75.2767244804
 11
87.5771717704
 21
79.1116126936
  0
LINE
  5
2A4
100
AcDbEntity
  8
0
100
AcDbLine
 62
7
  6
BYLAYER
 10
81.2173418728
 20
73.4084235952
 11
82.9616537095
 21
74.4155946567
  0
LINE
  5
2A5
100
AcDbEntity
  8
0
100
AcDbLine
 62
7
  6
BYLAYER
 10
85.1064129775
 20
75.6537664415
 11
86.8507248142
 21
76.660937503
  0
LINE
  5
2A6
100
AcDbEntity
  8
0
100
AcDbLine
 62
7
  6
BYLAYER
 10
85.0170626306
 20
73.7011002778
 11
82.9553055858
 21
72.5107513984
  0
LINE
  5
2A7
100
AcDbEntity
  8
0
100
AcDbLine
 62
7
  6
BYLAYER
 10
81.1279915259
 20
71.4557574315
 11
80.6267465122
 21
71.1663652154
  0
LINE
  5
2A8
100
AcDbEntity
  8
0
100
AcDbLine
 62
7
  6
BYLAYER
 10
86.8443766905
 20
74.7560942447
 11
87.4999344156
 21
75.1345784145
  0
LINE
  5
2A9
100
AcDbEntity
  8
0
100
AcDbLine
 62
7
  6
BYLAYER
 10
81.1564935703
 20
71.4663804425
 11
82.9369059653
 21
72.4942958822
  0
LINE
  5
2AA
100
AcDbEntity
  8
0
100
AcDbLine
 62
7
  6
BYLAYER
 10
85.045564675
 20
73.7117232888
 11
86.82597707
 21
74.7396387285
  0
LINE
  5
2AB
100
AcDbEntity
  8
0
100
AcDbLine
 62
7
  6
BYLAYER
 10
86.8507248142
 20
76.660937503
 11
86.8741725705
 21
76.6743768262
  0
LINE
  5
2AC
100
AcDbEntity
  8
0
100
AcDbLine
 62
7
  6
BYLAYER
 10
82.9616537095
 20
74.4155946567
 11
82.9851014658
 21
74.4290339799
  0
LINE
  5
2AD
100
AcDbEntity
  8
0
100
AcDbLine
 62
7
  6
BYLAYER
 10
85.0190338752
 20
73.697439003
 11
85.045564675
 21
73.7117232888
  0
LINE
  5
2AE
100
AcDbEntity
  8
0
100
AcDbLine
 62
7
  6
BYLAYER
 10
81.1299627705
 20
71.4520961567
 11
81.1564935703
 21
71.4663804425
  0
LINE
  5
2AF
100
AcDbEntity
  8
0
100
AcDbLine
 62
7
  6
BYLAYER
 10
86.823236936
 20
74.7447407477
 11
86.8443766905
 21
74.7560942447
  0
LINE
  5
2B0
100
AcDbEntity
  8
0
100
AcDbLine
 62
7
  6
BYLAYER
 10
82.9341658313
 20
72.4993979014
 11
82.9553055858
 21
72.5107513984
  0
LINE
  5
2B1
100
AcDbEntity
  8
0
100
AcDbLine
 62
7
  6
BYLAYER
 10
87.6425274117
 20
74.9843717999
 11
87.295151246
 21
74.7983044307
  0
LINE
  5
2B2
100
AcDbEntity
  8
0
100
AcDbLine
 62
7
  6
BYLAYER
 10
74.1386809573
 20
86.4767454216
 11
80.2241128738
 21
82.9633991489
  0
LINE
  5
2B3
100
AcDbEntity
  8
0
100
AcDbLine
 62
7
  6
BYLAYER
 10
82.9662992902
 20
81.7884109296
 11
82.9851014659
 21
81.777555734
  0
LINE
  5
2B4
100
AcDbEntity
  8
0
100
AcDbLine
 62
7
  6
BYLAYER
 10
80.8469484141
 20
83.217089177
 11
75.7785307688
 21
86.1432752696
  0
LINE
  5
2B5
100
AcDbEntity
  8
0
100
AcDbLine
 62
7
  6
BYLAYER
 10
80.8680214593
 20
83.2320012256
 11
75.8019816013
 21
86.1568145332
  0
LINE
  5
2B6
100
AcDbEntity
  8
0
100
AcDbLine
 62
7
  6
BYLAYER
 10
82.6579976304
 20
84.2654382811
 11
77.5919577724
 21
87.1902515887
  0
LINE
  5
2B7
100
AcDbEntity
  8
0
100
AcDbLine
 62
7
  6
BYLAYER
 10
82.6838262501
 20
84.2776047596
 11
77.6154086049
 21
87.2037908523
  0
LINE
  5
2B8
100
AcDbEntity
  8
0
100
AcDbLine
 62
7
  6
BYLAYER
 10
85.1181380935
 20
83.0225971517
 11
85.1349150219
 21
83.0129112066
  0
LINE
  5
2B9
100
AcDbEntity
  8
0
100
AcDbLine
 62
7
  6
BYLAYER
 10
87.4379543744
 20
82.1513576891
 11
87.5794625223
 21
82.06965977
  0
LINE
  5
2BA
100
AcDbEntity
  8
0
100
AcDbLine
 62
7
  6
BYLAYER
 10
75.8019816013
 20
86.1568145332
 11
75.8021825674
 21
86.1436359465
  0
LINE
  5
2BB
100
AcDbEntity
  8
0
100
AcDbLine
 62
7
  6
BYLAYER
 10
77.6152004917
 20
87.1899032832
 11
77.6154086049
 21
87.2037908523
  0
LINE
  5
2BC
100
AcDbEntity
  8
0
100
AcDbLine
 62
7
  6
BYLAYER
 10
37.4566725954
 20
46.0097279661
 11
80.6085242068
 21
70.9233123973
  0
LINE
  5
2BD
100
AcDbEntity
  8
0
100
AcDbLine
 62
7
  6
BYLAYER
 10
87.6425274117
 20
74.9843717999
 11
98.2676025395
 21
81.1187251669
  0
LINE
  5
2BE
100
AcDbEntity
  8
0
100
AcDbLine
 62
7
  6
BYLAYER
 10
37.3328574186
 20
45.940783888
 11
37.4566725531
 21
46.0097279431
  0
LINE
  5
2BF
100
AcDbEntity
  8
0
100
AcDbLine
 62
7
  6
BYLAYER
 10
60.831583026
 20
100.8038307264
 11
59.3826303548
 21
100.8038272435
  0
LINE
  5
2C0
100
AcDbEntity
  8
0
100
AcDbLine
 62
7
  6
BYLAYER
 10
86.8553703948
 20
84.0337537759
 11
86.8741725705
 21
84.0228985803
  0
LINE
  5
2C1
100
AcDbEntity
  8
0
100
AcDbLine
 62
7
  6
BYLAYER
 10
84.7360195187
 20
85.4624320233
 11
79.6676018735
 21
88.3886181159
  0
LINE
  5
2C2
100
AcDbEntity
  8
0
100
AcDbLine
 62
7
  6
BYLAYER
 10
84.7570925639
 20
85.4773440719
 11
79.691052706
 21
88.4021573795
  0
LINE
  5
2C3
100
AcDbEntity
  8
0
100
AcDbLine
 62
7
  6
BYLAYER
 10
86.5470687351
 20
86.5107811274
 11
81.4810288771
 21
89.435594435
  0
LINE
  5
2C4
100
AcDbEntity
  8
0
100
AcDbLine
 62
7
  6
BYLAYER
 10
86.5728973547
 20
86.5229476059
 11
81.5044797095
 21
89.4491336986
  0
LINE
  5
2C5
100
AcDbEntity
  8
0
100
AcDbLine
 62
7
  6
BYLAYER
 10
70.1915099762
 20
97.5593795981
 11
70.3086595769
 21
97.3960819318
  0
LINE
  5
2C6
100
AcDbEntity
  8
0
100
AcDbLine
 62
7
  6
BYLAYER
 10
80.6085242068
 20
82.3548436283
 11
80.2241128738
 21
82.9633991489
  0
LINE
  5
2C7
100
AcDbEntity
  8
0
100
AcDbLine
 62
7
  6
BYLAYER
 10
66.9972965685
 20
100.0159891651
 11
67.34930876
 21
99.4027269231
  0
LINE
  5
2C8
100
AcDbEntity
  8
0
100
AcDbLine
 62
7
  6
BYLAYER
 10
80.880322025
 20
94.6065017809
 11
80.8711553112
 21
94.7261390849
  0
LINE
  5
2C9
100
AcDbEntity
  8
0
100
AcDbLine
 62
7
  6
BYLAYER
 10
80.9234708587
 20
78.2268441298
 11
80.6085242068
 21
82.3548436283
  0
LINE
  5
2CA
100
AcDbEntity
  8
0
100
AcDbLine
 62
7
  6
BYLAYER
 10
81.1279915259
 20
82.7440154808
 11
81.2173418728
 21
80.7569453494
  0
LINE
  5
2CB
100
AcDbEntity
  8
0
100
AcDbLine
 62
7
  6
BYLAYER
 10
81.1564935703
 20
82.7546384918
 11
81.2458439172
 21
80.7675683603
  0
LINE
  5
2CC
100
AcDbEntity
  8
0
100
AcDbLine
 62
7
  6
BYLAYER
 10
80.8711553112
 20
94.7261390849
 11
80.8660749222
 21
94.8588150374
  0
LINE
  5
2CD
100
AcDbEntity
  8
0
100
AcDbLine
 62
7
  6
BYLAYER
 10
79.691052706
 20
88.4021573795
 11
79.6912536721
 21
88.3889787928
  0
LINE
  5
2CE
100
AcDbEntity
  8
0
100
AcDbLine
 62
7
  6
BYLAYER
 10
82.3124734397
 20
97.1560094002
 11
82.3116054405
 21
97.2713606909
  0
LINE
  5
2CF
100
AcDbEntity
  8
0
100
AcDbLine
 62
7
  6
BYLAYER
 10
80.4444875456
 20
106.7163803598
 11
80.4444875456
 21
107.3714379987
  0
LINE
  5
2D0
100
AcDbEntity
  8
0
100
AcDbLine
 62
7
  6
BYLAYER
 10
80.8660749222
 20
95.1037657626
 11
80.8660749222
 21
95.084849968
  0
LINE
  5
2D1
100
AcDbEntity
  8
0
100
AcDbLine
 62
7
  6
BYLAYER
 10
81.5042715963
 20
89.4352461295
 11
81.5044797095
 21
89.4491336986
  0
LINE
  5
2D2
100
AcDbEntity
  8
0
100
AcDbLine
 62
7
  6
BYLAYER
 10
81.2097193294
 20
90.5591869603
 11
81.202307781
 21
90.391607443
  0
LINE
  5
2D3
100
AcDbEntity
  8
0
100
AcDbLine
 62
7
  6
BYLAYER
 10
81.1279915259
 20
71.4557574315
 11
81.2173418728
 21
73.4084235952
  0
LINE
  5
2D4
100
AcDbEntity
  8
0
100
AcDbLine
 62
7
  6
BYLAYER
 10
81.1564935703
 20
71.4663804425
 11
81.2458439172
 21
73.4190466062
  0
LINE
  5
2D5
100
AcDbEntity
  8
0
100
AcDbLine
 62
7
  6
BYLAYER
 10
80.6085242068
 20
70.9233123973
 11
80.9349108952
 21
75.2767244804
  0
LINE
  5
2D6
100
AcDbEntity
  8
0
100
AcDbLine
 62
7
  6
BYLAYER
 10
60.8315798617
 20
101.2181155856
 11
59.3826271907
 21
101.2181121028
  0
LINE
  5
2D7
100
AcDbEntity
  8
0
100
AcDbLine
 62
7
  6
BYLAYER
 10
59.3826271906
 20
101.2426071753
 11
60.8315798618
 21
101.2426106581
  0
LINE
  5
2D8
100
AcDbEntity
  8
0
100
AcDbLine
 62
7
  6
BYLAYER
 10
81.202307781
 20
90.391607443
 11
87.2380305221
 21
86.9069601269
  0
LINE
  5
2D9
100
AcDbEntity
  8
0
100
AcDbLine
 62
7
  6
BYLAYER
 10
81.2097193294
 20
90.5591869603
 11
87.295151246
 21
87.0458406876
  0
LINE
  5
2DA
100
AcDbEntity
  8
0
100
AcDbLine
 62
7
  6
BYLAYER
 10
66.9972965685
 20
100.0159891651
 11
57.0977604165
 21
105.7313597284
  0
LINE
  5
2DB
100
AcDbEntity
  8
0
100
AcDbLine
 62
7
  6
BYLAYER
 10
56.7564206799
 20
105.9425324699
 11
67.3630665571
 21
99.8189211521
  0
LINE
  5
2DC
100
AcDbEntity
  8
0
100
AcDbLine
 62
7
  6
BYLAYER
 10
81.1564935703
 20
82.7546384918
 11
80.8680214593
 21
83.2320012256
  0
LINE
  5
2DD
100
AcDbEntity
  8
0
100
AcDbLine
 62
7
  6
BYLAYER
 10
80.8469484141
 20
83.217089177
 11
81.1279915259
 21
82.7440154808
  0
LINE
  5
2DE
100
AcDbEntity
  8
0
100
AcDbLine
 62
7
  6
BYLAYER
 10
82.6579976304
 20
84.2654382811
 11
82.9369059653
 21
83.7825539315
  0
LINE
  5
2DF
100
AcDbEntity
  8
0
100
AcDbLine
 62
7
  6
BYLAYER
 10
82.9553055858
 20
83.7990094477
 11
82.6838262501
 21
84.2776047596
  0
LINE
  5
2E0
100
AcDbEntity
  8
0
100
AcDbLine
 62
7
  6
BYLAYER
 10
85.0170626306
 20
84.9893583271
 11
85.1064129775
 21
83.0022881956
  0
LINE
  5
2E1
100
AcDbEntity
  8
0
100
AcDbLine
 62
7
  6
BYLAYER
 10
85.045564675
 20
84.9999813381
 11
85.1349150219
 21
83.0129112066
  0
LINE
  5
2E2
100
AcDbEntity
  8
0
100
AcDbLine
 62
7
  6
BYLAYER
 10
82.9369059653
 20
83.7825539315
 11
82.9667018454
 21
81.7611002178
  0
LINE
  5
2E3
100
AcDbEntity
  8
0
100
AcDbLine
 62
7
  6
BYLAYER
 10
82.9553055858
 20
83.7990094477
 11
82.9851014659
 21
81.777555734
  0
LINE
  5
2E4
100
AcDbEntity
  8
0
100
AcDbLine
 62
7
  6
BYLAYER
 10
83.7258131149
 20
98.0878489987
 11
83.7264835751
 21
97.9987493319
  0
LINE
  5
2E5
100
AcDbEntity
  8
0
100
AcDbLine
 62
7
  6
BYLAYER
 10
82.9369059653
 20
72.4942958822
 11
82.9667018454
 21
74.4125784637
  0
LINE
  5
2E6
100
AcDbEntity
  8
0
100
AcDbLine
 62
7
  6
BYLAYER
 10
82.9553055858
 20
72.5107513984
 11
82.9851014659
 21
74.4290339799
  0
LINE
  5
2E7
100
AcDbEntity
  8
0
100
AcDbLine
 62
7
  6
BYLAYER
 10
85.0170626306
 20
73.7011002778
 11
85.1064129775
 21
75.6537664415
  0
LINE
  5
2E8
100
AcDbEntity
  8
0
100
AcDbLine
 62
7
  6
BYLAYER
 10
85.045564675
 20
73.7117232888
 11
85.1349150219
 21
75.6643894525
  0
LINE
  5
2E9
100
AcDbEntity
  8
0
100
AcDbLine
 62
7
  6
BYLAYER
 10
85.045564675
 20
84.9999813381
 11
84.7570925639
 21
85.4773440719
  0
LINE
  5
2EA
100
AcDbEntity
  8
0
100
AcDbLine
 62
7
  6
BYLAYER
 10
84.7360195187
 20
85.4624320233
 11
85.0170626306
 21
84.9893583271
  0
LINE
  5
2EB
100
AcDbEntity
  8
0
100
AcDbLine
 62
7
  6
BYLAYER
 10
87.4999344156
 20
75.1345784145
 11
87.4382276071
 21
79.0313937223
  0
LINE
  5
2EC
100
AcDbEntity
  8
0
100
AcDbLine
 62
7
  6
BYLAYER
 10
87.6425274117
 20
74.9843717999
 11
87.5771717704
 21
79.1116126936
  0
LINE
  5
2ED
100
AcDbEntity
  8
0
100
AcDbLine
 62
7
  6
BYLAYER
 10
86.82597707
 20
86.0278967778
 11
86.85577295
 21
84.0064430641
  0
LINE
  5
2EE
100
AcDbEntity
  8
0
100
AcDbLine
 62
7
  6
BYLAYER
 10
86.8443766905
 20
86.044352294
 11
86.8741725705
 21
84.0228985803
  0
LINE
  5
2EF
100
AcDbEntity
  8
0
100
AcDbLine
 62
7
  6
BYLAYER
 10
87.4999344156
 20
86.4228364638
 11
87.4379543744
 21
82.1513576891
  0
LINE
  5
2F0
100
AcDbEntity
  8
0
100
AcDbLine
 62
7
  6
BYLAYER
 10
87.5794625223
 20
82.06965977
 11
87.6425274117
 21
86.4159030309
  0
LINE
  5
2F1
100
AcDbEntity
  8
0
100
AcDbLine
 62
7
  6
BYLAYER
 10
86.82597707
 20
74.7396387285
 11
86.85577295
 21
76.6579213099
  0
LINE
  5
2F2
100
AcDbEntity
  8
0
100
AcDbLine
 62
7
  6
BYLAYER
 10
86.8443766905
 20
74.7560942447
 11
86.8741725705
 21
76.6743768262
  0
LINE
  5
2F3
100
AcDbEntity
  8
0
100
AcDbLine
 62
7
  6
BYLAYER
 10
86.5470687351
 20
86.5107811274
 11
86.82597707
 21
86.0278967778
  0
LINE
  5
2F4
100
AcDbEntity
  8
0
100
AcDbLine
 62
7
  6
BYLAYER
 10
86.8443766905
 20
86.044352294
 11
86.5728973547
 21
86.5229476059
  0
LINE
  5
2F5
100
AcDbEntity
  8
0
100
AcDbLine
 62
7
  6
BYLAYER
 10
87.6425274117
 20
86.4159030309
 11
87.295151246
 21
87.0458406876
  0
LINE
  5
2F6
100
AcDbEntity
  8
0
100
AcDbLine
 62
7
  6
BYLAYER
 10
87.2380305221
 20
86.9069601269
 11
87.4999344156
 21
86.4228364638
  0
LINE
  5
2F7
100
AcDbEntity
  8
0
100
AcDbLine
 62
7
  6
BYLAYER
 10
92.6802825966
 20
95.9202540703
 11
92.6802825966
 21
95.9013382191
  0
LINE
  5
2F8
100
AcDbEntity
  8
0
100
AcDbLine
 62
7
  6
BYLAYER
 10
92.6802825966
 20
95.6753033452
 11
92.6752022076
 21
95.5426273927
  0
LINE
  5
2F9
100
AcDbEntity
  8
0
100
AcDbLine
 62
7
  6
BYLAYER
 10
92.6252510575
 20
94.8907011893
 11
92.6752022076
 21
95.5426273927
  0
LINE
  5
2FA
100
AcDbEntity
  8
0
100
AcDbLine
 62
7
  6
BYLAYER
 10
98.2675745367
 20
96.4330863051
 11
97.9016838309
 21
96.6298429852
  0
LINE
  5
2FB
100
AcDbEntity
  8
0
100
AcDbLine
 62
7
  6
BYLAYER
 10
80.3174840893
 20
106.7818557703
 11
97.9016838309
 21
96.6298429852
  0
LINE
  5
2FC
100
AcDbEntity
  8
0
100
AcDbLine
 62
7
  6
BYLAYER
 10
80.6821308167
 20
106.5858172852
 11
98.2675745374
 21
96.4330863056
  0
LINE
  5
2FD
100
AcDbEntity
  8
0
100
AcDbLine
 62
7
  6
BYLAYER
 10
73.3733902941
 20
111.4538455439
 11
80.4444875456
 21
107.3714379987
  0
LINE
  5
2FE
100
AcDbEntity
  8
0
100
AcDbLine
 62
7
  6
BYLAYER
 10
97.0550370053
 20
100.0594120496
 11
97.0550414162
 21
99.4477492748
  0
LINE
  5
2FF
100
AcDbEntity
  8
0
100
AcDbLine
 62
7
  6
BYLAYER
 10
99.6590051781
 20
94.5594575184
 11
99.9033866667
 21
88.8471768276
  0
LINE
  5
300
100
AcDbEntity
  8
0
100
AcDbLine
 62
7
  6
BYLAYER
 10
98.2676025109
 20
92.5502563837
 11
98.4404597846
 21
86.7346938803
  0
LINE
  5
301
100
AcDbEntity
  8
0
100
AcDbLine
 62
7
  6
BYLAYER
 10
99.9033866667
 20
88.8471768276
 11
99.9033866667
 21
88.7046184782
  0
LINE
  5
302
100
AcDbEntity
  8
0
100
AcDbLine
 62
7
  6
BYLAYER
 10
98.2676025395
 20
81.1187251669
 11
98.4404597846
 21
86.7346938803
  0
LINE
  5
303
100
AcDbEntity
  8
0
100
AcDbLine
 62
7
  6
BYLAYER
 10
99.6590051781
 20
82.9923377874
 11
99.9033866667
 21
88.7046184782
  0
LINE
  5
304
100
AcDbEntity
  8
0
100
AcDbLine
 62
7
  6
BYLAYER
 10
93.3421083454
 20
106.4903217331
 11
92.8123830655
 21
106.7961675105
  0
LINE
  5
305
100
AcDbEntity
  8
0
100
AcDbLine
 62
7
  6
BYLAYER
 10
98.2676025098
 20
92.5502563843
 11
97.9017087782
 21
93.1695029822
  0
ARC
  5
306
100
AcDbEntity
  8
0
100
AcDbCircle
 62
7
  6
BYLAYER
 10
34.911350266
 20
50.4663190911
 40
5.1326436577
100
AcDbArc
 50
293.7778150755
 51
298.1501003483
  0
ARC
  5
307
100
AcDbEntity
  8
0
100
AcDbCircle
 62
7
  6
BYLAYER
 10
32.4927874523
 20
62.7112067116
 40
5.0275073778
100
AcDbArc
 50
119.363938555
 51
119.9987004964
  0
ARC
  5
308
100
AcDbEntity
  8
0
100
AcDbCircle
 62
7
  6
BYLAYER
 10
33.2255544551
 20
50.3614683811
 40
5.0161091174
100
AcDbArc
 50
241.7990866196
 51
246.2729906841
  0
ARC
  5
309
100
AcDbEntity
  8
0
100
AcDbCircle
 62
7
  6
BYLAYER
 10
19.8463399209
 20
58.5621725668
 40
4.7712053379
100
AcDbArc
 50
239.5558828352
 51
240.0001154171
  0
ARC
  5
30A
100
AcDbEntity
  8
0
100
AcDbCircle
 62
7
  6
BYLAYER
 10
15.3378550652
 20
58.5100007779
 40
4.7457816216
100
AcDbArc
 50
59.5558307407
 51
60.0000633225
  0
ARC
  5
30B
100
AcDbEntity
  8
0
100
AcDbCircle
 62
7
  6
BYLAYER
 10
34.1519885165
 20
65.7895485377
 40
4.537447207
100
AcDbArc
 50
269.1894433599
 51
272.3051068228
  0
ARC
  5
30C
100
AcDbEntity
  8
0
100
AcDbCircle
 62
7
  6
BYLAYER
 10
15.2022560785
 20
58.3091619329
 40
4.312565672
100
AcDbArc
 50
59.5558307406
 51
60.0000633225
  0
ARC
  5
30D
100
AcDbEntity
  8
0
100
AcDbCircle
 62
7
  6
BYLAYER
 10
19.5148134948
 20
58.3590649244
 40
4.3125656711
100
AcDbArc
 50
239.5558307406
 51
240.0000633225
  0
ARC
  5
30E
100
AcDbEntity
  8
0
100
AcDbCircle
 62
7
  6
BYLAYER
 10
19.4246748438
 20
58.2014309513
 40
4.1309813885
100
AcDbArc
 50
239.9895996282
 51
241.815202668
  0
ARC
  5
30F
100
AcDbEntity
  8
0
100
AcDbCircle
 62
7
  6
BYLAYER
 10
19.3699882553
 20
58.0998248949
 40
4.0155934888
100
AcDbArc
 50
241.8182286401
 51
242.3829300557
  0
ARC
  5
310
100
AcDbEntity
  8
0
100
AcDbCircle
 62
7
  6
BYLAYER
 10
11.2960122115
 20
58.9436122006
 40
3.2938797164
100
AcDbArc
 50
60.0333780695
 51
60.4384997835
  0
ARC
  5
311
100
AcDbEntity
  8
0
100
AcDbCircle
 62
7
  6
BYLAYER
 10
35.8143969281
 20
65.1459189669
 40
3.0911291895
100
AcDbArc
 50
330.5781872747
 51
335.7567627165
  0
ARC
  5
312
100
AcDbEntity
  8
0
100
AcDbCircle
 62
7
  6
BYLAYER
 10
36.6708864049
 20
65.1004372529
 40
2.3124001534
100
AcDbArc
 50
328.0471659455
 51
329.6485934636
  0
ARC
  5
313
100
AcDbEntity
  8
0
100
AcDbCircle
 62
7
  6
BYLAYER
 10
28.9832787813
 20
63.1367540967
 40
1.962257019
100
AcDbArc
 50
159.7470614943
 51
163.5211254276
  0
ARC
  5
314
100
AcDbEntity
  8
0
100
AcDbCircle
 62
7
  6
BYLAYER
 10
37.0947242948
 20
63.9569668662
 40
1.9502419805
100
AcDbArc
 50
16.3235613691
 51
19.3861487799
  0
ARC
  5
315
100
AcDbEntity
  8
0
100
AcDbCircle
 62
7
  6
BYLAYER
 10
37.1383028686
 20
63.9699981721
 40
1.9047574886
100
AcDbArc
 50
15.0515318764
 51
16.31580794
  0
ARC
  5
316
100
AcDbEntity
  8
0
100
AcDbCircle
 62
7
  6
BYLAYER
 10
37.1527665652
 20
63.9739322358
 40
1.8897683756
100
AcDbArc
 50
14.7496138109
 51
15.0502265728
  0
ARC
  5
317
100
AcDbEntity
  8
0
100
AcDbCircle
 62
7
  6
BYLAYER
 10
28.9044639459
 20
63.1600753823
 40
1.8800641934
100
AcDbArc
 50
163.521326302
 51
167.8249495137
  0
ARC
  5
318
100
AcDbEntity
  8
0
100
AcDbCircle
 62
7
  6
BYLAYER
 10
28.8570266757
 20
64.0880653096
 40
1.8508903306
100
AcDbArc
 50
191.3308025367
 51
193.2142828968
  0
ARC
  5
319
100
AcDbEntity
  8
0
100
AcDbCircle
 62
7
  6
BYLAYER
 10
37.2318312906
 20
64.9000377509
 40
1.8281562872
100
AcDbArc
 50
347.5421541651
 51
351.5311260692
  0
ARC
  5
31A
100
AcDbEntity
  8
0
100
AcDbCircle
 62
7
  6
BYLAYER
 10
28.8092349339
 20
64.0789756057
 40
1.8022442684
100
AcDbArc
 50
181.2612178084
 51
191.3459753787
  0
ARC
  5
31B
100
AcDbEntity
  8
0
100
AcDbCircle
 62
7
  6
BYLAYER
 10
28.9237135852
 20
64.0855083499
 40
1.798117642
100
AcDbArc
 50
191.412939285
 51
191.6983979508
  0
ARC
  5
31C
100
AcDbEntity
  8
0
100
AcDbCircle
 62
7
  6
BYLAYER
 10
37.2693330644
 20
64.8943903181
 40
1.790231724
100
AcDbArc
 50
351.533138785
 51
358.7646855844
  0
ARC
  5
31D
100
AcDbEntity
  8
0
100
AcDbCircle
 62
7
  6
BYLAYER
 10
37.1630302577
 20
64.8983671148
 40
1.7776428826
100
AcDbArc
 50
348.4217927952
 51
352.5209121243
  0
ARC
  5
31E
100
AcDbEntity
  8
0
100
AcDbCircle
 62
7
  6
BYLAYER
 10
28.7837144663
 20
64.0772512605
 40
1.7766924097
100
AcDbArc
 50
179.0905626072
 51
181.2237383282
  0
ARC
  5
31F
100
AcDbEntity
  8
0
100
AcDbCircle
 62
7
  6
BYLAYER
 10
37.2829940249
 20
64.893658418
 40
1.7765582135
100
AcDbArc
 50
358.7787863117
 51
0.3312527461
  0
ARC
  5
320
100
AcDbEntity
  8
0
100
AcDbCircle
 62
7
  6
BYLAYER
 10
28.8861369703
 20
63.8341046455
 40
1.760000462
100
AcDbArc
 50
184.383517413
 51
189.4849312855
  0
ARC
  5
321
100
AcDbEntity
  8
0
100
AcDbCircle
 62
7
  6
BYLAYER
 10
19.323701683
 20
55.7179369377
 40
1.7528273635
100
AcDbArc
 50
310.8102058854
 51
315.1891320048
  0
ARC
  5
322
100
AcDbEntity
  8
0
100
AcDbCircle
 62
7
  6
BYLAYER
 10
28.8760674069
 20
64.0775664726
 40
1.749842838
100
AcDbArc
 50
180.011669262
 51
191.4667473412
  0
ARC
  5
323
100
AcDbEntity
  8
0
100
AcDbCircle
 62
7
  6
BYLAYER
 10
37.1952599923
 20
64.8940575771
 40
1.7451263983
100
AcDbArc
 50
352.5234635708
 51
359.9882070778
  0
ARC
  5
324
100
AcDbEntity
  8
0
100
AcDbCircle
 62
7
  6
BYLAYER
 10
19.3700901
 20
55.6628750014
 40
1.6808349854
100
AcDbArc
 50
300.0082073035
 51
310.8400539264
  0
ARC
  5
325
100
AcDbEntity
  8
0
100
AcDbCircle
 62
7
  6
BYLAYER
 10
90.4543571891
 20
99.4042901509
 40
6.6020014652
100
AcDbArc
 50
4.9435572378
 51
5.56132995
  0
ARC
  5
326
100
AcDbEntity
  8
0
100
AcDbCircle
 62
7
  6
BYLAYER
 10
92.5362711728
 20
100.4056141198
 40
5.0484909446
100
AcDbArc
 50
0.0130837978
 51
1.7748584774
  0
ARC
  5
327
100
AcDbEntity
  8
0
100
AcDbCircle
 62
7
  6
BYLAYER
 10
86.2327976024
 20
93.7454274072
 40
5.0141396568
100
AcDbArc
 50
119.4139614972
 51
119.9988739681
  0
ARC
  5
328
100
AcDbEntity
  8
0
100
AcDbCircle
 62
7
  6
BYLAYER
 10
91.4183753509
 20
102.4641882272
 40
4.978323586
100
AcDbArc
 50
58.3352671462
 51
59.9966208071
  0
ARC
  5
329
100
AcDbEntity
  8
0
100
AcDbCircle
 62
7
  6
BYLAYER
 10
85.6432921462
 20
99.1152804412
 40
4.7910932895
100
AcDbArc
 50
59.5854307011
 51
60.000127381
  0
ARC
  5
32A
100
AcDbEntity
  8
0
100
AcDbCircle
 62
7
  6
BYLAYER
 10
87.8917798298
 20
96.828438327
 40
4.549778657
100
AcDbArc
 50
269.1929037921
 51
272.0262674026
  0
ARC
  5
32B
100
AcDbEntity
  8
0
100
AcDbCircle
 62
7
  6
BYLAYER
 10
85.5501961508
 20
98.954032415
 40
4.4116007493
100
AcDbArc
 50
59.5854307009
 51
60.0001273811
  0
ARC
  5
32C
100
AcDbEntity
  8
0
100
AcDbCircle
 62
7
  6
BYLAYER
 10
89.5500181936
 20
96.1745375148
 40
3.0958699848
100
AcDbArc
 50
331.0537402603
 51
335.7544035565
  0
ARC
  5
32D
100
AcDbEntity
  8
0
100
AcDbCircle
 62
7
  6
BYLAYER
 10
90.4107780331
 20
96.1269929472
 40
2.3124001535
100
AcDbArc
 50
328.0471659455
 51
329.6485934636
  0
ARC
  5
32E
100
AcDbEntity
  8
0
100
AcDbCircle
 62
7
  6
BYLAYER
 10
82.7231919227
 20
94.1633011561
 40
1.9622801564
100
AcDbArc
 50
159.7514367605
 51
163.5142292081
  0
ARC
  5
32F
100
AcDbEntity
  8
0
100
AcDbCircle
 62
7
  6
BYLAYER
 10
90.8346159231
 20
94.9835225604
 40
1.9502419805
100
AcDbArc
 50
16.3235613691
 51
19.3861487799
  0
ARC
  5
330
100
AcDbEntity
  8
0
100
AcDbCircle
 62
7
  6
BYLAYER
 10
90.8781944968
 20
94.9965538663
 40
1.9047574887
100
AcDbArc
 50
15.0515318765
 51
16.31580794
  0
ARC
  5
331
100
AcDbEntity
  8
0
100
AcDbCircle
 62
7
  6
BYLAYER
 10
82.6499346685
 20
94.1851140113
 40
1.8858445033
100
AcDbArc
 50
163.5180997035
 51
167.1570384558
  0
ARC
  5
332
100
AcDbEntity
  8
0
100
AcDbCircle
 62
7
  6
BYLAYER
 10
82.6022241597
 20
95.1143990129
 40
1.8465725065
100
AcDbArc
 50
191.3307694223
 51
193.093986058
  0
ARC
  5
333
100
AcDbEntity
  8
0
100
AcDbCircle
 62
7
  6
BYLAYER
 10
90.9665049888
 20
95.926380599
 40
1.8237541521
100
AcDbArc
 50
347.6301738043
 51
351.6402501975
  0
ARC
  5
334
100
AcDbEntity
  8
0
100
AcDbCircle
 62
7
  6
BYLAYER
 10
82.6636052135
 20
95.1120640441
 40
1.798117642
100
AcDbArc
 50
191.412939285
 51
191.6983979508
  0
ARC
  5
335
100
AcDbEntity
  8
0
100
AcDbCircle
 62
7
  6
BYLAYER
 10
82.5541095551
 20
95.1053102344
 40
1.7976100741
100
AcDbArc
 50
180.6521519749
 51
191.3480312466
  0
ARC
  5
336
100
AcDbEntity
  8
0
100
AcDbCircle
 62
7
  6
BYLAYER
 10
91.003413806
 20
95.9208890573
 40
1.7864390985
100
AcDbArc
 50
351.6424020239
 51
358.9677045454
  0
ARC
  5
337
100
AcDbEntity
  8
0
100
AcDbCircle
 62
7
  6
BYLAYER
 10
90.902921886
 20
95.924922809
 40
1.7776428826
100
AcDbArc
 50
348.4217927952
 51
352.5209121243
  0
ARC
  5
338
100
AcDbEntity
  8
0
100
AcDbCircle
 62
7
  6
BYLAYER
 10
82.5298051639
 20
95.1038064222
 40
1.7732905655
100
AcDbArc
 50
179.1094367286
 51
180.612504382
  0
ARC
  5
339
100
AcDbEntity
  8
0
100
AcDbCircle
 62
7
  6
BYLAYER
 10
91.016650589
 20
95.9202131997
 40
1.7731923399
100
AcDbArc
 50
358.9818610948
 51
0.3279286772
  0
ARC
  5
33A
100
AcDbEntity
  8
0
100
AcDbCircle
 62
7
  6
BYLAYER
 10
82.6235126485
 20
94.8603864057
 40
1.7574709362
100
AcDbArc
 50
184.380882149
 51
188.8009827025
  0
ARC
  5
33B
100
AcDbEntity
  8
0
100
AcDbCircle
 62
7
  6
BYLAYER
 10
82.6159590352
 20
95.1041221668
 40
1.749842838
100
AcDbArc
 50
180.011669262
 51
191.4667473412
  0
ARC
  5
33C
100
AcDbEntity
  8
0
100
AcDbCircle
 62
7
  6
BYLAYER
 10
90.9351516205
 20
95.9206132714
 40
1.7451263983
100
AcDbArc
 50
352.5234635707
 51
359.9882070779
  0
SPLINE
  5
33D
100
AcDbEntity
  8
0
100
AcDbSpline
 62
7
  6
BYLAYER
 70
0
 71
3
 72
11
 73
7
 74
0
 42
0.0000001
 43
0.0000001
 44
0.0000000001
 40
0.0
 40
0.0
 40
0.0
 40
0.0
 40
0.2429022237
 40
0.4887424926
 40
0.7402921976
 40
1.0
 40
1.0
 40
1.0
 40
1.0
 10
74.0843305359
 20
106.2691377678
 30
0.0
 10
74.0843305348
 20
106.199688005
 30
0.0
 10
74.0747634976
 20
106.0597696734
 30
0.0
 10
74.0320010182
 20
105.8518641315
 30
0.0
 10
73.9610849598
 20
105.6467467172
 30
0.0
 10
73.8966099091
 20
105.5151137725
 30
0.0
 10
73.8602619547
 20
105.4503635219
 30
0.0
  0
SPLINE
  5
33E
100
AcDbEntity
  8
0
100
AcDbSpline
 62
7
  6
BYLAYER
 70
0
 71
3
 72
15
 73
11
 74
0
 42
0.0000001
 43
0.0000001
 44
0.0000000001
 40
0.0
 40
0.0
 40
0.0
 40
0.0
 40
0.1080122391
 40
0.2180597303
 40
0.3319967515
 40
0.4513581881
 40
0.5772717689
 40
0.7104884249
 40
0.8514260584
 40
1.0
 40
1.0
 40
1.0
 40
1.0
 10
74.7843300225
 20
107.1672904267
 30
0.0
 10
74.784330021
 20
107.0669552554
 30
0.0
 10
74.7668922304
 20
106.8639881765
 30
0.0
 10
74.6891302392
 20
106.5641962036
 30
0.0
 10
74.5607620422
 20
106.2708551183
 30
0.0
 10
74.3833924687
 20
105.9869654861
 30
0.0
 10
74.159084625
 20
105.7150520584
 30
0.0
 10
73.890062298
 20
105.4575470221
 30
0.0
 10
73.5790334258
 20
105.2168274145
 30
0.0
 10
73.3515391864
 20
105.0726210757
 30
0.0
 10
73.2320154526
 20
105.0036144277
 30
0.0
  0
SPLINE
  5
33F
100
AcDbEntity
  8
0
100
AcDbSpline
 62
7
  6
BYLAYER
 70
0
 71
3
 72
15
 73
11
 74
0
 42
0.0000001
 43
0.0000001
 44
0.0000000001
 40
0.0
 40
0.0
 40
0.0
 40
0.0
 40
0.1141588269
 40
0.2373260415
 40
0.366976732
 40
0.5000005214
 40
0.6330242383
 40
0.7626747169
 40
0.8858415979
 40
1.0
 40
1.0
 40
1.0
 40
1.0
 10
73.3733902941
 20
111.4538455439
 30
0.0
 10
73.131345335
 20
111.5935871048
 30
0.0
 10
72.6020921877
 20
111.8400409644
 30
0.0
 10
71.740225043
 20
112.1019733216
 30
0.0
 10
70.8071383727
 20
112.2632222403
 30
0.0
 10
69.8378504257
 20
112.317621006
 30
0.0
 10
68.8685632534
 20
112.2632176399
 30
0.0
 10
67.9354788725
 20
112.1019642907
 30
0.0
 10
67.0736154379
 20
111.8400278366
 30
0.0
 10
66.5443655332
 20
111.5935713336
 30
0.0
 10
66.3023224823
 20
111.4538285472
 30
0.0
  0
SPLINE
  5
340
100
AcDbEntity
  8
0
100
AcDbSpline
 62
7
  6
BYLAYER
 70
0
 71
3
 72
15
 73
11
 74
0
 42
0.0000001
 43
0.0000001
 44
0.0000000001
 40
0.0
 40
0.0
 40
0.0
 40
0.0
 40
0.148574205
 40
0.2895120449
 40
0.4227288316
 40
0.5486424549
 40
0.6680038396
 40
0.7819407218
 40
0.8919880057
 40
1.0
 40
1.0
 40
1.0
 40
1.0
 10
64.3224758976
 20
104.1871081034
 30
0.0
 10
64.202949911
 20
104.2561149028
 30
0.0
 10
63.975451336
 20
104.4003217173
 30
0.0
 10
63.6644163477
 20
104.6410426377
 30
0.0
 10
63.3953886059
 20
104.8985494899
 30
0.0
 10
63.1710761548
 20
105.1704651755
 30
0.0
 10
62.9937028763
 20
105.4543574423
 30
0.0
 10
62.865331951
 20
105.7477014644
 30
0.0
 10
62.7875682949
 20
106.0474965931
 30
0.0
 10
62.7701301201
 20
106.2504658797
 30
0.0
 10
62.7701301216
 20
106.3508021189
 30
0.0
  0
SPLINE
  5
341
100
AcDbEntity
  8
0
100
AcDbSpline
 62
7
  6
BYLAYER
 70
0
 71
3
 72
17
 73
13
 74
0
 42
0.0000001
 43
0.0000001
 44
0.0000000001
 40
0.0
 40
0.0
 40
0.0
 40
0.0
 40
0.0558475738
 40
0.1142244895
 40
0.2373702745
 40
0.3669985466
 40
0.4999994792
 40
0.6330004843
 40
0.7626289682
 40
0.8857750868
 40
0.9441522057
 40
1.0
 40
1.0
 40
1.0
 40
1.0
 10
71.8178077781
 20
104.18712612
 30
0.0
 10
71.6922714838
 20
104.1146481392
 30
0.0
 10
71.4289679418
 20
103.9775143138
 30
0.0
 10
70.8617956889
 20
103.7356700069
 30
0.0
 10
70.0865171782
 20
103.5000613967
 30
0.0
 10
69.0976306603
 20
103.3291859364
 30
0.0
 10
68.070148158
 20
103.2714999077
 30
0.0
 10
67.0426648355
 20
103.3291810595
 30
0.0
 10
66.0537758882
 20
103.5000518256
 30
0.0
 10
65.2784942336
 20
103.7356566908
 30
0.0
 10
64.7113186618
 20
103.9774982118
 30
0.0
 10
64.4480132105
 20
104.1146307417
 30
0.0
 10
64.3224758976
 20
104.1871081034
 30
0.0
  0
SPLINE
  5
342
100
AcDbEntity
  8
0
100
AcDbSpline
 62
7
  6
BYLAYER
 70
0
 71
3
 72
11
 73
7
 74
0
 42
0.0000001
 43
0.0000001
 44
0.0000000001
 40
0.0
 40
0.0
 40
0.0
 40
0.0
 40
0.2597078504
 40
0.5112575639
 40
0.7570978126
 40
1.0
 40
1.0
 40
1.0
 40
1.0
 10
63.6941994149
 20
104.6338730305
 30
0.0
 10
63.657851268
 20
104.6986234369
 30
0.0
 10
63.5933758675
 20
104.8302567055
 30
0.0
 10
63.5224594177
 20
105.0353746678
 30
0.0
 10
63.4796967009
 20
105.2432807811
 30
0.0
 10
63.4701296072
 20
105.3831995053
 30
0.0
 10
63.4701296083
 20
105.4526494601
 30
0.0
  0
SPLINE
  5
343
100
AcDbEntity
  8
0
100
AcDbSpline
 62
7
  6
BYLAYER
 70
0
 71
3
 72
15
 73
11
 74
0
 42
0.0000001
 43
0.0000001
 44
0.0000000001
 40
0.0
 40
0.0
 40
0.0
 40
0.0
 40
0.1080122391
 40
0.2180597303
 40
0.3319967515
 40
0.4513581881
 40
0.5772717689
 40
0.7104884249
 40
0.8514260584
 40
1.0
 40
1.0
 40
1.0
 40
1.0
 10
62.7701301216
 20
106.3508021189
 30
0.0
 10
62.7701301231
 20
106.4511372901
 30
0.0
 10
62.7875679137
 20
106.6541043691
 30
0.0
 10
62.8653299049
 20
106.953896342
 30
0.0
 10
62.993698102
 20
107.2472374273
 30
0.0
 10
63.1710676755
 20
107.5311270594
 30
0.0
 10
63.3953755191
 20
107.8030404871
 30
0.0
 10
63.6643978462
 20
108.0605455234
 30
0.0
 10
63.9754267184
 20
108.3012651311
 30
0.0
 10
64.2029209577
 20
108.4454714699
 30
0.0
 10
64.3224446916
 20
108.5144781179
 30
0.0
  0
SPLINE
  5
344
100
AcDbEntity
  8
0
100
AcDbSpline
 62
7
  6
BYLAYER
 70
0
 71
3
 72
15
 73
11
 74
0
 42
0.0000001
 43
0.0000001
 44
0.0000000001
 40
0.0
 40
0.0
 40
0.0
 40
0.0
 40
0.1080122391
 40
0.2180597303
 40
0.3319967515
 40
0.4513581881
 40
0.5772717689
 40
0.7104884249
 40
0.8514260584
 40
1.0
 40
1.0
 40
1.0
 40
1.0
 10
63.4701296083
 20
105.4526494601
 30
0.0
 10
63.4701296096
 20
105.5397328162
 30
0.0
 10
63.4852642957
 20
105.7158929225
 30
0.0
 10
63.5527558353
 20
105.9760897291
 30
0.0
 10
63.6641697422
 20
106.2306876523
 30
0.0
 10
63.8181131456
 20
106.4770824273
 30
0.0
 10
64.0127954249
 20
106.7130827608
 30
0.0
 10
64.2462865013
 20
106.936577698
 30
0.0
 10
64.5162360885
 20
107.1455041499
 30
0.0
 10
64.7136839188
 20
107.2706643684
 30
0.0
 10
64.8174214992
 20
107.3305569309
 30
0.0
  0
SPLINE
  5
345
100
AcDbEntity
  8
0
100
AcDbSpline
 62
7
  6
BYLAYER
 70
0
 71
3
 72
15
 73
11
 74
0
 42
0.0000001
 43
0.0000001
 44
0.0000000001
 40
0.0
 40
0.0
 40
0.0
 40
0.0
 40
0.1112116186
 40
0.2297266377
 40
0.3541039528
 40
0.4827033716
 40
0.6136040437
 40
0.7447919991
 40
0.8742433416
 40
1.0
 40
1.0
 40
1.0
 40
1.0
 10
67.9994034865
 20
103.3705322335
 30
0.0
 10
68.0777500736
 20
103.4157653867
 30
0.0
 10
68.2460755949
 20
103.4982248634
 30
0.0
 10
68.5179559109
 20
103.5949105196
 30
0.0
 10
68.8119947157
 20
103.6667485269
 30
0.0
 10
69.1213836264
 20
103.7121461604
 30
0.0
 10
69.4391032017
 20
103.7300373033
 30
0.0
 10
69.7578670345
 20
103.720026978
 30
0.0
 10
70.0703212771
 20
103.6823424834
 30
0.0
 10
70.2736329014
 20
103.6385087947
 30
0.0
 10
70.3724088543
 20
103.6118946667
 30
0.0
  0
SPLINE
  5
346
100
AcDbEntity
  8
0
100
AcDbSpline
 62
7
  6
BYLAYER
 70
0
 71
3
 72
15
 73
11
 74
0
 42
0.0000001
 43
0.0000001
 44
0.0000000001
 40
0.0
 40
0.0
 40
0.0
 40
0.0
 40
0.1174690373
 40
0.2425294639
 40
0.3727370354
 40
0.5052384489
 40
0.6370209847
 40
0.7651246
 40
0.8868451277
 40
1.0
 40
1.0
 40
1.0
 40
1.0
 10
72.4386596451
 20
104.5488631328
 30
0.0
 10
72.2123490197
 20
104.6583434921
 30
0.0
 10
71.7275239224
 20
104.8490324788
 30
0.0
 10
70.9527007614
 20
105.0458895131
 30
0.0
 10
70.1286926735
 20
105.1579850421
 30
0.0
 10
69.2831670045
 20
105.1814838348
 30
0.0
 10
68.4443740908
 20
105.1156556246
 30
0.0
 10
67.6403092218
 20
104.9626302032
 30
0.0
 10
66.8979347513
 20
104.7276176586
 30
0.0
 10
66.4413531483
 20
104.5122175903
 30
0.0
 10
66.2316291736
 20
104.3911341198
 30
0.0
  0
SPLINE
  5
347
100
AcDbEntity
  8
0
100
AcDbSpline
 62
7
  6
BYLAYER
 70
0
 71
3
 72
13
 73
9
 74
0
 42
0.0000001
 43
0.0000001
 44
0.0000000001
 40
0.0
 40
0.0
 40
0.0
 40
0.0
 40
0.1081664102
 40
0.2198130378
 40
0.4567181351
 40
0.5835437242
 40
0.716351233
 40
1.0
 40
1.0
 40
1.0
 40
1.0
 10
74.7268641824
 20
106.7185131269
 30
0.0
 10
74.7059227496
 20
106.7999574067
 30
0.0
 10
74.6521468953
 20
106.962781522
 30
0.0
 10
74.4991324317
 20
107.2839984124
 30
0.0
 10
74.2813647536
 20
107.5868617488
 30
0.0
 10
74.0131137757
 20
107.8649015157
 30
0.0
 10
73.6935131249
 20
108.1417915265
 30
0.0
 10
73.4229625034
 20
108.3225729297
 30
0.0
 10
73.2319842465
 20
108.4328317833
 30
0.0
  0
SPLINE
  5
348
100
AcDbEntity
  8
0
100
AcDbSpline
 62
7
  6
BYLAYER
 70
0
 71
3
 72
15
 73
11
 74
0
 42
0.0000001
 43
0.0000001
 44
0.0000000001
 40
0.0
 40
0.0
 40
0.0
 40
0.0
 40
0.148574205
 40
0.2895120449
 40
0.4227288316
 40
0.5486424549
 40
0.6680038396
 40
0.7819407218
 40
0.8919880057
 40
1.0
 40
1.0
 40
1.0
 40
1.0
 10
73.2319842465
 20
109.3309844422
 30
0.0
 10
73.3515102331
 20
109.2619776428
 30
0.0
 10
73.5790088081
 20
109.1177708282
 30
0.0
 10
73.8900437965
 20
108.8770499078
 30
0.0
 10
74.1590715383
 20
108.6195430556
 30
0.0
 10
74.3833839893
 20
108.3476273701
 30
0.0
 10
74.5607572678
 20
108.0637351032
 30
0.0
 10
74.6891281931
 20
107.7703910811
 30
0.0
 10
74.7668918492
 20
107.4705959525
 30
0.0
 10
74.784330024
 20
107.2676266658
 30
0.0
 10
74.7843300225
 20
107.1672904267
 30
0.0
  0
SPLINE
  5
349
100
AcDbEntity
  8
0
100
AcDbSpline
 62
7
  6
BYLAYER
 70
0
 71
3
 72
17
 73
13
 74
0
 42
0.0000001
 43
0.0000001
 44
0.0000000001
 40
0.0
 40
0.0
 40
0.0
 40
0.0
 40
0.0558475738
 40
0.1142244895
 40
0.2373702745
 40
0.3669985466
 40
0.4999994792
 40
0.6330004843
 40
0.7626289682
 40
0.8857750868
 40
0.9441522057
 40
1.0
 40
1.0
 40
1.0
 40
1.0
 10
65.736652366
 20
109.3309664256
 30
0.0
 10
65.8621886604
 20
109.4034444063
 30
0.0
 10
66.1254922023
 20
109.5405782318
 30
0.0
 10
66.6926644553
 20
109.7824225387
 30
0.0
 10
67.4679429659
 20
110.0180311489
 30
0.0
 10
68.4568294839
 20
110.1889066092
 30
0.0
 10
69.4843119861
 20
110.2465926379
 30
0.0
 10
70.5117953086
 20
110.1889114861
 30
0.0
 10
71.5006842559
 20
110.01804072
 30
0.0
 10
72.2759659105
 20
109.7824358547
 30
0.0
 10
72.8431414823
 20
109.5405943338
 30
0.0
 10
73.1064469336
 20
109.4034618039
 30
0.0
 10
73.2319842465
 20
109.3309844422
 30
0.0
  0
SPLINE
  5
34A
100
AcDbEntity
  8
0
100
AcDbSpline
 62
7
  6
BYLAYER
 70
0
 71
3
 72
15
 73
11
 74
0
 42
0.0000001
 43
0.0000001
 44
0.0000000001
 40
0.0
 40
0.0
 40
0.0
 40
0.0
 40
0.1141584021
 40
0.2373252831
 40
0.3669757617
 40
0.4999994786
 40
0.633023268
 40
0.7626739585
 40
0.8858411731
 40
1.0
 40
1.0
 40
1.0
 40
1.0
 10
66.2316291736
 20
108.1470452386
 30
0.0
 10
66.4543087804
 20
108.2756086021
 30
0.0
 10
66.9412186928
 20
108.5023485849
 30
0.0
 10
67.7341330526
 20
108.7433301226
 30
0.0
 10
68.592570683
 20
108.8916832039
 30
0.0
 10
69.4843148815
 20
108.9417343007
 30
0.0
 10
70.3760597927
 20
108.8916874363
 30
0.0
 10
71.2344995294
 20
108.7433384311
 30
0.0
 10
72.0274173025
 20
108.5023606625
 30
0.0
 10
72.5143301981
 20
108.2756231117
 30
0.0
 10
72.7370115605
 20
108.1470608756
 30
0.0
  0
SPLINE
  5
34B
100
AcDbEntity
  8
0
100
AcDbSpline
 62
7
  6
BYLAYER
 70
0
 71
3
 72
15
 73
11
 74
0
 42
0.0000001
 43
0.0000001
 44
0.0000000001
 40
0.0
 40
0.0
 40
0.0
 40
0.0
 40
0.148574205
 40
0.2895120449
 40
0.4227288316
 40
0.5486424549
 40
0.6680038396
 40
0.7819407218
 40
0.8919880057
 40
1.0
 40
1.0
 40
1.0
 40
1.0
 10
72.7370115605
 20
108.1470608756
 30
0.0
 10
72.840751096
 20
108.0871681818
 30
0.0
 10
73.0382026894
 20
107.9620075503
 30
0.0
 10
73.308157585
 20
107.753079959
 30
0.0
 10
73.5416533608
 20
107.5295834458
 30
0.0
 10
73.7363396391
 20
107.2935811527
 30
0.0
 10
73.8902862582
 20
107.0471840909
 30
0.0
 10
74.001702533
 20
106.7925836189
 30
0.0
 10
74.0691955175
 20
106.5323840732
 30
0.0
 10
74.0843305372
 20
106.3562220509
 30
0.0
 10
74.0843305359
 20
106.2691377678
 30
0.0
  0
SPLINE
  5
34C
100
AcDbEntity
  8
0
100
AcDbSpline
 62
7
  6
BYLAYER
 70
0
 71
3
 72
17
 73
13
 74
0
 42
0.0000001
 43
0.0000001
 44
0.0000000001
 40
0.0
 40
0.0
 40
0.0
 40
0.0
 40
0.0558477943
 40
0.1142249132
 40
0.2373710318
 40
0.3669995157
 40
0.5000005208
 40
0.6330014534
 40
0.7626297255
 40
0.8857755105
 40
0.9441524262
 40
1.0
 40
1.0
 40
1.0
 40
1.0
 10
73.2319842465
 20
108.4328317833
 30
0.0
 10
73.1064469336
 20
108.5053091451
 30
0.0
 10
72.8431414823
 20
108.6424416749
 30
0.0
 10
72.2759659105
 20
108.8842831959
 30
0.0
 10
71.5006842559
 20
109.1198880612
 30
0.0
 10
70.5117953086
 20
109.2907588273
 30
0.0
 10
69.4843119861
 20
109.3484399791
 30
0.0
 10
68.4568294839
 20
109.2907539504
 30
0.0
 10
67.4679429659
 20
109.1198784901
 30
0.0
 10
66.6926644553
 20
108.8842698798
 30
0.0
 10
66.1254922023
 20
108.6424255729
 30
0.0
 10
65.8621886604
 20
108.5052917475
 30
0.0
 10
65.736652366
 20
108.4328137668
 30
0.0
  0
SPLINE
  5
34D
100
AcDbEntity
  8
0
100
AcDbSpline
 62
7
  6
BYLAYER
 70
0
 71
3
 72
13
 73
9
 74
0
 42
0.0000001
 43
0.0000001
 44
0.0000000001
 40
0.0
 40
0.0
 40
0.0
 40
0.0
 40
0.2836479795
 40
0.4164553168
 40
0.5432808848
 40
0.780186349
 40
0.8918332774
 40
1.0
 40
1.0
 40
1.0
 40
1.0
 10
64.3224446916
 20
107.616325459
 30
0.0
 10
64.1314726795
 20
107.5060683746
 30
0.0
 10
63.8609308216
 20
107.3252904002
 30
0.0
 10
63.5413400039
 20
107.0484068754
 30
0.0
 10
63.2730963053
 20
106.7703737414
 30
0.0
 10
63.0553334861
 20
106.4675183519
 30
0.0
 10
62.9023203735
 20
106.1463101747
 30
0.0
 10
62.8485439953
 20
105.983490417
 30
0.0
 10
62.8276019909
 20
105.9020482702
 30
0.0
  0
SPLINE
  5
34E
100
AcDbEntity
  8
0
100
AcDbSpline
 62
7
  6
BYLAYER
 70
0
 71
3
 72
11
 73
7
 74
0
 42
0.0000001
 43
0.0000001
 44
0.0000000001
 40
0.0
 40
0.0
 40
0.0
 40
0.0
 40
0.2177799129
 40
0.4509189075
 40
0.7102562036
 40
1.0
 40
1.0
 40
1.0
 40
1.0
 10
57.2139854333
 20
101.023209088
 30
0.0
 10
57.2139942398
 20
100.9775038565
 30
0.0
 10
57.1970924982
 20
100.8822361199
 30
0.0
 10
57.1248814056
 20
100.749509385
 30
0.0
 10
57.0107214146
 20
100.6295102319
 30
0.0
 10
56.9151872413
 20
100.5637241776
 30
0.0
 10
56.8625257047
 20
100.5333202068
 30
0.0
  0
SPLINE
  5
34F
100
AcDbEntity
  8
0
100
AcDbSpline
 62
7
  6
BYLAYER
 70
0
 71
3
 72
9
 73
5
 74
0
 42
0.0000001
 43
0.0000001
 44
0.0000000001
 40
0.0
 40
0.0
 40
0.0
 40
0.0
 40
0.4910177692
 40
1.0
 40
1.0
 40
1.0
 40
1.0
 10
51.4263385991
 20
93.1479695043
 30
0.0
 10
51.4250432055
 20
93.0266084515
 30
0.0
 10
51.3927974821
 20
92.7789588731
 30
0.0
 10
51.305430952
 20
92.5454421033
 30
0.0
 10
51.2498881676
 20
92.4325583513
 30
0.0
  0
SPLINE
  5
350
100
AcDbEntity
  8
0
100
AcDbSpline
 62
7
  6
BYLAYER
 70
0
 71
3
 72
15
 73
11
 74
0
 42
0.0000001
 43
0.0000001
 44
0.0000000001
 40
0.0
 40
0.0
 40
0.0
 40
0.0
 40
0.1080717557
 40
0.2180886248
 40
0.3319482263
 40
0.4512250992
 40
0.577076952
 40
0.7102960677
 40
0.8513124731
 40
1.0
 40
1.0
 40
1.0
 40
1.0
 10
52.0765806355
 20
94.0815006094
 30
0.0
 10
52.0776574186
 20
93.9806208361
 30
0.0
 10
52.0622217975
 20
93.7764356705
 30
0.0
 10
51.9865670384
 20
93.4745441017
 30
0.0
 10
51.85957094
 20
93.1790544583
 30
0.0
 10
51.6828145553
 20
92.8930561907
 30
0.0
 10
51.4583934667
 20
92.6191347955
 30
0.0
 10
51.1885777407
 20
92.3597541876
 30
0.0
 10
50.8761195228
 20
92.1173967819
 30
0.0
 10
50.6473993159
 20
91.972295979
 30
0.0
 10
50.5271943396
 20
91.9028960178
 30
0.0
  0
SPLINE
  5
351
100
AcDbEntity
  8
0
100
AcDbSpline
 62
7
  6
BYLAYER
 70
0
 71
3
 72
14
 73
10
 74
0
 42
0.0000001
 43
0.0000001
 44
0.0000000001
 40
0.0
 40
0.0
 40
0.0
 40
0.0
 40
0.10796747
 40
0.2181867543
 40
0.3323944519
 40
0.4520120592
 40
0.5780826062
 40
0.7113214226
 40
1.0
 40
1.0
 40
1.0
 40
1.0
 10
36.8413620539
 20
92.687187075
 30
0.0
 10
36.8441594566
 20
92.7798363016
 30
0.0
 10
36.865576567
 20
92.9669451248
 30
0.0
 10
36.9440702865
 20
93.2424923856
 30
0.0
 10
37.0680124315
 20
93.5117997837
 30
0.0
 10
37.2359265591
 20
93.7722579883
 30
0.0
 10
37.446056091
 20
94.021671638
 30
0.0
 10
37.7887754102
 20
94.345068542
 30
0.0
 10
38.0900368928
 20
94.5511739389
 30
0.0
 10
38.3048579257
 20
94.6747608828
 30
0.0
  0
SPLINE
  5
352
100
AcDbEntity
  8
0
100
AcDbSpline
 62
7
  6
BYLAYER
 70
0
 71
3
 72
15
 73
11
 74
0
 42
0.0000001
 43
0.0000001
 44
0.0000000001
 40
0.0
 40
0.0
 40
0.0
 40
0.0
 40
0.1486877925
 40
0.2897043976
 40
0.4229236406
 40
0.548775537
 40
0.66805236
 40
0.7819118221
 40
0.8919284856
 40
1.0
 40
1.0
 40
1.0
 40
1.0
 10
41.6312306049
 20
91.0863897262
 30
0.0
 10
41.5110233719
 20
91.1557898345
 30
0.0
 10
41.2822988254
 20
91.3008910976
 30
0.0
 10
40.9698344943
 20
91.5432498058
 30
0.0
 10
40.70001335
 20
91.8026322126
 30
0.0
 10
40.4755876602
 20
92.0765558667
 30
0.0
 10
40.2988275562
 20
92.3625567619
 30
0.0
 10
40.1718287579
 20
92.658049355
 30
0.0
 10
40.0961723382
 20
92.9599440831
 30
0.0
 10
40.0807363685
 20
93.1641314599
 30
0.0
 10
40.0818131587
 20
93.2650123017
 30
0.0
  0
SPLINE
  5
353
100
AcDbEntity
  8
0
100
AcDbSpline
 62
7
  6
BYLAYER
 70
0
 71
3
 72
15
 73
11
 74
0
 42
0.0000001
 43
0.0000001
 44
0.0000000001
 40
0.0
 40
0.0
 40
0.0
 40
0.0
 40
0.1141576923
 40
0.237324686
 40
0.3669758813
 40
0.4999994688
 40
0.6330231302
 40
0.7626745415
 40
0.8858418756
 40
1.0
 40
1.0
 40
1.0
 40
1.0
 10
49.1129866652
 20
91.0864077101
 30
0.0
 10
48.856887387
 20
90.9385496055
 30
0.0
 10
48.2969008848
 20
90.6777780053
 30
0.0
 10
47.3849797883
 20
90.4006295599
 30
0.0
 10
46.3976996563
 20
90.2300118203
 30
0.0
 10
45.3721150172
 20
90.172458844
 30
0.0
 10
44.3465295466
 20
90.2300069367
 30
0.0
 10
43.3592469578
 20
90.400619979
 30
0.0
 10
42.4473218872
 20
90.6777640937
 30
0.0
 10
41.8873319187
 20
90.9385329087
 30
0.0
 10
41.6312306049
 20
91.0863897262
 30
0.0
  0
SPLINE
  5
354
100
AcDbEntity
  8
0
100
AcDbSpline
 62
7
  6
BYLAYER
 70
0
 71
3
 72
9
 73
5
 74
0
 42
0.0000001
 43
0.0000001
 44
0.0000000001
 40
0.0
 40
0.0
 40
0.0
 40
0.0
 40
0.5089824702
 40
1.0
 40
1.0
 40
1.0
 40
1.0
 10
40.9085106887
 20
91.6160597461
 30
0.0
 10
40.8529663478
 20
91.7289449555
 30
0.0
 10
40.7655972755
 20
91.9624649282
 30
0.0
 10
40.7333506148
 20
92.2101183357
 30
0.0
 10
40.7320551967
 20
92.3314811966
 30
0.0
  0
SPLINE
  5
355
100
AcDbEntity
  8
0
100
AcDbSpline
 62
7
  6
BYLAYER
 70
0
 71
3
 72
15
 73
11
 74
0
 42
0.0000001
 43
0.0000001
 44
0.0000000001
 40
0.0
 40
0.0
 40
0.0
 40
0.0
 40
0.1079903215
 40
0.2180671475
 40
0.3319996939
 40
0.4513581641
 40
0.5772738167
 40
0.7104901839
 40
0.851426454
 40
1.0
 40
1.0
 40
1.0
 40
1.0
 10
63.8139940344
 20
101.0232278611
 30
0.0
 10
63.8139950991
 20
100.8755940652
 30
0.0
 10
63.788304787
 20
100.576880907
 30
0.0
 10
63.6739195024
 20
100.1356566899
 30
0.0
 10
63.4849630089
 20
99.703924816
 30
0.0
 10
63.2239240415
 20
99.2861364271
 30
0.0
 10
62.8938194184
 20
98.8859533878
 30
0.0
 10
62.4978952188
 20
98.5069834747
 30
0.0
 10
62.040155171
 20
98.1527167794
 30
0.0
 10
61.7053530827
 20
97.940488376
 30
0.0
 10
61.5294498906
 20
97.8389312269
 30
0.0
  0
SPLINE
  5
356
100
AcDbEntity
  8
0
100
AcDbSpline
 62
7
  6
BYLAYER
 70
0
 71
3
 72
11
 73
7
 74
0
 42
0.0000001
 43
0.0000001
 44
0.0000000001
 40
0.0
 40
0.0
 40
0.0
 40
0.0
 40
0.2286710676
 40
0.4747141342
 40
0.7336533555
 40
1.0
 40
1.0
 40
1.0
 40
1.0
 10
61.5294498906
 20
97.8389312269
 30
0.0
 10
61.1721431332
 20
97.6326413057
 30
0.0
 10
60.394000854
 20
97.2659020953
 30
0.0
 10
59.1285955846
 20
96.8665759876
 30
0.0
 10
57.758213999
 20
96.6075896113
 30
0.0
 10
56.8110796111
 20
96.5349237378
 30
0.0
 10
56.330653611
 20
96.5236539464
 30
0.0
  0
SPLINE
  5
357
100
AcDbEntity
  8
0
100
AcDbSpline
 62
7
  6
BYLAYER
 70
0
 71
3
 72
14
 73
10
 74
0
 42
0.0000001
 43
0.0000001
 44
0.0000000001
 40
0.0
 40
0.0
 40
0.0
 40
0.0
 40
0.305432054
 40
0.4495478181
 40
0.5833151795
 40
0.7045498691
 40
0.8127388899
 40
0.9097502515
 40
1.0
 40
1.0
 40
1.0
 40
1.0
 10
56.330653611
 20
96.5236539464
 30
0.0
 10
56.2301763577
 20
96.5212969597
 30
0.0
 10
56.0809534888
 20
96.5344468521
 30
0.0
 10
55.895892542
 20
96.5869514807
 30
0.0
 10
55.7753634556
 20
96.6404572444
 30
0.0
 10
55.6752352387
 20
96.7069322013
 30
0.0
 10
55.5992808858
 20
96.7842961169
 30
0.0
 10
55.5511216174
 20
96.8703285138
 30
0.0
 10
55.5397998152
 20
96.9323729035
 30
0.0
 10
55.539799601
 20
96.9620703152
 30
0.0
  0
SPLINE
  5
358
100
AcDbEntity
  8
0
100
AcDbSpline
 62
7
  6
BYLAYER
 70
0
 71
3
 72
11
 73
7
 74
0
 42
0.0000001
 43
0.0000001
 44
0.0000000001
 40
0.0
 40
0.0
 40
0.0
 40
0.0
 40
0.2187433484
 40
0.454909338
 40
0.714560473
 40
1.0
 40
1.0
 40
1.0
 40
1.0
 10
59.3826303548
 20
100.8038272435
 30
0.0
 10
59.3608185543
 20
100.6921894507
 30
0.0
 10
59.2807730189
 20
100.465891727
 30
0.0
 10
59.0706343843
 20
100.1556366089
 30
0.0
 10
58.7759120831
 20
99.8725081386
 30
0.0
 10
58.5396414565
 20
99.7134882637
 30
0.0
 10
58.4110960027
 20
99.6392729544
 30
0.0
  0
SPLINE
  5
359
100
AcDbEntity
  8
0
100
AcDbSpline
 62
7
  6
BYLAYER
 70
0
 71
3
 72
11
 73
7
 74
0
 42
0.0000001
 43
0.0000001
 44
0.0000000001
 40
0.0
 40
0.0
 40
0.0
 40
0.0
 40
0.2294501174
 40
0.4751293521
 40
0.7334547284
 40
1.0
 40
1.0
 40
1.0
 40
1.0
 10
58.4110960027
 20
99.6392729544
 30
0.0
 10
58.2705513146
 20
99.5581299252
 30
0.0
 10
57.9665830256
 20
99.4119841008
 30
0.0
 10
57.4737591252
 20
99.2465525365
 30
0.0
 10
56.9401565647
 20
99.1308757219
 30
0.0
 10
56.5705154234
 20
99.0894833156
 30
0.0
 10
56.382366084
 20
99.0776091759
 30
0.0
  0
SPLINE
  5
35A
100
AcDbEntity
  8
0
100
AcDbSpline
 62
7
  6
BYLAYER
 70
0
 71
3
 72
15
 73
11
 74
0
 42
0.0000001
 43
0.0000001
 44
0.0000000001
 40
0.0
 40
0.0
 40
0.0
 40
0.0
 40
0.1531972126
 40
0.3043748097
 40
0.4490050987
 40
0.583589514
 40
0.7055192679
 40
0.8139446395
 40
0.9105846407
 40
1.0
 40
1.0
 40
1.0
 40
1.0
 10
56.382366084
 20
99.0776091759
 30
0.0
 10
56.3293982799
 20
99.074266368
 30
0.0
 10
56.2236499499
 20
99.0740491754
 30
0.0
 10
56.0688097434
 20
99.0924295455
 30
0.0
 10
55.9237579677
 20
99.1288496654
 30
0.0
 10
55.7946369658
 20
99.1817120381
 30
0.0
 10
55.6867752535
 20
99.2490588922
 30
0.0
 10
55.6045780614
 20
99.3285784163
 30
0.0
 10
55.55217938
 20
99.4178875552
 30
0.0
 10
55.5397814231
 20
99.4828122574
 30
0.0
 10
55.5397811997
 20
99.5137890457
 30
0.0
  0
SPLINE
  5
35B
100
AcDbEntity
  8
0
100
AcDbSpline
 62
7
  6
BYLAYER
 70
0
 71
3
 72
13
 73
9
 74
0
 42
0.0000001
 43
0.0000001
 44
0.0000000001
 40
0.0
 40
0.0
 40
0.0
 40
0.0
 40
0.3047544048
 40
0.5720024426
 40
0.6905688689
 40
0.7998254633
 40
0.9018930407
 40
1.0
 40
1.0
 40
1.0
 40
1.0
 10
55.5397749042
 20
100.386791672
 30
0.0
 10
55.4379855589
 20
100.4120733355
 30
0.0
 10
55.2504986363
 20
100.4763630932
 30
0.0
 10
55.0458159481
 20
100.6032751699
 30
0.0
 10
54.9258229916
 20
100.7253496154
 30
0.0
 10
54.8621517673
 20
100.8202884808
 30
0.0
 10
54.822909921
 20
100.9202654696
 30
0.0
 10
54.8140091414
 20
100.9894453795
 30
0.0
 10
54.8140026357
 20
101.0232091364
 30
0.0
  0
SPLINE
  5
35C
100
AcDbEntity
  8
0
100
AcDbSpline
 62
7
  6
BYLAYER
 70
0
 71
3
 72
9
 73
5
 74
0
 42
0.0000001
 43
0.0000001
 44
0.0000000001
 40
0.0
 40
0.0
 40
0.0
 40
0.0
 40
0.4769290283
 40
1.0
 40
1.0
 40
1.0
 40
1.0
 10
56.8625257047
 20
100.5333202068
 30
0.0
 10
56.7806922309
 20
100.4860739107
 30
0.0
 10
56.5967675896
 20
100.4080148995
 30
0.0
 10
56.4023870524
 20
100.3648586576
 30
0.0
 10
56.2997751672
 20
100.350332128
 30
0.0
  0
SPLINE
  5
35D
100
AcDbEntity
  8
0
100
AcDbSpline
 62
7
  6
BYLAYER
 70
0
 71
3
 72
14
 73
10
 74
0
 42
0.0000001
 43
0.0000001
 44
0.0000000001
 40
0.0
 40
0.0
 40
0.0
 40
0.0
 40
0.1077218268
 40
0.2184685598
 40
0.3334941183
 40
0.453883764
 40
0.5803945532
 40
0.7135108597
 40
1.0
 40
1.0
 40
1.0
 40
1.0
 10
61.58923001
 20
100.7693297815
 30
0.0
 10
61.5761756523
 20
100.6737738291
 30
0.0
 10
61.5347694088
 20
100.4817336726
 30
0.0
 10
61.4298468164
 20
100.2011983724
 30
0.0
 10
61.2824711348
 20
99.9275430798
 30
0.0
 10
61.0940709254
 20
99.6629864795
 30
0.0
 10
60.8662594899
 20
99.4093696668
 30
0.0
 10
60.5036353955
 20
99.0804605156
 30
0.0
 10
60.1906720301
 20
98.8683484419
 30
0.0
 10
59.9685411823
 20
98.7401019027
 30
0.0
  0
SPLINE
  5
35E
100
AcDbEntity
  8
0
100
AcDbSpline
 62
7
  6
BYLAYER
 70
0
 71
3
 72
11
 73
7
 74
0
 42
0.0000001
 43
0.0000001
 44
0.0000000001
 40
0.0
 40
0.0
 40
0.0
 40
0.0
 40
0.2287766391
 40
0.4747527322
 40
0.7335987953
 40
1.0
 40
1.0
 40
1.0
 40
1.0
 10
59.9685411823
 20
98.7401019027
 30
0.0
 10
59.7161115181
 20
98.594362438
 30
0.0
 10
59.1669505779
 20
98.3347406611
 30
0.0
 10
58.2742806729
 20
98.0503112878
 30
0.0
 10
57.3075133324
 20
97.8635171954
 30
0.0
 10
56.6390625689
 20
97.8086363749
 30
0.0
 10
56.2997935684
 20
97.7986133975
 30
0.0
  0
SPLINE
  5
35F
100
AcDbEntity
  8
0
100
AcDbSpline
 62
7
  6
BYLAYER
 70
0
 71
3
 72
14
 73
10
 74
0
 42
0.0000001
 43
0.0000001
 44
0.0000000001
 40
0.0
 40
0.0
 40
0.0
 40
0.0
 40
0.1081070515
 40
0.2181598518
 40
0.3320566394
 40
0.4513724676
 40
0.5772654232
 40
0.7105280478
 40
1.0
 40
1.0
 40
1.0
 40
1.0
 10
40.7320551967
 20
92.3314811966
 30
0.0
 10
40.7311107637
 20
92.4199615751
 30
0.0
 10
40.744649211
 20
92.5990498967
 30
0.0
 10
40.8110047775
 20
92.863834797
 30
0.0
 10
40.9223924986
 20
93.1230065572
 30
0.0
 10
41.0774191265
 20
93.3738459718
 30
0.0
 10
41.2742729108
 20
93.6141235095
 30
0.0
 10
41.5985865335
 20
93.9258480079
 30
0.0
 10
41.8858127472
 20
94.1238422475
 30
0.0
 10
42.0910024004
 20
94.2423078418
 30
0.0
  0
SPLINE
  5
360
100
AcDbEntity
  8
0
100
AcDbSpline
 62
7
  6
BYLAYER
 70
0
 71
3
 72
12
 73
8
 74
0
 42
0.0000001
 43
0.0000001
 44
0.0000000001
 40
0.0
 40
0.0
 40
0.0
 40
0.0
 40
0.1082416655
 40
0.2199918883
 40
0.4570736221
 40
0.7165140461
 40
1.0
 40
1.0
 40
1.0
 40
1.0
 10
52.0250162931
 20
93.6284274281
 30
0.0
 10
52.0035499179
 20
93.7092138349
 30
0.0
 10
51.9489474138
 20
93.8706823662
 30
0.0
 10
51.7948979096
 20
94.1890873027
 30
0.0
 10
51.5168287848
 20
94.5726717852
 30
0.0
 10
51.0737297487
 20
94.984906761
 30
0.0
 10
50.7235444964
 20
95.2187351057
 30
0.0
 10
50.5339510719
 20
95.3281944441
 30
0.0
  0
SPLINE
  5
361
100
AcDbEntity
  8
0
100
AcDbSpline
 62
7
  6
BYLAYER
 70
0
 71
3
 72
15
 73
11
 74
0
 42
0.0000001
 43
0.0000001
 44
0.0000000001
 40
0.0
 40
0.0
 40
0.0
 40
0.0
 40
0.1079569918
 40
0.2180401561
 40
0.3320585431
 40
0.4515017346
 40
0.5774624291
 40
0.7106879455
 40
0.8515792297
 40
1.0
 40
1.0
 40
1.0
 40
1.0
 10
40.0818131587
 20
93.2650123017
 30
0.0
 10
40.082874357
 20
93.3644323916
 30
0.0
 10
40.1021484519
 20
93.5654440749
 30
0.0
 10
40.1817551476
 20
93.8620403576
 30
0.0
 10
40.310986192
 20
94.1521725701
 30
0.0
 10
40.4882773388
 20
94.4329307642
 30
0.0
 10
40.7116441311
 20
94.7018473975
 30
0.0
 10
40.9788947489
 20
94.9565854946
 30
0.0
 10
41.2873977581
 20
95.1947643812
 30
0.0
 10
41.5128206163
 20
95.3375762026
 30
0.0
 10
41.6311994554
 20
95.4059218492
 30
0.0
  0
SPLINE
  5
362
100
AcDbEntity
  8
0
100
AcDbSpline
 62
7
  6
BYLAYER
 70
0
 71
3
 72
15
 73
11
 74
0
 42
0.0000001
 43
0.0000001
 44
0.0000000001
 40
0.0
 40
0.0
 40
0.0
 40
0.0
 40
0.1489420542
 40
0.2900905148
 40
0.423327361
 40
0.5491012268
 40
0.6682374289
 40
0.7819472967
 40
0.8918768634
 40
1.0
 40
1.0
 40
1.0
 40
1.0
 10
38.3048867964
 20
90.5929403061
 30
0.0
 10
38.1897194554
 20
90.6596746675
 30
0.0
 10
37.970740347
 20
90.799217831
 30
0.0
 10
37.6720825063
 20
91.0324520278
 30
0.0
 10
37.4149417401
 20
91.2820950202
 30
0.0
 10
37.2020202801
 20
91.5457008555
 30
0.0
 10
37.0355349707
 20
91.8208245022
 30
0.0
 10
36.9175640182
 20
92.1049137661
 30
0.0
 10
36.8496226938
 20
92.3948900677
 30
0.0
 10
36.8384458923
 20
92.5906045817
 30
0.0
 10
36.8413620539
 20
92.687187075
 30
0.0
  0
SPLINE
  5
363
100
AcDbEntity
  8
0
100
AcDbSpline
 62
7
  6
BYLAYER
 70
0
 71
3
 72
9
 73
5
 74
0
 42
0.0000001
 43
0.0000001
 44
0.0000000001
 40
0.0
 40
0.0
 40
0.0
 40
0.0
 40
0.2558565906
 40
1.0
 40
1.0
 40
1.0
 40
1.0
 10
38.6646744655
 20
94.8753034305
 30
0.0
 10
38.6327911984
 20
94.8568971579
 30
0.0
 10
38.5091291463
 20
94.7833292594
 30
0.0
 10
38.3893628471
 20
94.7031503219
 30
0.0
 10
38.3031996005
 20
94.639583906
 30
0.0
  0
SPLINE
  5
364
100
AcDbEntity
  8
0
100
AcDbSpline
 62
7
  6
BYLAYER
 70
0
 71
3
 72
20
 73
16
 74
0
 42
0.0000001
 43
0.0000001
 44
0.0000000001
 40
0.0
 40
0.0
 40
0.0
 40
0.0
 40
0.1378544629
 40
0.2016549108
 40
0.2623883171
 40
0.3205349638
 40
0.3767390245
 40
0.4317805444
 40
0.4865284113
 40
0.5418728292
 40
0.5986585655
 40
0.7191085237
 40
0.7840420845
 40
0.8524667153
 40
1.0
 40
1.0
 40
1.0
 40
1.0
 10
38.3031996005
 20
94.639583906
 30
0.0
 10
38.1445980191
 20
94.5225765452
 30
0.0
 10
37.9257755238
 20
94.3309472832
 30
0.0
 10
37.6883576177
 20
94.0396043267
 30
0.0
 10
37.5486840272
 20
93.8180440985
 30
0.0
 10
37.444259752
 20
93.5896617791
 30
0.0
 10
37.3761259924
 20
93.3563194404
 30
0.0
 10
37.3450936898
 20
93.1200612588
 30
0.0
 10
37.3514804195
 20
92.8830769494
 30
0.0
 10
37.3952963395
 20
92.6475616265
 30
0.0
 10
37.5047944097
 20
92.3324580579
 30
0.0
 10
37.6884157961
 20
92.0334724263
 30
0.0
 10
37.9287193779
 20
91.7610254403
 30
0.0
 10
38.2250122958
 20
91.4889731968
 30
0.0
 10
38.4820260686
 20
91.3142084604
 30
0.0
 10
38.6647012029
 20
91.2087516375
 30
0.0
  0
SPLINE
  5
365
100
AcDbEntity
  8
0
100
AcDbSpline
 62
7
  6
BYLAYER
 70
0
 71
3
 72
15
 73
11
 74
0
 42
0.0000001
 43
0.0000001
 44
0.0000000001
 40
0.0
 40
0.0
 40
0.0
 40
0.0
 40
0.1484210339
 40
0.289312516
 40
0.4225381582
 40
0.548498896
 40
0.6679420389
 40
0.7819602884
 40
0.892043249
 40
1.0
 40
1.0
 40
1.0
 40
1.0
 10
50.5271631901
 20
96.2224281409
 30
0.0
 10
50.6455442712
 20
96.154082338
 30
0.0
 10
50.8709714413
 20
96.0112700412
 30
0.0
 10
51.1794805252
 20
95.7730898398
 30
0.0
 10
51.4467365322
 20
95.5183499403
 30
0.0
 10
51.6701079094
 20
95.249431052
 30
0.0
 10
51.8474027776
 20
94.9686702412
 30
0.0
 10
51.976636538
 20
94.6785350909
 30
0.0
 10
52.0562449414
 20
94.381935664
 30
0.0
 10
52.0755194215
 20
94.18092177
 30
0.0
 10
52.0765806355
 20
94.0815006094
 30
0.0
  0
SPLINE
  5
366
100
AcDbEntity
  8
0
100
AcDbSpline
 62
7
  6
BYLAYER
 70
0
 71
3
 72
15
 73
11
 74
0
 42
0.0000001
 43
0.0000001
 44
0.0000000001
 40
0.0
 40
0.0
 40
0.0
 40
0.0
 40
0.1141576923
 40
0.237324686
 40
0.3669758813
 40
0.4999994688
 40
0.6330231302
 40
0.7626745415
 40
0.8858418756
 40
1.0
 40
1.0
 40
1.0
 40
1.0
 10
43.0454071298
 20
96.2224101569
 30
0.0
 10
43.301506408
 20
96.3702682616
 30
0.0
 10
43.8614929103
 20
96.6310398617
 30
0.0
 10
44.7734140067
 20
96.9081883071
 30
0.0
 10
45.7606941387
 20
97.0788060468
 30
0.0
 10
46.7862787778
 20
97.136359023
 30
0.0
 10
47.8118642484
 20
97.0788109303
 30
0.0
 10
48.7991468372
 20
96.9081978881
 30
0.0
 10
49.7110719078
 20
96.6310537734
 30
0.0
 10
50.2710618763
 20
96.3702849584
 30
0.0
 10
50.5271631901
 20
96.2224281409
 30
0.0
  0
SPLINE
  5
367
100
AcDbEntity
  8
0
100
AcDbSpline
 62
7
  6
BYLAYER
 70
0
 71
3
 72
12
 73
8
 74
0
 42
0.0000001
 43
0.0000001
 44
0.0000000001
 40
0.0
 40
0.0
 40
0.0
 40
0.0
 40
0.2834857054
 40
0.5429259816
 40
0.7800077816
 40
0.891758134
 40
1.0
 40
1.0
 40
1.0
 40
1.0
 10
41.624411517
 20
94.5116881198
 30
0.0
 10
41.4348209898
 20
94.4022286312
 30
0.0
 10
41.0846412812
 20
94.1684002937
 30
0.0
 10
40.6415500737
 20
93.7561663678
 30
0.0
 10
40.3634866895
 20
93.3725836792
 30
0.0
 10
40.2094409446
 20
93.0541806123
 30
0.0
 10
40.1548400189
 20
92.8927131248
 30
0.0
 10
40.1333743478
 20
92.8119272565
 30
0.0
  0
SPLINE
  5
368
100
AcDbEntity
  8
0
100
AcDbSpline
 62
7
  6
BYLAYER
 70
0
 71
3
 72
15
 73
11
 74
0
 42
0.0000001
 43
0.0000001
 44
0.0000000001
 40
0.0
 40
0.0
 40
0.0
 40
0.0
 40
0.1141581171
 40
0.2373254444
 40
0.3669768515
 40
0.5000005115
 40
0.6330241004
 40
0.7626752999
 40
0.8858423003
 40
1.0
 40
1.0
 40
1.0
 40
1.0
 10
50.5339510719
 20
95.3281944441
 30
0.0
 10
50.2773850729
 20
95.4763195416
 30
0.0
 10
49.716379025
 20
95.7375615159
 30
0.0
 10
48.8027992939
 20
96.0152085109
 30
0.0
 10
47.8137252924
 20
96.186131144
 30
0.0
 10
46.7862788849
 20
96.243783675
 30
0.0
 10
45.7588332868
 20
96.1861262835
 30
0.0
 10
44.7697616776
 20
96.0151989636
 30
0.0
 10
43.8561858304
 20
95.7375476218
 30
0.0
 10
43.2951831843
 20
95.4763028336
 30
0.0
 10
43.0386191914
 20
95.3281764275
 30
0.0
  0
SPLINE
  5
369
100
AcDbEntity
  8
0
100
AcDbSpline
 62
7
  6
BYLAYER
 70
0
 71
3
 72
14
 73
10
 74
0
 42
0.0000001
 43
0.0000001
 44
0.0000000001
 40
0.0
 40
0.0
 40
0.0
 40
0.0
 40
0.289472416
 40
0.4227351683
 40
0.5486281677
 40
0.6679439463
 40
0.7818405948
 40
0.8918931896
 40
1.0
 40
1.0
 40
1.0
 40
1.0
 10
50.0673640737
 20
95.058811923
 30
0.0
 10
50.272557541
 20
94.9403460995
 30
0.0
 10
50.5597892543
 20
94.7423510701
 30
0.0
 10
50.8841094625
 20
94.4306243378
 30
0.0
 10
51.0809672832
 20
94.1903448188
 30
0.0
 10
51.2359971731
 20
93.9395030996
 30
0.0
 10
51.3473872623
 20
93.6803287522
 30
0.0
 10
51.4137442853
 20
93.4155410811
 30
0.0
 10
51.4272830382
 20
93.23645082
 30
0.0
 10
51.4263385991
 20
93.1479695043
 30
0.0
  0
SPLINE
  5
36A
100
AcDbEntity
  8
0
100
AcDbSpline
 62
7
  6
BYLAYER
 70
0
 71
3
 72
15
 73
11
 74
0
 42
0.0000001
 43
0.0000001
 44
0.0000000001
 40
0.0
 40
0.0
 40
0.0
 40
0.0
 40
0.1141576923
 40
0.237324686
 40
0.3669758813
 40
0.4999994688
 40
0.6330231302
 40
0.7626745415
 40
0.8858418756
 40
1.0
 40
1.0
 40
1.0
 40
1.0
 10
43.5052100748
 20
95.0587961495
 30
0.0
 10
43.7298315259
 20
95.1884806306
 30
0.0
 10
44.2209886333
 20
95.4172001164
 30
0.0
 10
45.0208231403
 20
95.6602835269
 30
0.0
 10
45.8867541081
 20
95.8099301972
 30
0.0
 10
46.7862814766
 20
95.8604091877
 30
0.0
 10
47.6858095744
 20
95.8099344805
 30
0.0
 10
48.551742697
 20
95.6602919302
 30
0.0
 10
49.3515806897
 20
95.4172123182
 30
0.0
 10
49.8427408373
 20
95.1884952752
 30
0.0
 10
50.0673640737
 20
95.058811923
 30
0.0
  0
SPLINE
  5
36B
100
AcDbEntity
  8
0
100
AcDbSpline
 62
7
  6
BYLAYER
 70
0
 71
3
 72
15
 73
11
 74
0
 42
0.0000001
 43
0.0000001
 44
0.0000000001
 40
0.0
 40
0.0
 40
0.0
 40
0.0
 40
0.1176444163
 40
0.2428150799
 40
0.3730537179
 40
0.505525614
 40
0.6372367719
 40
0.76525361
 40
0.886900549
 40
1.0
 40
1.0
 40
1.0
 40
1.0
 10
49.5954001074
 20
91.3651056348
 30
0.0
 10
49.3787825136
 20
91.4687766997
 30
0.0
 10
48.915182913
 20
91.6492048224
 30
0.0
 10
48.1750321178
 20
91.8351274701
 30
0.0
 10
47.3886439622
 20
91.9403970138
 30
0.0
 10
46.582287486
 20
91.9614479188
 30
0.0
 10
45.7827126435
 20
91.8976198625
 30
0.0
 10
45.0164073622
 20
91.7509787674
 30
0.0
 10
44.3089106177
 20
91.5264520008
 30
0.0
 10
43.8737287107
 20
91.3209925184
 30
0.0
 10
43.6737891586
 20
91.2055580532
 30
0.0
  0
SPLINE
  5
36C
100
AcDbEntity
  8
0
100
AcDbSpline
 62
7
  6
BYLAYER
 70
0
 71
3
 72
12
 73
8
 74
0
 42
0.0000001
 43
0.0000001
 44
0.0000000001
 40
0.0
 40
0.0
 40
0.0
 40
0.0
 40
0.1110721771
 40
0.2292296572
 40
0.480944694
 40
0.742748994
 40
1.0
 40
1.0
 40
1.0
 40
1.0
 10
45.3587592456
 20
90.2327621275
 30
0.0
 10
45.4305807379
 20
90.2742280379
 30
0.0
 10
45.5844885036
 20
90.3502017617
 30
0.0
 10
45.922414685
 20
90.4732311424
 30
0.0
 10
46.3875737883
 20
90.5675007203
 30
0.0
 10
46.9650735221
 20
90.5856902306
 30
0.0
 10
47.3514996524
 20
90.5335805234
 30
0.0
 10
47.5386131496
 20
90.4901980221
 30
0.0
  0
SPLINE
  5
36D
100
AcDbEntity
  8
0
100
AcDbSpline
 62
7
  6
BYLAYER
 70
0
 71
3
 72
11
 73
7
 74
0
 42
0.0000001
 43
0.0000001
 44
0.0000000001
 40
0.0
 40
0.0
 40
0.0
 40
0.0
 40
0.2377111426
 40
0.500510783
 40
0.7630258615
 40
1.0
 40
1.0
 40
1.0
 40
1.0
 10
43.5323725985
 20
91.4490785312
 30
0.0
 10
43.532546553
 20
91.4259611415
 30
0.0
 10
43.5414439814
 20
91.3773153191
 30
0.0
 10
43.5718162909
 20
91.3090126911
 30
0.0
 10
43.6160320544
 20
91.2488305088
 30
0.0
 10
43.6538303051
 20
91.217081042
 30
0.0
 10
43.6737891586
 20
91.2055580532
 30
0.0
  0
SPLINE
  5
36E
100
AcDbEntity
  8
0
100
AcDbSpline
 62
7
  6
BYLAYER
 70
0
 71
3
 72
15
 73
11
 74
0
 42
0.0000001
 43
0.0000001
 44
0.0000000001
 40
0.0
 40
0.0
 40
0.0
 40
0.0
 40
0.1159409641
 40
0.2401251611
 40
0.3700843497
 40
0.5028343368
 40
0.635194185
 40
0.7640116206
 40
0.8863943746
 40
1.0
 40
1.0
 40
1.0
 40
1.0
 10
49.8861335133
 20
91.5340070986
 30
0.0
 10
49.660939223
 20
91.652486769
 30
0.0
 10
49.1741642021
 20
91.8601488582
 30
0.0
 10
48.3895959598
 20
92.0776595647
 30
0.0
 10
47.5484097796
 20
92.2066427244
 30
0.0
 10
46.6803505598
 20
92.2423943518
 30
0.0
 10
45.8160366231
 20
92.1837462942
 30
0.0
 10
44.9859154875
 20
92.0326746236
 30
0.0
 10
44.2193789883
 20
91.7946235128
 30
0.0
 10
43.748302985
 20
91.5737452538
 30
0.0
 10
43.5323725985
 20
91.4490785312
 30
0.0
  0
SPLINE
  5
36F
100
AcDbEntity
  8
0
100
AcDbSpline
 62
7
  6
BYLAYER
 70
0
 71
3
 72
11
 73
7
 74
0
 42
0.0000001
 43
0.0000001
 44
0.0000000001
 40
0.0
 40
0.0
 40
0.0
 40
0.0
 40
0.2177799129
 40
0.4509189075
 40
0.7102562036
 40
1.0
 40
1.0
 40
1.0
 40
1.0
 10
54.8140026357
 20
101.0232091364
 30
0.0
 10
54.8139938291
 20
101.0689143679
 30
0.0
 10
54.8308955708
 20
101.1641821045
 30
0.0
 10
54.9031066634
 20
101.2969088394
 30
0.0
 10
55.0172666543
 20
101.4169079924
 30
0.0
 10
55.1128008277
 20
101.4826940467
 30
0.0
 10
55.1654623643
 20
101.5130980176
 30
0.0
  0
SPLINE
  5
370
100
AcDbEntity
  8
0
100
AcDbSpline
 62
7
  6
BYLAYER
 70
0
 71
3
 72
16
 73
12
 74
0
 42
0.0000001
 43
0.0000001
 44
0.0000000001
 40
0.0
 40
0.0
 40
0.0
 40
0.0
 40
0.0437014186
 40
0.0887316112
 40
0.1857741349
 40
0.2958462478
 40
0.4198480925
 40
0.5561029725
 40
0.7012190099
 40
0.8508165346
 40
1.0
 40
1.0
 40
1.0
 40
1.0
 10
57.213377689
 20
101.0207061933
 30
0.0
 10
57.2119556493
 20
101.0465325069
 30
0.0
 10
57.2039417658
 20
101.0988194643
 30
0.0
 10
57.1671822173
 20
101.2030206153
 30
0.0
 10
57.081053586
 20
101.3281463198
 30
0.0
 10
56.9296311997
 20
101.4551653303
 30
0.0
 10
56.7353844294
 20
101.5593823127
 30
0.0
 10
56.5071943381
 20
101.6364453812
 30
0.0
 10
56.2556126976
 20
101.6830652371
 30
0.0
 10
55.9925811936
 20
101.6970262128
 30
0.0
 10
55.8156379785
 20
101.6839675918
 30
0.0
 10
55.7282129018
 20
101.6715910238
 30
0.0
  0
SPLINE
  5
371
100
AcDbEntity
  8
0
100
AcDbSpline
 62
7
  6
BYLAYER
 70
0
 71
3
 72
14
 73
10
 74
0
 42
0.0000001
 43
0.0000001
 44
0.0000000001
 40
0.0
 40
0.0
 40
0.0
 40
0.0
 40
0.0910002871
 40
0.1892207248
 40
0.2983989744
 40
0.4198995469
 40
0.5531769201
 40
0.6963119552
 40
1.0
 40
1.0
 40
1.0
 40
1.0
 10
61.5906773022
 20
100.8004459954
 30
0.0
 10
61.5883113887
 20
100.828725678
 30
0.0
 10
61.573279465
 20
100.8870174067
 30
0.0
 10
61.5236469614
 20
100.9670224539
 30
0.0
 10
61.4496184414
 20
101.0391804228
 30
0.0
 10
61.3541130863
 20
101.1015463154
 30
0.0
 10
61.2403893566
 20
101.1523257884
 30
0.0
 10
61.0664466076
 20
101.2033402131
 30
0.0
 10
60.926285106
 20
101.2181158132
 30
0.0
 10
60.8315798617
 20
101.2181155856
 30
0.0
  0
SPLINE
  5
372
100
AcDbEntity
  8
0
100
AcDbSpline
 62
7
  6
BYLAYER
 70
0
 71
3
 72
10
 73
6
 74
0
 42
0.0000001
 43
0.0000001
 44
0.0000000001
 40
0.0
 40
0.0
 40
0.0
 40
0.0
 40
0.524929782
 40
0.7715438411
 40
1.0
 40
1.0
 40
1.0
 40
1.0
 10
59.3826271907
 20
101.2181121028
 30
0.0
 10
59.2850429807
 20
101.2181118682
 30
0.0
 10
59.1406806534
 20
101.202470393
 30
0.0
 10
58.9624773752
 20
101.1482787804
 30
0.0
 10
58.8820070283
 20
101.1108299979
 30
0.0
 10
58.8452269637
 20
101.0895951444
 30
0.0
  0
SPLINE
  5
373
100
AcDbEntity
  8
0
100
AcDbSpline
 62
7
  6
BYLAYER
 70
0
 71
3
 72
11
 73
7
 74
0
 42
0.0000001
 43
0.0000001
 44
0.0000000001
 40
0.0
 40
0.0
 40
0.0
 40
0.0
 40
0.2853721558
 40
0.5450964727
 40
0.7812964008
 40
1.0
 40
1.0
 40
1.0
 40
1.0
 10
58.8452269637
 20
101.0895951444
 30
0.0
 10
58.8164155646
 20
101.0729609747
 30
0.0
 10
58.763457272
 20
101.0372978221
 30
0.0
 10
58.6973557659
 20
100.973844069
 30
0.0
 10
58.6502699731
 20
100.904263052
 30
0.0
 10
58.6323088828
 20
100.8535383046
 30
0.0
 10
58.6274198524
 20
100.8285151269
 30
0.0
  0
SPLINE
  5
374
100
AcDbEntity
  8
0
100
AcDbSpline
 62
7
  6
BYLAYER
 70
0
 71
3
 72
11
 73
7
 74
0
 42
0.0000001
 43
0.0000001
 44
0.0000000001
 40
0.0
 40
0.0
 40
0.0
 40
0.0
 40
0.2187433484
 40
0.454909338
 40
0.714560473
 40
1.0
 40
1.0
 40
1.0
 40
1.0
 10
58.6274198524
 20
100.8285151269
 30
0.0
 10
58.610498013
 20
100.7419052759
 30
0.0
 10
58.5483977894
 20
100.5663409651
 30
0.0
 10
58.3853698811
 20
100.3256415667
 30
0.0
 10
58.1567210162
 20
100.1059873257
 30
0.0
 10
57.9734196156
 20
99.9826179242
 30
0.0
 10
57.8736926116
 20
99.9250408553
 30
0.0
  0
SPLINE
  5
375
100
AcDbEntity
  8
0
100
AcDbSpline
 62
7
  6
BYLAYER
 70
0
 71
3
 72
11
 73
7
 74
0
 42
0.0000001
 43
0.0000001
 44
0.0000000001
 40
0.0
 40
0.0
 40
0.0
 40
0.0
 40
0.2294501174
 40
0.4751293521
 40
0.7334547284
 40
1.0
 40
1.0
 40
1.0
 40
1.0
 10
57.8736926116
 20
99.9250408553
 30
0.0
 10
57.7646564671
 20
99.8620891837
 30
0.0
 10
57.5288344612
 20
99.7487076149
 30
0.0
 10
57.146496155
 20
99.6203639529
 30
0.0
 10
56.7325213072
 20
99.5306205835
 30
0.0
 10
56.4457495663
 20
99.4985078907
 30
0.0
 10
56.2997811997
 20
99.4892958
 30
0.0
  0
SPLINE
  5
376
100
AcDbEntity
  8
0
100
AcDbSpline
 62
7
  6
BYLAYER
 70
0
 71
3
 72
9
 73
5
 74
0
 42
0.0000001
 43
0.0000001
 44
0.0000000001
 40
0.0
 40
0.0
 40
0.0
 40
0.0
 40
0.5230709717
 40
1.0
 40
1.0
 40
1.0
 40
1.0
 10
55.7282129018
 20
101.6715910238
 30
0.0
 10
55.6256010166
 20
101.6570644942
 30
0.0
 10
55.4312204793
 20
101.6139082523
 30
0.0
 10
55.247295838
 20
101.5358492412
 30
0.0
 10
55.1654623643
 20
101.4886029451
 30
0.0
  0
SPLINE
  5
377
100
AcDbEntity
  8
0
100
AcDbSpline
 62
7
  6
BYLAYER
 70
0
 71
3
 72
11
 73
7
 74
0
 42
0.0000001
 43
0.0000001
 44
0.0000000001
 40
0.0
 40
0.0
 40
0.0
 40
0.0
 40
0.2885705414
 40
0.5481691238
 40
0.7821994036
 40
1.0
 40
1.0
 40
1.0
 40
1.0
 10
55.1654623643
 20
101.4886029451
 30
0.0
 10
55.1149147932
 20
101.4594194655
 30
0.0
 10
55.0228576163
 20
101.3964386011
 30
0.0
 10
54.9113836297
 20
101.282404203
 30
0.0
 10
54.8380533065
 20
101.1566053803
 30
0.0
 10
54.8171957166
 20
101.0657518419
 30
0.0
 10
54.8146636493
 20
101.0217716106
 30
0.0
  0
SPLINE
  5
378
100
AcDbEntity
  8
0
100
AcDbSpline
 62
7
  6
BYLAYER
 70
0
 71
3
 72
13
 73
9
 74
0
 42
0.0000001
 43
0.0000001
 44
0.0000000001
 40
0.0
 40
0.0
 40
0.0
 40
0.0
 40
0.1077451416
 40
0.218562233
 40
0.4536324516
 40
0.5801882959
 40
0.713387158
 40
1.0
 40
1.0
 40
1.0
 40
1.0
 10
60.831583026
 20
100.7793356539
 30
0.0
 10
60.820305421
 20
100.696785266
 30
0.0
 10
60.7844901376
 20
100.5308388235
 30
0.0
 10
60.661354395
 20
100.2013281375
 30
0.0
 10
60.4629400464
 20
99.8891322772
 30
0.0
 10
60.2068852793
 20
99.6042576198
 30
0.0
 10
59.8935032829
 20
99.3199373275
 30
0.0
 10
59.6230770183
 20
99.1366853065
 30
0.0
 10
59.4311377912
 20
99.0258698036
 30
0.0
  0
SPLINE
  5
379
100
AcDbEntity
  8
0
100
AcDbSpline
 62
7
  6
BYLAYER
 70
0
 71
3
 72
11
 73
7
 74
0
 42
0.0000001
 43
0.0000001
 44
0.0000000001
 40
0.0
 40
0.0
 40
0.0
 40
0.0
 40
0.2287766391
 40
0.4747527322
 40
0.7335987953
 40
1.0
 40
1.0
 40
1.0
 40
1.0
 10
59.4311377912
 20
99.0258698036
 30
0.0
 10
59.2130120694
 20
98.8999356111
 30
0.0
 10
58.7384793838
 20
98.6755951491
 30
0.0
 10
57.9671189021
 20
98.4298183204
 30
0.0
 10
57.1317304599
 20
98.2684086209
 30
0.0
 10
56.5541188478
 20
98.2209858323
 30
0.0
 10
56.2609548259
 20
98.212324928
 30
0.0
  0
SPLINE
  5
37A
100
AcDbEntity
  8
0
100
AcDbSpline
 62
7
  6
BYLAYER
 70
0
 71
3
 72
10
 73
6
 74
0
 42
0.0000001
 43
0.0000001
 44
0.0000000001
 40
0.0
 40
0.0
 40
0.0
 40
0.0
 40
0.5248735117
 40
0.7710967486
 40
1.0
 40
1.0
 40
1.0
 40
1.0
 10
56.2609548259
 20
98.212324928
 30
0.0
 10
56.1701895589
 20
98.2096434622
 30
0.0
 10
56.0364574372
 20
98.1920927034
 30
0.0
 10
55.8713339934
 20
98.1394537735
 30
0.0
 10
55.7966857227
 20
98.1041817226
 30
0.0
 10
55.7623901773
 20
98.0843812984
 30
0.0
  0
SPLINE
  5
37B
100
AcDbEntity
  8
0
100
AcDbSpline
 62
7
  6
BYLAYER
 70
0
 71
3
 72
11
 73
7
 74
0
 42
0.0000001
 43
0.0000001
 44
0.0000000001
 40
0.0
 40
0.0
 40
0.0
 40
0.0
 40
0.2877233453
 40
0.5474203856
 40
0.7820115092
 40
1.0
 40
1.0
 40
1.0
 40
1.0
 10
55.7623901773
 20
98.0843812984
 30
0.0
 10
55.7311973157
 20
98.0663721989
 30
0.0
 10
55.6742565624
 20
98.0275513411
 30
0.0
 10
55.6047233898
 20
97.9576180081
 30
0.0
 10
55.5579634299
 20
97.8805430245
 30
0.0
 10
55.5434168191
 20
97.8247028334
 30
0.0
 10
55.5408854831
 20
97.7975318202
 30
0.0
  0
SPLINE
  5
37C
100
AcDbEntity
  8
0
100
AcDbSpline
 62
7
  6
BYLAYER
 70
0
 71
3
 72
15
 73
11
 74
0
 42
0.0000001
 43
0.0000001
 44
0.0000000001
 40
0.0
 40
0.0
 40
0.0
 40
0.0
 40
0.0887630275
 40
0.1916538593
 40
0.3115998134
 40
0.4460848656
 40
0.5894300699
 40
0.7343447982
 40
0.8734345685
 40
1.0
 40
1.0
 40
1.0
 40
1.0
 10
63.8119185253
 20
101.0215151679
 30
0.0
 10
63.80803123
 20
101.0428776827
 30
0.0
 10
63.7876334499
 20
101.0870513946
 30
0.0
 10
63.7311177352
 20
101.1399669269
 30
0.0
 10
63.6532696268
 20
101.1813557604
 30
0.0
 10
63.5593393132
 20
101.208813597
 30
0.0
 10
63.456138735
 20
101.2205502463
 30
0.0
 10
63.3512461396
 20
101.2157433728
 30
0.0
 10
63.2525878383
 20
101.194696731
 30
0.0
 10
63.1921050319
 20
101.169343585
 30
0.0
 10
63.1652923389
 20
101.1538633619
 30
0.0
  0
SPLINE
  5
37D
100
AcDbEntity
  8
0
100
AcDbSpline
 62
7
  6
BYLAYER
 70
0
 71
3
 72
11
 73
7
 74
0
 42
0.0000001
 43
0.0000001
 44
0.0000000001
 40
0.0
 40
0.0
 40
0.0
 40
0.0
 40
0.2897060281
 40
0.5490591642
 40
0.7822835676
 40
1.0
 40
1.0
 40
1.0
 40
1.0
 10
63.1652923389
 20
101.1538633619
 30
0.0
 10
63.1486183333
 20
101.1442366777
 30
0.0
 10
63.1183733559
 20
101.1233984033
 30
0.0
 10
63.0822044258
 20
101.0854086259
 30
0.0
 10
63.0593519512
 20
101.043366528
 30
0.0
 10
63.0539939301
 20
101.0132000892
 30
0.0
 10
63.0539940344
 20
100.9987309618
 30
0.0
  0
SPLINE
  5
37E
100
AcDbEntity
  8
0
100
AcDbSpline
 62
7
  6
BYLAYER
 70
0
 71
3
 72
15
 73
11
 74
0
 42
0.0000001
 43
0.0000001
 44
0.0000000001
 40
0.0
 40
0.0
 40
0.0
 40
0.0
 40
0.1079903215
 40
0.2180671475
 40
0.3319996939
 40
0.4513581641
 40
0.5772738167
 40
0.7104901839
 40
0.851426454
 40
1.0
 40
1.0
 40
1.0
 40
1.0
 10
63.0539940344
 20
100.9987309618
 30
0.0
 10
63.0539949953
 20
100.8654819973
 30
0.0
 10
63.0308078419
 20
100.5958742238
 30
0.0
 10
62.9275677901
 20
100.1976410842
 30
0.0
 10
62.7570224421
 20
99.8079753929
 30
0.0
 10
62.5214180409
 20
99.4308945906
 30
0.0
 10
62.2234774579
 20
99.0697037449
 30
0.0
 10
61.866130488
 20
98.7276591054
 30
0.0
 10
61.4529907526
 20
98.4079107034
 30
0.0
 10
61.1508104062
 20
98.216360965
 30
0.0
 10
60.9920464995
 20
98.1246991278
 30
0.0
  0
SPLINE
  5
37F
100
AcDbEntity
  8
0
100
AcDbSpline
 62
7
  6
BYLAYER
 70
0
 71
3
 72
11
 73
7
 74
0
 42
0.0000001
 43
0.0000001
 44
0.0000000001
 40
0.0
 40
0.0
 40
0.0
 40
0.0
 40
0.2286710676
 40
0.4747141342
 40
0.7336533555
 40
1.0
 40
1.0
 40
1.0
 40
1.0
 10
60.9920464995
 20
98.1246991278
 30
0.0
 10
60.6695542467
 20
97.9385092502
 30
0.0
 10
59.9672309588
 20
97.6075036039
 30
0.0
 10
58.8251215874
 20
97.2470861939
 30
0.0
 10
57.5882643614
 20
97.0133343876
 30
0.0
 10
56.7334148626
 20
96.9477487786
 30
0.0
 10
56.299799601
 20
96.9375770695
 30
0.0
  0
SPLINE
  5
380
100
AcDbEntity
  8
0
100
AcDbSpline
 62
7
  6
BYLAYER
 70
0
 71
3
 72
11
 73
7
 74
0
 42
0.0000001
 43
0.0000001
 44
0.0000000001
 40
0.0
 40
0.0
 40
0.0
 40
0.0
 40
0.2663466445
 40
0.5252858658
 40
0.7713289324
 40
1.0
 40
1.0
 40
1.0
 40
1.0
 10
56.299799601
 20
96.962072142
 30
0.0
 10
56.7334148626
 20
96.9722438512
 30
0.0
 10
57.5882643614
 20
97.0378294601
 30
0.0
 10
58.8251215874
 20
97.2715812664
 30
0.0
 10
59.9672309588
 20
97.6319986765
 30
0.0
 10
60.6695542467
 20
97.9630043228
 30
0.0
 10
60.9920464995
 20
98.1491942004
 30
0.0
  0
SPLINE
  5
381
100
AcDbEntity
  8
0
100
AcDbSpline
 62
7
  6
BYLAYER
 70
0
 71
3
 72
15
 73
11
 74
0
 42
0.0000001
 43
0.0000001
 44
0.0000000001
 40
0.0
 40
0.0
 40
0.0
 40
0.0
 40
0.148573546
 40
0.2895098161
 40
0.4227261833
 40
0.5486418359
 40
0.6680003061
 40
0.7819328525
 40
0.8920096785
 40
1.0
 40
1.0
 40
1.0
 40
1.0
 10
60.9920464995
 20
98.1491942004
 30
0.0
 10
61.1508104062
 20
98.2408560375
 30
0.0
 10
61.4529907526
 20
98.432405776
 30
0.0
 10
61.866130488
 20
98.7521541779
 30
0.0
 10
62.2234774579
 20
99.0941988174
 30
0.0
 10
62.5214180409
 20
99.4553896631
 30
0.0
 10
62.7570224421
 20
99.8324704654
 30
0.0
 10
62.9275677901
 20
100.2221361567
 30
0.0
 10
63.0308078419
 20
100.6203692963
 30
0.0
 10
63.0539949953
 20
100.8899770698
 30
0.0
 10
63.0539940344
 20
101.0232260343
 30
0.0
  0
SPLINE
  5
382
100
AcDbEntity
  8
0
100
AcDbSpline
 62
7
  6
BYLAYER
 70
0
 71
3
 72
11
 73
7
 74
0
 42
0.0000001
 43
0.0000001
 44
0.0000000001
 40
0.0
 40
0.0
 40
0.0
 40
0.0
 40
0.2177164324
 40
0.4509408358
 40
0.7102939719
 40
1.0
 40
1.0
 40
1.0
 40
1.0
 10
63.0539940344
 20
101.0232260343
 30
0.0
 10
63.0539939301
 20
101.0376951617
 30
0.0
 10
63.0593519512
 20
101.0678616005
 30
0.0
 10
63.0822044258
 20
101.1099036984
 30
0.0
 10
63.1183733559
 20
101.1478934758
 30
0.0
 10
63.1486183333
 20
101.1687317502
 30
0.0
 10
63.1652923389
 20
101.1783584344
 30
0.0
  0
SPLINE
  5
383
100
AcDbEntity
  8
0
100
AcDbSpline
 62
7
  6
BYLAYER
 70
0
 71
3
 72
16
 73
12
 74
0
 42
0.0000001
 43
0.0000001
 44
0.0000000001
 40
0.0
 40
0.0
 40
0.0
 40
0.0
 40
0.1287277673
 40
0.2704306491
 40
0.4176236864
 40
0.5620247072
 40
0.6957423936
 40
0.8130486632
 40
0.9124871918
 40
0.9571935808
 40
1.0
 40
1.0
 40
1.0
 40
1.0
 10
63.1652923389
 20
101.1783584344
 30
0.0
 10
63.1934170448
 20
101.194596144
 30
0.0
 10
63.2571173556
 20
101.220863021
 30
0.0
 10
63.3609112711
 20
101.2416544194
 30
0.0
 10
63.470708664
 20
101.2446576435
 30
0.0
 10
63.577488689
 20
101.2296955334
 30
0.0
 10
63.672734894
 20
101.1977984959
 30
0.0
 10
63.749065209
 20
101.1515021901
 30
0.0
 10
63.7935619976
 20
101.1004270833
 30
0.0
 10
63.8110607144
 20
101.0561915087
 30
0.0
 10
63.8139939565
 20
101.0340271055
 30
0.0
 10
63.8139940344
 20
101.0232278611
 30
0.0
  0
SPLINE
  5
384
100
AcDbEntity
  8
0
100
AcDbSpline
 62
7
  6
BYLAYER
 70
0
 71
3
 72
11
 73
7
 74
0
 42
0.0000001
 43
0.0000001
 44
0.0000000001
 40
0.0
 40
0.0
 40
0.0
 40
0.0
 40
0.2177164324
 40
0.4509408358
 40
0.7102939719
 40
1.0
 40
1.0
 40
1.0
 40
1.0
 10
55.5397935684
 20
97.7986115707
 30
0.0
 10
55.5397933597
 20
97.8275498255
 30
0.0
 10
55.550509402
 20
97.887882703
 30
0.0
 10
55.5962143512
 20
97.9719668988
 30
0.0
 10
55.6685522114
 20
98.0479464537
 30
0.0
 10
55.7290421661
 20
98.0896230026
 30
0.0
 10
55.7623901773
 20
98.1088763709
 30
0.0
  0
SPLINE
  5
385
100
AcDbEntity
  8
0
100
AcDbSpline
 62
7
  6
BYLAYER
 70
0
 71
3
 72
10
 73
6
 74
0
 42
0.0000001
 43
0.0000001
 44
0.0000000001
 40
0.0
 40
0.0
 40
0.0
 40
0.0
 40
0.2289032514
 40
0.4751264883
 40
1.0
 40
1.0
 40
1.0
 40
1.0
 10
55.7623901773
 20
98.1088763709
 30
0.0
 10
55.7966857227
 20
98.1286767951
 30
0.0
 10
55.8713339934
 20
98.163948846
 30
0.0
 10
56.0364574372
 20
98.2165877759
 30
0.0
 10
56.1701895589
 20
98.2341385347
 30
0.0
 10
56.2609548258
 20
98.2368200005
 30
0.0
  0
SPLINE
  5
386
100
AcDbEntity
  8
0
100
AcDbSpline
 62
7
  6
BYLAYER
 70
0
 71
3
 72
11
 73
7
 74
0
 42
0.0000001
 43
0.0000001
 44
0.0000000001
 40
0.0
 40
0.0
 40
0.0
 40
0.0
 40
0.2664012047
 40
0.5252472678
 40
0.7712233609
 40
1.0
 40
1.0
 40
1.0
 40
1.0
 10
56.2609548258
 20
98.2368200005
 30
0.0
 10
56.5541188478
 20
98.2454809049
 30
0.0
 10
57.1317304599
 20
98.2929036934
 30
0.0
 10
57.9671189021
 20
98.4543133929
 30
0.0
 10
58.7384793838
 20
98.7000902217
 30
0.0
 10
59.2130120694
 20
98.9244306836
 30
0.0
 10
59.4311377912
 20
99.0503648761
 30
0.0
  0
SPLINE
  5
387
100
AcDbEntity
  8
0
100
AcDbSpline
 62
7
  6
BYLAYER
 70
0
 71
3
 72
13
 73
9
 74
0
 42
0.0000001
 43
0.0000001
 44
0.0000000001
 40
0.0
 40
0.0
 40
0.0
 40
0.0
 40
0.286612842
 40
0.4198117041
 40
0.5463675484
 40
0.781437767
 40
0.8922548584
 40
1.0
 40
1.0
 40
1.0
 40
1.0
 10
59.4311377912
 20
99.0503648761
 30
0.0
 10
59.6230770183
 20
99.161180379
 30
0.0
 10
59.8935032829
 20
99.3444324
 30
0.0
 10
60.2068852793
 20
99.6287526923
 30
0.0
 10
60.4629400464
 20
99.9136273498
 30
0.0
 10
60.661354395
 20
100.22582321
 30
0.0
 10
60.7844901376
 20
100.555333896
 30
0.0
 10
60.820305421
 20
100.7212803386
 30
0.0
 10
60.831583026
 20
100.8038307264
 30
0.0
  0
SPLINE
  5
388
100
AcDbEntity
  8
0
100
AcDbSpline
 62
7
  6
BYLAYER
 70
0
 71
3
 72
11
 73
7
 74
0
 42
0.0000001
 43
0.0000001
 44
0.0000000001
 40
0.0
 40
0.0
 40
0.0
 40
0.0
 40
0.2292372632
 40
0.4815552322
 40
0.7435451283
 40
1.0
 40
1.0
 40
1.0
 40
1.0
 10
55.1654623643
 20
101.5130980176
 30
0.0
 10
55.255371541
 20
101.5650067951
 30
0.0
 10
55.4591466591
 20
101.6487261598
 30
0.0
 10
55.7911690431
 20
101.714018828
 30
0.0
 10
56.1417387207
 20
101.7220887883
 30
0.0
 10
56.3754934575
 20
101.687623016
 30
0.0
 10
56.4882131647
 20
101.6596265524
 30
0.0
  0
SPLINE
  5
389
100
AcDbEntity
  8
0
100
AcDbSpline
 62
7
  6
BYLAYER
 70
0
 71
3
 72
13
 73
9
 74
0
 42
0.0000001
 43
0.0000001
 44
0.0000000001
 40
0.0
 40
0.0
 40
0.0
 40
0.0
 40
0.3047544048
 40
0.5720024426
 40
0.6905688689
 40
0.7998254633
 40
0.9018930407
 40
1.0
 40
1.0
 40
1.0
 40
1.0
 10
56.4882131647
 20
101.6596265524
 30
0.0
 10
56.5900025101
 20
101.6343448889
 30
0.0
 10
56.7774894327
 20
101.5700551312
 30
0.0
 10
56.9821721208
 20
101.4431430545
 30
0.0
 10
57.1021650774
 20
101.321068609
 30
0.0
 10
57.1658363016
 20
101.2261297436
 30
0.0
 10
57.205078148
 20
101.1261527547
 30
0.0
 10
57.2139789276
 20
101.0569728449
 30
0.0
 10
57.2139854333
 20
101.023209088
 30
0.0
  0
SPLINE
  5
38A
100
AcDbEntity
  8
0
100
AcDbSpline
 62
7
  6
BYLAYER
 70
0
 71
3
 72
11
 73
7
 74
0
 42
0.0000001
 43
0.0000001
 44
0.0000000001
 40
0.0
 40
0.0
 40
0.0
 40
0.0
 40
0.2665452716
 40
0.5248706479
 40
0.7705498826
 40
1.0
 40
1.0
 40
1.0
 40
1.0
 10
56.2997811997
 20
99.5137908725
 30
0.0
 10
56.4457495663
 20
99.5230029632
 30
0.0
 10
56.7325213072
 20
99.555115656
 30
0.0
 10
57.146496155
 20
99.6448590255
 30
0.0
 10
57.5288344612
 20
99.7732026874
 30
0.0
 10
57.7646564671
 20
99.8865842562
 30
0.0
 10
57.8736926116
 20
99.9495359278
 30
0.0
  0
SPLINE
  5
38B
100
AcDbEntity
  8
0
100
AcDbSpline
 62
7
  6
BYLAYER
 70
0
 71
3
 72
11
 73
7
 74
0
 42
0.0000001
 43
0.0000001
 44
0.0000000001
 40
0.0
 40
0.0
 40
0.0
 40
0.0
 40
0.285439527
 40
0.545090662
 40
0.7812566516
 40
1.0
 40
1.0
 40
1.0
 40
1.0
 10
57.8736926116
 20
99.9495359278
 30
0.0
 10
57.9734196156
 20
100.0071129967
 30
0.0
 10
58.1567210162
 20
100.1304823982
 30
0.0
 10
58.3853698811
 20
100.3501366392
 30
0.0
 10
58.5483977894
 20
100.5908360377
 30
0.0
 10
58.610498013
 20
100.7664003484
 30
0.0
 10
58.6274198524
 20
100.8530101994
 30
0.0
  0
SPLINE
  5
38C
100
AcDbEntity
  8
0
100
AcDbSpline
 62
7
  6
BYLAYER
 70
0
 71
3
 72
11
 73
7
 74
0
 42
0.0000001
 43
0.0000001
 44
0.0000000001
 40
0.0
 40
0.0
 40
0.0
 40
0.0
 40
0.2187035992
 40
0.4549035273
 40
0.7146278442
 40
1.0
 40
1.0
 40
1.0
 40
1.0
 10
58.6274198524
 20
100.8530101994
 30
0.0
 10
58.6323088828
 20
100.8780333771
 30
0.0
 10
58.6502699731
 20
100.9287581245
 30
0.0
 10
58.6973557659
 20
100.9983391416
 30
0.0
 10
58.763457272
 20
101.0617928946
 30
0.0
 10
58.8164155646
 20
101.0974560472
 30
0.0
 10
58.8452269637
 20
101.1140902169
 30
0.0
  0
SPLINE
  5
38D
100
AcDbEntity
  8
0
100
AcDbSpline
 62
7
  6
BYLAYER
 70
0
 71
3
 72
10
 73
6
 74
0
 42
0.0000001
 43
0.0000001
 44
0.0000000001
 40
0.0
 40
0.0
 40
0.0
 40
0.0
 40
0.2284561589
 40
0.475070218
 40
1.0
 40
1.0
 40
1.0
 40
1.0
 10
58.8452269637
 20
101.1140902169
 30
0.0
 10
58.8820070283
 20
101.1353250704
 30
0.0
 10
58.9624773752
 20
101.1727738529
 30
0.0
 10
59.1406806534
 20
101.2269654655
 30
0.0
 10
59.2850429807
 20
101.2426069407
 30
0.0
 10
59.3826271906
 20
101.2426071753
 30
0.0
  0
SPLINE
  5
38E
100
AcDbEntity
  8
0
100
AcDbSpline
 62
7
  6
BYLAYER
 70
0
 71
3
 72
14
 73
10
 74
0
 42
0.0000001
 43
0.0000001
 44
0.0000000001
 40
0.0
 40
0.0
 40
0.0
 40
0.0
 40
0.3060837533
 40
0.449806291
 40
0.583042699
 40
0.7038584362
 40
0.8119270779
 40
0.9091514242
 40
1.0
 40
1.0
 40
1.0
 40
1.0
 10
60.8315798618
 20
101.2426106581
 30
0.0
 10
60.9291648613
 20
101.2426108927
 30
0.0
 10
61.0734824833
 20
101.2269625695
 30
0.0
 10
61.2517249614
 20
101.1727926547
 30
0.0
 10
61.3671627257
 20
101.11905956
 30
0.0
 10
61.4627800208
 20
101.0532107644
 30
0.0
 10
61.5351044368
 20
100.9772117483
 30
0.0
 10
61.5808998943
 20
100.8931652117
 30
0.0
 10
61.5915493427
 20
100.8327948707
 30
0.0
 10
61.5915667442
 20
100.8038307178
 30
0.0
  0
SPLINE
  5
38F
100
AcDbEntity
  8
0
100
AcDbSpline
 62
7
  6
BYLAYER
 70
0
 71
3
 72
11
 73
7
 74
0
 42
0.0000001
 43
0.0000001
 44
0.0000000001
 40
0.0
 40
0.0
 40
0.0
 40
0.0
 40
0.216039394
 40
0.4477927884
 40
0.7077383047
 40
1.0
 40
1.0
 40
1.0
 40
1.0
 10
53.2766820425
 20
56.9503565808
 30
0.0
 10
53.2449216976
 20
56.968679237
 30
0.0
 10
53.1856035844
 20
57.0190919489
 30
0.0
 10
53.1241927577
 20
57.1244158828
 30
0.0
 10
53.0901176157
 20
57.2543076038
 30
0.0
 10
53.0855657622
 20
57.3485312001
 30
0.0
 10
53.0870918053
 20
57.3981109025
 30
0.0
  0
SPLINE
  5
390
100
AcDbEntity
  8
0
100
AcDbSpline
 62
7
  6
BYLAYER
 70
0
 71
3
 72
20
 73
16
 74
0
 42
0.0000001
 43
0.0000001
 44
0.0000000001
 40
0.0
 40
0.0
 40
0.0
 40
0.0
 40
0.0428260658
 40
0.0874273688
 40
0.1352312343
 40
0.187160869
 40
0.2436318478
 40
0.3046156493
 40
0.3697402696
 40
0.4383785456
 40
0.5826324246
 40
0.7296966236
 40
0.8711910964
 40
0.9376004224
 40
1.0
 40
1.0
 40
1.0
 40
1.0
 10
92.6802779819
 20
95.9202540802
 30
0.0
 10
92.6802747904
 20
96.0682639996
 30
0.0
 10
92.6406705023
 20
96.3716994083
 30
0.0
 10
92.4666779271
 20
96.8098688812
 30
0.0
 10
92.1842499108
 20
97.2252329285
 30
0.0
 10
91.801520907
 20
97.6096293802
 30
0.0
 10
91.3272237889
 20
97.9561993413
 30
0.0
 10
90.7714995125
 20
98.2584252179
 30
0.0
 10
90.1459718444
 20
98.5104934722
 30
0.0
 10
89.2213828777
 20
98.7768270725
 30
0.0
 10
87.9822461755
 20
98.9506610678
 30
0.0
 10
86.4807671769
 20
98.9091996653
 30
0.0
 10
85.2701400564
 20
98.6670588494
 30
0.0
 10
84.390529396
 20
98.3483089101
 30
0.0
 10
83.9900770601
 20
98.150934193
 30
0.0
 10
83.8033120258
 20
98.0431059938
 30
0.0
  0
SPLINE
  5
391
100
AcDbEntity
  8
0
100
AcDbSpline
 62
7
  6
BYLAYER
 70
0
 71
3
 72
9
 73
5
 74
0
 42
0.0000001
 43
0.0000001
 44
0.0000000001
 40
0.0
 40
0.0
 40
0.0
 40
0.0
 40
0.2433092628
 40
1.0
 40
1.0
 40
1.0
 40
1.0
 10
92.7479211067
 20
95.5356942515
 30
0.0
 10
92.7365078156
 20
95.4836200187
 30
0.0
 10
92.6803860516
 20
95.2716479602
 30
0.0
 10
92.5881190969
 20
95.0698323817
 30
0.0
 10
92.5035626167
 20
94.9272205833
 30
0.0
  0
SPLINE
  5
392
100
AcDbEntity
  8
0
100
AcDbSpline
 62
7
  6
BYLAYER
 70
0
 71
3
 72
10
 73
6
 74
0
 42
0.0000001
 43
0.0000001
 44
0.0000000001
 40
0.0
 40
0.0
 40
0.0
 40
0.0
 40
0.2265100728
 40
0.5947840835
 40
1.0
 40
1.0
 40
1.0
 40
1.0
 10
92.5035626167
 20
94.9272205833
 30
0.0
 10
92.4363482209
 20
94.8138577062
 30
0.0
 10
92.2345700206
 20
94.5307694469
 30
0.0
 10
91.8137918401
 20
94.1234439258
 30
0.0
 10
91.4389336885
 20
93.8705427459
 30
0.0
 10
91.2347520783
 20
93.7526591419
 30
0.0
  0
SPLINE
  5
393
100
AcDbEntity
  8
0
100
AcDbSpline
 62
7
  6
BYLAYER
 70
0
 71
3
 72
20
 73
16
 74
0
 42
0.0000001
 43
0.0000001
 44
0.0000000001
 40
0.0
 40
0.0
 40
0.0
 40
0.0
 40
0.0428260658
 40
0.0874273688
 40
0.1352312343
 40
0.187160869
 40
0.2436318478
 40
0.3046156493
 40
0.3697402696
 40
0.4383785456
 40
0.5826324246
 40
0.7296966236
 40
0.8711910964
 40
0.9376004224
 40
1.0
 40
1.0
 40
1.0
 40
1.0
 10
38.9403863536
 20
64.8936983859
 30
0.0
 10
38.9403831622
 20
65.0417083054
 30
0.0
 10
38.900778874
 20
65.3451437141
 30
0.0
 10
38.7267862988
 20
65.783313187
 30
0.0
 10
38.4443582825
 20
66.1986772343
 30
0.0
 10
38.0616292788
 20
66.583073686
 30
0.0
 10
37.5873321606
 20
66.9296436471
 30
0.0
 10
37.0316078842
 20
67.2318695237
 30
0.0
 10
36.4060802161
 20
67.4839377779
 30
0.0
 10
35.4814912494
 20
67.7502713782
 30
0.0
 10
34.2423545472
 20
67.9241053735
 30
0.0
 10
32.7408755486
 20
67.882643971
 30
0.0
 10
31.5302484281
 20
67.6405031552
 30
0.0
 10
30.6506377677
 20
67.3217532158
 30
0.0
 10
30.2501854319
 20
67.1243784988
 30
0.0
 10
30.0634203976
 20
67.0165502996
 30
0.0
  0
SPLINE
  5
394
100
AcDbEntity
  8
0
100
AcDbSpline
 62
7
  6
BYLAYER
 70
0
 71
3
 72
9
 73
5
 74
0
 42
0.0000001
 43
0.0000001
 44
0.0000000001
 40
0.0
 40
0.0
 40
0.0
 40
0.0
 40
0.2433195168
 40
1.0
 40
1.0
 40
1.0
 40
1.0
 10
39.0169436084
 20
64.5056655619
 30
0.0
 10
39.0054738037
 20
64.453714787
 30
0.0
 10
38.9491859778
 20
64.2422596496
 30
0.0
 10
38.8570101277
 20
64.0409360181
 30
0.0
 10
38.772613652
 20
63.8986321129
 30
0.0
  0
SPLINE
  5
395
100
AcDbEntity
  8
0
100
AcDbSpline
 62
7
  6
BYLAYER
 70
0
 71
3
 72
10
 73
6
 74
0
 42
0.0000001
 43
0.0000001
 44
0.0000000001
 40
0.0
 40
0.0
 40
0.0
 40
0.0
 40
0.2265138727
 40
0.5947896886
 40
1.0
 40
1.0
 40
1.0
 40
1.0
 10
38.772613652
 20
63.8986321129
 30
0.0
 10
38.7052738404
 20
63.7850880568
 30
0.0
 10
38.5031343006
 20
63.5015494889
 30
0.0
 10
38.0816427504
 20
63.093573275
 30
0.0
 10
37.7061653181
 20
62.840260524
 30
0.0
 10
37.5016494224
 20
62.7221839213
 30
0.0
  0
SPLINE
  5
396
100
AcDbEntity
  8
0
100
AcDbSpline
 62
7
  6
BYLAYER
 70
0
 71
3
 72
16
 73
12
 74
0
 42
0.0000001
 43
0.0000001
 44
0.0000000001
 40
0.0
 40
0.0
 40
0.0
 40
0.0
 40
0.0428749138
 40
0.0875217781
 40
0.1869209243
 40
0.3042316762
 40
0.4379522078
 40
0.5823542791
 40
0.7295664465
 40
0.8712579657
 40
1.0
 40
1.0
 40
1.0
 40
1.0
 10
71.1086499047
 20
93.1237510516
 30
0.0
 10
71.1086505298
 20
93.0895934081
 30
0.0
 10
71.099579741
 20
93.0195595652
 30
0.0
 10
71.0440569703
 20
92.8799734745
 30
0.0
 10
70.9037058187
 20
92.7187327089
 30
0.0
 10
70.6626913916
 20
92.5724645932
 30
0.0
 10
70.3619049832
 20
92.4717626067
 30
0.0
 10
70.024689207
 20
92.4244616617
 30
0.0
 10
69.6779528251
 20
92.4339872479
 30
0.0
 10
69.3501551393
 20
92.4996040987
 30
0.0
 10
69.1490002351
 20
92.5825757197
 30
0.0
 10
69.0601746458
 20
92.6338580375
 30
0.0
  0
SPLINE
  5
397
100
AcDbEntity
  8
0
100
AcDbSpline
 62
7
  6
BYLAYER
 70
0
 71
3
 72
13
 73
9
 74
0
 42
0.0000001
 43
0.0000001
 44
0.0000000001
 40
0.0
 40
0.0
 40
0.0
 40
0.0
 40
0.0908501207
 40
0.1881174265
 40
0.29630516
 40
0.417165936
 40
0.6936706254
 40
1.0
 40
1.0
 40
1.0
 40
1.0
 10
70.3086604471
 20
97.3960819316
 30
0.0
 10
70.3086527478
 20
97.3808488841
 30
0.0
 10
70.3029837082
 20
97.3491075865
 30
0.0
 10
70.2789747003
 20
97.304842311
 30
0.0
 10
70.2408712157
 20
97.2648713719
 30
0.0
 10
70.1706922289
 20
97.2165176192
 30
0.0
 10
70.058033224
 20
97.1758206835
 30
0.0
 10
69.9600330602
 20
97.1651452538
 30
0.0
 10
69.9086701067
 20
97.1651451303
 30
0.0
  0
SPLINE
  5
398
100
AcDbEntity
  8
0
100
AcDbSpline
 62
7
  6
BYLAYER
 70
0
 71
3
 72
12
 73
8
 74
0
 42
0.0000001
 43
0.0000001
 44
0.0000000001
 40
0.0
 40
0.0
 40
0.0
 40
0.0
 40
0.1160430566
 40
0.2326039406
 40
0.4718618805
 40
0.7258767161
 40
1.0
 40
1.0
 40
1.0
 40
1.0
 10
20.2107301415
 20
54.2073252791
 30
0.0
 10
20.114075627
 20
54.1515221022
 30
0.0
 10
19.9104852398
 20
54.0558005379
 30
0.0
 10
19.4720268119
 20
53.9322585449
 30
0.0
 10
18.876549306
 20
53.910466655
 30
0.0
 10
18.1516455923
 20
54.0800143283
 30
0.0
 10
17.6890691304
 20
54.2983630481
 30
0.0
 10
17.4607455754
 20
54.4301827319
 30
0.0
  0
SPLINE
  5
399
100
AcDbEntity
  8
0
100
AcDbSpline
 62
7
  6
BYLAYER
 70
0
 71
3
 72
18
 73
14
 74
0
 42
0.0000001
 43
0.0000001
 44
0.0000000001
 40
0.0
 40
0.0
 40
0.0
 40
0.0
 40
0.1274874386
 40
0.2654413998
 40
0.4078776977
 40
0.5475254727
 40
0.6778888781
 40
0.7383739312
 40
0.7954913996
 40
0.8495240439
 40
0.9011012989
 40
0.9508946568
 40
1.0
 40
1.0
 40
1.0
 40
1.0
 10
17.4287809555
 20
54.4488030203
 30
0.0
 10
17.0632291692
 20
54.6636456949
 30
0.0
 10
16.3594260015
 20
55.2109344712
 30
0.0
 10
15.4658564068
 20
56.2402584253
 30
0.0
 10
14.7397878254
 20
57.441925858
 30
0.0
 10
14.2363811866
 20
58.7249618836
 30
0.0
 10
14.0301958384
 20
59.8139348796
 30
0.0
 10
14.0232106969
 20
60.6406256976
 30
0.0
 10
14.0955135443
 20
61.208933087
 30
0.0
 10
14.2484171198
 20
61.7308478584
 30
0.0
 10
14.4846128667
 20
62.1945064452
 30
0.0
 10
14.8037694077
 20
62.5853044026
 30
0.0
 10
15.0693132755
 20
62.7859327387
 30
0.0
 10
15.2107525259
 20
62.8675922405
 30
0.0
  0
SPLINE
  5
39A
100
AcDbEntity
  8
0
100
AcDbSpline
 62
7
  6
BYLAYER
 70
0
 71
3
 72
12
 73
8
 74
0
 42
0.0000001
 43
0.0000001
 44
0.0000000001
 40
0.0
 40
0.0
 40
0.0
 40
0.0
 40
0.1081605155
 40
0.2183688344
 40
0.4513515975
 40
0.7104504562
 40
1.0
 40
1.0
 40
1.0
 40
1.0
 10
15.6487159474
 20
63.1204064096
 30
0.0
 10
15.7306882928
 20
63.1677354662
 30
0.0
 10
15.9047415457
 20
63.249276451
 30
0.0
 10
16.2869647632
 20
63.3549740856
 30
0.0
 10
16.822315213
 20
63.3693305811
 30
0.0
 10
17.4927269326
 20
63.2071391312
 30
0.0
 10
17.9292395061
 20
62.9995117752
 30
0.0
 10
18.1486862961
 20
62.8728169781
 30
0.0
  0
SPLINE
  5
39B
100
AcDbEntity
  8
0
100
AcDbSpline
 62
7
  6
BYLAYER
 70
0
 71
3
 72
15
 73
11
 74
0
 42
0.0000001
 43
0.0000001
 44
0.0000000001
 40
0.0
 40
0.0
 40
0.0
 40
0.0
 40
0.1141451626
 40
0.2373332352
 40
0.3669753441
 40
0.4999989388
 40
0.633019334
 40
0.7626705137
 40
0.8858439503
 40
1.0
 40
1.0
 40
1.0
 40
1.0
 10
93.3421083454
 20
106.4903217331
 30
0.0
 10
93.5962649856
 20
106.343587648
 30
0.0
 10
94.0983089938
 20
105.9916292247
 30
0.0
 10
94.7891378948
 20
105.3453888073
 30
0.0
 10
95.425704228
 20
104.5813747862
 30
0.0
 10
95.9841519776
 20
103.7284526226
 30
0.0
 10
96.4436149643
 20
102.8183493697
 30
0.0
 10
96.7869392039
 20
101.8850680844
 30
0.0
 10
97.0012554715
 20
100.9636758052
 30
0.0
 10
97.0550249492
 20
100.3529201015
 30
0.0
 10
97.055025033
 20
100.0594189607
 30
0.0
  0
SPLINE
  5
39C
100
AcDbEntity
  8
0
100
AcDbSpline
 62
7
  6
BYLAYER
 70
0
 71
3
 72
15
 73
11
 74
0
 42
0.0000001
 43
0.0000001
 44
0.0000000001
 40
0.0
 40
0.0
 40
0.0
 40
0.0
 40
0.1141453705
 40
0.2373334619
 40
0.3669755752
 40
0.4999990313
 40
0.6330190989
 40
0.7626701333
 40
0.8858437359
 40
1.0
 40
1.0
 40
1.0
 40
1.0
 10
94.0492121827
 20
106.6937444547
 30
0.0
 10
94.2912272811
 20
106.5540201335
 30
0.0
 10
94.7692871088
 20
106.2188754651
 30
0.0
 10
95.427113153
 20
105.6035080441
 30
0.0
 10
96.0332678074
 20
104.8759935941
 30
0.0
 10
96.5650360232
 20
104.0638196829
 30
0.0
 10
97.0025481184
 20
103.1971966857
 30
0.0
 10
97.3294703565
 20
102.3085023698
 30
0.0
 10
97.5335482995
 20
101.4311278524
 30
0.0
 10
97.5847495118
 20
100.8495492267
 30
0.0
 10
97.5847494079
 20
100.5700691727
 30
0.0
  0
SPLINE
  5
39D
100
AcDbEntity
  8
0
100
AcDbSpline
 62
7
  6
BYLAYER
 70
0
 71
3
 72
15
 73
11
 74
0
 42
0.0000001
 43
0.0000001
 44
0.0000000001
 40
0.0
 40
0.0
 40
0.0
 40
0.0
 40
0.1151167848
 40
0.2384704013
 40
0.3677035927
 40
0.5000000029
 40
0.6322964131
 40
0.7615296031
 40
0.8848832231
 40
1.0
 40
1.0
 40
1.0
 40
1.0
 10
36.9804246418
 20
45.7515347554
 30
0.0
 10
36.7784647343
 20
45.6431189655
 30
0.0
 10
36.3416193863
 20
45.4520610634
 30
0.0
 10
35.6364045417
 20
45.2489541772
 30
0.0
 10
34.8785501759
 20
45.124257054
 30
0.0
 10
34.09398114
 20
45.0821884851
 30
0.0
 10
33.3094121081
 20
45.1242570613
 30
0.0
 10
32.551557737
 20
45.2489541823
 30
0.0
 10
31.8463429089
 20
45.4520610812
 30
0.0
 10
31.4094975638
 20
45.6431189681
 30
0.0
 10
31.2075376714
 20
45.7515347531
 30
0.0
  0
SPLINE
  5
39E
100
AcDbEntity
  8
0
100
AcDbSpline
 62
7
  6
BYLAYER
 70
0
 71
3
 72
12
 73
8
 74
0
 42
0.0000001
 43
0.0000001
 44
0.0000000001
 40
0.0
 40
0.0
 40
0.0
 40
0.0
 40
0.288716205
 40
0.5480286696
 40
0.7816835019
 40
0.8920362605
 40
1.0
 40
1.0
 40
1.0
 40
1.0
 10
98.2676025535
 20
81.118725176
 30
0.0
 10
98.4701113321
 20
81.2356429748
 30
0.0
 10
98.8385200455
 20
81.4881850929
 30
0.0
 10
99.2830795192
 20
81.945730204
 30
0.0
 10
99.5289483601
 20
82.3762534915
 30
0.0
 10
99.6329744179
 20
82.7286082727
 30
0.0
 10
99.6552542749
 20
82.904975862
 30
0.0
 10
99.6589854849
 20
82.9923380678
 30
0.0
  0
SPLINE
  5
39F
100
AcDbEntity
  8
0
100
AcDbSpline
 62
7
  6
BYLAYER
 70
0
 71
3
 72
17
 73
13
 74
0
 42
0.0000001
 43
0.0000001
 44
0.0000000001
 40
0.0
 40
0.0
 40
0.0
 40
0.0
 40
0.1277169451
 40
0.2693256216
 40
0.4171863431
 40
0.5626371585
 40
0.6973906682
 40
0.8152087146
 40
0.8670692907
 40
0.914457145
 40
0.958280614
 40
1.0
 40
1.0
 40
1.0
 40
1.0
 10
53.0870918053
 20
57.3981109025
 30
0.0
 10
53.0896876622
 20
57.482447852
 30
0.0
 10
53.1187579294
 20
57.6597438635
 30
0.0
 10
53.2143940117
 20
57.9195486437
 30
0.0
 10
53.357143705
 20
58.1703791743
 30
0.0
 10
53.5354209709
 20
58.3916410965
 30
0.0
 10
53.7346479154
 20
58.5654111558
 30
0.0
 10
53.913214682
 20
58.6634158074
 30
0.0
 10
54.0520983736
 20
58.7016497025
 30
0.0
 10
54.1469279951
 20
58.7096375356
 30
0.0
 10
54.234741181
 20
58.6978113859
 30
0.0
 10
54.2877373866
 20
58.6760701794
 30
0.0
 10
54.3116115146
 20
58.6622971095
 30
0.0
  0
SPLINE
  5
3A0
100
AcDbEntity
  8
0
100
AcDbSpline
 62
7
  6
BYLAYER
 70
0
 71
3
 72
12
 73
8
 74
0
 42
0.0000001
 43
0.0000001
 44
0.0000000001
 40
0.0
 40
0.0
 40
0.0
 40
0.0
 40
0.2887166723
 40
0.5480293032
 40
0.781683947
 40
0.8920365031
 40
1.0
 40
1.0
 40
1.0
 40
1.0
 10
98.2675745455
 20
96.4330863
 30
0.0
 10
98.4700871803
 20
96.3161682221
 30
0.0
 10
98.8385029994
 20
96.0636250532
 30
0.0
 10
99.2830715704
 20
95.6060764245
 30
0.0
 10
99.5289457338
 20
95.1755486878
 30
0.0
 10
99.632973966
 20
94.8231899745
 30
0.0
 10
99.6552542303
 20
94.6468204058
 30
0.0
 10
99.6589854833
 20
94.559457238
 30
0.0
  0
SPLINE
  5
3A1
100
AcDbEntity
  8
0
100
AcDbSpline
 62
7
  6
BYLAYER
 70
0
 71
3
 72
16
 73
12
 74
0
 42
0.0000001
 43
0.0000001
 44
0.0000000001
 40
0.0
 40
0.0
 40
0.0
 40
0.0
 40
0.154644252
 40
0.3054531768
 40
0.4488923718
 40
0.5820544813
 40
0.7030430573
 40
0.8114562609
 40
0.9089600537
 40
0.9549896759
 40
1.0
 40
1.0
 40
1.0
 40
1.0
 10
69.9086701067
 20
97.1651451303
 30
0.0
 10
69.4579096453
 20
97.1651440468
 30
0.0
 10
68.5667319419
 20
97.1156953147
 30
0.0
 10
67.2741351756
 20
96.8949821311
 30
0.0
 10
66.07749731
 20
96.5359710635
 30
0.0
 10
65.0200889061
 20
96.051315537
 30
0.0
 10
64.1393883778
 20
95.4566730195
 30
0.0
 10
63.4671701189
 20
94.7704821307
 30
0.0
 10
63.0975890304
 20
94.1229439658
 30
0.0
 10
62.9449310236
 20
93.5928168013
 30
0.0
 10
62.9139354711
 20
93.3277788137
 30
0.0
 10
62.9098380125
 20
93.1966457328
 30
0.0
  0
SPLINE
  5
3A2
100
AcDbEntity
  8
0
100
AcDbSpline
 62
7
  6
BYLAYER
 70
0
 71
3
 72
11
 73
7
 74
0
 42
0.0000001
 43
0.0000001
 44
0.0000000001
 40
0.0
 40
0.0
 40
0.0
 40
0.0
 40
0.2896745014
 40
0.5490326721
 40
0.7822329904
 40
1.0
 40
1.0
 40
1.0
 40
1.0
 10
62.3441549427
 20
92.8700504097
 30
0.0
 10
62.3090551597
 20
92.8903148205
 30
0.0
 10
62.2453854758
 20
92.9341854344
 30
0.0
 10
62.1692410543
 20
93.0141530042
 30
0.0
 10
62.1211136171
 20
93.1026637427
 30
0.0
 10
62.1098499444
 20
93.1661771859
 30
0.0
 10
62.1098395357
 20
93.1966458308
 30
0.0
  0
SPLINE
  5
3A3
100
AcDbEntity
  8
0
100
AcDbSpline
 62
7
  6
BYLAYER
 70
0
 71
3
 72
9
 73
5
 74
0
 42
0.0000001
 43
0.0000001
 44
0.0000000001
 40
0.0
 40
0.0
 40
0.0
 40
0.0
 40
0.5255657768
 40
1.0
 40
1.0
 40
1.0
 40
1.0
 10
62.9098413432
 20
92.7347721205
 30
0.0
 10
62.8071210103
 20
92.7347718736
 30
0.0
 10
62.6111479623
 20
92.7560155102
 30
0.0
 10
62.4244591757
 20
92.8236877881
 30
0.0
 10
62.3441549427
 20
92.8700504097
 30
0.0
  0
SPLINE
  5
3A4
100
AcDbEntity
  8
0
100
AcDbSpline
 62
7
  6
BYLAYER
 70
0
 71
3
 72
13
 73
9
 74
0
 42
0.0000001
 43
0.0000001
 44
0.0000000001
 40
0.0
 40
0.0
 40
0.0
 40
0.0
 40
0.0908171763
 40
0.1886427989
 40
0.2973082111
 40
0.4185486819
 40
0.6947799697
 40
1.0
 40
1.0
 40
1.0
 40
1.0
 10
65.1132293259
 20
93.186228937
 30
0.0
 10
65.1120519507
 20
93.1561067959
 30
0.0
 10
65.0985284567
 20
93.0936025738
 30
0.0
 10
65.04850958
 20
93.0070923154
 30
0.0
 10
64.9714716952
 20
92.9289475899
 30
0.0
 10
64.8311983229
 20
92.8349268474
 30
0.0
 10
64.608312227
 20
92.7555350675
 30
0.0
 10
64.414748622
 20
92.7347757378
 30
0.0
 10
64.3134362757
 20
92.7347754943
 30
0.0
  0
SPLINE
  5
3A5
100
AcDbEntity
  8
0
100
AcDbSpline
 62
7
  6
BYLAYER
 70
0
 71
3
 72
15
 73
11
 74
0
 42
0.0000001
 43
0.0000001
 44
0.0000000001
 40
0.0
 40
0.0
 40
0.0
 40
0.0
 40
0.1555960965
 40
0.3062445147
 40
0.448851362
 40
0.581060872
 40
0.7014131568
 40
0.8098276491
 40
0.9080760646
 40
1.0
 40
1.0
 40
1.0
 40
1.0
 10
69.5086793495
 20
95.883435389
 30
0.0
 10
69.2196697048
 20
95.8694716781
 30
0.0
 10
68.6517768268
 20
95.8121325368
 30
0.0
 10
67.8337872109
 20
95.6375337071
 30
0.0
 10
67.0832458146
 20
95.3805149459
 30
0.0
 10
66.4243283986
 20
95.0492372881
 30
0.0
 10
65.8779688945
 20
94.6532632195
 30
0.0
 10
65.4618483877
 20
94.2030134617
 30
0.0
 10
65.1923102978
 20
93.7101316124
 30
0.0
 10
65.1199057835
 20
93.3570404225
 30
0.0
 10
65.1132293259
 20
93.186228937
 30
0.0
  0
SPLINE
  5
3A6
100
AcDbEntity
  8
0
100
AcDbSpline
 62
7
  6
BYLAYER
 70
0
 71
3
 72
11
 73
7
 74
0
 42
0.0000001
 43
0.0000001
 44
0.0000000001
 40
0.0
 40
0.0
 40
0.0
 40
0.0
 40
0.2896243576
 40
0.5489981956
 40
0.7821622041
 40
1.0
 40
1.0
 40
1.0
 40
1.0
 10
66.7460845298
 20
92.8700609907
 30
0.0
 10
66.7109908849
 20
92.8903218576
 30
0.0
 10
66.64732848
 20
92.9341948012
 30
0.0
 10
66.5711867012
 20
93.0141457802
 30
0.0
 10
66.5230317115
 20
93.1026561103
 30
0.0
 10
66.5117982757
 20
93.1661779141
 30
0.0
 10
66.5117771697
 20
93.1966564033
 30
0.0
  0
SPLINE
  5
3A7
100
AcDbEntity
  8
0
100
AcDbSpline
 62
7
  6
BYLAYER
 70
0
 71
3
 72
9
 73
5
 74
0
 42
0.0000001
 43
0.0000001
 44
0.0000000001
 40
0.0
 40
0.0
 40
0.0
 40
0.0
 40
0.5255657768
 40
1.0
 40
1.0
 40
1.0
 40
1.0
 10
67.3117709303
 20
92.7347827014
 30
0.0
 10
67.2090505973
 20
92.7347824545
 30
0.0
 10
67.0130775493
 20
92.7560260911
 30
0.0
 10
66.8263887627
 20
92.823698369
 30
0.0
 10
66.7460845298
 20
92.8700609907
 30
0.0
  0
SPLINE
  5
3A8
100
AcDbEntity
  8
0
100
AcDbSpline
 62
7
  6
BYLAYER
 70
0
 71
3
 72
9
 73
5
 74
0
 42
0.0000001
 43
0.0000001
 44
0.0000000001
 40
0.0
 40
0.0
 40
0.0
 40
0.0
 40
0.2597006394
 40
1.0
 40
1.0
 40
1.0
 40
1.0
 10
69.0601746458
 20
92.6338580375
 30
0.0
 10
69.046950496
 20
92.6414928312
 30
0.0
 10
68.9966363087
 20
92.6719152407
 30
0.0
 10
68.9488197807
 20
92.7065768757
 30
0.0
 10
68.9156700684
 20
92.7347865567
 30
0.0
  0
SPLINE
  5
3A9
100
AcDbEntity
  8
0
100
AcDbSpline
 62
7
  6
BYLAYER
 70
0
 71
3
 72
14
 73
10
 74
0
 42
0.0000001
 43
0.0000001
 44
0.0000000001
 40
0.0
 40
0.0
 40
0.0
 40
0.0
 40
0.3048393908
 40
0.446856196
 40
0.5787844084
 40
0.6993009779
 40
0.8083234243
 40
0.9074523409
 40
1.0
 40
1.0
 40
1.0
 40
1.0
 10
69.6028061478
 20
94.6144151701
 30
0.0
 10
69.3093362532
 20
94.5943418245
 30
0.0
 10
68.8795533087
 20
94.5227435545
 30
0.0
 10
68.3521629566
 20
94.3356087249
 30
0.0
 10
68.0120837647
 20
94.1616730836
 30
0.0
 10
67.7285654193
 20
93.9556696901
 30
0.0
 10
67.5099257942
 20
93.7226873229
 30
0.0
 10
67.3640271049
 20
93.4683923899
 30
0.0
 10
67.3192625501
 20
93.2856453631
 30
0.0
 10
67.3117675995
 20
93.1966563138
 30
0.0
  0
SPLINE
  5
3AA
100
AcDbEntity
  8
0
100
AcDbSpline
 62
7
  6
BYLAYER
 70
0
 71
3
 72
13
 73
9
 74
0
 42
0.0000001
 43
0.0000001
 44
0.0000000001
 40
0.0
 40
0.0
 40
0.0
 40
0.0
 40
0.0924181059
 40
0.1907943669
 40
0.2988938034
 40
0.4187078804
 40
0.6925624171
 40
1.0
 40
1.0
 40
1.0
 40
1.0
 10
70.3086851932
 20
95.0730829848
 30
0.0
 10
70.3086853959
 20
95.0449779755
 30
0.0
 10
70.2990532992
 20
94.9866379509
 30
0.0
 10
70.2581552007
 20
94.9042394287
 30
0.0
 10
70.1925718394
 20
94.8286140233
 30
0.0
 10
70.0708604181
 20
94.7352635652
 30
0.0
 10
69.8717386298
 20
94.6506642329
 30
0.0
 10
69.6960821789
 20
94.6207952522
 30
0.0
 10
69.6028061478
 20
94.6144151701
 30
0.0
  0
SPLINE
  5
3AB
100
AcDbEntity
  8
0
100
AcDbSpline
 62
7
  6
BYLAYER
 70
0
 71
3
 72
16
 73
12
 74
0
 42
0.0000001
 43
0.0000001
 44
0.0000000001
 40
0.0
 40
0.0
 40
0.0
 40
0.0
 40
0.1222403571
 40
0.255907829
 40
0.3959610694
 40
0.536422653
 40
0.6712803093
 40
0.7952912212
 40
0.8521281775
 40
0.9051670716
 40
1.0
 40
1.0
 40
1.0
 40
1.0
 10
36.087441748
 20
61.9056956136
 30
0.0
 10
35.7475978921
 20
61.7094878431
 30
0.0
 10
34.9878877964
 20
61.3804539835
 30
0.0
 10
33.7468038425
 20
61.0838590078
 30
0.0
 10
32.4167757381
 20
60.9738710644
 30
0.0
 10
31.0811396605
 20
61.0578629055
 30
0.0
 10
29.8233632477
 20
61.3303895314
 30
0.0
 10
28.8770549469
 20
61.7116883007
 30
0.0
 10
28.2337421716
 20
62.1025169741
 30
0.0
 10
27.716965258
 20
62.5091967725
 30
0.0
 10
27.4036428052
 20
62.8803375191
 30
0.0
 10
27.2568657806
 20
63.1470515405
 30
0.0
  0
SPLINE
  5
3AC
100
AcDbEntity
  8
0
100
AcDbSpline
 62
7
  6
BYLAYER
 70
0
 71
3
 72
9
 73
5
 74
0
 42
0.0000001
 43
0.0000001
 44
0.0000000001
 40
0.0
 40
0.0
 40
0.0
 40
0.0
 40
0.2569327064
 40
1.0
 40
1.0
 40
1.0
 40
1.0
 10
27.2568657806
 20
63.1470515405
 30
0.0
 10
27.2338759775
 20
63.1888271716
 30
0.0
 10
27.1495044273
 20
63.354145771
 30
0.0
 10
27.0866626466
 20
63.5307092327
 30
0.0
 10
27.0551443145
 20
63.6649636993
 30
0.0
  0
SPLINE
  5
3AD
100
AcDbEntity
  8
0
100
AcDbSpline
 62
7
  6
BYLAYER
 70
0
 71
3
 72
16
 73
12
 74
0
 42
0.0000001
 43
0.0000001
 44
0.0000000001
 40
0.0
 40
0.0
 40
0.0
 40
0.0
 40
0.1222606783
 40
0.2559533904
 40
0.3960303546
 40
0.536507074
 40
0.6713653026
 40
0.795359191
 40
0.852181671
 40
0.9052032617
 40
1.0
 40
1.0
 40
1.0
 40
1.0
 10
89.8205444038
 20
92.9361708342
 30
0.0
 10
89.4811426247
 20
92.7402182953
 30
0.0
 10
88.7223884529
 20
92.4116487297
 30
0.0
 10
87.482868891
 20
92.1155863749
 30
0.0
 10
86.1545626397
 20
92.005978772
 30
0.0
 10
84.8207743002
 20
92.0901813559
 30
0.0
 10
83.5649322336
 20
92.3627316292
 30
0.0
 10
82.6202741087
 20
92.7438926832
 30
0.0
 10
81.9783001771
 20
93.1345058913
 30
0.0
 10
81.4627915867
 20
93.5408867501
 30
0.0
 10
81.1504463618
 20
93.9117332922
 30
0.0
 10
81.0043253541
 20
94.1781658532
 30
0.0
  0
SPLINE
  5
3AE
100
AcDbEntity
  8
0
100
AcDbSpline
 62
7
  6
BYLAYER
 70
0
 71
3
 72
9
 73
5
 74
0
 42
0.0000001
 43
0.0000001
 44
0.0000000001
 40
0.0
 40
0.0
 40
0.0
 40
0.0
 40
0.2569213962
 40
1.0
 40
1.0
 40
1.0
 40
1.0
 10
81.0043253541
 20
94.1781658532
 30
0.0
 10
80.9814132768
 20
94.2199430317
 30
0.0
 10
80.8973527977
 20
94.3852718552
 30
0.0
 10
80.8348783259
 20
94.5618331927
 30
0.0
 10
80.8036629965
 20
94.6960597202
 30
0.0
  0
SPLINE
  5
3AF
100
AcDbEntity
  8
0
100
AcDbSpline
 62
7
  6
BYLAYER
 70
0
 71
3
 72
9
 73
5
 74
0
 42
0.0000001
 43
0.0000001
 44
0.0000000001
 40
0.0
 40
0.0
 40
0.0
 40
0.0
 40
0.2663562494
 40
1.0
 40
1.0
 40
1.0
 40
1.0
 10
97.5847619858
 20
100.4067669697
 30
0.0
 10
97.5847627523
 20
100.3009358858
 30
0.0
 10
97.5718911624
 20
99.9039597231
 30
0.0
 10
97.504758566
 20
99.5068784287
 30
0.0
 10
97.4149784958
 20
99.2295507857
 30
0.0
  0
SPLINE
  5
3B0
100
AcDbEntity
  8
0
100
AcDbSpline
 62
7
  6
BYLAYER
 70
0
 71
3
 72
9
 73
5
 74
0
 42
0.0000001
 43
0.0000001
 44
0.0000000001
 40
0.0
 40
0.0
 40
0.0
 40
0.0
 40
0.5213244693
 40
1.0
 40
1.0
 40
1.0
 40
1.0
 10
97.4149784958
 20
99.2295507857
 30
0.0
 10
97.3520665205
 20
99.035217792
 30
0.0
 10
97.1924034428
 20
98.6729051417
 30
0.0
 10
96.9409654115
 20
98.3642369431
 30
0.0
 10
96.801232987
 20
98.2391343338
 30
0.0
  0
SPLINE
  5
3B1
100
AcDbEntity
  8
0
100
AcDbSpline
 62
7
  6
BYLAYER
 70
0
 71
3
 72
9
 73
5
 74
0
 42
0.0000001
 43
0.0000001
 44
0.0000000001
 40
0.0
 40
0.0
 40
0.0
 40
0.0
 40
0.4812787685
 40
1.0
 40
1.0
 40
1.0
 40
1.0
 10
91.9258020755
 20
107.2500095131
 30
0.0
 10
92.0779789232
 20
107.2745984947
 30
0.0
 10
92.4008122958
 20
107.2886001837
 30
0.0
 10
92.7191016606
 20
107.2383775934
 30
0.0
 10
92.8806075734
 20
107.1993980702
 30
0.0
  0
SPLINE
  5
3B2
100
AcDbEntity
  8
0
100
AcDbSpline
 62
7
  6
BYLAYER
 70
0
 71
3
 72
9
 73
5
 74
0
 42
0.0000001
 43
0.0000001
 44
0.0000000001
 40
0.0
 40
0.0
 40
0.0
 40
0.0
 40
0.2356706307
 40
1.0
 40
1.0
 40
1.0
 40
1.0
 10
92.8806075734
 20
107.1993980702
 30
0.0
 10
92.9656362179
 20
107.1788763694
 30
0.0
 10
93.3226742998
 20
107.0763081304
 30
0.0
 10
93.6621126766
 20
106.9172355843
 30
0.0
 10
93.9077914148
 20
106.7753961075
 30
0.0
  0
SPLINE
  5
3B3
100
AcDbEntity
  8
0
100
AcDbSpline
 62
7
  6
BYLAYER
 70
0
 71
3
 72
9
 73
5
 74
0
 42
0.0000001
 43
0.0000001
 44
0.0000000001
 40
0.0
 40
0.0
 40
0.0
 40
0.0
 40
0.2696952314
 40
1.0
 40
1.0
 40
1.0
 40
1.0
 10
97.055019974
 20
99.447761654
 30
0.0
 10
97.0550210083
 20
99.3040737952
 30
0.0
 10
97.0349097622
 20
98.7720734993
 30
0.0
 10
96.9278231876
 20
98.2390060183
 30
0.0
 10
96.7826863049
 20
97.8779978162
 30
0.0
  0
SPLINE
  5
3B4
100
AcDbEntity
  8
0
100
AcDbSpline
 62
7
  6
BYLAYER
 70
0
 71
3
 72
9
 73
5
 74
0
 42
0.0000001
 43
0.0000001
 44
0.0000000001
 40
0.0
 40
0.0
 40
0.0
 40
0.0
 40
0.2569035046
 40
1.0
 40
1.0
 40
1.0
 40
1.0
 10
96.7826863049
 20
97.8779978162
 30
0.0
 10
96.7660336734
 20
97.8365766662
 30
0.0
 10
96.697754226
 20
97.6767729722
 30
0.0
 10
96.6152081753
 20
97.5229368653
 30
0.0
 10
96.5455666783
 20
97.4141943694
 30
0.0
  0
SPLINE
  5
3B5
100
AcDbEntity
  8
0
100
AcDbSpline
 62
7
  6
BYLAYER
 70
0
 71
3
 72
10
 73
6
 74
0
 42
0.0000001
 43
0.0000001
 44
0.0000000001
 40
0.0
 40
0.0
 40
0.0
 40
0.0
 40
0.2384115586
 40
0.4819120409
 40
1.0
 40
1.0
 40
1.0
 40
1.0
 10
89.8124037259
 20
107.0933006611
 30
0.0
 10
89.9172087086
 20
107.1537939789
 30
0.0
 10
90.140803839
 20
107.2569430374
 30
0.0
 10
90.6340791981
 20
107.3848771373
 30
0.0
 10
91.0287560258
 20
107.383655989
 30
0.0
 10
91.2894172998
 20
107.3489193628
 30
0.0
  0
SPLINE
  5
3B6
100
AcDbEntity
  8
0
100
AcDbSpline
 62
7
  6
BYLAYER
 70
0
 71
3
 72
10
 73
6
 74
0
 42
0.0000001
 43
0.0000001
 44
0.0000000001
 40
0.0
 40
0.0
 40
0.0
 40
0.0
 40
0.2308844694
 40
0.600907117
 40
1.0
 40
1.0
 40
1.0
 40
1.0
 10
91.2894172998
 20
107.3489193628
 30
0.0
 10
91.4137040501
 20
107.332356479
 30
0.0
 10
91.7347261704
 20
107.2694111746
 30
0.0
 10
92.250471672
 20
107.0929037492
 30
0.0
 10
92.6246850453
 20
106.9045325614
 30
0.0
 10
92.8123830655
 20
106.7961675105
 30
0.0
  0
SPLINE
  5
3B7
100
AcDbEntity
  8
0
100
AcDbSpline
 62
7
  6
BYLAYER
 70
0
 71
3
 72
9
 73
5
 74
0
 42
0.0000001
 43
0.0000001
 44
0.0000000001
 40
0.0
 40
0.0
 40
0.0
 40
0.0
 40
0.4932594854
 40
1.0
 40
1.0
 40
1.0
 40
1.0
 10
85.6045332965
 20
104.6639000376
 30
0.0
 10
85.4853847165
 20
104.5951276116
 30
0.0
 10
85.2578236064
 20
104.4300288105
 30
0.0
 10
85.0682723021
 20
104.2227889659
 30
0.0
 10
84.9827224336
 20
104.1102905062
 30
0.0
  0
SPLINE
  5
3B8
100
AcDbEntity
  8
0
100
AcDbSpline
 62
7
  6
BYLAYER
 70
0
 71
3
 72
12
 73
8
 74
0
 42
0.0000001
 43
0.0000001
 44
0.0000000001
 40
0.0
 40
0.0
 40
0.0
 40
0.0
 40
0.2895533927
 40
0.5486515464
 40
0.7816305542
 40
0.8918381006
 40
1.0
 40
1.0
 40
1.0
 40
1.0
 10
82.3891043514
 20
97.2266176861
 30
0.0
 10
82.1608797184
 20
97.0948529193
 30
0.0
 10
81.7468882103
 20
96.809672728
 30
0.0
 10
81.2521921462
 20
96.2902070976
 30
0.0
 10
80.9867355103
 20
95.8005831094
 30
0.0
 10
80.8831782026
 20
95.4013711131
 30
0.0
 10
80.86611378
 20
95.2022069782
 30
0.0
 10
80.8661162335
 20
95.1037657815
 30
0.0
  0
SPLINE
  5
3B9
100
AcDbEntity
  8
0
100
AcDbSpline
 62
7
  6
BYLAYER
 70
0
 71
3
 72
12
 73
8
 74
0
 42
0.0000001
 43
0.0000001
 44
0.0000000001
 40
0.0
 40
0.0
 40
0.0
 40
0.0
 40
0.2895533927
 40
0.5486515464
 40
0.7816305542
 40
0.8918381006
 40
1.0
 40
1.0
 40
1.0
 40
1.0
 10
28.6492127232
 20
66.2000619918
 30
0.0
 10
28.4209880901
 20
66.068297225
 30
0.0
 10
28.006996582
 20
65.7831170338
 30
0.0
 10
27.512300518
 20
65.2636514034
 30
0.0
 10
27.2468438821
 20
64.7740274152
 30
0.0
 10
27.1432865744
 20
64.3748154189
 30
0.0
 10
27.1262221517
 20
64.175651284
 30
0.0
 10
27.1262246052
 20
64.0772100872
 30
0.0
  0
SPLINE
  5
3BA
100
AcDbEntity
  8
0
100
AcDbSpline
 62
7
  6
BYLAYER
 70
0
 71
3
 72
20
 73
16
 74
0
 42
0.0000001
 43
0.0000001
 44
0.0000000001
 40
0.0
 40
0.0
 40
0.0
 40
0.0
 40
0.062399187
 40
0.1288067738
 40
0.2702995681
 40
0.4173586262
 40
0.5616122736
 40
0.6302514733
 40
0.6953767814
 40
0.7563608473
 40
0.8128325085
 40
0.8647628237
 40
0.9125667112
 40
0.9571683049
 40
1.0
 40
1.0
 40
1.0
 40
1.0
 10
18.1486862961
 20
62.8728169781
 30
0.0
 10
18.3282689507
 20
62.7691372297
 30
0.0
 10
18.6851522119
 20
62.5305740387
 30
0.0
 10
19.3734690865
 20
61.9513607622
 30
0.0
 10
20.1571316623
 20
61.0596885883
 30
0.0
 10
20.9135247662
 20
59.829331584
 30
0.0
 10
21.3645035132
 20
58.7139124358
 30
0.0
 10
21.5872464574
 20
57.8159377488
 30
0.0
 10
21.6780787001
 20
57.1738521255
 30
0.0
 10
21.6935768725
 20
56.5657809252
 30
0.0
 10
21.6330184409
 20
56.0041952918
 30
0.0
 10
21.496914471
 20
55.5006778485
 30
0.0
 10
21.2868131823
 20
55.0658013325
 30
0.0
 10
21.0056121448
 20
54.7102033375
 30
0.0
 10
20.7719225541
 20
54.5313744411
 30
0.0
 10
20.6486566449
 20
54.4602033753
 30
0.0
  0
SPLINE
  5
3BB
100
AcDbEntity
  8
0
100
AcDbSpline
 62
7
  6
BYLAYER
 70
0
 71
3
 72
17
 73
13
 74
0
 42
0.0000001
 43
0.0000001
 44
0.0000000001
 40
0.0
 40
0.0
 40
0.0
 40
0.0
 40
0.1277169452
 40
0.2693256217
 40
0.4171863431
 40
0.5626371583
 40
0.697390668
 40
0.8152087145
 40
0.8670692906
 40
0.914457145
 40
0.958280614
 40
1.0
 40
1.0
 40
1.0
 40
1.0
 10
54.5012017494
 20
58.2145427861
 30
0.0
 10
54.4986058924
 20
58.1302058367
 30
0.0
 10
54.4695356243
 20
57.9529098258
 30
0.0
 10
54.3738995422
 20
57.6931050464
 30
0.0
 10
54.2311498494
 20
57.4422745168
 30
0.0
 10
54.0528725841
 20
57.2210125954
 30
0.0
 10
53.8536456404
 20
57.0472425365
 30
0.0
 10
53.6750788744
 20
56.9492378849
 30
0.0
 10
53.5361951833
 20
56.9110039895
 30
0.0
 10
53.441365562
 20
56.9030161559
 30
0.0
 10
53.3535523762
 20
56.9148423051
 30
0.0
 10
53.3005561706
 20
56.9365835112
 30
0.0
 10
53.2766820425
 20
56.9503565808
 30
0.0
  0
SPLINE
  5
3BC
100
AcDbEntity
  8
0
100
AcDbSpline
 62
7
  6
BYLAYER
 70
0
 71
3
 72
12
 73
8
 74
0
 42
0.0000001
 43
0.0000001
 44
0.0000000001
 40
0.0
 40
0.0
 40
0.0
 40
0.0
 40
0.1080755563
 40
0.218331505
 40
0.4515642929
 40
0.7107517466
 40
1.0
 40
1.0
 40
1.0
 40
1.0
 10
27.0072458635
 20
64.1054509408
 30
0.0
 10
27.0088271001
 20
64.2050468642
 30
0.0
 10
27.0291224891
 20
64.4063868058
 30
0.0
 10
27.1390531406
 20
64.8094567152
 30
0.0
 10
27.4119885104
 20
65.3031017513
 30
0.0
 10
27.9148067495
 20
65.827155387
 30
0.0
 10
28.3340530679
 20
66.115431439
 30
0.0
 10
28.5649248399
 20
66.248724523
 30
0.0
  0
SPLINE
  5
3BD
100
AcDbEntity
  8
0
100
AcDbSpline
 62
7
  6
BYLAYER
 70
0
 71
3
 72
10
 73
6
 74
0
 42
0.0000001
 43
0.0000001
 44
0.0000000001
 40
0.0
 40
0.0
 40
0.0
 40
0.0
 40
0.2287653351
 40
0.4681408378
 40
1.0
 40
1.0
 40
1.0
 40
1.0
 10
71.1082295585
 20
93.1184936931
 30
0.0
 10
71.1066357451
 20
93.151549812
 30
0.0
 10
71.0948418829
 20
93.2190607692
 30
0.0
 10
71.0368126734
 20
93.3526838452
 30
0.0
 10
70.9603251446
 20
93.4383558931
 30
0.0
 10
70.9017284325
 20
93.488220415
 30
0.0
  0
SPLINE
  5
3BE
100
AcDbEntity
  8
0
100
AcDbSpline
 62
7
  6
BYLAYER
 70
0
 71
3
 72
9
 73
5
 74
0
 42
0.0000001
 43
0.0000001
 44
0.0000000001
 40
0.0
 40
0.0
 40
0.0
 40
0.0
 40
0.4520785843
 40
1.0
 40
1.0
 40
1.0
 40
1.0
 10
70.3076253004
 20
97.3881994947
 30
0.0
 10
70.3040317917
 20
97.4169228165
 30
0.0
 10
70.2741556698
 20
97.4777810078
 30
0.0
 10
70.2218939479
 20
97.5173427282
 30
0.0
 10
70.1915099762
 20
97.5348845256
 30
0.0
  0
SPLINE
  5
3BF
100
AcDbEntity
  8
0
100
AcDbSpline
 62
7
  6
BYLAYER
 70
0
 71
3
 72
16
 73
12
 74
0
 42
0.0000001
 43
0.0000001
 44
0.0000000001
 40
0.0
 40
0.0
 40
0.0
 40
0.0
 40
0.1496546288
 40
0.2195217972
 40
0.2860413963
 40
0.4098837446
 40
0.5246122634
 40
0.6352757657
 40
0.7479700609
 40
0.8682426147
 40
1.0
 40
1.0
 40
1.0
 40
1.0
 10
97.9017088093
 20
93.1695029994
 30
0.0
 10
98.0622785458
 20
93.2622074246
 30
0.0
 10
98.2891329013
 20
93.414976547
 30
0.0
 10
98.5547149697
 20
93.6502931886
 30
0.0
 10
98.7746306151
 20
93.8865632639
 30
0.0
 10
98.9885592738
 20
94.2024845076
 30
0.0
 10
99.1351406945
 20
94.6152831546
 30
0.0
 10
99.1568584238
 20
95.0397904665
 30
0.0
 10
99.0520208369
 20
95.458404852
 30
0.0
 10
98.8279152549
 20
95.8559032126
 30
0.0
 10
98.6159631632
 20
96.0886041209
 30
0.0
 10
98.4958820043
 20
96.1991783687
 30
0.0
  0
SPLINE
  5
3C0
100
AcDbEntity
  8
0
100
AcDbSpline
 62
7
  6
BYLAYER
 70
0
 71
3
 72
9
 73
5
 74
0
 42
0.0000001
 43
0.0000001
 44
0.0000000001
 40
0.0
 40
0.0
 40
0.0
 40
0.0
 40
0.2447807084
 40
1.0
 40
1.0
 40
1.0
 40
1.0
 10
98.4958820043
 20
96.1991783687
 30
0.0
 10
98.4771912696
 20
96.2163893445
 30
0.0
 10
98.3998616946
 20
96.2856409824
 30
0.0
 10
98.3188084226
 20
96.3507070262
 30
0.0
 10
98.2559652972
 20
96.3975668759
 30
0.0
  0
SPLINE
  5
3C1
100
AcDbEntity
  8
0
100
AcDbSpline
 62
7
  6
BYLAYER
 70
0
 71
3
 72
9
 73
5
 74
0
 42
0.0000001
 43
0.0000001
 44
0.0000000001
 40
0.0
 40
0.0
 40
0.0
 40
0.0
 40
0.24399067
 40
1.0
 40
1.0
 40
1.0
 40
1.0
 10
98.2559652972
 20
96.3975668759
 30
0.0
 10
98.2283353867
 20
96.4181695026
 30
0.0
 10
98.1137676665
 20
96.5008234808
 30
0.0
 10
97.9941692929
 20
96.5764476863
 30
0.0
 10
97.9016838582
 20
96.6298429684
 30
0.0
  0
SPLINE
  5
3C2
100
AcDbEntity
  8
0
100
AcDbSpline
 62
7
  6
BYLAYER
 70
0
 71
3
 72
15
 73
11
 74
0
 42
0.0000001
 43
0.0000001
 44
0.0000000001
 40
0.0
 40
0.0
 40
0.0
 40
0.0
 40
0.1141469224
 40
0.2373360366
 40
0.366976904
 40
0.5000005213
 40
0.6330240661
 40
0.7626647218
 40
0.8858535023
 40
1.0
 40
1.0
 40
1.0
 40
1.0
 10
31.0972084733
 20
58.060491353
 30
0.0
 10
31.3023485779
 20
57.9420563377
 30
0.0
 10
31.750982549
 20
57.7331775822
 30
0.0
 10
32.481500168
 20
57.5111013314
 30
0.0
 10
33.2724376292
 20
57.3744888314
 30
0.0
 10
34.0939986873
 20
57.3283423495
 30
0.0
 10
34.9155590885
 20
57.3744927303
 30
0.0
 10
35.7064946097
 20
57.5111089854
 30
0.0
 10
36.4370090839
 20
57.7331887085
 30
0.0
 10
36.8856403075
 20
57.9420697035
 30
0.0
 10
37.0907787943
 20
58.0605057584
 30
0.0
  0
SPLINE
  5
3C3
100
AcDbEntity
  8
0
100
AcDbSpline
 62
7
  6
BYLAYER
 70
0
 71
3
 72
11
 73
7
 74
0
 42
0.0000001
 43
0.0000001
 44
0.0000000001
 40
0.0
 40
0.0
 40
0.0
 40
0.0
 40
0.2897062311
 40
0.5490596185
 40
0.7822840529
 40
1.0
 40
1.0
 40
1.0
 40
1.0
 10
70.0743624192
 20
96.2100307121
 30
0.0
 10
70.1094658939
 20
96.18976417
 30
0.0
 10
70.1731401632
 20
96.1458944188
 30
0.0
 10
70.2492863919
 20
96.0659163489
 30
0.0
 10
70.2973981261
 20
95.9774069782
 30
0.0
 10
70.3086791298
 20
95.9138986814
 30
0.0
 10
70.3086793495
 20
95.883437312
 30
0.0
  0
SPLINE
  5
3C4
100
AcDbEntity
  8
0
100
AcDbSpline
 62
7
  6
BYLAYER
 70
0
 71
3
 72
9
 73
5
 74
0
 42
0.0000001
 43
0.0000001
 44
0.0000000001
 40
0.0
 40
0.0
 40
0.0
 40
0.0
 40
0.5252998095
 40
1.0
 40
1.0
 40
1.0
 40
1.0
 10
69.4419633708
 20
96.343700098
 30
0.0
 10
69.5560904783
 20
96.349214232
 30
0.0
 10
69.7752268329
 20
96.3333878921
 30
0.0
 10
69.9849412425
 20
96.2616568846
 30
0.0
 10
70.0743624192
 20
96.2100307121
 30
0.0
  0
SPLINE
  5
3C5
100
AcDbEntity
  8
0
100
AcDbSpline
 62
7
  6
BYLAYER
 70
0
 71
3
 72
15
 73
11
 74
0
 42
0.0000001
 43
0.0000001
 44
0.0000000001
 40
0.0
 40
0.0
 40
0.0
 40
0.0
 40
0.0919239354
 40
0.1901723509
 40
0.2985868432
 40
0.418939128
 40
0.551148638
 40
0.6937554853
 40
0.8444039035
 40
1.0
 40
1.0
 40
1.0
 40
1.0
 10
64.313432945
 20
93.1966491067
 30
0.0
 10
64.3212229132
 20
93.3959488133
 30
0.0
 10
64.4057031718
 20
93.8079291341
 30
0.0
 10
64.7201952688
 20
94.3830146309
 30
0.0
 10
65.2057170398
 20
94.9083577856
 30
0.0
 10
65.8431992828
 20
95.3703730624
 30
0.0
 10
66.6120120319
 20
95.7569017541
 30
0.0
 10
67.4877299598
 20
96.0567865281
 30
0.0
 10
68.4421452326
 20
96.2605052385
 30
0.0
 10
69.1047522211
 20
96.3274074963
 30
0.0
 10
69.4419633708
 20
96.343700098
 30
0.0
  0
SPLINE
  5
3C6
100
AcDbEntity
  8
0
100
AcDbSpline
 62
7
  6
BYLAYER
 70
0
 71
3
 72
9
 73
5
 74
0
 42
0.0000001
 43
0.0000001
 44
0.0000000001
 40
0.0
 40
0.0
 40
0.0
 40
0.0
 40
0.5255657768
 40
1.0
 40
1.0
 40
1.0
 40
1.0
 10
69.9086667759
 20
97.6270187427
 30
0.0
 10
69.9600269424
 20
97.6270188662
 30
0.0
 10
70.0580134664
 20
97.6163970479
 30
0.0
 10
70.1513578597
 20
97.5825609089
 30
0.0
 10
70.1915099762
 20
97.5593795981
 30
0.0
  0
SPLINE
  5
3C7
100
AcDbEntity
  8
0
100
AcDbSpline
 62
7
  6
BYLAYER
 70
0
 71
3
 72
10
 73
6
 74
0
 42
0.0000001
 43
0.0000001
 44
0.0000000001
 40
0.0
 40
0.0
 40
0.0
 40
0.0
 40
0.2388025566
 40
0.482975496
 40
1.0
 40
1.0
 40
1.0
 40
1.0
 10
62.1099681568
 20
93.2049765569
 30
0.0
 10
62.1145149072
 20
93.3504885571
 30
0.0
 10
62.1488194275
 20
93.6446070676
 30
0.0
 10
62.3174399407
 20
94.232560465
 30
0.0
 10
62.5507547051
 20
94.6434185097
 30
0.0
 10
62.7385503209
 20
94.8965633703
 30
0.0
  0
SPLINE
  5
3C8
100
AcDbEntity
  8
0
100
AcDbSpline
 62
7
  6
BYLAYER
 70
0
 71
3
 72
13
 73
9
 74
0
 42
0.0000001
 43
0.0000001
 44
0.0000000001
 40
0.0
 40
0.0
 40
0.0
 40
0.0
 40
0.2058225255
 40
0.3221392591
 40
0.4466723656
 40
0.5783497228
 40
0.7156814151
 40
1.0
 40
1.0
 40
1.0
 40
1.0
 10
62.7447706486
 20
94.90492484
 30
0.0
 10
63.0688819155
 20
95.339386478
 30
0.0
 10
63.7172383924
 20
95.9164258358
 30
0.0
 10
64.7315302343
 20
96.5129914556
 30
0.0
 10
65.6320814953
 20
96.9086970304
 30
0.0
 10
66.6208255009
 20
97.2247348098
 30
0.0
 10
68.0460311726
 20
97.5356482893
 30
0.0
 10
69.1599079438
 20
97.6270169429
 30
0.0
 10
69.9086667759
 20
97.6270187427
 30
0.0
  0
SPLINE
  5
3C9
100
AcDbEntity
  8
0
100
AcDbSpline
 62
7
  6
BYLAYER
 70
0
 71
3
 72
14
 73
10
 74
0
 42
0.0000001
 43
0.0000001
 44
0.0000000001
 40
0.0
 40
0.0
 40
0.0
 40
0.0
 40
0.0925476402
 40
0.1916765222
 40
0.3006989516
 40
0.4212155091
 40
0.5531437182
 40
0.6951605326
 40
1.0
 40
1.0
 40
1.0
 40
1.0
 10
66.512711707
 20
93.2190887112
 30
0.0
 10
66.5225127941
 20
93.3354589829
 30
0.0
 10
66.5810509986
 20
93.574435808
 30
0.0
 10
66.7718415524
 20
93.9069752581
 30
0.0
 10
67.0577548087
 20
94.2116444853
 30
0.0
 10
67.4285095065
 20
94.4810335577
 30
0.0
 10
67.8732284214
 20
94.7084878989
 30
0.0
 10
68.5628928134
 20
94.9532027527
 30
0.0
 10
69.1249167725
 20
95.0468312955
 30
0.0
 10
69.5086851932
 20
95.0730810618
 30
0.0
  0
SPLINE
  5
3CA
100
AcDbEntity
  8
0
100
AcDbSpline
 62
7
  6
BYLAYER
 70
0
 71
3
 72
11
 73
7
 74
0
 42
0.0000001
 43
0.0000001
 44
0.0000000001
 40
0.0
 40
0.0
 40
0.0
 40
0.0
 40
0.2895473313
 40
0.5491390889
 40
0.7822792833
 40
1.0
 40
1.0
 40
1.0
 40
1.0
 10
70.7572238551
 20
93.6136440068
 30
0.0
 10
70.8098497457
 20
93.583261122
 30
0.0
 10
70.9053495282
 20
93.5174116611
 30
0.0
 10
71.0195882355
 20
93.3974828658
 30
0.0
 10
71.0918478898
 20
93.2647102377
 30
0.0
 10
71.1086490686
 20
93.169443724
 30
0.0
 10
71.1086499047
 20
93.1237510516
 30
0.0
  0
SPLINE
  5
3CB
100
AcDbEntity
  8
0
100
AcDbSpline
 62
7
  6
BYLAYER
 70
0
 71
3
 72
15
 73
11
 74
0
 42
0.0000001
 43
0.0000001
 44
0.0000000001
 40
0.0
 40
0.0
 40
0.0
 40
0.0
 40
0.0886963902
 40
0.1916675337
 40
0.3116388568
 40
0.4461393488
 40
0.5894803926
 40
0.7343900634
 40
0.8734401934
 40
1.0
 40
1.0
 40
1.0
 40
1.0
 10
68.715362532
 20
93.1966596876
 30
0.0
 10
68.7277104484
 20
93.2640261686
 30
0.0
 10
68.7925838349
 20
93.4032485438
 30
0.0
 10
68.9709993479
 20
93.5702112178
 30
0.0
 10
69.2169574666
 20
93.700697153
 30
0.0
 10
69.5134920842
 20
93.7872868196
 30
0.0
 10
69.8392747847
 20
93.8242541518
 30
0.0
 10
70.1703327221
 20
93.8089933605
 30
0.0
 10
70.4817156191
 20
93.7425503771
 30
0.0
 10
70.6725903333
 20
93.662506088
 30
0.0
 10
70.7572238551
 20
93.6136440068
 30
0.0
  0
SPLINE
  5
3CC
100
AcDbEntity
  8
0
100
AcDbSpline
 62
7
  6
BYLAYER
 70
0
 71
3
 72
18
 73
14
 74
0
 42
0.0000001
 43
0.0000001
 44
0.0000000001
 40
0.0
 40
0.0
 40
0.0
 40
0.0
 40
0.0436848298
 40
0.0902702566
 40
0.1405610374
 40
0.194958563
 40
0.2534988383
 40
0.3159382885
 40
0.4503283112
 40
0.5927827226
 40
0.736430377
 40
0.8741994519
 40
1.0
 40
1.0
 40
1.0
 40
1.0
 10
20.567222387
 20
54.4825989172
 30
0.0
 10
20.6645438565
 20
54.580519434
 30
0.0
 10
20.8424860642
 20
54.8069046346
 30
0.0
 10
21.0412520343
 20
55.2069630734
 30
0.0
 10
21.1766422224
 20
55.6676847324
 30
0.0
 10
21.2467197847
 20
56.1803936176
 30
0.0
 10
21.251069755
 20
56.7359578835
 30
0.0
 10
21.1671592323
 20
57.5399955654
 30
0.0
 10
20.8952349138
 20
58.584003623
 30
0.0
 10
20.3512249507
 20
59.802118457
 30
0.0
 10
19.6193201035
 20
60.9308862072
 30
0.0
 10
18.7525013576
 20
61.889419063
 30
0.0
 10
18.0852905713
 20
62.4000052597
 30
0.0
 10
17.742535611
 20
62.6014497476
 30
0.0
  0
SPLINE
  5
3CD
100
AcDbEntity
  8
0
100
AcDbSpline
 62
7
  6
BYLAYER
 70
0
 71
3
 72
20
 73
16
 74
0
 42
0.0000001
 43
0.0000001
 44
0.0000000001
 40
0.0
 40
0.0
 40
0.0
 40
0.0
 40
0.0627237354
 40
0.1293625038
 40
0.2710813915
 40
0.4180855312
 40
0.5621147168
 40
0.6306192213
 40
0.6956173945
 40
0.7564956533
 40
0.8128926375
 40
0.864782685
 40
0.9125755222
 40
0.9571790901
 40
1.0
 40
1.0
 40
1.0
 40
1.0
 10
30.0275224515
 20
67.0927930578
 30
0.0
 10
30.2195812018
 20
67.2008584589
 30
0.0
 10
30.630303539
 20
67.3984081492
 30
0.0
 10
31.5295944023
 20
67.7162301451
 30
0.0
 10
32.7628924702
 20
67.9554864227
 30
0.0
 10
34.2891597051
 20
67.9909864321
 30
0.0
 10
35.5467067506
 20
67.8101940791
 30
0.0
 10
36.4842209835
 20
67.5372769203
 30
0.0
 10
37.1183036906
 20
67.2799841721
 30
0.0
 10
37.6816969231
 20
66.97218409
 30
0.0
 10
38.1627895362
 20
66.619743444
 30
0.0
 10
38.5514002341
 20
66.229170531
 30
0.0
 10
38.8388118045
 20
65.8073970162
 30
0.0
 10
39.0169439619
 20
65.362581553
 30
0.0
 10
39.0586525657
 20
65.0543741985
 30
0.0
 10
39.0595225476
 20
64.9039294452
 30
0.0
  0
SPLINE
  5
3CE
100
AcDbEntity
  8
0
100
AcDbSpline
 62
7
  6
BYLAYER
 70
0
 71
3
 72
20
 73
16
 74
0
 42
0.0000001
 43
0.0000001
 44
0.0000000001
 40
0.0
 40
0.0
 40
0.0
 40
0.0
 40
0.0626960423
 40
0.1293140496
 40
0.2710095505
 40
0.4180133492
 40
0.5620582753
 40
0.6305738413
 40
0.6955835436
 40
0.7564726605
 40
0.8128788217
 40
0.8647756968
 40
0.9125727497
 40
0.9571782847
 40
1.0
 40
1.0
 40
1.0
 40
1.0
 10
83.7702732338
 20
98.1132152034
 30
0.0
 10
83.9618886901
 20
98.2212507823
 30
0.0
 10
84.3717436661
 20
98.4187688579
 30
0.0
 10
85.2693563135
 20
98.7366456144
 30
0.0
 10
86.5006977124
 20
98.976141548
 30
0.0
 10
88.0248246242
 20
99.0121791705
 30
0.0
 10
89.2807938599
 20
98.8320339503
 30
0.0
 10
90.2172284816
 20
98.5597400601
 30
0.0
 10
90.8506212618
 20
98.3029416456
 30
0.0
 10
91.4134210529
 20
97.9956684065
 30
0.0
 10
91.8940185041
 20
97.6437816147
 30
0.0
 10
92.2822352781
 20
97.2537858951
 30
0.0
 10
92.5693558197
 20
96.8326071283
 30
0.0
 10
92.7473010513
 20
96.388397985
 30
0.0
 10
92.7889539625
 20
96.0806021863
 30
0.0
 10
92.7898138861
 20
95.9303618956
 30
0.0
  0
LINE
  5
3CF
100
AcDbEntity
  8
0
100
AcDbLine
 62
7
  6
BYLAYER
 10
12.8807188438
 20
61.8316985136
 11
12.9210724729
 21
61.8087165151
  0
SPLINE
  5
3D0
100
AcDbEntity
  8
0
100
AcDbSpline
 62
7
  6
BYLAYER
 70
0
 71
3
 72
11
 73
7
 74
0
 42
0.0000001
 43
0.0000001
 44
0.0000000001
 40
0.0
 40
0.0
 40
0.0
 40
0.0
 40
0.2619211645
 40
0.5229925119
 40
0.7721307945
 40
1.0
 40
1.0
 40
1.0
 40
1.0
 10
92.2233242852
 20
99.9356495535
 30
0.0
 10
92.0325003296
 20
100.4058309604
 30
0.0
 10
91.5788933775
 20
101.316691257
 30
0.0
 10
90.7225037118
 20
102.5496052496
 30
0.0
 10
89.7348058402
 20
103.5912635839
 30
0.0
 10
88.9868295758
 20
104.1460410924
 30
0.0
 10
88.6045126361
 20
104.366766887
 30
0.0
  0
SPLINE
  5
3D1
100
AcDbEntity
  8
0
100
AcDbSpline
 62
7
  6
BYLAYER
 70
0
 71
3
 72
9
 73
5
 74
0
 42
0.0000001
 43
0.0000001
 44
0.0000000001
 40
0.0
 40
0.0
 40
0.0
 40
0.0
 40
0.2339599386
 40
1.0
 40
1.0
 40
1.0
 40
1.0
 10
86.7351507095
 20
103.1763462319
 30
0.0
 10
86.8192581918
 20
103.1595119554
 30
0.0
 10
87.1751679237
 20
103.0696798691
 30
0.0
 10
87.5127636713
 20
102.9150181122
 30
0.0
 10
87.7559880315
 20
102.7745956392
 30
0.0
  0
SPLINE
  5
3D2
100
AcDbEntity
  8
0
100
AcDbSpline
 62
7
  6
BYLAYER
 70
0
 71
3
 72
15
 73
11
 74
0
 42
0.0000001
 43
0.0000001
 44
0.0000000001
 40
0.0
 40
0.0
 40
0.0
 40
0.0
 40
0.1141443739
 40
0.2373317388
 40
0.3669737854
 40
0.4999994788
 40
0.6330252446
 40
0.762667503
 40
0.8858552017
 40
1.0
 40
1.0
 40
1.0
 40
1.0
 10
37.6295297843
 20
51.6256966474
 30
0.0
 10
37.387516756
 20
51.4859711944
 30
0.0
 10
36.858242415
 20
51.2395375382
 30
0.0
 10
35.9964045518
 20
50.9775316869
 30
0.0
 10
35.0632734098
 20
50.8163482728
 30
0.0
 10
34.0940018358
 20
50.7618999717
 30
0.0
 10
33.1247294872
 20
50.8163436746
 30
0.0
 10
32.1915960566
 20
50.9775226568
 30
0.0
 10
31.3297544815
 20
51.2395244114
 30
0.0
 10
30.8004769077
 20
51.4859554391
 30
0.0
 10
30.5584619652
 20
51.6256796548
 30
0.0
  0
SPLINE
  5
3D3
100
AcDbEntity
  8
0
100
AcDbSpline
 62
7
  6
BYLAYER
 70
0
 71
3
 72
15
 73
11
 74
0
 42
0.0000001
 43
0.0000001
 44
0.0000000001
 40
0.0
 40
0.0
 40
0.0
 40
0.0
 40
0.1141443739
 40
0.2373317389
 40
0.3669737856
 40
0.499999479
 40
0.6330252449
 40
0.7626675032
 40
0.8858552017
 40
1.0
 40
1.0
 40
1.0
 40
1.0
 10
37.4566725531
 20
57.4412591741
 30
0.0
 10
37.2264918321
 20
57.3083650676
 30
0.0
 10
36.7230943506
 20
57.0739798477
 30
0.0
 10
35.9033927759
 20
56.8247837781
 30
0.0
 10
35.0158835368
 20
56.6714808154
 30
0.0
 10
34.0940008151
 20
56.6196945589
 30
0.0
 10
33.1721173569
 20
56.671476443
 30
0.0
 10
32.2846059422
 20
56.8247751952
 30
0.0
 10
31.4649008415
 20
57.0739673714
 30
0.0
 10
30.9615002764
 20
57.308350076
 30
0.0
 10
30.7313177434
 20
57.4412430204
 30
0.0
  0
SPLINE
  5
3D4
100
AcDbEntity
  8
0
100
AcDbSpline
 62
7
  6
BYLAYER
 70
0
 71
3
 72
9
 73
5
 74
0
 42
0.0000001
 43
0.0000001
 44
0.0000000001
 40
0.0
 40
0.0
 40
0.0
 40
0.0
 40
0.2376319835
 40
1.0
 40
1.0
 40
1.0
 40
1.0
 10
87.7835825722
 20
102.7585305769
 30
0.0
 10
87.8717222912
 20
102.7067900741
 30
0.0
 10
88.2350234733
 20
102.4761676797
 30
0.0
 10
88.5680552836
 20
102.1993578397
 30
0.0
 10
88.8039256676
 20
101.9715924013
 30
0.0
  0
SPLINE
  5
3D5
100
AcDbEntity
  8
0
100
AcDbSpline
 62
7
  6
BYLAYER
 70
0
 71
3
 72
11
 73
7
 74
0
 42
0.0000001
 43
0.0000001
 44
0.0000000001
 40
0.0
 40
0.0
 40
0.0
 40
0.0
 40
0.2860490807
 40
0.5458031325
 40
0.7815276295
 40
1.0
 40
1.0
 40
1.0
 40
1.0
 10
88.0388295663
 20
103.3869696302
 30
0.0
 10
87.8373712977
 20
103.5032789846
 30
0.0
 10
87.4363251161
 20
103.6985709551
 30
0.0
 10
86.8209250821
 20
103.8727933993
 30
0.0
 10
86.2360667861
 20
103.9070995099
 30
0.0
 10
85.8687928792
 20
103.8305862047
 30
0.0
 10
85.7023279394
 20
103.7684962552
 30
0.0
  0
SPLINE
  5
3D6
100
AcDbEntity
  8
0
100
AcDbSpline
 62
7
  6
BYLAYER
 70
0
 71
3
 72
11
 73
7
 74
0
 42
0.0000001
 43
0.0000001
 44
0.0000000001
 40
0.0
 40
0.0
 40
0.0
 40
0.0
 40
0.2665393563
 40
0.5249425775
 40
0.7707469305
 40
1.0
 40
1.0
 40
1.0
 40
1.0
 10
90.3741993549
 20
101.0723247371
 30
0.0
 10
90.2128276245
 20
101.3187182289
 30
0.0
 10
89.8707774603
 20
101.7886454289
 30
0.0
 10
89.3002217412
 20
102.4231480783
 30
0.0
 10
88.6929779766
 20
102.9625852734
 30
0.0
 10
88.2582227431
 20
103.2603057861
 30
0.0
 10
88.0388295663
 20
103.3869696302
 30
0.0
  0
SPLINE
  5
3D7
100
AcDbEntity
  8
0
100
AcDbSpline
 62
7
  6
BYLAYER
 70
0
 71
3
 72
10
 73
6
 74
0
 42
0.0000001
 43
0.0000001
 44
0.0000000001
 40
0.0
 40
0.0
 40
0.0
 40
0.0
 40
0.2303070225
 40
0.4762344939
 40
1.0
 40
1.0
 40
1.0
 40
1.0
 10
88.068797831
 20
103.2470472644
 30
0.0
 10
88.267543947
 20
103.1303776847
 30
0.0
 10
88.6616485568
 20
102.8595708021
 30
0.0
 10
89.4148776693
 20
102.1985986786
 30
0.0
 10
89.9096339791
 20
101.5994553306
 30
0.0
 10
90.2059624962
 20
101.1671542042
 30
0.0
  0
SPLINE
  5
3D8
100
AcDbEntity
  8
0
100
AcDbSpline
 62
7
  6
BYLAYER
 70
0
 71
3
 72
11
 73
7
 74
0
 42
0.0000001
 43
0.0000001
 44
0.0000000001
 40
0.0
 40
0.0
 40
0.0
 40
0.0
 40
0.2191670836
 40
0.4558017894
 40
0.715502635
 40
1.0
 40
1.0
 40
1.0
 40
1.0
 10
85.867556526
 20
103.6682312575
 30
0.0
 10
86.0258649959
 20
103.7168335771
 30
0.0
 10
86.3706633193
 20
103.7711725371
 30
0.0
 10
86.9133896802
 20
103.72351785
 30
0.0
 10
87.4819302916
 20
103.554030097
 30
0.0
 10
87.8526639449
 20
103.3719746078
 30
0.0
 10
88.0388295663
 20
103.2644942676
 30
0.0
  0
SPLINE
  5
3D9
100
AcDbEntity
  8
0
100
AcDbSpline
 62
7
  6
BYLAYER
 70
0
 71
3
 72
12
 73
8
 74
0
 42
0.0000001
 43
0.0000001
 44
0.0000000001
 40
0.0
 40
0.0
 40
0.0
 40
0.0
 40
0.2895680165
 40
0.5486369643
 40
0.7816322812
 40
0.8918365519
 40
1.0
 40
1.0
 40
1.0
 40
1.0
 10
88.6045126361
 20
104.366766887
 30
0.0
 10
88.3411582567
 20
104.5188111691
 30
0.0
 10
87.8173586397
 20
104.7679969379
 30
0.0
 10
87.0128590991
 20
104.9625482765
 30
0.0
 10
86.3704381728
 20
104.9454523322
 30
0.0
 10
85.9117900156
 20
104.8184885037
 30
0.0
 10
85.7029109569
 20
104.7206835121
 30
0.0
 10
85.6045332965
 20
104.6639000376
 30
0.0
  0
SPLINE
  5
3DA
100
AcDbEntity
  8
0
100
AcDbSpline
 62
7
  6
BYLAYER
 70
0
 71
3
 72
9
 73
5
 74
0
 42
0.0000001
 43
0.0000001
 44
0.0000000001
 40
0.0
 40
0.0
 40
0.0
 40
0.0
 40
0.2445545233
 40
1.0
 40
1.0
 40
1.0
 40
1.0
 10
92.8123830655
 20
106.7961675105
 30
0.0
 10
92.8546052916
 20
106.7717910484
 30
0.0
 10
93.0259522008
 20
106.6698672451
 30
0.0
 10
93.192116648
 20
106.5592907025
 30
0.0
 10
93.314628249
 20
106.4716986734
 30
0.0
  0
SPLINE
  5
3DB
100
AcDbEntity
  8
0
100
AcDbSpline
 62
7
  6
BYLAYER
 70
0
 71
3
 72
15
 73
11
 74
0
 42
0.0000001
 43
0.0000001
 44
0.0000000001
 40
0.0
 40
0.0
 40
0.0
 40
0.0
 40
0.1171306942
 40
0.2408453753
 40
0.3692375226
 40
0.5000274956
 40
0.6308141495
 40
0.7591999547
 40
0.8829220916
 40
1.0
 40
1.0
 40
1.0
 40
1.0
 10
93.314628249
 20
106.4716986734
 30
0.0
 10
93.5566707087
 20
106.2986457545
 30
0.0
 10
94.0311277057
 20
105.9095664286
 30
0.0
 10
94.6860398671
 20
105.2357922299
 30
0.0
 10
95.2899959164
 20
104.4712648634
 30
0.0
 10
95.8264502653
 20
103.6366623416
 30
0.0
 10
96.2808766949
 20
102.7547300316
 30
0.0
 10
96.6409232291
 20
101.8493998601
 30
0.0
 10
96.8967888012
 20
100.945426719
 30
0.0
 10
96.9964661953
 20
100.3401074656
 30
0.0
 10
97.0252832574
 20
100.0440978968
 30
0.0
  0
SPLINE
  5
3DC
100
AcDbEntity
  8
0
100
AcDbSpline
 62
7
  6
BYLAYER
 70
0
 71
3
 72
9
 73
5
 74
0
 42
0.0000001
 43
0.0000001
 44
0.0000000001
 40
0.0
 40
0.0
 40
0.0
 40
0.0
 40
0.2546381033
 40
1.0
 40
1.0
 40
1.0
 40
1.0
 10
97.03179969
 20
99.9732132515
 30
0.0
 10
97.035646695
 20
99.9287280716
 30
0.0
 10
97.0489636842
 20
99.7538804683
 30
0.0
 10
97.0550190332
 20
99.578462092
 30
0.0
 10
97.055019974
 20
99.447761654
 30
0.0
  0
SPLINE
  5
3DD
100
AcDbEntity
  8
0
100
AcDbSpline
 62
7
  6
BYLAYER
 70
0
 71
3
 72
15
 73
11
 74
0
 42
0.0000001
 43
0.0000001
 44
0.0000000001
 40
0.0
 40
0.0
 40
0.0
 40
0.0
 40
0.1150237427
 40
0.2383276795
 40
0.3675491404
 40
0.4998662052
 40
0.6322002726
 40
0.7614884596
 40
0.8848829485
 40
1.0
 40
1.0
 40
1.0
 40
1.0
 10
94.0317356322
 20
106.701410639
 30
0.0
 10
94.2712849688
 20
106.553731955
 30
0.0
 10
94.7432911628
 20
106.2072852647
 30
0.0
 10
95.3932190247
 20
105.582776066
 30
0.0
 10
95.9921833455
 20
104.8536539828
 30
0.0
 10
96.519644643
 20
104.0449718554
 30
0.0
 10
96.9575661508
 20
103.1843192881
 30
0.0
 10
97.2909645244
 20
102.3011296515
 30
0.0
 10
97.5084243238
 20
101.4257898832
 30
0.0
 10
97.5736373017
 20
100.843482927
 30
0.0
 10
97.5823400901
 20
100.5619768408
 30
0.0
  0
SPLINE
  5
3DE
100
AcDbEntity
  8
0
100
AcDbSpline
 62
7
  6
BYLAYER
 70
0
 71
3
 72
11
 73
7
 74
0
 42
0.0000001
 43
0.0000001
 44
0.0000000001
 40
0.0
 40
0.0
 40
0.0
 40
0.0
 40
0.2160393937
 40
0.447792788
 40
0.7077383047
 40
1.0
 40
1.0
 40
1.0
 40
1.0
 10
54.3116115146
 20
58.6622971095
 30
0.0
 10
54.3433718594
 20
58.643974453
 30
0.0
 10
54.4026899722
 20
58.5935617407
 30
0.0
 10
54.4641007985
 20
58.4882378065
 30
0.0
 10
54.4981759394
 20
58.358346085
 30
0.0
 10
54.5027277925
 20
58.2641224885
 30
0.0
 10
54.5012017494
 20
58.2145427861
 30
0.0
  0
SPLINE
  5
3DF
100
AcDbEntity
  8
0
100
AcDbSpline
 62
7
  6
BYLAYER
 70
0
 71
3
 72
9
 73
5
 74
0
 42
0.0000001
 43
0.0000001
 44
0.0000000001
 40
0.0
 40
0.0
 40
0.0
 40
0.0
 40
0.244597295
 40
1.0
 40
1.0
 40
1.0
 40
1.0
 10
80.9028372074
 20
94.7474778635
 30
0.0
 10
80.9119391432
 20
94.7035198745
 30
0.0
 10
80.9558458499
 20
94.525217985
 30
0.0
 10
81.0261302672
 20
94.3537209356
 30
0.0
 10
81.0906766378
 20
94.2310257436
 30
0.0
  0
SPLINE
  5
3E0
100
AcDbEntity
  8
0
100
AcDbSpline
 62
7
  6
BYLAYER
 70
0
 71
3
 72
15
 73
11
 74
0
 42
0.0000001
 43
0.0000001
 44
0.0000000001
 40
0.0
 40
0.0
 40
0.0
 40
0.0
 40
0.0933513401
 40
0.1981459795
 40
0.3149611364
 40
0.4425306202
 40
0.5783328363
 40
0.7190239676
 40
0.8608806632
 40
1.0
 40
1.0
 40
1.0
 40
1.0
 10
81.0906766378
 20
94.2310257436
 30
0.0
 10
81.1980788206
 20
94.0268666047
 30
0.0
 10
81.4955949142
 20
93.6289369755
 30
0.0
 10
82.1003052116
 20
93.1307173687
 30
0.0
 10
82.860785597
 20
92.7140610363
 30
0.0
 10
83.747423581
 20
92.3939825797
 30
0.0
 10
84.7258962759
 20
92.1820871698
 30
0.0
 10
85.7577237002
 20
92.0865742884
 30
0.0
 10
86.8016340911
 20
92.1113326801
 30
0.0
 10
87.4911008699
 20
92.2091406503
 30
0.0
 10
87.827691555
 20
92.2791110667
 30
0.0
  0
SPLINE
  5
3E1
100
AcDbEntity
  8
0
100
AcDbSpline
 62
7
  6
BYLAYER
 70
0
 71
3
 72
9
 73
5
 74
0
 42
0.0000001
 43
0.0000001
 44
0.0000000001
 40
0.0
 40
0.0
 40
0.0
 40
0.0
 40
0.4915737879
 40
1.0
 40
1.0
 40
1.0
 40
1.0
 10
92.675184391
 20
95.5425143231
 30
0.0
 10
92.6664124529
 20
95.4278590394
 30
0.0
 10
92.6251058193
 20
95.1958841444
 30
0.0
 10
92.5407220908
 20
94.9762040657
 30
0.0
 10
92.4890309459
 20
94.8690921167
 30
0.0
  0
SPLINE
  5
3E2
100
AcDbEntity
  8
0
100
AcDbSpline
 62
7
  6
BYLAYER
 70
0
 71
3
 72
12
 73
8
 74
0
 42
0.0000001
 43
0.0000001
 44
0.0000000001
 40
0.0
 40
0.0
 40
0.0
 40
0.0
 40
0.1080771817
 40
0.2183320554
 40
0.4515596171
 40
0.7107453197
 40
1.0
 40
1.0
 40
1.0
 40
1.0
 10
80.7567288013
 20
95.131368031
 30
0.0
 10
80.7582745859
 20
95.230807195
 30
0.0
 10
80.778474994
 20
95.4318336187
 30
0.0
 10
80.8881254706
 20
95.8342862989
 30
0.0
 10
81.1605404164
 20
96.3271900461
 30
0.0
 10
81.6625187276
 20
96.8504498316
 30
0.0
 10
82.0810965956
 20
97.1382771416
 30
0.0
 10
82.3116054405
 20
97.2713606909
 30
0.0
  0
SPLINE
  5
3E3
100
AcDbEntity
  8
0
100
AcDbSpline
 62
7
  6
BYLAYER
 70
0
 71
3
 72
9
 73
5
 74
0
 42
0.0000001
 43
0.0000001
 44
0.0000000001
 40
0.0
 40
0.0
 40
0.0
 40
0.0
 40
0.244597295
 40
1.0
 40
1.0
 40
1.0
 40
1.0
 10
27.1629455791
 20
63.7209221693
 30
0.0
 10
27.172047515
 20
63.6769641803
 30
0.0
 10
27.2159542217
 20
63.4986622908
 30
0.0
 10
27.286238639
 20
63.3271652414
 30
0.0
 10
27.3507850095
 20
63.2044700494
 30
0.0
  0
SPLINE
  5
3E4
100
AcDbEntity
  8
0
100
AcDbSpline
 62
7
  6
BYLAYER
 70
0
 71
3
 72
15
 73
11
 74
0
 42
0.0000001
 43
0.0000001
 44
0.0000000001
 40
0.0
 40
0.0
 40
0.0
 40
0.0
 40
0.0933513401
 40
0.1981459795
 40
0.3149611364
 40
0.4425306202
 40
0.5783328363
 40
0.7190239676
 40
0.8608806632
 40
1.0
 40
1.0
 40
1.0
 40
1.0
 10
27.3507850095
 20
63.2044700494
 30
0.0
 10
27.4581871924
 20
63.0003109104
 30
0.0
 10
27.7557032859
 20
62.6023812813
 30
0.0
 10
28.3604135833
 20
62.1041616745
 30
0.0
 10
29.1208939687
 20
61.6875053421
 30
0.0
 10
30.0075319527
 20
61.3674268855
 30
0.0
 10
30.9860046476
 20
61.1555314755
 30
0.0
 10
32.0178320719
 20
61.0600185942
 30
0.0
 10
33.0617424628
 20
61.0847769858
 30
0.0
 10
33.7512092416
 20
61.1825849561
 30
0.0
 10
34.0877999268
 20
61.2525553725
 30
0.0
  0
SPLINE
  5
3E5
100
AcDbEntity
  8
0
100
AcDbSpline
 62
7
  6
BYLAYER
 70
0
 71
3
 72
11
 73
7
 74
0
 42
0.0000001
 43
0.0000001
 44
0.0000000001
 40
0.0
 40
0.0
 40
0.0
 40
0.0
 40
0.2411770858
 40
0.4999999913
 40
0.758822903
 40
1.0
 40
1.0
 40
1.0
 40
1.0
 10
31.207175595
 20
45.7693558547
 30
0.0
 10
31.6421232024
 20
45.5775058232
 30
0.0
 10
32.5965228241
 20
45.2958004936
 30
0.0
 10
34.0939807027
 20
45.1588660725
 30
0.0
 10
35.591438613
 20
45.2958003396
 30
0.0
 10
36.5458383106
 20
45.577505533
 30
0.0
 10
36.980785963
 20
45.7693555173
 30
0.0
  0
SPLINE
  5
3E6
100
AcDbEntity
  8
0
100
AcDbSpline
 62
7
  6
BYLAYER
 70
0
 71
3
 72
9
 73
5
 74
0
 42
0.0000001
 43
0.0000001
 44
0.0000000001
 40
0.0
 40
0.0
 40
0.0
 40
0.0
 40
0.2582396012
 40
1.0
 40
1.0
 40
1.0
 40
1.0
 10
92.4062464818
 20
94.9585323615
 30
0.0
 10
92.4347811624
 20
95.0072701251
 30
0.0
 10
92.5382654974
 20
95.1999511353
 30
0.0
 10
92.6118515054
 20
95.4092161451
 30
0.0
 10
92.6443926867
 20
95.5681404267
 30
0.0
  0
SPLINE
  5
3E7
100
AcDbEntity
  8
0
100
AcDbSpline
 62
7
  6
BYLAYER
 70
0
 71
3
 72
9
 73
5
 74
0
 42
0.0000001
 43
0.0000001
 44
0.0000000001
 40
0.0
 40
0.0
 40
0.0
 40
0.0
 40
0.2582396012
 40
1.0
 40
1.0
 40
1.0
 40
1.0
 10
38.6663548535
 20
63.9319766673
 30
0.0
 10
38.6948895341
 20
63.9807144309
 30
0.0
 10
38.7983738692
 20
64.173395441
 30
0.0
 10
38.8719598771
 20
64.3826604508
 30
0.0
 10
38.9045010585
 20
64.5415847325
 30
0.0
  0
SPLINE
  5
3E8
100
AcDbEntity
  8
0
100
AcDbSpline
 62
7
  6
BYLAYER
 70
0
 71
3
 72
8
 73
4
 74
0
 42
0.0000001
 43
0.0000001
 44
0.0000000001
 40
0.0
 40
0.0
 40
0.0
 40
0.0
 40
1.0
 40
1.0
 40
1.0
 40
1.0
 10
12.9224715155
 20
61.8328018723
 30
0.0
 10
12.9223711913
 20
61.8290851978
 30
0.0
 10
12.9228162238
 20
61.8253335082
 30
0.0
 10
12.9236503606
 20
61.8217102569
 30
0.0
  0
SPLINE
  5
3E9
100
AcDbEntity
  8
0
100
AcDbSpline
 62
7
  6
BYLAYER
 70
0
 71
3
 72
9
 73
5
 74
0
 42
0.0000001
 43
0.0000001
 44
0.0000000001
 40
0.0
 40
0.0
 40
0.0
 40
0.0
 40
0.4666051668
 40
1.0
 40
1.0
 40
1.0
 40
1.0
 10
12.9236503606
 20
61.8217102569
 30
0.0
 10
12.924730116
 20
61.8170201086
 30
0.0
 10
12.9285202829
 20
61.8071373743
 30
0.0
 10
12.9365253237
 20
61.7999054879
 30
0.0
 10
12.9412899973
 20
61.7971546646
 30
0.0
  0
SPLINE
  5
3EA
100
AcDbEntity
  8
0
100
AcDbSpline
 62
7
  6
BYLAYER
 70
0
 71
3
 72
9
 73
5
 74
0
 42
0.0000001
 43
0.0000001
 44
0.0000000001
 40
0.0
 40
0.0
 40
0.0
 40
0.0
 40
0.4744342232
 40
1.0
 40
1.0
 40
1.0
 40
1.0
 10
70.1915099762
 20
97.5348845256
 30
0.0
 10
70.1513578597
 20
97.5580658364
 30
0.0
 10
70.0580134664
 20
97.5919019754
 30
0.0
 10
69.9600269424
 20
97.6025237937
 30
0.0
 10
69.9086667759
 20
97.6025236702
 30
0.0
  0
SPLINE
  5
3EB
100
AcDbEntity
  8
0
100
AcDbSpline
 62
7
  6
BYLAYER
 70
0
 71
3
 72
13
 73
9
 74
0
 42
0.0000001
 43
0.0000001
 44
0.0000000001
 40
0.0
 40
0.0
 40
0.0
 40
0.0
 40
0.2842981566
 40
0.4216229817
 40
0.5532972724
 40
0.6778318049
 40
0.7941545546
 40
1.0
 40
1.0
 40
1.0
 40
1.0
 10
69.9086667759
 20
97.6025236702
 30
0.0
 10
69.1601424091
 20
97.602521871
 30
0.0
 10
68.0466090248
 20
97.5112091095
 30
0.0
 10
66.6218043291
 20
97.2004903537
 30
0.0
 10
65.6332870365
 20
96.8846437724
 30
0.0
 10
64.7328829421
 20
96.4891717593
 30
0.0
 10
63.7186360037
 20
95.8929311839
 30
0.0
 10
63.0702036342
 20
95.3162158348
 30
0.0
 10
62.7459205336
 20
94.8819703636
 30
0.0
  0
SPLINE
  5
3EC
100
AcDbEntity
  8
0
100
AcDbSpline
 62
7
  6
BYLAYER
 70
0
 71
3
 72
10
 73
6
 74
0
 42
0.0000001
 43
0.0000001
 44
0.0000000001
 40
0.0
 40
0.0
 40
0.0
 40
0.0
 40
0.5171704697
 40
0.7613194656
 40
1.0
 40
1.0
 40
1.0
 40
1.0
 10
62.7459205336
 20
94.8819703636
 30
0.0
 10
62.557461109
 20
94.629605527
 30
0.0
 10
62.3228363199
 20
94.2200418052
 30
0.0
 10
62.1515994018
 20
93.6335038428
 30
0.0
 10
62.1157904862
 20
93.3399659646
 30
0.0
 10
62.1104516628
 20
93.1947023413
 30
0.0
  0
SPLINE
  5
3ED
100
AcDbEntity
  8
0
100
AcDbSpline
 62
7
  6
BYLAYER
 70
0
 71
3
 72
14
 73
10
 74
0
 42
0.0000001
 43
0.0000001
 44
0.0000000001
 40
0.0
 40
0.0
 40
0.0
 40
0.0
 40
0.3048393908
 40
0.446856196
 40
0.5787844084
 40
0.6993009779
 40
0.8083234243
 40
0.9074523409
 40
1.0
 40
1.0
 40
1.0
 40
1.0
 10
69.5086851932
 20
95.0485859893
 30
0.0
 10
69.1249168694
 20
95.0223362296
 30
0.0
 10
68.5628930189
 20
94.9287077227
 30
0.0
 10
67.8732287124
 20
94.6839929455
 30
0.0
 10
67.428509769
 20
94.4565386454
 30
0.0
 10
67.0577550098
 20
94.1871495923
 30
0.0
 10
66.7718416538
 20
93.8824803429
 30
0.0
 10
66.5810510601
 20
93.5499408152
 30
0.0
 10
66.5225127961
 20
93.310963934
 30
0.0
 10
66.512711707
 20
93.1945936387
 30
0.0
  0
SPLINE
  5
3EE
100
AcDbEntity
  8
0
100
AcDbSpline
 62
7
  6
BYLAYER
 70
0
 71
3
 72
9
 73
5
 74
0
 42
0.0000001
 43
0.0000001
 44
0.0000000001
 40
0.0
 40
0.0
 40
0.0
 40
0.0
 40
0.2405004985
 40
1.0
 40
1.0
 40
1.0
 40
1.0
 10
70.9017284325
 20
93.488220415
 30
0.0
 10
70.8909586858
 20
93.4973852342
 30
0.0
 10
70.845209308
 20
93.5343494506
 30
0.0
 10
70.7958996595
 20
93.5668199533
 30
0.0
 10
70.7572238551
 20
93.5891489343
 30
0.0
  0
SPLINE
  5
3EF
100
AcDbEntity
  8
0
100
AcDbSpline
 62
7
  6
BYLAYER
 70
0
 71
3
 72
15
 73
11
 74
0
 42
0.0000001
 43
0.0000001
 44
0.0000000001
 40
0.0
 40
0.0
 40
0.0
 40
0.0
 40
0.1265598066
 40
0.2656099366
 40
0.4105196074
 40
0.5538606512
 40
0.6883611432
 40
0.8083324663
 40
0.9113036098
 40
1.0
 40
1.0
 40
1.0
 40
1.0
 10
70.7572238551
 20
93.5891489343
 30
0.0
 10
70.6725903333
 20
93.6380110154
 30
0.0
 10
70.4817156191
 20
93.7180553046
 30
0.0
 10
70.1703327221
 20
93.784498288
 30
0.0
 10
69.8392747847
 20
93.7997590793
 30
0.0
 10
69.5134920842
 20
93.7627917471
 30
0.0
 10
69.2169574666
 20
93.6762020805
 30
0.0
 10
68.9709993479
 20
93.5457161453
 30
0.0
 10
68.7925838349
 20
93.3787534713
 30
0.0
 10
68.7277104484
 20
93.2395310961
 30
0.0
 10
68.715362532
 20
93.1721646151
 30
0.0
  0
SPLINE
  5
3F0
100
AcDbEntity
  8
0
100
AcDbSpline
 62
7
  6
BYLAYER
 70
0
 71
3
 72
9
 73
5
 74
0
 42
0.0000001
 43
0.0000001
 44
0.0000000001
 40
0.0
 40
0.0
 40
0.0
 40
0.0
 40
0.2245381614
 40
1.0
 40
1.0
 40
1.0
 40
1.0
 10
70.2814204976
 20
95.9784757231
 30
0.0
 10
70.2721166646
 20
95.9985457943
 30
0.0
 10
70.2213156296
 20
96.0836644182
 30
0.0
 10
70.1405263979
 20
96.1473367129
 30
0.0
 10
70.0743624192
 20
96.1855356396
 30
0.0
  0
SPLINE
  5
3F1
100
AcDbEntity
  8
0
100
AcDbSpline
 62
7
  6
BYLAYER
 70
0
 71
3
 72
9
 73
5
 74
0
 42
0.0000001
 43
0.0000001
 44
0.0000000001
 40
0.0
 40
0.0
 40
0.0
 40
0.0
 40
0.4747001905
 40
1.0
 40
1.0
 40
1.0
 40
1.0
 10
70.0743624192
 20
96.1855356396
 30
0.0
 10
69.9849412425
 20
96.2371618121
 30
0.0
 10
69.7752268329
 20
96.3088928196
 30
0.0
 10
69.5560904783
 20
96.3247191595
 30
0.0
 10
69.4419633708
 20
96.3192050254
 30
0.0
  0
SPLINE
  5
3F2
100
AcDbEntity
  8
0
100
AcDbSpline
 62
7
  6
BYLAYER
 70
0
 71
3
 72
15
 73
11
 74
0
 42
0.0000001
 43
0.0000001
 44
0.0000000001
 40
0.0
 40
0.0
 40
0.0
 40
0.0
 40
0.1555960965
 40
0.3062445147
 40
0.448851362
 40
0.581060872
 40
0.7014131568
 40
0.8098276491
 40
0.9080760646
 40
1.0
 40
1.0
 40
1.0
 40
1.0
 10
69.4419633708
 20
96.3192050254
 30
0.0
 10
69.1047522211
 20
96.3029124238
 30
0.0
 10
68.4421452326
 20
96.236010166
 30
0.0
 10
67.4877299598
 20
96.0322914555
 30
0.0
 10
66.6120120319
 20
95.7324066816
 30
0.0
 10
65.8431992828
 20
95.3458779898
 30
0.0
 10
65.2057170398
 20
94.8838627131
 30
0.0
 10
64.7201952688
 20
94.3585195583
 30
0.0
 10
64.4057031718
 20
93.7834340616
 30
0.0
 10
64.3212229132
 20
93.3714537408
 30
0.0
 10
64.313432945
 20
93.1721540342
 30
0.0
  0
SPLINE
  5
3F3
100
AcDbEntity
  8
0
100
AcDbSpline
 62
7
  6
BYLAYER
 70
0
 71
3
 72
12
 73
8
 74
0
 42
0.0000001
 43
0.0000001
 44
0.0000000001
 40
0.0
 40
0.0
 40
0.0
 40
0.0
 40
0.1084480977
 40
0.2185576924
 40
0.4508638004
 40
0.7096812129
 40
1.0
 40
1.0
 40
1.0
 40
1.0
 10
99.6589854833
 20
94.559457238
 30
0.0
 10
99.6629408735
 20
94.4668461438
 30
0.0
 10
99.6544449291
 20
94.2790726064
 30
0.0
 10
99.5699648774
 20
93.9013505125
 30
0.0
 10
99.3310911285
 20
93.4361604432
 30
0.0
 10
98.8712190138
 20
92.9433895047
 30
0.0
 10
98.4825059285
 20
92.6743301906
 30
0.0
 10
98.2676025535
 20
92.5502564071
 30
0.0
  0
SPLINE
  5
3F4
100
AcDbEntity
  8
0
100
AcDbSpline
 62
7
  6
BYLAYER
 70
0
 71
3
 72
23
 73
19
 74
0
 42
0.0000001
 43
0.0000001
 44
0.0000000001
 40
0.0
 40
0.0
 40
0.0
 40
0.0
 40
0.0603676788
 40
0.1143987981
 40
0.1629734836
 40
0.2083472026
 40
0.2537178803
 40
0.3023004015
 40
0.3563150746
 40
0.4166931063
 40
0.4832769189
 40
0.5551209825
 40
0.6307452051
 40
0.7083372185
 40
0.7859347899
 40
0.8615546986
 40
0.9334229519
 40
1.0
 40
1.0
 40
1.0
 40
1.0
 10
17.3001616915
 20
61.2398206095
 30
0.0
 10
17.1421721332
 20
61.33103386
 30
0.0
 10
16.8279233936
 20
61.4805489515
 30
0.0
 10
16.3450022375
 20
61.5971868533
 30
0.0
 10
15.89152978
 20
61.5855424577
 30
0.0
 10
15.4879497097
 20
61.4392639502
 30
0.0
 10
15.1594083329
 20
61.1629073502
 30
0.0
 10
14.9227073687
 20
60.7760051828
 30
0.0
 10
14.7821849167
 20
60.2993693465
 30
0.0
 10
14.7385382652
 20
59.7510894892
 30
0.0
 10
14.7914375771
 20
59.1503102282
 30
0.0
 10
14.9383436977
 20
58.5184468674
 30
0.0
 10
15.1736976606
 20
57.8786363506
 30
0.0
 10
15.4887091916
 20
57.2546373318
 30
0.0
 10
15.8716031512
 20
56.6698709253
 30
0.0
 10
16.3080385585
 20
56.1459951828
 30
0.0
 10
16.7817121628
 20
55.7029368526
 30
0.0
 10
17.1259214584
 20
55.4615985758
 30
0.0
 10
17.3001616915
 20
55.3610032061
 30
0.0
  0
SPLINE
  5
3F5
100
AcDbEntity
  8
0
100
AcDbSpline
 62
7
  6
BYLAYER
 70
0
 71
3
 72
23
 73
19
 74
0
 42
0.0000001
 43
0.0000001
 44
0.0000000001
 40
0.0
 40
0.0
 40
0.0
 40
0.0
 40
0.0603676788
 40
0.1143987981
 40
0.1629734836
 40
0.2083472026
 40
0.2537178803
 40
0.3023004015
 40
0.3563150746
 40
0.4166931063
 40
0.4832769189
 40
0.5551209825
 40
0.6307452051
 40
0.7083372185
 40
0.7859347899
 40
0.8615546986
 40
0.9334229519
 40
1.0
 40
1.0
 40
1.0
 40
1.0
 10
17.3001616915
 20
55.3610032061
 30
0.0
 10
17.4581512497
 20
55.2697899557
 30
0.0
 10
17.7723999894
 20
55.1202748641
 30
0.0
 10
18.2553211455
 20
55.0036369623
 30
0.0
 10
18.7087936029
 20
55.0152813579
 30
0.0
 10
19.1123736733
 20
55.1615598654
 30
0.0
 10
19.44091505
 20
55.4379164655
 30
0.0
 10
19.6776160143
 20
55.8248186328
 30
0.0
 10
19.8181384663
 20
56.3014544692
 30
0.0
 10
19.8617851178
 20
56.8497343264
 30
0.0
 10
19.8088858059
 20
57.4505135875
 30
0.0
 10
19.6619796852
 20
58.0823769482
 30
0.0
 10
19.4266257223
 20
58.722187465
 30
0.0
 10
19.1116141913
 20
59.3461864838
 30
0.0
 10
18.7287202317
 20
59.9309528904
 30
0.0
 10
18.2922848244
 20
60.4548286328
 30
0.0
 10
17.8186112201
 20
60.897886963
 30
0.0
 10
17.4744019245
 20
61.1392252398
 30
0.0
 10
17.3001616915
 20
61.2398206095
 30
0.0
  0
SPLINE
  5
3F6
100
AcDbEntity
  8
0
100
AcDbSpline
 62
7
  6
BYLAYER
 70
0
 71
3
 72
25
 73
21
 74
0
 42
0.0000001
 43
0.0000001
 44
0.0000000001
 40
0.0
 40
0.0
 40
0.0
 40
0.0
 40
0.0667824162
 40
0.1387132042
 40
0.2143226957
 40
0.2918861694
 40
0.3694968653
 40
0.4452564047
 40
0.5174051851
 40
0.5844856961
 40
0.6455290299
 40
0.700289102
 40
0.7495214886
 40
0.7727060034
 40
0.7953459711
 40
0.8178448805
 40
0.8406172205
 40
0.888354183
 40
0.9410878778
 40
1.0
 40
1.0
 40
1.0
 40
1.0
 10
17.3874267418
 20
62.0271253334
 30
0.0
 10
17.6031768237
 20
61.9003243536
 30
0.0
 10
18.0291305776
 20
61.598282136
 30
0.0
 10
18.6158200266
 20
61.0468666865
 30
0.0
 10
19.1569790962
 20
60.3972380693
 30
0.0
 10
19.6330226434
 20
59.6731271153
 30
0.0
 10
20.0267696323
 20
58.9005186523
 30
0.0
 10
20.3240103958
 20
58.1074008667
 30
0.0
 10
20.513987683
 20
57.3222343819
 30
0.0
 10
20.5898059086
 20
56.5728769141
 30
0.0
 10
20.547998148
 20
55.8851732686
 30
0.0
 10
20.3885557935
 20
55.282648488
 30
0.0
 10
20.1525337241
 20
54.8606598255
 30
0.0
 10
19.910490553
 20
54.5974242809
 30
0.0
 10
19.7080173812
 20
54.4387896892
 30
0.0
 10
19.4832181942
 20
54.3169433872
 30
0.0
 10
19.1521299911
 20
54.2035090524
 30
0.0
 10
18.6843809869
 20
54.1635659539
 30
0.0
 10
18.0921588137
 20
54.2751316133
 30
0.0
 10
17.7041293995
 20
54.4394126203
 30
0.0
 10
17.5085195838
 20
54.5417459957
 30
0.0
  0
SPLINE
  5
3F7
100
AcDbEntity
  8
0
100
AcDbSpline
 62
7
  6
BYLAYER
 70
0
 71
3
 72
12
 73
8
 74
0
 42
0.0000001
 43
0.0000001
 44
0.0000000001
 40
0.0
 40
0.0
 40
0.0
 40
0.0
 40
0.1079637396
 40
0.2183164981
 40
0.4519713305
 40
0.711283795
 40
1.0
 40
1.0
 40
1.0
 40
1.0
 10
99.9033659612
 20
88.7046187731
 30
0.0
 10
99.8994429504
 20
88.612765763
 30
0.0
 10
99.8760178101
 20
88.4273320984
 30
0.0
 10
99.7666443522
 20
88.0568647208
 30
0.0
 10
99.508136764
 20
87.6042106296
 30
0.0
 10
99.0407249643
 20
87.1231456731
 30
0.0
 10
98.6533784109
 20
86.8576217727
 30
0.0
 10
98.4404597846
 20
86.7346938803
 30
0.0
  0
SPLINE
  5
3F8
100
AcDbEntity
  8
0
100
AcDbSpline
 62
7
  6
BYLAYER
 70
0
 71
3
 72
25
 73
21
 74
0
 42
0.0000001
 43
0.0000001
 44
0.0000000001
 40
0.0
 40
0.0
 40
0.0
 40
0.0
 40
0.0668217408
 40
0.1388478033
 40
0.214559753
 40
0.2921687066
 40
0.3697073147
 40
0.4452246097
 40
0.5169274186
 40
0.5833550668
 40
0.643580825
 40
0.6974678558
 40
0.7459668772
 40
0.7689220665
 40
0.7914635052
 40
0.814015099
 40
0.8369999859
 40
0.8855981552
 40
0.9396331763
 40
1.0
 40
1.0
 40
1.0
 40
1.0
 10
17.3296428319
 20
54.6411015246
 30
0.0
 10
17.1104893677
 20
54.7699027456
 30
0.0
 10
16.6779982465
 20
55.0774321105
 30
0.0
 10
16.0834187872
 20
55.6396792945
 30
0.0
 10
15.5363721223
 20
56.3023639849
 30
0.0
 10
15.0572605443
 20
57.0405841021
 30
0.0
 10
14.6638844451
 20
57.8270420107
 30
0.0
 10
14.3708598889
 20
58.632417203
 30
0.0
 10
14.1891050367
 20
59.4269811128
 30
0.0
 10
14.1254325468
 20
60.1817896984
 30
0.0
 10
14.1831268431
 20
60.8701481208
 30
0.0
 10
14.3619766028
 20
61.4679163385
 30
0.0
 10
14.6172091284
 20
61.8796300415
 30
0.0
 10
14.8742942537
 20
62.1303160744
 30
0.0
 10
15.0882465092
 20
62.2782707852
 30
0.0
 10
15.3243167353
 20
62.3877969658
 30
0.0
 10
15.6711886056
 20
62.4826107898
 30
0.0
 10
16.1564823906
 20
62.494611203
 30
0.0
 10
16.7640547153
 20
62.3470513305
 30
0.0
 10
17.159655127
 20
62.158776371
 30
0.0
 10
17.3585347869
 20
62.0439557434
 30
0.0
  0
SPLINE
  5
3F9
100
AcDbEntity
  8
0
100
AcDbSpline
 62
7
  6
BYLAYER
 70
0
 71
3
 72
11
 73
7
 74
0
 42
0.0000001
 43
0.0000001
 44
0.0000000001
 40
0.0
 40
0.0
 40
0.0
 40
0.0
 40
0.2829494568
 40
0.5425486365
 40
0.7800103014
 40
1.0
 40
1.0
 40
1.0
 40
1.0
 10
17.7107413337
 20
62.6199708454
 30
0.0
 10
17.5351711466
 20
62.7213340471
 30
0.0
 10
17.1853748957
 20
62.8944333665
 30
0.0
 10
16.6492763001
 20
63.0617114825
 30
0.0
 10
16.135435515
 20
63.1204888969
 30
0.0
 10
15.8059502785
 20
63.0833276718
 30
0.0
 10
15.6529974823
 20
63.0452555252
 30
0.0
  0
SPLINE
  5
3FA
100
AcDbEntity
  8
0
100
AcDbSpline
 62
7
  6
BYLAYER
 70
0
 71
3
 72
9
 73
5
 74
0
 42
0.0000001
 43
0.0000001
 44
0.0000000001
 40
0.0
 40
0.0
 40
0.0
 40
0.0
 40
0.2531887008
 40
1.0
 40
1.0
 40
1.0
 40
1.0
 10
15.6529974823
 20
63.0452555252
 30
0.0
 10
15.6138940531
 20
63.0355221203
 30
0.0
 10
15.4607780112
 20
62.9919493364
 30
0.0
 10
15.3137023885
 20
62.9269975313
 30
0.0
 10
15.2107665701
 20
62.8675679151
 30
0.0
  0
SPLINE
  5
3FB
100
AcDbEntity
  8
0
100
AcDbSpline
 62
7
  6
BYLAYER
 70
0
 71
3
 72
9
 73
5
 74
0
 42
0.0000001
 43
0.0000001
 44
0.0000000001
 40
0.0
 40
0.0
 40
0.0
 40
0.0
 40
0.4912555208
 40
1.0
 40
1.0
 40
1.0
 40
1.0
 10
38.9352927627
 20
64.5159586289
 30
0.0
 10
38.9263262369
 20
64.3987599492
 30
0.0
 10
38.8835251993
 20
64.1615064741
 30
0.0
 10
38.795810265
 20
63.93729461
 30
0.0
 10
38.7420887164
 20
63.8280648362
 30
0.0
  0
ELLIPSE
  5
3FC
100
AcDbEntity
  8
0
100
AcDbEllipse
 62
7
  6
BYLAYER
 10
80.6092273755
 20
106.6250082608
 30
0.0
 11
0.1015594024
 21
-0.056570279
 31
0.0
 40
0.0151678127
 41
0.7785862681
 42
2.3492303175
  0
ELLIPSE
  5
3FD
100
AcDbEntity
  8
0
100
AcDbEllipse
 62
7
  6
BYLAYER
 10
13.2194160782
 20
67.7177148129
 30
0.0
 11
0.0742856481
 21
0.1233022167
 31
0.0
 40
0.5671435221
 41
1.5815228619
 42
3.1521669113
  0
ELLIPSE
  5
3FE
100
AcDbEntity
  8
0
100
AcDbEllipse
 62
7
  6
BYLAYER
 10
80.3907068351
 20
106.7424804483
 30
0.0
 11
0.1017884041
 21
-0.056697962
 31
0.0
 40
0.0150994815
 41
3.1325626436
 42
3.9179521684
  0
ELLIPSE
  5
3FF
100
AcDbEntity
  8
0
100
AcDbEllipse
 62
7
  6
BYLAYER
 10
13.4397859597
 20
68.0885789911
 30
0.0
 11
0.0738164735
 21
0.12357647
 31
0.0
 40
0.5671868086
 41
0.0084334668
 42
1.5748664706
  0
ENDSEC
  0
SECTION
  2
OBJECTS
  0
DICTIONARY
  5
C
100
AcDbDictionary
280
0
281
1
  3
ACAD_GROUP
350
D
  3
ACAD_MLINESTYLE
350
17
  3
ACAD_LAYOUT
350
1A
  3
ACAD_PLOTSETTINGS
350
19
  3
ACAD_PLOTSTYLENAME
350
E
  0
DICTIONARY
  5
D
102
{ACAD_REACTORS
330
C
102
}
100
AcDbDictionary
280
0
281
1
  0
ACDBDICTIONARYWDFLT
  5
E
102
{ACAD_REACTORS
330
C
102
}
100
AcDbDictionary
281
1
  3
Normal
350
F
100
AcDbDictionaryWithDefault
340
F
  0
DICTIONARY
  5
17
102
{ACAD_REACTORS
330
C
102
}
100
AcDbDictionary
280
0
281
1
  3
Standard
350
18
  0
DICTIONARY
  5
19
102
{ACAD_REACTORS
330
C
102
}
100
AcDbDictionary
281
1
  0
DICTIONARY
  5
1A
102
{ACAD_REACTORS
330
C
102
}
100
AcDbDictionary
281
1
  3
Model
350
400
  3
Layout1
350
401
  0
ACDBPLACEHOLDER
  5
F
102
{ACAD_REACTORS
330
E
102
}
  0
MLINESTYLE
  5
18
102
{ACAD_REACTORS
330
17
102
}
100
AcDbMlineStyle
  2
STANDARD
 70
0
  3

 62
256
 51
90.0
 52
90.0
 71
2
 49
0.5
 62
256
  6
BYLAYER
 49
-0.5
 62
256
  6
BYLAYER
  0
LAYOUT
  5
400
102
{ACAD_REACTORS
330
1A
102
}
100
AcDbPlotSettings
  1

  2
none_device
  4

  6

 40
0.0
 41
0.0
 42
0.0
 43
0.0
 44
210.0
 45
297.0
 46
0.0
 47
0.0
 48
0.0
 49
0.0
140
0.0
141
0.0
142
1.0
143
1.0
 70
1024
 72
1
 73
0
 74
0
  7

 75
0
147
1.0
148
0.0
149
0.0
100
AcDbLayout
  1
Model
 70
0
 71
0
 10
0.0
 20
0.0
 11
210.0
 21
297.0
 12
0.0
 22
0.0
 32
0.0
 14
0.0
 24
0.0
 34
0.0
 15
0.0
 25
0.0
 35
0.0
146
0.0
 13
0.0
 23
0.0
 33
0.0
 16
1.0
 26
0.0
 36
0.0
 17
0.0
 27
1.0
 37
0.0
 76
0
330
210
345
0
346
0
  0
LAYOUT
  5
401
102
{ACAD_REACTORS
330
1A
102
}
100
AcDbPlotSettings
  1

  2
none_device
  4

  6

 40
0.0
 41
0.0
 42
0.0
 43
0.0
 44
210.0
 45
297.0
 46
0.0
 47
0.0
 48
0.0
 49
0.0
140
0.0
141
0.0
142
1.0
143
1.0
 70
0
 72
1
 73
0
 74
0
  7

 75
0
147
1.0
148
0.0
149
0.0
100
AcDbLayout
  1
Layout1
 70
0
 71
1
 10
0.0
 20
0.0
 11
210.0
 21
297.0
 12
0.0
 22
0.0
 32
0.0
 14
0.0
 24
0.0
 34
0.0
 15
0.0
 25
0.0
 35
0.0
146
0.0
 13
0.0
 23
0.0
 33
0.0
 16
1.0
 26
0.0
 36
0.0
 17
0.0
 27
1.0
 37
0.0
 76
0
330
211
345
0
346
0
  0
ENDSEC
  0
EOF
