999
DXF file: C:\Users\sesa63760\Dev\_Creo\CAD\MCADID0003713_3D-CAD\drw0001_5.dxf
999
Pro/ENGINEER 2019471 by Parametric Technology Corporation
  0
SECTION
  2
HEADER
  9
$ACADVER
  1
AC1024
  9
$DWGCODEPAGE
  3
ANSI_1252
  9
$EXTMAX
 10
13.3050917337
 20
18.8172011662
 30
0.0
  9
$EXTMIN
 10
0.0
 20
0.0
 30
0.0
  9
$LIMMIN
 10
0.0
 20
0.0
  9
$LIMMAX
 10
13.3050917337
 20
18.8172011662
  9
$VIEWCTR
 10
6.6525458668
 20
9.4086005831
  9
$VIEWSIZE
 40
18.8172011662
  9
$CLAYER
  8
0
  9
$LTSCALE
 40
1.2266027427
  9
$CELTYPE
  6
BYLAYER
  9
$DIMSCALE
 40
1.0
  9
$DIMASZ
 40
0.1583939492
  9
$DIMEXO
 40
1.0
  9
$DIMDLI
 40
0.8474709859
  9
$DIMEXE
 40
1.0
  9
$DIMCEN
 40
0.2007168124
  9
$DIMLFAC
 40
1.0
  9
$DIMBLK
  1
_FILLED
  9
$DIMALT
 70
0
  9
$DIMALTF
 40
0.0393700787
  9
$DIMTXT
 40
0.2217515289
  9
$DIMTOL
 70
1
  9
$DIMLIM
 70
0
  9
$DIMTFAC
 40
1.0
  9
$DIMTP
 40
0.01
  9
$DIMTM
 40
0.01
  9
$DIMGAP
 40
0.625
  9
$DIMDSEP
 70
46
  9
$AUNITS
 70
0
  9
$PDMODE
 70
3
  9
$PDSIZE
 40
0.3125
  9
$HANDSEED
  5
25D
  9
$TILEMODE
 70
1
  9
$MEASUREMENT
 70
1
  9
$INSUNITS
 70
4
  0
ENDSEC
  0
SECTION
  2
CLASSES
  0
CLASS
  1
ACDBDICTIONARYWDFLT
  2
AcDbDictionaryWithDefault
  3
AutoCAD 2000
 90
0
 91
1
280
0
281
0
  0
CLASS
  1
ACDBPLACEHOLDER
  2
AcDbPlaceHolder
  3
AutoCAD 2000
 90
0
 91
1
280
0
281
0
  0
CLASS
  1
LAYOUT
  2
AcDbLayout
  3
AutoCAD 2000
 90
0
 91
0
280
0
281
0
  0
ENDSEC
  0
SECTION
  2
TABLES
  0
TABLE
  2
VPORT
  5
8
100
AcDbSymbolTable
 70
2
  0
VPORT
  5
1F4
100
AcDbSymbolTableRecord
100
AcDbViewportTableRecord
  2
*ACTIVE
 70
0
 10
0.0
 20
0.0
 11
1.0
 21
1.0
 12
6.6525458668
 22
9.4086005831
 13
0.0
 23
0.0
 14
1.0
 24
1.0
 15
0.0
 25
0.0
 16
0.0
 26
0.0
 36
1.0
 17
0.0
 27
0.0
 37
0.0
 40
18.8172011662
 41
0.7070707071
 42
50.0
 43
0.0
 44
0.0
 50
0.0
 51
0.0
 71
0
 72
100
 73
1
 74
1
 75
0
 76
0
 77
0
 78
0
  0
ENDTAB
  0
TABLE
  2
LTYPE
  5
5
100
AcDbSymbolTable
 70
6
  0
LTYPE
  5
14
100
AcDbSymbolTableRecord
100
AcDbLinetypeTableRecord
  2
BYBLOCK
 70
0
  3

 72
65
 73
0
 40
0.0
  0
LTYPE
  5
15
100
AcDbSymbolTableRecord
100
AcDbLinetypeTableRecord
  2
BYLAYER
 70
0
  3

 72
65
 73
0
 40
0.0
  0
LTYPE
  5
16
100
AcDbSymbolTableRecord
100
AcDbLinetypeTableRecord
  2
CONTINUOUS
 70
64
  3
Solid line
 72
65
 73
0
 40
0.0
  0
LTYPE
  5
1F5
100
AcDbSymbolTableRecord
100
AcDbLinetypeTableRecord
  2
CENTER
 70
64
  3
____ _ ____ _ ____ _ ____ _ ____ _ ____ _ ____
 72
65
 73
4
 40
0.6
 49
0.375
 74
0
 49
-0.075
 74
0
 49
0.075
 74
0
 49
-0.075
 74
0
  0
LTYPE
  5
1F6
100
AcDbSymbolTableRecord
100
AcDbLinetypeTableRecord
  2
HIDDEN
 70
64
  3
- - - - - - - - - - - - - - - - - - - -
 72
65
 73
2
 40
0.2
 49
0.1
 74
0
 49
-0.1
 74
0
  0
LTYPE
  5
1F7
100
AcDbSymbolTableRecord
100
AcDbLinetypeTableRecord
  2
PHANTOM
 70
64
  3
_____ _ _ _____ _ _ _____ _ _ _____
 72
65
 73
6
 40
0.8
 49
0.45
 74
0
 49
-0.05
 74
0
 49
0.1
 74
0
 49
-0.05
 74
0
 49
0.1
 74
0
 49
-0.05
 74
0
  0
LTYPE
  5
1F8
100
AcDbSymbolTableRecord
100
AcDbLinetypeTableRecord
  2
DOT
 70
64
  3
. . . . . . . . . . . . . . . . . . . .
 72
65
 73
2
 40
0.2
 49
0.1
 74
0
 49
-0.1
 74
0
  0
LTYPE
  5
1F9
100
AcDbSymbolTableRecord
100
AcDbLinetypeTableRecord
  2
DASHED
 70
64
  3
- - - - - - - - - - - - - - - - - - - -
 72
65
 73
2
 40
0.2
 49
0.1
 74
0
 49
-0.1
 74
0
  0
ENDTAB
  0
TABLE
  2
LAYER
  5
2
100
AcDbSymbolTable
 70
36
  0
LAYER
  5
10
100
AcDbSymbolTableRecord
100
AcDbLayerTableRecord
  2
0
 70
0
 62
7
  6
CONTINUOUS
370
-3
390
F
  0
LAYER
  5
1FA
100
AcDbSymbolTableRecord
100
AcDbLayerTableRecord
  2
DEFAULT_1
 70
0
 62
7
  6
CENTER
370
-3
390
F
  0
LAYER
  5
1FB
100
AcDbSymbolTableRecord
100
AcDbLayerTableRecord
  2
DEFAULT_2
 70
0
 62
7
  6
HIDDEN
370
-3
390
F
  0
LAYER
  5
1FC
100
AcDbSymbolTableRecord
100
AcDbLayerTableRecord
  2
DEFAULT_3
 70
0
 62
7
  6
PHANTOM
370
-3
390
F
  0
LAYER
  5
1FD
100
AcDbSymbolTableRecord
100
AcDbLayerTableRecord
  2
00_COMPONENTS
 70
0
 62
7
  6
CONTINUOUS
370
-3
390
F
  0
LAYER
  5
1FE
100
AcDbSymbolTableRecord
100
AcDbLayerTableRecord
  2
01_1_DEFAULT_DATUMS
 70
0
 62
7
  6
CONTINUOUS
370
-3
390
F
  0
LAYER
  5
1FF
100
AcDbSymbolTableRecord
100
AcDbLayerTableRecord
  2
01_PLANES
 70
0
 62
7
  6
CONTINUOUS
370
-3
390
F
  0
LAYER
  5
200
100
AcDbSymbolTableRecord
100
AcDbLayerTableRecord
  2
02_COORD_SYS
 70
0
 62
7
  6
CONTINUOUS
370
-3
390
F
  0
LAYER
  5
201
100
AcDbSymbolTableRecord
100
AcDbLayerTableRecord
  2
03_AXES
 70
0
 62
7
  6
CONTINUOUS
370
-3
390
F
  0
LAYER
  5
202
100
AcDbSymbolTableRecord
100
AcDbLayerTableRecord
  2
04_POINTS
 70
0
 62
7
  6
CONTINUOUS
370
-3
390
F
  0
LAYER
  5
203
100
AcDbSymbolTableRecord
100
AcDbLayerTableRecord
  2
05_CURVES
 70
0
 62
7
  6
CONTINUOUS
370
-3
390
F
  0
LAYER
  5
204
100
AcDbSymbolTableRecord
100
AcDbLayerTableRecord
  2
06_SURFS
 70
0
 62
7
  6
CONTINUOUS
370
-3
390
F
  0
LAYER
  5
205
100
AcDbSymbolTableRecord
100
AcDbLayerTableRecord
  2
07_COSMETICS
 70
0
 62
7
  6
CONTINUOUS
370
-3
390
F
  0
LAYER
  5
206
100
AcDbSymbolTableRecord
100
AcDbLayerTableRecord
  2
10_NOTES
 70
0
 62
7
  6
CONTINUOUS
370
-3
390
F
  0
LAYER
  5
207
100
AcDbSymbolTableRecord
100
AcDbLayerTableRecord
  2
11_NOTES_PUB
 70
0
 62
7
  6
CONTINUOUS
370
-3
390
F
  0
LAYER
  5
208
100
AcDbSymbolTableRecord
100
AcDbLayerTableRecord
  2
13_REF_GTOL
 70
0
 62
7
  6
CONTINUOUS
370
-3
390
F
  0
LAYER
  5
209
100
AcDbSymbolTableRecord
100
AcDbLayerTableRecord
  2
16_MISC
 70
0
 62
7
  6
CONTINUOUS
370
-3
390
F
  0
LAYER
  5
20A
100
AcDbSymbolTableRecord
100
AcDbLayerTableRecord
  2
17_NO_PRINT
 70
0
 62
7
  6
CONTINUOUS
370
-3
390
F
  0
LAYER
  5
20B
100
AcDbSymbolTableRecord
100
AcDbLayerTableRecord
  2
18_DATUM_CAMS_JOINTS
 70
0
 62
7
  6
CONTINUOUS
370
-3
390
F
  0
LAYER
  5
20C
100
AcDbSymbolTableRecord
100
AcDbLayerTableRecord
  2
19_DATUM_FUNCTIONAL
 70
0
 62
7
  6
CONTINUOUS
370
-3
390
F
  0
LAYER
  5
20D
100
AcDbSymbolTableRecord
100
AcDbLayerTableRecord
  2
20_DATUM_KINEMATIC_SCHEME
 70
0
 62
7
  6
CONTINUOUS
370
-3
390
F
  0
ENDTAB
  0
TABLE
  2
STYLE
  5
3
100
AcDbSymbolTable
 70
1
  0
STYLE
  5
11
100
AcDbSymbolTableRecord
100
AcDbTextStyleTableRecord
  2
STANDARD
 70
0
 40
0.0
 41
1.0
 50
0.0
 71
0
 42
0.2
  3
ARIAL.TTF
  4

  0
STYLE
  5
20E
100
AcDbSymbolTableRecord
100
AcDbTextStyleTableRecord
  2
TEXTSTYLE_1
 70
0
 40
0.0
 41
0.8
 50
0.0
 71
0
 42
0.2
  3
gdt
  4

  0
ENDTAB
  0
TABLE
  2
VIEW
  5
6
100
AcDbSymbolTable
 70
0
  0
ENDTAB
  0
TABLE
  2
UCS
  5
7
100
AcDbSymbolTable
 70
0
  0
ENDTAB
  0
TABLE
  2
APPID
  5
9
100
AcDbSymbolTable
 70
1
  0
APPID
  5
20F
100
AcDbSymbolTableRecord
100
AcDbRegAppTableRecord
  2
ACAD
 70
0
  0
ENDTAB
  0
TABLE
  2
BLOCK_RECORD
  5
1
100
AcDbSymbolTable
 70
0
  0
BLOCK_RECORD
  5
210
100
AcDbSymbolTableRecord
100
AcDbBlockTableRecord
  2
*Model_Space
  0
BLOCK_RECORD
  5
211
100
AcDbSymbolTableRecord
100
AcDbBlockTableRecord
  2
*Paper_Space
  0
BLOCK_RECORD
  5
212
100
AcDbSymbolTableRecord
100
AcDbBlockTableRecord
  2
_FILLED
  0
ENDTAB
  0
TABLE
  2
DIMSTYLE
  5
A
100
AcDbSymbolTable
 70
1
100
AcDbDimStyleTable
 71
0
  0
DIMSTYLE
105
213
100
AcDbSymbolTableRecord
100
AcDbDimStyleTableRecord
  2
STANDARD
 70
0
  3

  4

 40
1.0
 41
0.1583939492
 42
1.0
 43
0.38
 44
1.0
 45
0.0
 46
0.0
 47
0.01
 48
0.01
140
0.2217515289
141
0.09
142
0.0
143
25.4
144
1.0
145
0.0
146
1.0
147
0.625
 71
1
 72
0
 73
0
 74
0
 75
0
 76
0
 77
1
 78
8
 79
2
170
0
171
1
172
0
173
0
174
0
175
0
176
0
177
0
178
0
270
2
179
2
271
2
272
2
273
2
274
2
275
0
280
0
281
0
282
0
283
1
284
8
285
0
286
0
287
3
288
0
340
11
278
46
341
212
342
212
343
212
344
212
  0
ENDTAB
  0
ENDSEC
  0
SECTION
  2
BLOCKS
  0
BLOCK
  5
20
100
AcDbEntity
  8
0
100
AcDbBlockBegin
  2
*Model_Space
 70
0
 10
0.0
 20
0.0
 30
0.0
  3
*Model_Space
  1

  0
ENDBLK
  5
21
100
AcDbEntity
  8
0
100
AcDbBlockEnd
  0
BLOCK
  5
1C
100
AcDbEntity
  8
0
100
AcDbBlockBegin
  2
*Paper_Space
 70
0
 10
0.0
 20
0.0
 30
0.0
  3
*Paper_Space
  1

  0
ENDBLK
  5
1D
100
AcDbEntity
  8
0
100
AcDbBlockEnd
  0
BLOCK
  5
214
100
AcDbEntity
  8
0
100
AcDbBlockBegin
  2
_FILLED
 70
64
 10
0.0
 20
0.0
  3
_FILLED
  1

  0
SOLID
  5
215
100
AcDbEntity
  8
0
  6
BYBLOCK
 62
0
100
AcDbTrace
 10
0.0
 20
0.0
 11
-1.0
 21
0.25
 12
-1.0
 22
-0.25
 13
-1.0
 23
-0.25
  0
ENDBLK
  5
216
100
AcDbEntity
  8
0
  6
BYBLOCK
 62
0
100
AcDbBlockEnd
  0
ENDSEC
  0
SECTION
  2
ENTITIES
  0
LINE
  5
217
100
AcDbEntity
  8
0
100
AcDbLine
 62
7
  6
BYLAYER
 10
3.6368032655
 20
1.5316326531
 11
10.0368032655
 21
1.5316326531
  0
LINE
  5
218
100
AcDbEntity
  8
0
100
AcDbLine
 62
7
  6
BYLAYER
 10
3.7373711909
 20
13.6281884321
 11
3.7388593173
 21
13.6316346123
  0
LINE
  5
219
100
AcDbEntity
  8
0
100
AcDbLine
 62
7
  6
BYLAYER
 10
3.777058645
 20
13.7816326531
 11
3.7373411066
 21
13.6315681819
  0
LINE
  5
21A
100
AcDbEntity
  8
0
100
AcDbLine
 62
7
  6
BYLAYER
 10
3.6994240696
 20
13.7816326531
 11
3.638014369
 21
13.5893408625
  0
LINE
  5
21B
100
AcDbEntity
  8
0
100
AcDbLine
 62
7
  6
BYLAYER
 10
3.6380139572
 20
13.5893415435
 11
3.6368032655
 21
13.5816331253
  0
LINE
  5
21C
100
AcDbEntity
  8
0
100
AcDbLine
 62
7
  6
BYLAYER
 10
3.6368032655
 20
13.3654422741
 11
3.6368032655
 21
1.5316326531
  0
LINE
  5
21D
100
AcDbEntity
  8
0
100
AcDbLine
 62
7
  6
BYLAYER
 10
3.6368032655
 20
13.3886333584
 11
3.6368032655
 21
13.5816329849
  0
LINE
  5
21E
100
AcDbEntity
  8
0
100
AcDbLine
 62
7
  6
BYLAYER
 10
3.6368032655
 20
13.5893415435
 11
3.6368032655
 21
15.8316326531
  0
LINE
  5
21F
100
AcDbEntity
  8
0
100
AcDbLine
 62
7
  6
BYLAYER
 10
3.7368032655
 20
13.536645216
 11
3.7368032655
 21
13.5668227791
  0
LINE
  5
220
100
AcDbEntity
  8
0
100
AcDbLine
 62
7
  6
BYLAYER
 10
4.0368032655
 20
15.5316326547
 11
4.0368032655
 21
13.7816326531
  0
LINE
  5
221
100
AcDbEntity
  8
0
100
AcDbLine
 62
7
  6
BYLAYER
 10
3.7368032655
 20
13.5668227791
 11
3.7373711909
 21
13.6281884321
  0
LINE
  5
222
100
AcDbEntity
  8
0
100
AcDbLine
 62
7
  6
BYLAYER
 10
4.0868032655
 20
13.630285083
 11
4.0868032655
 21
15.5316326531
  0
LINE
  5
223
100
AcDbEntity
  8
0
100
AcDbLine
 62
7
  6
BYLAYER
 10
4.8368032655
 20
15.8316326531
 11
4.8368032655
 21
17.3316300263
  0
LINE
  5
224
100
AcDbEntity
  8
0
100
AcDbLine
 62
7
  6
BYLAYER
 10
5.1368032655
 20
15.8316326531
 11
5.1368032655
 21
17.024803873
  0
LINE
  5
225
100
AcDbEntity
  8
0
100
AcDbLine
 62
7
  6
BYLAYER
 10
5.4256788391
 20
17.258564873
 11
5.4295149138
 21
17.3317615369
  0
LINE
  5
226
100
AcDbEntity
  8
0
100
AcDbLine
 62
7
  6
BYLAYER
 10
5.6368032655
 20
9.8316326531
 11
5.6368032655
 21
15.5316326531
  0
LINE
  5
227
100
AcDbEntity
  8
0
100
AcDbLine
 62
7
  6
BYLAYER
 10
5.7368032655
 20
9.8316326531
 11
5.7368032655
 21
15.5316326531
  0
LINE
  5
228
100
AcDbEntity
  8
0
100
AcDbLine
 62
7
  6
BYLAYER
 10
10.0368032655
 20
9.8316326531
 11
9.9868032655
 21
9.8316326531
  0
LINE
  5
229
100
AcDbEntity
  8
0
100
AcDbLine
 62
7
  6
BYLAYER
 10
5.6368032655
 20
9.8316326531
 11
5.7368032655
 21
9.8316326531
  0
LINE
  5
22A
100
AcDbEntity
  8
0
100
AcDbLine
 62
7
  6
BYLAYER
 10
9.9868032655
 20
10.3316326531
 11
10.0368032655
 21
10.3316326531
  0
LINE
  5
22B
100
AcDbEntity
  8
0
100
AcDbLine
 62
7
  6
BYLAYER
 10
8.1979276919
 20
17.258564873
 11
8.1940407271
 21
17.3327325809
  0
LINE
  5
22C
100
AcDbEntity
  8
0
100
AcDbLine
 62
7
  6
BYLAYER
 10
8.4868032655
 20
17.024803873
 11
8.4868032655
 21
15.8316326531
  0
LINE
  5
22D
100
AcDbEntity
  8
0
100
AcDbLine
 62
7
  6
BYLAYER
 10
8.7868032655
 20
15.8316326531
 11
8.7868032655
 21
17.3316300263
  0
LINE
  5
22E
100
AcDbEntity
  8
0
100
AcDbLine
 62
7
  6
BYLAYER
 10
9.5868032655
 20
15.5316326531
 11
9.5868032655
 21
13.536645216
  0
LINE
  5
22F
100
AcDbEntity
  8
0
100
AcDbLine
 62
7
  6
BYLAYER
 10
9.6368032655
 20
13.7816326531
 11
9.6368032655
 21
15.5316323166
  0
LINE
  5
230
100
AcDbEntity
  8
0
100
AcDbLine
 62
7
  6
BYLAYER
 10
9.9868032655
 20
15.531632653
 11
9.9868032655
 21
15.2816326531
  0
LINE
  5
231
100
AcDbEntity
  8
0
100
AcDbLine
 62
7
  6
BYLAYER
 10
9.9868032655
 20
13.3654422741
 11
9.9868032655
 21
9.8316326531
  0
LINE
  5
232
100
AcDbEntity
  8
0
100
AcDbLine
 62
7
  6
BYLAYER
 10
10.0368032655
 20
1.5316326531
 11
10.0368032655
 21
15.8316326531
  0
LINE
  5
233
100
AcDbEntity
  8
0
100
AcDbLine
 62
7
  6
BYLAYER
 10
10.0368032655
 20
12.8603848679
 11
9.9868032655
 21
12.8603848679
  0
LINE
  5
234
100
AcDbEntity
  8
0
100
AcDbLine
 62
7
  6
BYLAYER
 10
9.9868032655
 20
13.3120289141
 11
10.0368032655
 21
13.3120289141
  0
LINE
  5
235
100
AcDbEntity
  8
0
100
AcDbLine
 62
7
  6
BYLAYER
 10
9.9719285653
 20
13.4487911962
 11
10.0368032655
 21
13.4487911962
  0
LINE
  5
236
100
AcDbEntity
  8
0
100
AcDbLine
 62
7
  6
BYLAYER
 10
3.7368032655
 20
13.536645216
 11
4.0368032655
 21
13.536645216
  0
LINE
  5
237
100
AcDbEntity
  8
0
100
AcDbLine
 62
7
  6
BYLAYER
 10
9.5868032655
 20
13.536645216
 11
9.8868032655
 21
13.536645216
  0
LINE
  5
238
100
AcDbEntity
  8
0
100
AcDbLine
 62
7
  6
BYLAYER
 10
3.7388593173
 20
13.6316346123
 11
4.0374461466
 21
13.6316346123
  0
LINE
  5
239
100
AcDbEntity
  8
0
100
AcDbLine
 62
7
  6
BYLAYER
 10
10.0368032655
 20
13.7816326531
 11
9.6368032655
 21
13.7816326531
  0
LINE
  5
23A
100
AcDbEntity
  8
0
100
AcDbLine
 62
7
  6
BYLAYER
 10
3.6368032655
 20
13.7816326531
 11
4.0368032655
 21
13.7816326531
  0
LINE
  5
23B
100
AcDbEntity
  8
0
100
AcDbLine
 62
7
  6
BYLAYER
 10
9.9860543062
 20
13.7816326531
 11
10.0368032655
 21
13.6316326531
  0
LINE
  5
23C
100
AcDbEntity
  8
0
100
AcDbLine
 62
7
  6
BYLAYER
 10
5.6368032655
 20
14.5816326531
 11
5.7368032655
 21
14.5816326531
  0
LINE
  5
23D
100
AcDbEntity
  8
0
100
AcDbLine
 62
7
  6
BYLAYER
 10
5.7368032655
 20
14.9816326531
 11
5.6368032655
 21
14.9816326531
  0
LINE
  5
23E
100
AcDbEntity
  8
0
100
AcDbLine
 62
7
  6
BYLAYER
 10
4.0868032655
 20
15.1316326531
 11
5.6368032655
 21
15.1316326531
  0
LINE
  5
23F
100
AcDbEntity
  8
0
100
AcDbLine
 62
7
  6
BYLAYER
 10
5.7368032655
 20
15.1316326531
 11
9.5868032655
 21
15.1316326531
  0
LINE
  5
240
100
AcDbEntity
  8
0
100
AcDbLine
 62
7
  6
BYLAYER
 10
10.0368032655
 20
15.2816326531
 11
9.6368032655
 21
15.2816326531
  0
LINE
  5
241
100
AcDbEntity
  8
0
100
AcDbLine
 62
7
  6
BYLAYER
 10
3.6368032655
 20
15.2816326531
 11
4.0368032655
 21
15.2816326531
  0
LINE
  5
242
100
AcDbEntity
  8
0
100
AcDbLine
 62
7
  6
BYLAYER
 10
3.6368032655
 20
15.5316326531
 11
10.0368032655
 21
15.5316326531
  0
LINE
  5
243
100
AcDbEntity
  8
0
100
AcDbLine
 62
7
  6
BYLAYER
 10
3.6368032655
 20
15.8316326531
 11
10.0368032655
 21
15.8316326531
  0
LINE
  5
244
100
AcDbEntity
  8
0
100
AcDbLine
 62
7
  6
BYLAYER
 10
5.1368032655
 20
17.024803873
 11
8.4868032655
 21
17.024803873
  0
LINE
  5
245
100
AcDbEntity
  8
0
100
AcDbLine
 62
7
  6
BYLAYER
 10
8.1979276919
 20
17.258564873
 11
5.4256788392
 21
17.258564873
  0
LINE
  5
246
100
AcDbEntity
  8
0
100
AcDbLine
 62
7
  6
BYLAYER
 10
8.7868032655
 20
17.3316326531
 11
8.1940983718
 21
17.3316326531
  0
LINE
  5
247
100
AcDbEntity
  8
0
100
AcDbLine
 62
7
  6
BYLAYER
 10
5.4295081592
 20
17.3316326531
 11
4.8368032655
 21
17.3316326531
  0
ARC
  5
248
100
AcDbEntity
  8
0
100
AcDbCircle
 62
7
  6
BYLAYER
 10
26.5608402535
 20
13.4200433943
 40
22.5243916825
100
AcDbArc
 50
179.1031007514
 51
179.2228077089
  0
ARC
  5
249
100
AcDbEntity
  8
0
100
AcDbCircle
 62
7
  6
BYLAYER
 10
25.685288828
 20
13.4318189423
 40
21.6487610804
100
AcDbArc
 50
179.222538695
 51
179.4735423816
  0
ARC
  5
24A
100
AcDbEntity
  8
0
100
AcDbCircle
 62
7
  6
BYLAYER
 10
9.6368032655
 20
15.3316326531
 40
0.05
100
AcDbArc
 50
180.0000000055
 51
270.0
  0
ARC
  5
24B
100
AcDbEntity
  8
0
100
AcDbCircle
 62
7
  6
BYLAYER
 10
9.6368032655
 20
13.7316326531
 40
0.05
100
AcDbArc
 50
90.0
 51
179.9999999945
  0
ARC
  5
24C
100
AcDbEntity
  8
0
100
AcDbCircle
 62
7
  6
BYLAYER
 10
4.0368032655
 20
15.3316326531
 40
0.05
100
AcDbArc
 50
270.0
 51
359.9999999974
  0
ARC
  5
24D
100
AcDbEntity
  8
0
100
AcDbCircle
 62
7
  6
BYLAYER
 10
4.0368032655
 20
13.7316326531
 40
0.05
100
AcDbArc
 50
0.0000000026
 51
90.0
  0
SPLINE
  5
24E
100
AcDbEntity
  8
0
100
AcDbSpline
 62
7
  6
BYLAYER
 70
0
 71
3
 72
17
 73
13
 74
0
 42
0.0000001
 43
0.0000001
 44
0.0000000001
 40
0.0
 40
0.0
 40
0.0
 40
0.0
 40
0.0625120792
 40
0.1250480116
 40
0.1875793323
 40
0.2501294058
 40
0.3750192386
 40
0.4999788942
 40
0.6249643124
 40
0.749956256
 40
0.8749878812
 40
1.0
 40
1.0
 40
1.0
 40
1.0
 10
9.8868032655
 20
13.536645216
 30
0.0
 10
9.8912987936
 20
13.536645216
 30
0.0
 10
9.9003267013
 20
13.5355236784
 30
0.0
 10
9.9130660039
 20
13.5307979219
 30
0.0
 10
9.9246288809
 20
13.5237080256
 30
0.0
 10
9.9383270071
 20
13.5119803287
 30
0.0
 10
9.9524621093
 20
13.4942746058
 30
0.0
 10
9.9654249459
 20
13.4705398305
 30
0.0
 10
9.9750981062
 20
13.4452975626
 30
0.0
 10
9.9818565612
 20
13.4191369969
 30
0.0
 10
9.985892249
 20
13.3924265803
 30
0.0
 10
9.9868032655
 20
13.3744324644
 30
0.0
 10
9.9868032655
 20
13.3654422741
 30
0.0
  0
SPLINE
  5
24F
100
AcDbEntity
  8
0
100
AcDbSpline
 62
7
  6
BYLAYER
 70
0
 71
3
 72
17
 73
13
 74
0
 42
0.0000001
 43
0.0000001
 44
0.0000000001
 40
0.0
 40
0.0
 40
0.0
 40
0.0
 40
0.062542771
 40
0.1251317128
 40
0.1877257527
 40
0.2502863419
 40
0.3751876388
 40
0.5001305075
 40
0.6250888425
 40
0.7500493435
 40
0.8750352059
 40
1.0
 40
1.0
 40
1.0
 40
1.0
 10
4.0368032655
 20
13.536645216
 30
0.0
 10
4.0392124332
 20
13.536645216
 30
0.0
 10
4.0440533399
 20
13.5372945797
 30
0.0
 10
4.0508249194
 20
13.5399956519
 30
0.0
 10
4.0568830815
 20
13.544022923
 30
0.0
 10
4.0639376548
 20
13.5506293929
 30
0.0
 10
4.0710116914
 20
13.5604977961
 30
0.0
 10
4.0772517146
 20
13.5735683137
 30
0.0
 10
4.0817257671
 20
13.5873331649
 30
0.0
 10
4.0847251096
 20
13.6014822103
 30
0.0
 10
4.0864385487
 20
13.6158387263
 30
0.0
 10
4.0868032655
 20
13.625471399
 30
0.0
 10
4.0868032655
 20
13.630285083
 30
0.0
  0
SPLINE
  5
250
100
AcDbEntity
  8
0
100
AcDbSpline
 62
7
  6
BYLAYER
 70
0
 71
3
 72
17
 73
13
 74
0
 42
0.0000001
 43
0.0000001
 44
0.0000000001
 40
0.0
 40
0.0
 40
0.0
 40
0.0
 40
0.1250121131
 40
0.2500437185
 40
0.375035642
 40
0.5000210339
 40
0.6249806644
 40
0.7498704726
 40
0.8124205527
 40
0.8749519421
 40
0.9374879522
 40
1.0
 40
1.0
 40
1.0
 40
1.0
 10
3.6368032655
 20
13.3654422741
 30
0.0
 10
3.6368032655
 20
13.374432464
 30
0.0
 10
3.6377142816
 20
13.3924265781
 30
0.0
 10
3.6417499697
 20
13.4191369912
 30
0.0
 10
3.6485084215
 20
13.445297553
 30
0.0
 10
3.6581815799
 20
13.4705398155
 30
0.0
 10
3.6711444083
 20
13.4942745905
 30
0.0
 10
3.6852795132
 20
13.5119803043
 30
0.0
 10
3.6989776287
 20
13.5237080205
 30
0.0
 10
3.7105405218
 20
13.5307979116
 30
0.0
 10
3.7232798274
 20
13.5355236831
 30
0.0
 10
3.7323077397
 20
13.536645216
 30
0.0
 10
3.7368032655
 20
13.536645216
 30
0.0
  0
SPLINE
  5
251
100
AcDbEntity
  8
0
100
AcDbSpline
 62
7
  6
BYLAYER
 70
0
 71
3
 72
20
 73
16
 74
0
 42
0.0000001
 43
0.0000001
 44
0.0000000001
 40
0.0
 40
0.0
 40
0.0
 40
0.0
 40
0.0321956779
 40
0.0669731193
 40
0.1053621688
 40
0.1480341787
 40
0.1953749185
 40
0.2475696995
 40
0.3046887177
 40
0.3666837612
 40
0.5044208263
 40
0.6587500253
 40
0.7410417412
 40
0.8260118321
 40
1.0
 40
1.0
 40
1.0
 40
1.0
 10
4.8368032655
 20
17.164013411
 30
0.0
 10
4.8368032655
 20
17.1602289187
 30
0.0
 10
4.8378316657
 20
17.1523345379
 30
0.0
 10
4.8421156971
 20
17.1406319503
 30
0.0
 10
4.849054426
 20
17.1288445911
 30
0.0
 10
4.858568468
 20
17.1170712317
 30
0.0
 10
4.8705879459
 20
17.1054059217
 30
0.0
 10
4.8850456557
 20
17.0939593836
 30
0.0
 10
4.9018690435
 20
17.0828530772
 30
0.0
 10
4.9282731891
 20
17.0681623336
 30
0.0
 10
4.9666927273
 20
17.0518333417
 30
0.0
 10
5.0090599054
 20
17.0395744513
 30
0.0
 10
5.0461408486
 20
17.0321318139
 30
0.0
 10
5.0858765998
 20
17.0265322374
 30
0.0
 10
5.1163515488
 20
17.024803873
 30
0.0
 10
5.1368032655
 20
17.024803873
 30
0.0
  0
SPLINE
  5
252
100
AcDbEntity
  8
0
100
AcDbSpline
 62
7
  6
BYLAYER
 70
0
 71
3
 72
20
 73
16
 74
0
 42
0.0000001
 43
0.0000001
 44
0.0000000001
 40
0.0
 40
0.0
 40
0.0
 40
0.0
 40
0.1740022033
 40
0.2589835703
 40
0.3412730225
 40
0.4955703199
 40
0.6332912848
 40
0.6952806091
 40
0.7523942739
 40
0.8045897727
 40
0.851935712
 40
0.8946158865
 40
0.9330153462
 40
0.9678012566
 40
1.0
 40
1.0
 40
1.0
 40
1.0
 10
8.4868032655
 20
17.024803873
 30
0.0
 10
8.5072565853
 20
17.024803873
 30
0.0
 10
8.5377342875
 20
17.0265343959
 30
0.0
 10
8.5774728543
 20
17.0321323271
 30
0.0
 10
8.614551426
 20
17.0395730121
 30
0.0
 10
8.6569119352
 20
17.0518335001
 30
0.0
 10
8.6953255215
 20
17.0681594445
 30
0.0
 10
8.7217280472
 20
17.0828463701
 30
0.0
 10
8.7385510879
 20
17.0939509533
 30
0.0
 10
8.7530089778
 20
17.105397329
 30
0.0
 10
8.7650296488
 20
17.1170637516
 30
0.0
 10
8.7745454268
 20
17.1288392269
 30
0.0
 10
8.7814867767
 20
17.1406286327
 30
0.0
 10
8.7857736074
 20
17.1523328796
 30
0.0
 10
8.7868032655
 20
17.160228567
 30
0.0
 10
8.7868032655
 20
17.164013411
 30
0.0
  0
SPLINE
  5
253
100
AcDbEntity
  8
0
100
AcDbSpline
 62
7
  6
BYLAYER
 70
0
 71
3
 72
12
 73
8
 74
0
 42
0.0000001
 43
0.0000001
 44
0.0000000001
 40
0.0
 40
0.0
 40
0.0
 40
0.0
 40
0.2499999161
 40
0.4374999412
 40
0.6250000705
 40
0.8125000796
 40
1.0
 40
1.0
 40
1.0
 40
1.0
 10
9.5868032655
 20
13.6323467791
 30
0.0
 10
9.6243030919
 20
13.6322135509
 30
0.0
 10
9.6899279653
 20
13.6320086915
 30
0.0
 10
9.7836782132
 20
13.6319625845
 30
0.0
 10
9.8680533949
 20
13.6320279706
 30
0.0
 10
9.9524285713
 20
13.6319138735
 30
0.0
 10
10.0086784018
 20
13.6317335605
 30
0.0
 10
10.0368032655
 20
13.6316326525
 30
0.0
  0
LINE
  5
254
100
AcDbEntity
  8
0
100
AcDbLine
 62
7
  6
BYLAYER
 10
9.8989714902
 20
15.2827469399
 11
9.8868280493
 21
15.5316328143
  0
LINE
  5
255
100
AcDbEntity
  8
0
100
AcDbLine
 62
7
  6
BYLAYER
 10
3.7368030862
 20
15.5316326316
 11
3.7257283393
 21
15.2827461696
  0
LINE
  5
256
100
AcDbEntity
  8
0
100
AcDbLine
 62
7
  6
BYLAYER
 10
3.6617979207
 20
13.7780758114
 11
3.6558073867
 21
13.6423878587
  0
LINE
  5
257
100
AcDbEntity
  8
0
100
AcDbLine
 62
7
  6
BYLAYER
 10
4.037034206
 20
13.5365219333
 11
4.0371992911
 21
13.569110057
  0
LINE
  5
258
100
AcDbEntity
  8
0
100
AcDbLine
 62
7
  6
BYLAYER
 10
4.0371992911
 20
13.569110057
 11
4.0374461466
 21
13.6316346123
  0
SPLINE
  5
259
100
AcDbEntity
  8
0
100
AcDbSpline
 62
7
  6
BYLAYER
 70
0
 71
3
 72
11
 73
7
 74
0
 42
0.0000001
 43
0.0000001
 44
0.0000000001
 40
0.0
 40
0.0
 40
0.0
 40
0.0
 40
0.2823852048
 40
0.5522701932
 40
0.7939813078
 40
1.0
 40
1.0
 40
1.0
 40
1.0
 10
4.0374416116
 20
13.6307340269
 30
0.0
 10
4.0417401507
 20
13.6306920044
 30
0.0
 10
4.0501610995
 20
13.6311863201
 30
0.0
 10
4.0620694549
 20
13.633505951
 30
0.0
 10
4.072351604
 20
13.6373373537
 30
0.0
 10
4.0781869639
 20
13.6410367247
 30
0.0
 10
4.0805187106
 20
13.6431340622
 30
0.0
  0
SPLINE
  5
25A
100
AcDbEntity
  8
0
100
AcDbSpline
 62
7
  6
BYLAYER
 70
0
 71
3
 72
31
 73
27
 74
0
 42
0.0000001
 43
0.0000001
 44
0.0000000001
 40
0.0
 40
0.0
 40
0.0
 40
0.0
 40
0.0175167536
 40
0.0355290277
 40
0.0730997595
 40
0.0928265903
 40
0.1129794199
 40
0.1329043266
 40
0.1527081452
 40
0.1907910959
 40
0.2093664609
 40
0.2279599545
 40
0.2655966845
 40
0.3037564523
 40
0.3420071402
 40
0.3794979241
 40
0.4161019088
 40
0.451968703
 40
0.4872427896
 40
0.5218688727
 40
0.5888497878
 40
0.6524265782
 40
0.7123650925
 40
0.8211008932
 40
0.9157531236
 40
1.0
 40
1.0
 40
1.0
 40
1.0
 10
3.7368032655
 20
13.6281884982
 30
0.0
 10
3.7367566375
 20
13.6275180245
 30
0.0
 10
3.7364409391
 20
13.6261662866
 30
0.0
 10
3.7350541014
 20
13.6236966701
 30
0.0
 10
3.7328041137
 20
13.6217522327
 30
0.0
 10
3.730184815
 20
13.6203494762
 30
0.0
 10
3.7280231297
 20
13.6195368897
 30
0.0
 10
3.7257129288
 20
13.6192680004
 30
0.0
 10
3.7227387695
 20
13.6196666156
 30
0.0
 10
3.719910962
 20
13.620495391
 30
0.0
 10
3.717234754
 20
13.6215791261
 30
0.0
 10
3.7145012469
 20
13.6224665607
 30
0.0
 10
3.7108976791
 20
13.6230371505
 30
0.0
 10
3.7065050557
 20
13.6229216097
 30
0.0
 10
3.7021835532
 20
13.6222540205
 30
0.0
 10
3.6979014963
 20
13.6217581476
 30
0.0
 10
3.6937064343
 20
13.621309349
 30
0.0
 10
3.689605115
 20
13.6207832691
 30
0.0
 10
3.6856060781
 20
13.620085253
 30
0.0
 10
3.6804697626
 20
13.6189847167
 30
0.0
 10
3.6743464519
 20
13.6173297943
 30
0.0
 10
3.667427048
 20
13.6149548386
 30
0.0
 10
3.6592345638
 20
13.6114336957
 30
0.0
 10
3.6504827145
 20
13.6062474652
 30
0.0
 10
3.6423894673
 20
13.5985745898
 30
0.0
 10
3.639001445
 20
13.5924211239
 30
0.0
 10
3.6380142973
 20
13.5893431103
 30
0.0
  0
ENDSEC
  0
SECTION
  2
OBJECTS
  0
DICTIONARY
  5
C
100
AcDbDictionary
280
0
281
1
  3
ACAD_GROUP
350
D
  3
ACAD_MLINESTYLE
350
17
  3
ACAD_LAYOUT
350
1A
  3
ACAD_PLOTSETTINGS
350
19
  3
ACAD_PLOTSTYLENAME
350
E
  0
DICTIONARY
  5
D
102
{ACAD_REACTORS
330
C
102
}
100
AcDbDictionary
280
0
281
1
  0
ACDBDICTIONARYWDFLT
  5
E
102
{ACAD_REACTORS
330
C
102
}
100
AcDbDictionary
281
1
  3
Normal
350
F
100
AcDbDictionaryWithDefault
340
F
  0
DICTIONARY
  5
17
102
{ACAD_REACTORS
330
C
102
}
100
AcDbDictionary
280
0
281
1
  3
Standard
350
18
  0
DICTIONARY
  5
19
102
{ACAD_REACTORS
330
C
102
}
100
AcDbDictionary
281
1
  0
DICTIONARY
  5
1A
102
{ACAD_REACTORS
330
C
102
}
100
AcDbDictionary
281
1
  3
Model
350
25B
  3
Layout1
350
25C
  0
ACDBPLACEHOLDER
  5
F
102
{ACAD_REACTORS
330
E
102
}
  0
MLINESTYLE
  5
18
102
{ACAD_REACTORS
330
17
102
}
100
AcDbMlineStyle
  2
STANDARD
 70
0
  3

 62
256
 51
90.0
 52
90.0
 71
2
 49
0.5
 62
256
  6
BYLAYER
 49
-0.5
 62
256
  6
BYLAYER
  0
LAYOUT
  5
25B
102
{ACAD_REACTORS
330
1A
102
}
100
AcDbPlotSettings
  1

  2
none_device
  4

  6

 40
0.0
 41
0.0
 42
0.0
 43
0.0
 44
210.0
 45
297.0
 46
0.0
 47
0.0
 48
0.0
 49
0.0
140
0.0
141
0.0
142
1.0
143
1.0
 70
1024
 72
1
 73
0
 74
0
  7

 75
0
147
1.0
148
0.0
149
0.0
100
AcDbLayout
  1
Model
 70
0
 71
0
 10
0.0
 20
0.0
 11
210.0
 21
297.0
 12
0.0
 22
0.0
 32
0.0
 14
0.0
 24
0.0
 34
0.0
 15
0.0
 25
0.0
 35
0.0
146
0.0
 13
0.0
 23
0.0
 33
0.0
 16
1.0
 26
0.0
 36
0.0
 17
0.0
 27
1.0
 37
0.0
 76
0
330
210
345
0
346
0
  0
LAYOUT
  5
25C
102
{ACAD_REACTORS
330
1A
102
}
100
AcDbPlotSettings
  1

  2
none_device
  4

  6

 40
0.0
 41
0.0
 42
0.0
 43
0.0
 44
210.0
 45
297.0
 46
0.0
 47
0.0
 48
0.0
 49
0.0
140
0.0
141
0.0
142
1.0
143
1.0
 70
0
 72
1
 73
0
 74
0
  7

 75
0
147
1.0
148
0.0
149
0.0
100
AcDbLayout
  1
Layout1
 70
0
 71
1
 10
0.0
 20
0.0
 11
210.0
 21
297.0
 12
0.0
 22
0.0
 32
0.0
 14
0.0
 24
0.0
 34
0.0
 15
0.0
 25
0.0
 35
0.0
146
0.0
 13
0.0
 23
0.0
 33
0.0
 16
1.0
 26
0.0
 36
0.0
 17
0.0
 27
1.0
 37
0.0
 76
0
330
211
345
0
346
0
  0
ENDSEC
  0
EOF
