999
DXF file: C:\Users\sesa63760\Dev\_Creo\CAD\MCADPP0003262_3D-CAD\drw0001_1.dxf
999
Pro/ENGINEER 2019471 by Parametric Technology Corporation
  0
SECTION
  2
HEADER
  9
$ACADVER
  1
AC1024
  9
$DWGCODEPAGE
  3
ANSI_1252
  9
$EXTMAX
 10
285.2715627744
 20
403.4554959238
 30
0.0
  9
$EXTMIN
 10
0.0
 20
0.0
 30
0.0
  9
$LIMMIN
 10
0.0
 20
0.0
  9
$LIMMAX
 10
285.2715627744
 20
403.4554959238
  9
$VIEWCTR
 10
142.6357813872
 20
201.7277479619
  9
$VIEWSIZE
 40
403.4554959238
  9
$CLAYER
  8
0
  9
$LTSCALE
 40
26.2993212158
  9
$CELTYPE
  6
BYLAYER
  9
$DIMSCALE
 40
1.0
  9
$DIMASZ
 40
3.396090033
  9
$DIMEXO
 40
1.0
  9
$DIMDLI
 40
18.1704401127
  9
$DIMEXE
 40
1.0
  9
$DIMCEN
 40
4.3035252899
  9
$DIMLFAC
 40
1.0
  9
$DIMBLK
  1
_FILLED
  9
$DIMALT
 70
0
  9
$DIMALTF
 40
0.0393700787
  9
$DIMTXT
 40
4.7545260462
  9
$DIMTOL
 70
1
  9
$DIMLIM
 70
0
  9
$DIMTFAC
 40
1.0
  9
$DIMTP
 40
0.01
  9
$DIMTM
 40
0.01
  9
$DIMGAP
 40
0.625
  9
$DIMDSEP
 70
46
  9
$AUNITS
 70
0
  9
$PDMODE
 70
3
  9
$PDSIZE
 40
0.3125
  9
$HANDSEED
  5
372
  9
$TILEMODE
 70
1
  9
$MEASUREMENT
 70
1
  9
$INSUNITS
 70
4
  0
ENDSEC
  0
SECTION
  2
CLASSES
  0
CLASS
  1
ACDBDICTIONARYWDFLT
  2
AcDbDictionaryWithDefault
  3
AutoCAD 2000
 90
0
 91
1
280
0
281
0
  0
CLASS
  1
ACDBPLACEHOLDER
  2
AcDbPlaceHolder
  3
AutoCAD 2000
 90
0
 91
1
280
0
281
0
  0
CLASS
  1
LAYOUT
  2
AcDbLayout
  3
AutoCAD 2000
 90
0
 91
0
280
0
281
0
  0
ENDSEC
  0
SECTION
  2
TABLES
  0
TABLE
  2
VPORT
  5
8
100
AcDbSymbolTable
 70
2
  0
VPORT
  5
1F4
100
AcDbSymbolTableRecord
100
AcDbViewportTableRecord
  2
*ACTIVE
 70
0
 10
0.0
 20
0.0
 11
1.0
 21
1.0
 12
142.6357813872
 22
201.7277479619
 13
0.0
 23
0.0
 14
1.0
 24
1.0
 15
0.0
 25
0.0
 16
0.0
 26
0.0
 36
1.0
 17
0.0
 27
0.0
 37
0.0
 40
403.4554959238
 41
0.7070707071
 42
50.0
 43
0.0
 44
0.0
 50
0.0
 51
0.0
 71
0
 72
100
 73
1
 74
1
 75
0
 76
0
 77
0
 78
0
  0
ENDTAB
  0
TABLE
  2
LTYPE
  5
5
100
AcDbSymbolTable
 70
6
  0
LTYPE
  5
14
100
AcDbSymbolTableRecord
100
AcDbLinetypeTableRecord
  2
BYBLOCK
 70
0
  3

 72
65
 73
0
 40
0.0
  0
LTYPE
  5
15
100
AcDbSymbolTableRecord
100
AcDbLinetypeTableRecord
  2
BYLAYER
 70
0
  3

 72
65
 73
0
 40
0.0
  0
LTYPE
  5
16
100
AcDbSymbolTableRecord
100
AcDbLinetypeTableRecord
  2
CONTINUOUS
 70
64
  3
Solid line
 72
65
 73
0
 40
0.0
  0
LTYPE
  5
1F5
100
AcDbSymbolTableRecord
100
AcDbLinetypeTableRecord
  2
CENTER
 70
64
  3
____ _ ____ _ ____ _ ____ _ ____ _ ____ _ ____
 72
65
 73
4
 40
0.6
 49
0.375
 74
0
 49
-0.075
 74
0
 49
0.075
 74
0
 49
-0.075
 74
0
  0
LTYPE
  5
1F6
100
AcDbSymbolTableRecord
100
AcDbLinetypeTableRecord
  2
HIDDEN
 70
64
  3
- - - - - - - - - - - - - - - - - - - -
 72
65
 73
2
 40
0.2
 49
0.1
 74
0
 49
-0.1
 74
0
  0
LTYPE
  5
1F7
100
AcDbSymbolTableRecord
100
AcDbLinetypeTableRecord
  2
PHANTOM
 70
64
  3
_____ _ _ _____ _ _ _____ _ _ _____
 72
65
 73
6
 40
0.8
 49
0.45
 74
0
 49
-0.05
 74
0
 49
0.1
 74
0
 49
-0.05
 74
0
 49
0.1
 74
0
 49
-0.05
 74
0
  0
LTYPE
  5
1F8
100
AcDbSymbolTableRecord
100
AcDbLinetypeTableRecord
  2
DOT
 70
64
  3
. . . . . . . . . . . . . . . . . . . .
 72
65
 73
2
 40
0.2
 49
0.1
 74
0
 49
-0.1
 74
0
  0
LTYPE
  5
1F9
100
AcDbSymbolTableRecord
100
AcDbLinetypeTableRecord
  2
DASHED
 70
64
  3
- - - - - - - - - - - - - - - - - - - -
 72
65
 73
2
 40
0.2
 49
0.1
 74
0
 49
-0.1
 74
0
  0
ENDTAB
  0
TABLE
  2
LAYER
  5
2
100
AcDbSymbolTable
 70
36
  0
LAYER
  5
10
100
AcDbSymbolTableRecord
100
AcDbLayerTableRecord
  2
0
 70
0
 62
7
  6
CONTINUOUS
370
-3
390
F
  0
LAYER
  5
1FA
100
AcDbSymbolTableRecord
100
AcDbLayerTableRecord
  2
DEFAULT_1
 70
0
 62
7
  6
CENTER
370
-3
390
F
  0
LAYER
  5
1FB
100
AcDbSymbolTableRecord
100
AcDbLayerTableRecord
  2
DEFAULT_2
 70
0
 62
8
  6
HIDDEN
370
-3
390
F
  0
LAYER
  5
1FC
100
AcDbSymbolTableRecord
100
AcDbLayerTableRecord
  2
DEFAULT_3
 70
0
 62
7
  6
PHANTOM
370
-3
390
F
  0
LAYER
  5
1FD
100
AcDbSymbolTableRecord
100
AcDbLayerTableRecord
  2
00_COMPONENTS
 70
0
 62
7
  6
CONTINUOUS
370
-3
390
F
  0
LAYER
  5
1FE
100
AcDbSymbolTableRecord
100
AcDbLayerTableRecord
  2
01_1_DEFAULT_DATUMS
 70
0
 62
7
  6
CONTINUOUS
370
-3
390
F
  0
LAYER
  5
1FF
100
AcDbSymbolTableRecord
100
AcDbLayerTableRecord
  2
01_PLANES
 70
0
 62
7
  6
CONTINUOUS
370
-3
390
F
  0
LAYER
  5
200
100
AcDbSymbolTableRecord
100
AcDbLayerTableRecord
  2
02_COORD_SYS
 70
0
 62
7
  6
CONTINUOUS
370
-3
390
F
  0
LAYER
  5
201
100
AcDbSymbolTableRecord
100
AcDbLayerTableRecord
  2
03_AXES
 70
0
 62
7
  6
CONTINUOUS
370
-3
390
F
  0
LAYER
  5
202
100
AcDbSymbolTableRecord
100
AcDbLayerTableRecord
  2
04_POINTS
 70
0
 62
7
  6
CONTINUOUS
370
-3
390
F
  0
LAYER
  5
203
100
AcDbSymbolTableRecord
100
AcDbLayerTableRecord
  2
05_CURVES
 70
0
 62
7
  6
CONTINUOUS
370
-3
390
F
  0
LAYER
  5
204
100
AcDbSymbolTableRecord
100
AcDbLayerTableRecord
  2
06_SURFS
 70
0
 62
7
  6
CONTINUOUS
370
-3
390
F
  0
LAYER
  5
205
100
AcDbSymbolTableRecord
100
AcDbLayerTableRecord
  2
07_COSMETICS
 70
0
 62
7
  6
CONTINUOUS
370
-3
390
F
  0
LAYER
  5
206
100
AcDbSymbolTableRecord
100
AcDbLayerTableRecord
  2
10_NOTES
 70
0
 62
7
  6
CONTINUOUS
370
-3
390
F
  0
LAYER
  5
207
100
AcDbSymbolTableRecord
100
AcDbLayerTableRecord
  2
11_NOTES_PUB
 70
0
 62
7
  6
CONTINUOUS
370
-3
390
F
  0
LAYER
  5
208
100
AcDbSymbolTableRecord
100
AcDbLayerTableRecord
  2
13_REF_GTOL
 70
0
 62
7
  6
CONTINUOUS
370
-3
390
F
  0
LAYER
  5
209
100
AcDbSymbolTableRecord
100
AcDbLayerTableRecord
  2
16_MISC
 70
0
 62
7
  6
CONTINUOUS
370
-3
390
F
  0
LAYER
  5
20A
100
AcDbSymbolTableRecord
100
AcDbLayerTableRecord
  2
17_NO_PRINT
 70
0
 62
7
  6
CONTINUOUS
370
-3
390
F
  0
LAYER
  5
20B
100
AcDbSymbolTableRecord
100
AcDbLayerTableRecord
  2
18_DATUM_CAMS_JOINTS
 70
0
 62
7
  6
CONTINUOUS
370
-3
390
F
  0
LAYER
  5
20C
100
AcDbSymbolTableRecord
100
AcDbLayerTableRecord
  2
19_DATUM_FUNCTIONAL
 70
0
 62
7
  6
CONTINUOUS
370
-3
390
F
  0
LAYER
  5
20D
100
AcDbSymbolTableRecord
100
AcDbLayerTableRecord
  2
20_DATUM_KINEMATIC_SCHEME
 70
0
 62
7
  6
CONTINUOUS
370
-3
390
F
  0
ENDTAB
  0
TABLE
  2
STYLE
  5
3
100
AcDbSymbolTable
 70
1
  0
STYLE
  5
11
100
AcDbSymbolTableRecord
100
AcDbTextStyleTableRecord
  2
STANDARD
 70
0
 40
0.0
 41
0.8
 50
0.0
 71
0
 42
0.2
  3
txt
  4

  0
STYLE
  5
20E
100
AcDbSymbolTableRecord
100
AcDbTextStyleTableRecord
  2
TEXTSTYLE_1
 70
0
 40
0.0
 41
0.8
 50
0.0
 71
0
 42
0.2
  3
gdt
  4

  0
ENDTAB
  0
TABLE
  2
VIEW
  5
6
100
AcDbSymbolTable
 70
0
  0
ENDTAB
  0
TABLE
  2
UCS
  5
7
100
AcDbSymbolTable
 70
0
  0
ENDTAB
  0
TABLE
  2
APPID
  5
9
100
AcDbSymbolTable
 70
1
  0
APPID
  5
20F
100
AcDbSymbolTableRecord
100
AcDbRegAppTableRecord
  2
ACAD
 70
0
  0
ENDTAB
  0
TABLE
  2
BLOCK_RECORD
  5
1
100
AcDbSymbolTable
 70
0
  0
BLOCK_RECORD
  5
210
100
AcDbSymbolTableRecord
100
AcDbBlockTableRecord
  2
*Model_Space
  0
BLOCK_RECORD
  5
211
100
AcDbSymbolTableRecord
100
AcDbBlockTableRecord
  2
*Paper_Space
  0
BLOCK_RECORD
  5
212
100
AcDbSymbolTableRecord
100
AcDbBlockTableRecord
  2
_FILLED
  0
ENDTAB
  0
TABLE
  2
DIMSTYLE
  5
A
100
AcDbSymbolTable
 70
1
100
AcDbDimStyleTable
 71
0
  0
DIMSTYLE
105
213
100
AcDbSymbolTableRecord
100
AcDbDimStyleTableRecord
  2
STANDARD
 70
0
  3

  4

 40
1.0
 41
3.396090033
 42
1.0
 43
0.38
 44
1.0
 45
0.0
 46
0.0
 47
0.01
 48
0.01
140
4.7545260462
141
0.09
142
0.0
143
25.4
144
1.0
145
0.0
146
1.0
147
0.625
 71
1
 72
0
 73
0
 74
0
 75
0
 76
0
 77
1
 78
8
 79
2
170
0
171
1
172
0
173
0
174
0
175
0
176
0
177
0
178
0
270
2
179
2
271
2
272
2
273
2
274
2
275
0
280
0
281
0
282
0
283
1
284
8
285
0
286
0
287
3
288
0
340
11
278
46
341
212
342
212
343
212
344
212
  0
ENDTAB
  0
ENDSEC
  0
SECTION
  2
BLOCKS
  0
BLOCK
  5
20
100
AcDbEntity
  8
0
100
AcDbBlockBegin
  2
*Model_Space
 70
0
 10
0.0
 20
0.0
 30
0.0
  3
*Model_Space
  1

  0
ENDBLK
  5
21
100
AcDbEntity
  8
0
100
AcDbBlockEnd
  0
BLOCK
  5
1C
100
AcDbEntity
  8
0
100
AcDbBlockBegin
  2
*Paper_Space
 70
0
 10
0.0
 20
0.0
 30
0.0
  3
*Paper_Space
  1

  0
ENDBLK
  5
1D
100
AcDbEntity
  8
0
100
AcDbBlockEnd
  0
BLOCK
  5
214
100
AcDbEntity
  8
0
100
AcDbBlockBegin
  2
_FILLED
 70
64
 10
0.0
 20
0.0
  3
_FILLED
  1

  0
SOLID
  5
215
100
AcDbEntity
  8
0
  6
BYBLOCK
 62
0
100
AcDbTrace
 10
0.0
 20
0.0
 11
-1.0
 21
0.25
 12
-1.0
 22
-0.25
 13
-1.0
 23
-0.25
  0
ENDBLK
  5
216
100
AcDbEntity
  8
0
  6
BYBLOCK
 62
0
100
AcDbBlockEnd
  0
ENDSEC
  0
SECTION
  2
ENTITIES
  0
LINE
  5
217
100
AcDbEntity
  8
0
100
AcDbLine
 62
7
  6
CONTINUOUS
 10
33.0947834091
 20
275.7816754967
 11
33.0947834091
 21
270.0808556203
  0
LINE
  5
218
100
AcDbEntity
  8
0
100
AcDbLine
 62
7
  6
CONTINUOUS
 10
33.0947834091
 20
258.674316853
 11
33.0947834091
 21
254.0896557808
  0
LINE
  5
219
100
AcDbEntity
  8
0
100
AcDbLine
 62
7
  6
CONTINUOUS
 10
33.0947834091
 20
247.4596561537
 11
33.0947834091
 21
242.2869430971
  0
LINE
  5
21A
100
AcDbEntity
  8
0
100
AcDbLine
 62
7
  6
CONTINUOUS
 10
33.0947834091
 20
232.0565082986
 11
33.0947834091
 21
226.883795242
  0
LINE
  5
21B
100
AcDbEntity
  8
0
100
AcDbLine
 62
7
  6
CONTINUOUS
 10
33.0947834091
 20
220.2513461077
 11
33.0947834091
 21
215.6666850355
  0
LINE
  5
21C
100
AcDbEntity
  8
0
100
AcDbLine
 62
7
  6
CONTINUOUS
 10
33.0947834091
 20
204.2601462682
 11
33.0947834091
 21
198.4099064495
  0
LINE
  5
21D
100
AcDbEntity
  8
0
100
AcDbLine
 62
7
  6
CONTINUOUS
 10
33.0947834091
 20
275.7816754967
 11
85.9380330573
 21
306.2905577925
  0
LINE
  5
21E
100
AcDbEntity
  8
0
100
AcDbLine
 62
7
  6
CONTINUOUS
 10
33.0947834091
 20
258.674316853
 11
34.6875870578
 21
259.593916979
  0
LINE
  5
21F
100
AcDbEntity
  8
0
100
AcDbLine
 62
7
  6
CONTINUOUS
 10
37.126995778
 20
258.3983628714
 11
44.3760763108
 21
262.5835964859
  0
LINE
  5
220
100
AcDbEntity
  8
0
100
AcDbLine
 62
7
  6
CONTINUOUS
 10
46.2357459987
 20
232.1916469654
 11
46.2357459987
 21
226.9782711245
  0
LINE
  5
221
100
AcDbEntity
  8
0
100
AcDbLine
 62
7
  6
CONTINUOUS
 10
48.5380598063
 20
260.0406987281
 11
48.5380598063
 21
251.090586026
  0
LINE
  5
222
100
AcDbEntity
  8
0
100
AcDbLine
 62
7
  6
CONTINUOUS
 10
48.5380598063
 20
243.9330306121
 11
48.5380598063
 21
239.7851983331
  0
LINE
  5
223
100
AcDbEntity
  8
0
100
AcDbLine
 62
7
  6
CONTINUOUS
 10
48.5380598063
 20
216.6205881751
 11
48.5380598063
 21
212.5768882871
  0
LINE
  5
224
100
AcDbEntity
  8
0
100
AcDbLine
 62
7
  6
CONTINUOUS
 10
48.5380598063
 20
205.4034779685
 11
48.5380598063
 21
196.6913971777
  0
LINE
  5
225
100
AcDbEntity
  8
0
100
AcDbLine
 62
7
  6
CONTINUOUS
 10
50.1555585456
 20
261.1440643632
 11
50.1537597052
 21
188.4264606588
  0
LINE
  5
226
100
AcDbEntity
  8
0
100
AcDbLine
 62
7
  6
CONTINUOUS
 10
50.9119685394
 20
187.9495853502
 11
50.8383940034
 21
186.3510984978
  0
LINE
  5
227
100
AcDbEntity
  8
0
100
AcDbLine
 62
7
  6
CONTINUOUS
 10
33.0947834091
 20
247.4596561537
 11
38.4631182039
 21
250.5590471917
  0
LINE
  5
228
100
AcDbEntity
  8
0
100
AcDbLine
 62
7
  6
CONTINUOUS
 10
69.7683345274
 20
263.8923023665
 11
122.9316267428
 21
294.5859602216
  0
LINE
  5
229
100
AcDbEntity
  8
0
100
AcDbLine
 62
7
  6
CONTINUOUS
 10
48.3663242661
 20
251.1897353433
 11
48.5380598063
 21
251.2888863119
  0
LINE
  5
22A
100
AcDbEntity
  8
0
100
AcDbLine
 62
7
  6
CONTINUOUS
 10
249.3129258634
 20
116.5488189947
 11
238.6864860826
 21
115.4670107334
  0
LINE
  5
22B
100
AcDbEntity
  8
0
100
AcDbLine
 62
7
  6
CONTINUOUS
 10
249.3129258637
 20
118.1664735836
 11
240.6375857705
 21
117.2832940073
  0
LINE
  5
22C
100
AcDbEntity
  8
0
100
AcDbLine
 62
7
  6
CONTINUOUS
 10
57.1985805104
 20
257.504077521
 11
57.1961611699
 21
192.4928880663
  0
LINE
  5
22D
100
AcDbEntity
  8
0
100
AcDbLine
 62
7
  6
CONTINUOUS
 10
78.5407254443
 20
258.8276746864
 11
131.7805725179
 21
289.5655312457
  0
LINE
  5
22E
100
AcDbEntity
  8
0
100
AcDbLine
 62
7
  6
CONTINUOUS
 10
33.0947834091
 20
232.0565082986
 11
34.5504817092
 21
232.8969510873
  0
LINE
  5
22F
100
AcDbEntity
  8
0
100
AcDbLine
 62
7
  6
CONTINUOUS
 10
35.7888714619
 20
232.4829564677
 11
37.244569762
 21
233.3233992564
  0
LINE
  5
230
100
AcDbEntity
  8
0
100
AcDbLine
 62
7
  6
CONTINUOUS
 10
235.4721073144
 20
126.6095975954
 11
235.7729317603
 21
126.6402225627
  0
LINE
  5
231
100
AcDbEntity
  8
0
100
AcDbLine
 62
7
  6
CONTINUOUS
 10
212.5087867734
 20
128.5637932159
 11
238.6864860826
 21
131.2287733937
  0
LINE
  5
232
100
AcDbEntity
  8
0
100
AcDbLine
 62
7
  6
CONTINUOUS
 10
65.6668594356
 20
180.7457377279
 11
65.6668594356
 21
180.2037444269
  0
LINE
  5
233
100
AcDbEntity
  8
0
100
AcDbLine
 62
7
  6
CONTINUOUS
 10
38.9810665636
 20
232.4084013344
 11
42.5802631879
 21
234.4863860704
  0
LINE
  5
234
100
AcDbEntity
  8
0
100
AcDbLine
 62
7
  6
CONTINUOUS
 10
77.4499076767
 20
248.4625261527
 11
133.86101817
 21
281.0313686743
  0
LINE
  5
235
100
AcDbEntity
  8
0
100
AcDbLine
 62
7
  6
CONTINUOUS
 10
33.0947834091
 20
220.2513461077
 11
38.4352580652
 21
223.3346521831
  0
LINE
  5
236
100
AcDbEntity
  8
0
100
AcDbLine
 62
7
  6
CONTINUOUS
 10
78.5407254443
 20
246.4739931152
 11
80.8128320426
 21
247.785786641
  0
LINE
  5
237
100
AcDbEntity
  8
0
100
AcDbLine
 62
7
  6
CONTINUOUS
 10
240.6375857705
 20
133.0450566676
 11
212.5087867733
 21
130.1814478048
  0
LINE
  5
238
100
AcDbEntity
  8
0
100
AcDbLine
 62
7
  6
CONTINUOUS
 10
42.1883011796
 20
191.4826373026
 11
33.0947834091
 21
198.4099064495
  0
LINE
  5
239
100
AcDbEntity
  8
0
100
AcDbLine
 62
7
  6
CONTINUOUS
 10
84.9525856884
 20
175.2979317528
 11
84.9753538979
 21
173.4467825784
  0
LINE
  5
23A
100
AcDbEntity
  8
0
100
AcDbLine
 62
7
  6
CONTINUOUS
 10
78.5407254443
 20
246.4739931152
 11
78.5407254443
 21
258.8276746864
  0
LINE
  5
23B
100
AcDbEntity
  8
0
100
AcDbLine
 62
7
  6
CONTINUOUS
 10
80.8128320426
 20
250.4041669533
 11
80.8128320426
 21
246.5209847884
  0
LINE
  5
23C
100
AcDbEntity
  8
0
100
AcDbLine
 62
7
  6
CONTINUOUS
 10
84.9753531246
 20
175.3110750688
 11
84.9753057152
 21
173.4469021106
  0
LINE
  5
23D
100
AcDbEntity
  8
0
100
AcDbLine
 62
7
  6
CONTINUOUS
 10
77.3574665817
 20
240.8700638715
 11
77.4499076767
 21
248.4625261527
  0
LINE
  5
23E
100
AcDbEntity
  8
0
100
AcDbLine
 62
7
  6
CONTINUOUS
 10
83.9466462346
 20
188.0755249064
 11
84.5389588273
 21
236.7239211886
  0
LINE
  5
23F
100
AcDbEntity
  8
0
100
AcDbLine
 62
7
  6
CONTINUOUS
 10
233.2696755159
 20
142.1471450939
 11
237.7192837821
 21
142.6001305793
  0
LINE
  5
240
100
AcDbEntity
  8
0
100
AcDbLine
 62
7
  6
CONTINUOUS
 10
245.9949147627
 20
133.8729493246
 11
248.2038763445
 21
133.8729546342
  0
LINE
  5
241
100
AcDbEntity
  8
0
100
AcDbLine
 62
7
  6
CONTINUOUS
 10
247.3419383758
 20
134.1216737281
 11
249.5508999576
 21
134.1216790377
  0
LINE
  5
242
100
AcDbEntity
  8
0
100
AcDbLine
 62
7
  6
CONTINUOUS
 10
249.5508999576
 20
135.9259860791
 11
247.3419383758
 21
135.9259807694
  0
LINE
  5
243
100
AcDbEntity
  8
0
100
AcDbLine
 62
7
  6
CONTINUOUS
 10
42.1883011796
 20
191.4826373026
 11
48.5380598063
 21
187.8166853851
  0
LINE
  5
244
100
AcDbEntity
  8
0
100
AcDbLine
 62
7
  6
CONTINUOUS
 10
50.1537597052
 20
188.4264606588
 11
50.9119685394
 21
187.9495853502
  0
LINE
  5
245
100
AcDbEntity
  8
0
100
AcDbLine
 62
7
  6
CONTINUOUS
 10
50.8383940034
 20
186.3510984978
 11
48.5380598062
 21
187.8166853852
  0
LINE
  5
246
100
AcDbEntity
  8
0
100
AcDbLine
 62
7
  6
CONTINUOUS
 10
35.7888714619
 20
238.7497003785
 11
33.0947834091
 21
242.2869430971
  0
LINE
  5
247
100
AcDbEntity
  8
0
100
AcDbLine
 62
7
  6
CONTINUOUS
 10
85.8312999296
 20
186.9959945953
 11
85.8312999296
 21
235.9778045847
  0
LINE
  5
248
100
AcDbEntity
  8
0
100
AcDbLine
 62
7
  6
CONTINUOUS
 10
33.0947834091
 20
204.2601462682
 11
34.668953584
 21
205.1689884174
  0
LINE
  5
249
100
AcDbEntity
  8
0
100
AcDbLine
 62
7
  6
CONTINUOUS
 10
44.2284457592
 20
208.2675373952
 11
36.9366014937
 21
204.0576142755
  0
LINE
  5
24A
100
AcDbEntity
  8
0
100
AcDbLine
 62
7
  6
CONTINUOUS
 10
235.711515327
 20
126.9583528854
 11
235.7753792974
 21
126.9472923397
  0
LINE
  5
24B
100
AcDbEntity
  8
0
100
AcDbLine
 62
7
  6
CONTINUOUS
 10
235.7753792974
 20
128.5649469285
 11
235.711515327
 21
128.5760074742
  0
LINE
  5
24C
100
AcDbEntity
  8
0
100
AcDbLine
 62
7
  6
CONTINUOUS
 10
193.8864276592
 20
111.6874885182
 11
203.9868952887
 21
106.4118796324
  0
LINE
  5
24D
100
AcDbEntity
  8
0
100
AcDbLine
 62
7
  6
CONTINUOUS
 10
197.5367442882
 20
112.41778814
 11
196.2843581919
 21
113.0719260928
  0
LINE
  5
24E
100
AcDbEntity
  8
0
100
AcDbLine
 62
7
  6
CONTINUOUS
 10
65.6668594356
 20
180.2037444269
 11
97.051202617
 21
162.0843873289
  0
LINE
  5
24F
100
AcDbEntity
  8
0
100
AcDbLine
 62
7
  6
CONTINUOUS
 10
188.8488355984
 20
117.433641087
 11
203.9868952887
 21
108.6938759697
  0
LINE
  5
250
100
AcDbEntity
  8
0
100
AcDbLine
 62
7
  6
CONTINUOUS
 10
57.1966108809
 20
192.4926284092
 11
84.9753800742
 21
175.3110595098
  0
LINE
  5
251
100
AcDbEntity
  8
0
100
AcDbLine
 62
7
  6
CONTINUOUS
 10
208.7031552378
 20
98.1495763154
 11
193.8864276592
 21
107.9512158165
  0
LINE
  5
252
100
AcDbEntity
  8
0
100
AcDbLine
 62
7
  6
CONTINUOUS
 10
48.5380598063
 20
205.4034779685
 11
33.0947834091
 21
215.6666850355
  0
LINE
  5
253
100
AcDbEntity
  8
0
100
AcDbLine
 62
7
  6
CONTINUOUS
 10
97.051202617
 20
162.0843873289
 11
97.051202617
 21
180.5097769115
  0
LINE
  5
254
100
AcDbEntity
  8
0
100
AcDbLine
 62
7
  6
CONTINUOUS
 10
154.773685323
 20
264.8503450411
 11
114.0567850738
 21
241.3425720441
  0
LINE
  5
255
100
AcDbEntity
  8
0
100
AcDbLine
 62
7
  6
CONTINUOUS
 10
151.1541211998
 20
260.3174535994
 11
141.2583324193
 21
254.604151387
  0
LINE
  5
256
100
AcDbEntity
  8
0
100
AcDbLine
 62
7
  6
CONTINUOUS
 10
151.1541211998
 20
255.1326632506
 11
145.7485567662
 21
252.0117777989
  0
LINE
  5
257
100
AcDbEntity
  8
0
100
AcDbLine
 62
7
  6
CONTINUOUS
 10
50.9119685394
 20
187.9495853502
 11
84.9525856884
 21
175.2979317528
  0
LINE
  5
258
100
AcDbEntity
  8
0
100
AcDbLine
 62
7
  6
CONTINUOUS
 10
50.8383940034
 20
186.3510984978
 11
84.9754111503
 21
173.4468436651
  0
LINE
  5
259
100
AcDbEntity
  8
0
100
AcDbLine
 62
7
  6
CONTINUOUS
 10
33.0947834091
 20
204.2601462682
 11
48.5380598063
 21
196.6913971778
  0
LINE
  5
25A
100
AcDbEntity
  8
0
100
AcDbLine
 62
7
  6
CONTINUOUS
 10
48.5380598063
 20
198.3717400612
 11
34.668953584
 21
205.1689884174
  0
LINE
  5
25B
100
AcDbEntity
  8
0
100
AcDbLine
 62
7
  6
CONTINUOUS
 10
83.9466462346
 20
188.0755249064
 11
119.248881859
 21
167.6942307522
  0
LINE
  5
25C
100
AcDbEntity
  8
0
100
AcDbLine
 62
7
  6
CONTINUOUS
 10
145.7462628014
 20
152.3963068175
 11
147.2042948745
 21
151.5545306512
  0
LINE
  5
25D
100
AcDbEntity
  8
0
100
AcDbLine
 62
7
  6
CONTINUOUS
 10
156.1890303378
 20
146.3673085634
 11
166.0517182626
 21
140.6732118528
  0
LINE
  5
25E
100
AcDbEntity
  8
0
100
AcDbLine
 62
7
  6
CONTINUOUS
 10
178.411456339
 20
133.5374751792
 11
179.8694884122
 21
132.6956990128
  0
LINE
  5
25F
100
AcDbEntity
  8
0
100
AcDbLine
 62
7
  6
CONTINUOUS
 10
166.0517182626
 20
141.2201439347
 11
178.411456339
 21
134.0844072611
  0
LINE
  5
260
100
AcDbEntity
  8
0
100
AcDbLine
 62
7
  6
CONTINUOUS
 10
147.2042948745
 20
152.35379292
 11
156.1890303378
 21
147.1665708323
  0
LINE
  5
261
100
AcDbEntity
  8
0
100
AcDbLine
 62
7
  6
CONTINUOUS
 10
48.5380598063
 20
216.6205881751
 11
33.0947834091
 21
226.883795242
  0
LINE
  5
262
100
AcDbEntity
  8
0
100
AcDbLine
 62
7
  6
CONTINUOUS
 10
114.0567850738
 20
238.0112421822
 11
114.0567850738
 21
241.3425720441
  0
LINE
  5
263
100
AcDbEntity
  8
0
100
AcDbLine
 62
7
  6
CONTINUOUS
 10
50.1537597052
 20
188.4264606588
 11
57.1966108809
 21
192.4926284092
  0
LINE
  5
264
100
AcDbEntity
  8
0
100
AcDbLine
 62
7
  6
CONTINUOUS
 10
165.9192731773
 20
250.7030857039
 11
174.2937152073
 21
255.5380432034
  0
LINE
  5
265
100
AcDbEntity
  8
0
100
AcDbLine
 62
7
  6
CONTINUOUS
 10
167.6285324957
 20
249.1331477493
 11
175.9992144745
 21
253.9659343952
  0
LINE
  5
266
100
AcDbEntity
  8
0
100
AcDbLine
 62
7
  6
CONTINUOUS
 10
122.2046943652
 20
167.958277764
 11
119.248881859
 21
167.6942307522
  0
LINE
  5
267
100
AcDbEntity
  8
0
100
AcDbLine
 62
7
  6
CONTINUOUS
 10
33.0947834091
 20
220.2513461077
 11
48.5380598063
 21
212.576888287
  0
LINE
  5
268
100
AcDbEntity
  8
0
100
AcDbLine
 62
7
  6
CONTINUOUS
 10
220.3525394477
 20
126.9467050596
 11
230.5058635057
 21
121.6434885566
  0
LINE
  5
269
100
AcDbEntity
  8
0
100
AcDbLine
 62
7
  6
CONTINUOUS
 10
230.5058635057
 20
123.7276976757
 11
222.247860573
 21
128.0409626896
  0
LINE
  5
26A
100
AcDbEntity
  8
0
100
AcDbLine
 62
7
  6
CONTINUOUS
 10
120.4933033586
 20
172.2830456292
 11
145.7462628014
 21
157.7035725289
  0
LINE
  5
26B
100
AcDbEntity
  8
0
100
AcDbLine
 62
7
  6
CONTINUOUS
 10
181.2998490965
 20
141.8684899645
 11
182.5726466018
 21
141.1336566064
  0
LINE
  5
26C
100
AcDbEntity
  8
0
100
AcDbLine
 62
7
  6
CONTINUOUS
 10
208.7031552378
 20
129.6097283969
 11
191.6136346237
 21
139.4761445156
  0
LINE
  5
26D
100
AcDbEntity
  8
0
100
AcDbLine
 62
7
  6
CONTINUOUS
 10
212.5087867733
 20
128.563793216
 11
211.1010857706
 21
129.3765113827
  0
LINE
  5
26E
100
AcDbEntity
  8
0
100
AcDbLine
 62
7
  6
CONTINUOUS
 10
120.4933033586
 20
171.4837833603
 11
122.2046943652
 21
169.2312573807
  0
LINE
  5
26F
100
AcDbEntity
  8
0
100
AcDbLine
 62
7
  6
CONTINUOUS
 10
120.4933033586
 20
171.4837833603
 11
120.4933033586
 21
172.2830456292
  0
LINE
  5
270
100
AcDbEntity
  8
0
100
AcDbLine
 62
7
  6
CONTINUOUS
 10
122.2046943652
 20
167.958277764
 11
122.2046943652
 21
169.2312573807
  0
LINE
  5
271
100
AcDbEntity
  8
0
100
AcDbLine
 62
7
  6
CONTINUOUS
 10
167.6285324957
 20
243.6028578841
 11
176.1564515258
 21
248.526424842
  0
LINE
  5
272
100
AcDbEntity
  8
0
100
AcDbLine
 62
7
  6
CONTINUOUS
 10
166.841922801
 20
239.8337927434
 11
176.7377115815
 21
245.5470949558
  0
LINE
  5
273
100
AcDbEntity
  8
0
100
AcDbLine
 62
7
  6
CONTINUOUS
 10
35.7888714619
 20
232.4829564677
 11
46.2357459987
 21
226.9782711245
  0
LINE
  5
274
100
AcDbEntity
  8
0
100
AcDbLine
 62
7
  6
CONTINUOUS
 10
46.2357459987
 20
228.5857529991
 11
37.244569762
 21
233.3233992564
  0
LINE
  5
275
100
AcDbEntity
  8
0
100
AcDbLine
 62
7
  6
CONTINUOUS
 10
212.5087867733
 20
130.1814478048
 11
211.1010857706
 21
130.9941659715
  0
LINE
  5
276
100
AcDbEntity
  8
0
100
AcDbLine
 62
7
  6
CONTINUOUS
 10
230.5058635057
 20
123.9215303004
 11
220.972599131
 21
129.4254385383
  0
LINE
  5
277
100
AcDbEntity
  8
0
100
AcDbLine
 62
7
  6
CONTINUOUS
 10
246.2462310836
 20
114.9380623025
 11
245.5277956441
 21
115.3528628879
  0
LINE
  5
278
100
AcDbEntity
  8
0
100
AcDbLine
 62
7
  6
CONTINUOUS
 10
215.6707022932
 20
136.7493862396
 11
221.2020917056
 21
133.5559093194
  0
LINE
  5
279
100
AcDbEntity
  8
0
100
AcDbLine
 62
7
  6
CONTINUOUS
 10
46.2357459987
 20
232.1916469654
 11
35.7888714619
 21
238.7497003785
  0
LINE
  5
27A
100
AcDbEntity
  8
0
100
AcDbLine
 62
7
  6
CONTINUOUS
 10
235.0879345247
 20
113.4950254763
 11
220.3525394477
 21
123.2019736125
  0
LINE
  5
27B
100
AcDbEntity
  8
0
100
AcDbLine
 62
7
  6
CONTINUOUS
 10
131.7805725179
 20
279.8302299869
 11
131.7805725179
 21
289.5655312457
  0
LINE
  5
27C
100
AcDbEntity
  8
0
100
AcDbLine
 62
7
  6
CONTINUOUS
 10
33.0947834091
 20
247.4596561537
 11
48.5380598063
 21
239.7851983331
  0
LINE
  5
27D
100
AcDbEntity
  8
0
100
AcDbLine
 62
7
  6
CONTINUOUS
 10
183.5842946624
 20
159.0969824247
 11
188.1805078759
 21
156.4434175203
  0
LINE
  5
27E
100
AcDbEntity
  8
0
100
AcDbLine
 62
7
  6
CONTINUOUS
 10
200.3916527013
 20
152.891082119
 11
201.6644502066
 21
152.1562487609
  0
LINE
  5
27F
100
AcDbEntity
  8
0
100
AcDbLine
 62
7
  6
CONTINUOUS
 10
228.816859387
 20
137.9522712473
 11
224.6864199707
 21
140.336927608
  0
LINE
  5
280
100
AcDbEntity
  8
0
100
AcDbLine
 62
7
  6
CONTINUOUS
 10
230.2178093832
 20
138.7611052767
 11
224.6864199707
 21
141.9545821969
  0
LINE
  5
281
100
AcDbEntity
  8
0
100
AcDbLine
 62
7
  6
CONTINUOUS
 10
254.0437896472
 20
126.8292600585
 11
251.1856370009
 21
128.4793779276
  0
LINE
  5
282
100
AcDbEntity
  8
0
100
AcDbLine
 62
7
  6
CONTINUOUS
 10
48.5380598063
 20
243.9330306121
 11
33.0947834091
 21
254.0896557808
  0
LINE
  5
283
100
AcDbEntity
  8
0
100
AcDbLine
 62
7
  6
CONTINUOUS
 10
145.7462628014
 20
157.7035725289
 11
145.7462628014
 21
152.3963068175
  0
LINE
  5
284
100
AcDbEntity
  8
0
100
AcDbLine
 62
7
  6
CONTINUOUS
 10
162.1685963918
 20
242.531877965
 11
165.9192731773
 21
250.7030857039
  0
LINE
  5
285
100
AcDbEntity
  8
0
100
AcDbLine
 62
7
  6
CONTINUOUS
 10
158.1951225279
 20
215.8598675292
 11
198.9120227771
 21
239.3676405261
  0
LINE
  5
286
100
AcDbEntity
  8
0
100
AcDbLine
 62
7
  6
CONTINUOUS
 10
158.1951225279
 20
212.5285376673
 11
198.9120227771
 21
236.0363106643
  0
LINE
  5
287
100
AcDbEntity
  8
0
100
AcDbLine
 62
7
  6
CONTINUOUS
 10
153.2398135375
 20
208.5893756676
 11
206.2879996649
 21
239.2165773886
  0
LINE
  5
288
100
AcDbEntity
  8
0
100
AcDbLine
 62
7
  6
CONTINUOUS
 10
84.9525856884
 20
175.2979317528
 11
84.9753531246
 21
175.3110750688
  0
LINE
  5
289
100
AcDbEntity
  8
0
100
AcDbLine
 62
7
  6
CONTINUOUS
 10
252.7222035871
 20
131.0154464322
 11
251.3751707773
 21
131.7931385939
  0
LINE
  5
28A
100
AcDbEntity
  8
0
100
AcDbLine
 62
7
  6
CONTINUOUS
 10
247.3419383758
 20
134.1216737281
 11
245.9949073609
 21
134.8993648534
  0
LINE
  5
28B
100
AcDbEntity
  8
0
100
AcDbLine
 62
7
  6
CONTINUOUS
 10
251.3751707773
 20
132.0420483605
 11
248.2038763445
 21
133.8729546343
  0
LINE
  5
28C
100
AcDbEntity
  8
0
100
AcDbLine
 62
7
  6
CONTINUOUS
 10
242.8236111332
 20
136.9791819301
 11
245.9949055659
 21
135.1482756563
  0
LINE
  5
28D
100
AcDbEntity
  8
0
100
AcDbLine
 62
7
  6
CONTINUOUS
 10
252.7222035872
 20
132.8197534736
 11
249.5509091544
 21
134.6506597474
  0
LINE
  5
28E
100
AcDbEntity
  8
0
100
AcDbLine
 62
7
  6
CONTINUOUS
 10
244.170643943
 20
137.7568870432
 11
247.3419383758
 21
135.9259807694
  0
LINE
  5
28F
100
AcDbEntity
  8
0
100
AcDbLine
 62
7
  6
CONTINUOUS
 10
48.3663242661
 20
251.1897353433
 11
48.5380598063
 21
251.090586026
  0
LINE
  5
290
100
AcDbEntity
  8
0
100
AcDbLine
 62
7
  6
CONTINUOUS
 10
218.0569138846
 20
154.7474968969
 11
221.4011186848
 21
152.8167630344
  0
LINE
  5
291
100
AcDbEntity
  8
0
100
AcDbLine
 62
7
  6
CONTINUOUS
 10
235.0779384635
 20
144.920626088
 11
235.0879345247
 21
144.9148549899
  0
LINE
  5
292
100
AcDbEntity
  8
0
100
AcDbLine
 62
7
  6
CONTINUOUS
 10
196.5709132855
 20
168.0538186834
 11
201.1671264989
 21
165.400253779
  0
LINE
  5
293
100
AcDbEntity
  8
0
100
AcDbLine
 62
7
  6
CONTINUOUS
 10
183.5842946624
 20
176.4840337314
 11
188.1805078759
 21
173.830468827
  0
LINE
  5
294
100
AcDbEntity
  8
0
100
AcDbLine
 62
7
  6
CONTINUOUS
 10
223.29643981
 20
153.9110206644
 11
236.98325565
 21
146.0091126199
  0
LINE
  5
295
100
AcDbEntity
  8
0
100
AcDbLine
 62
7
  6
CONTINUOUS
 10
77.3574665817
 20
240.8700638715
 11
172.5863188889
 21
185.8909041521
  0
LINE
  5
296
100
AcDbEntity
  8
0
100
AcDbLine
 62
7
  6
CONTINUOUS
 10
181.2998490965
 20
181.186639563
 11
182.5726466018
 21
180.4518062049
  0
LINE
  5
297
100
AcDbEntity
  8
0
100
AcDbLine
 62
7
  6
CONTINUOUS
 10
202.5894267747
 20
170.2053714067
 11
207.1856399881
 21
167.5518065023
  0
LINE
  5
298
100
AcDbEntity
  8
0
100
AcDbLine
 62
7
  6
CONTINUOUS
 10
45.981237224
 20
261.5168475393
 11
33.0947834091
 21
270.0808556203
  0
LINE
  5
299
100
AcDbEntity
  8
0
100
AcDbLine
 62
7
  6
CONTINUOUS
 10
147.2042948745
 20
151.5545306512
 11
147.2042948745
 21
152.35379292
  0
LINE
  5
29A
100
AcDbEntity
  8
0
100
AcDbLine
 62
7
  6
CONTINUOUS
 10
151.1541211998
 20
260.3174535994
 11
151.1541211998
 21
255.1326632506
  0
LINE
  5
29B
100
AcDbEntity
  8
0
100
AcDbLine
 62
7
  6
CONTINUOUS
 10
153.2398135375
 20
204.7061935027
 11
153.2398135375
 21
208.5893756676
  0
LINE
  5
29C
100
AcDbEntity
  8
0
100
AcDbLine
 62
7
  6
CONTINUOUS
 10
156.1890303378
 20
147.1665708323
 11
156.1890303378
 21
146.3673085634
  0
LINE
  5
29D
100
AcDbEntity
  8
0
100
AcDbLine
 62
7
  6
CONTINUOUS
 10
167.6285324957
 20
243.6028578841
 11
166.4455972548
 21
240.0626062277
  0
LINE
  5
29E
100
AcDbEntity
  8
0
100
AcDbLine
 62
7
  6
CONTINUOUS
 10
153.2398135375
 20
204.7061935027
 11
206.3173472169
 21
235.3503389395
  0
LINE
  5
29F
100
AcDbEntity
  8
0
100
AcDbLine
 62
7
  6
CONTINUOUS
 10
97.051202617
 20
162.0843873289
 11
113.00828619
 21
171.2971588324
  0
LINE
  5
2A0
100
AcDbEntity
  8
0
100
AcDbLine
 62
7
  6
CONTINUOUS
 10
33.0947834091
 20
258.674316853
 11
48.3663242661
 21
251.1897353433
  0
LINE
  5
2A1
100
AcDbEntity
  8
0
100
AcDbLine
 62
7
  6
CONTINUOUS
 10
48.5380598063
 20
252.8058008875
 11
34.6875870578
 21
259.593916979
  0
LINE
  5
2A2
100
AcDbEntity
  8
0
100
AcDbLine
 62
7
  6
CONTINUOUS
 10
78.5407254443
 20
246.4739931152
 11
50.1555585456
 21
261.1440643632
  0
LINE
  5
2A3
100
AcDbEntity
  8
0
100
AcDbLine
 62
7
  6
CONTINUOUS
 10
45.981237224
 20
261.5168475393
 11
48.5380598063
 21
260.0406987281
  0
LINE
  5
2A4
100
AcDbEntity
  8
0
100
AcDbLine
 62
7
  6
CONTINUOUS
 10
185.8191952746
 20
184.9575879113
 11
187.0919927799
 21
184.2227545532
  0
LINE
  5
2A5
100
AcDbEntity
  8
0
100
AcDbLine
 62
7
  6
CONTINUOUS
 10
172.5863188889
 20
193.5367361171
 11
153.2398135375
 21
204.7061935027
  0
LINE
  5
2A6
100
AcDbEntity
  8
0
100
AcDbLine
 62
7
  6
CONTINUOUS
 10
80.8128320426
 20
246.5209847884
 11
77.4499076767
 21
248.4625261527
  0
LINE
  5
2A7
100
AcDbEntity
  8
0
100
AcDbLine
 62
7
  6
CONTINUOUS
 10
153.2398135375
 20
208.5893756676
 11
80.8128320426
 21
250.4041669533
  0
LINE
  5
2A8
100
AcDbEntity
  8
0
100
AcDbLine
 62
7
  6
CONTINUOUS
 10
197.6940803015
 20
184.6302736418
 11
202.290293515
 21
181.9767087374
  0
LINE
  5
2A9
100
AcDbEntity
  8
0
100
AcDbLine
 62
7
  6
CONTINUOUS
 10
158.1951225279
 20
212.5285376673
 11
158.1951225279
 21
215.8598675292
  0
LINE
  5
2AA
100
AcDbEntity
  8
0
100
AcDbLine
 62
7
  6
CONTINUOUS
 10
166.0517182626
 20
140.6732118528
 11
166.0517182626
 21
141.2201439347
  0
LINE
  5
2AB
100
AcDbEntity
  8
0
100
AcDbLine
 62
7
  6
CONTINUOUS
 10
174.9396904376
 20
244.5090131609
 11
176.1564515258
 21
248.5264248421
  0
LINE
  5
2AC
100
AcDbEntity
  8
0
100
AcDbLine
 62
7
  6
CONTINUOUS
 10
120.4933033586
 20
171.4837833604
 11
121.1854946832
 21
171.8834178224
  0
LINE
  5
2AD
100
AcDbEntity
  8
0
100
AcDbLine
 62
7
  6
CONTINUOUS
 10
122.2046943652
 20
169.2312573807
 11
123.9919699207
 21
170.2631352443
  0
LINE
  5
2AE
100
AcDbEntity
  8
0
100
AcDbLine
 62
7
  6
CONTINUOUS
 10
122.2046943652
 20
167.958277764
 11
125.0944183676
 21
169.6266507359
  0
LINE
  5
2AF
100
AcDbEntity
  8
0
100
AcDbLine
 62
7
  6
CONTINUOUS
 10
172.5863188889
 20
193.5367361171
 11
185.5740214307
 21
201.0351449163
  0
LINE
  5
2B0
100
AcDbEntity
  8
0
100
AcDbLine
 62
7
  6
CONTINUOUS
 10
212.3485626031
 20
216.4933411966
 11
225.6638525682
 21
224.1808815539
  0
LINE
  5
2B1
100
AcDbEntity
  8
0
100
AcDbLine
 62
7
  6
CONTINUOUS
 10
215.9972330287
 20
179.0000864347
 11
220.5934462422
 21
176.3465215303
  0
LINE
  5
2B2
100
AcDbEntity
  8
0
100
AcDbLine
 62
7
  6
CONTINUOUS
 10
114.0567850738
 20
238.0112421822
 11
158.1951225279
 21
212.5285376673
  0
LINE
  5
2B3
100
AcDbEntity
  8
0
100
AcDbLine
 62
7
  6
CONTINUOUS
 10
78.5407254443
 20
258.8276746864
 11
69.7683345274
 21
263.8923023665
  0
LINE
  5
2B4
100
AcDbEntity
  8
0
100
AcDbLine
 62
7
  6
CONTINUOUS
 10
202.5894267747
 20
187.2681886564
 11
207.1856399881
 21
184.614623752
  0
LINE
  5
2B5
100
AcDbEntity
  8
0
100
AcDbLine
 62
7
  6
CONTINUOUS
 10
197.4061423661
 20
190.4855568108
 11
198.6789398714
 21
189.7507234527
  0
LINE
  5
2B6
100
AcDbEntity
  8
0
100
AcDbLine
 62
7
  6
CONTINUOUS
 10
114.0567850738
 20
241.3425720441
 11
158.1951225279
 21
215.8598675292
  0
LINE
  5
2B7
100
AcDbEntity
  8
0
100
AcDbLine
 62
7
  6
CONTINUOUS
 10
200.3916527013
 20
192.2092317176
 11
201.6644502066
 21
191.4743983594
  0
LINE
  5
2B8
100
AcDbEntity
  8
0
100
AcDbLine
 62
7
  6
CONTINUOUS
 10
185.5740214307
 20
201.0351449163
 11
186.846818936
 21
200.3003115582
  0
LINE
  5
2B9
100
AcDbEntity
  8
0
100
AcDbLine
 62
7
  6
CONTINUOUS
 10
167.6285324957
 20
243.6028578841
 11
167.6285324957
 21
249.1331477493
  0
LINE
  5
2BA
100
AcDbEntity
  8
0
100
AcDbLine
 62
7
  6
CONTINUOUS
 10
172.5863188889
 20
185.8909041521
 11
172.5863188889
 21
193.5367361171
  0
LINE
  5
2BB
100
AcDbEntity
  8
0
100
AcDbLine
 62
7
  6
CONTINUOUS
 10
213.6213601084
 20
215.7585078385
 11
186.846818936
 21
200.3003115582
  0
LINE
  5
2BC
100
AcDbEntity
  8
0
100
AcDbLine
 62
7
  6
CONTINUOUS
 10
225.7216367363
 20
216.5684110948
 11
218.0530956217
 21
212.1410032461
  0
LINE
  5
2BD
100
AcDbEntity
  8
0
100
AcDbLine
 62
7
  6
CONTINUOUS
 10
172.5863188889
 20
185.8909041521
 11
179.8694884122
 21
190.095818937
  0
LINE
  5
2BE
100
AcDbEntity
  8
0
100
AcDbLine
 62
7
  6
CONTINUOUS
 10
194.0946821126
 20
195.4836139463
 11
198.0538458442
 21
197.769424548
  0
LINE
  5
2BF
100
AcDbEntity
  8
0
100
AcDbLine
 62
7
  6
CONTINUOUS
 10
202.4143332002
 20
200.2869380693
 11
206.3734969318
 21
202.572748671
  0
LINE
  5
2C0
100
AcDbEntity
  8
0
100
AcDbLine
 62
7
  6
CONTINUOUS
 10
198.2784792474
 20
197.1209541929
 11
202.237642979
 21
199.4067647946
  0
LINE
  5
2C1
100
AcDbEntity
  8
0
100
AcDbLine
 62
7
  6
CONTINUOUS
 10
197.6045617809
 20
197.5100318215
 11
198.2784792474
 21
197.1209541929
  0
LINE
  5
2C2
100
AcDbEntity
  8
0
100
AcDbLine
 62
7
  6
CONTINUOUS
 10
205.1006994265
 20
196.0897030741
 11
206.3734969318
 21
195.3548697159
  0
LINE
  5
2C3
100
AcDbEntity
  8
0
100
AcDbLine
 62
7
  6
CONTINUOUS
 10
216.9800041678
 20
195.5765427939
 11
221.5762173812
 21
192.9229778895
  0
LINE
  5
2C4
100
AcDbEntity
  8
0
100
AcDbLine
 62
7
  6
CONTINUOUS
 10
176.1564515258
 20
248.5264248421
 11
175.9992144745
 21
253.9659343952
  0
LINE
  5
2C5
100
AcDbEntity
  8
0
100
AcDbLine
 62
7
  6
CONTINUOUS
 10
185.5740214307
 20
201.0351449163
 11
185.8191952746
 21
184.9575879113
  0
LINE
  5
2C6
100
AcDbEntity
  8
0
100
AcDbLine
 62
7
  6
CONTINUOUS
 10
187.0919927799
 20
184.2227545532
 11
186.846818936
 21
200.3003115582
  0
LINE
  5
2C7
100
AcDbEntity
  8
0
100
AcDbLine
 62
7
  6
CONTINUOUS
 10
178.411456339
 20
134.0844072611
 11
178.411456339
 21
133.5374751792
  0
LINE
  5
2C8
100
AcDbEntity
  8
0
100
AcDbLine
 62
7
  6
CONTINUOUS
 10
179.8694884122
 20
132.6956990128
 11
179.8694884122
 21
190.095818937
  0
LINE
  5
2C9
100
AcDbEntity
  8
0
100
AcDbLine
 62
7
  6
CONTINUOUS
 10
181.2998490965
 20
181.186639563
 11
181.2998490965
 21
141.8684899645
  0
LINE
  5
2CA
100
AcDbEntity
  8
0
100
AcDbLine
 62
7
  6
CONTINUOUS
 10
182.5726466018
 20
180.4518062049
 11
182.5726466018
 21
141.1336566064
  0
LINE
  5
2CB
100
AcDbEntity
  8
0
100
AcDbLine
 62
7
  6
CONTINUOUS
 10
183.5842946624
 20
176.4840337314
 11
183.5842946624
 21
159.0969824247
  0
LINE
  5
2CC
100
AcDbEntity
  8
0
100
AcDbLine
 62
7
  6
CONTINUOUS
 10
216.4979459709
 20
201.5081489653
 11
213.3808415099
 21
199.7084986081
  0
LINE
  5
2CD
100
AcDbEntity
  8
0
100
AcDbLine
 62
7
  6
CONTINUOUS
 10
206.1067912747
 20
195.5088488153
 11
200.3916527013
 21
192.2092317176
  0
LINE
  5
2CE
100
AcDbEntity
  8
0
100
AcDbLine
 62
7
  6
CONTINUOUS
 10
197.4061423661
 20
190.4855568108
 11
194.0946821126
 21
188.5736957543
  0
LINE
  5
2CF
100
AcDbEntity
  8
0
100
AcDbLine
 62
7
  6
CONTINUOUS
 10
186.8252871229
 20
184.3767336526
 11
181.2998490965
 21
181.186639563
  0
LINE
  5
2D0
100
AcDbEntity
  8
0
100
AcDbLine
 62
7
  6
CONTINUOUS
 10
187.0919927799
 20
184.2227545532
 11
194.0946821126
 21
188.2657349912
  0
LINE
  5
2D1
100
AcDbEntity
  8
0
100
AcDbLine
 62
7
  6
CONTINUOUS
 10
206.3734969318
 20
195.3548697159
 11
213.3761862645
 21
199.3978501539
  0
LINE
  5
2D2
100
AcDbEntity
  8
0
100
AcDbLine
 62
7
  6
CONTINUOUS
 10
217.7707434761
 20
200.7733156072
 11
201.6644502066
 21
191.4743983594
  0
LINE
  5
2D3
100
AcDbEntity
  8
0
100
AcDbLine
 62
7
  6
CONTINUOUS
 10
198.6789398714
 20
189.7507234527
 11
182.5726466018
 21
180.4518062049
  0
LINE
  5
2D4
100
AcDbEntity
  8
0
100
AcDbLine
 62
7
  6
CONTINUOUS
 10
197.6940803015
 20
184.6302736418
 11
183.5842946624
 21
176.4840337314
  0
LINE
  5
2D5
100
AcDbEntity
  8
0
100
AcDbLine
 62
7
  6
CONTINUOUS
 10
216.9800041678
 20
195.5765427939
 11
202.5894267747
 21
187.2681886564
  0
LINE
  5
2D6
100
AcDbEntity
  8
0
100
AcDbLine
 62
7
  6
CONTINUOUS
 10
33.0947834091
 20
275.7816754967
 11
69.7683345274
 21
263.8923023665
  0
LINE
  5
2D7
100
AcDbEntity
  8
0
100
AcDbLine
 62
7
  6
CONTINUOUS
 10
216.4979459709
 20
201.5081489653
 11
217.7707434761
 21
200.7733156072
  0
LINE
  5
2D8
100
AcDbEntity
  8
0
100
AcDbLine
 62
7
  6
CONTINUOUS
 10
188.1805078759
 20
173.830468827
 11
188.1805078759
 21
156.4434175203
  0
LINE
  5
2D9
100
AcDbEntity
  8
0
100
AcDbLine
 62
7
  6
CONTINUOUS
 10
188.8488355984
 20
137.8798965824
 11
188.8488355984
 21
117.433641087
  0
LINE
  5
2DA
100
AcDbEntity
  8
0
100
AcDbLine
 62
7
  6
CONTINUOUS
 10
189.1983779842
 20
158.49013485
 11
189.1983779842
 21
172.9590796436
  0
LINE
  5
2DB
100
AcDbEntity
  8
0
100
AcDbLine
 62
7
  6
CONTINUOUS
 10
193.8864276592
 20
111.6874885182
 11
193.8864276592
 21
107.9512158165
  0
LINE
  5
2DC
100
AcDbEntity
  8
0
100
AcDbLine
 62
7
  6
CONTINUOUS
 10
194.0946821126
 20
188.2657349912
 11
194.0946821126
 21
195.4836139463
  0
LINE
  5
2DD
100
AcDbEntity
  8
0
100
AcDbLine
 62
7
  6
CONTINUOUS
 10
196.5709132855
 20
177.2155894765
 11
196.5709132855
 21
168.0538186834
  0
LINE
  5
2DE
100
AcDbEntity
  8
0
100
AcDbLine
 62
7
  6
CONTINUOUS
 10
147.2042948745
 20
151.5545306512
 11
147.8964861991
 21
151.9541651132
  0
LINE
  5
2DF
100
AcDbEntity
  8
0
100
AcDbLine
 62
7
  6
CONTINUOUS
 10
202.290293515
 20
181.9767087374
 11
188.1805078759
 21
173.830468827
  0
LINE
  5
2E0
100
AcDbEntity
  8
0
100
AcDbLine
 62
7
  6
CONTINUOUS
 10
221.5762173812
 20
192.9229778895
 11
207.1856399881
 21
184.614623752
  0
LINE
  5
2E1
100
AcDbEntity
  8
0
100
AcDbLine
 62
7
  6
CONTINUOUS
 10
208.0631142194
 20
184.1485285406
 11
220.5934462422
 21
191.3828759237
  0
LINE
  5
2E2
100
AcDbEntity
  8
0
100
AcDbLine
 62
7
  6
CONTINUOUS
 10
189.1983779842
 20
172.9590796436
 11
201.1671264989
 21
179.8691985726
  0
LINE
  5
2E3
100
AcDbEntity
  8
0
100
AcDbLine
 62
7
  6
CONTINUOUS
 10
33.0947834091
 20
232.0565082986
 11
35.7888714619
 21
232.4829564677
  0
LINE
  5
2E4
100
AcDbEntity
  8
0
100
AcDbLine
 62
7
  6
CONTINUOUS
 10
37.244569762
 20
233.3233992564
 11
34.5504817092
 21
232.8969510873
  0
LINE
  5
2E5
100
AcDbEntity
  8
0
100
AcDbLine
 62
7
  6
CONTINUOUS
 10
166.841922801
 20
239.8337927434
 11
141.2583324193
 21
254.604151387
  0
LINE
  5
2E6
100
AcDbEntity
  8
0
100
AcDbLine
 62
7
  6
CONTINUOUS
 10
212.3485626031
 20
216.4933411966
 11
213.6213601084
 21
215.7585078385
  0
LINE
  5
2E7
100
AcDbEntity
  8
0
100
AcDbLine
 62
7
  6
CONTINUOUS
 10
164.4334263013
 20
247.4660263181
 11
151.1541211998
 21
255.1326632506
  0
LINE
  5
2E8
100
AcDbEntity
  8
0
100
AcDbLine
 62
7
  6
CONTINUOUS
 10
165.9192731773
 20
250.7030857039
 11
167.6285324957
 21
249.1331477493
  0
LINE
  5
2E9
100
AcDbEntity
  8
0
100
AcDbLine
 62
7
  6
CONTINUOUS
 10
198.2784792474
 20
197.1209541929
 11
198.0538458442
 21
197.769424548
  0
LINE
  5
2EA
100
AcDbEntity
  8
0
100
AcDbLine
 62
7
  6
CONTINUOUS
 10
206.2879996649
 20
239.2165773886
 11
206.3173472169
 21
235.3503389395
  0
LINE
  5
2EB
100
AcDbEntity
  8
0
100
AcDbLine
 62
7
  6
CONTINUOUS
 10
198.6789398714
 20
150.4325738542
 11
198.6789398714
 21
162.5046538783
  0
LINE
  5
2EC
100
AcDbEntity
  8
0
100
AcDbLine
 62
7
  6
CONTINUOUS
 10
198.6789398714
 20
184.0616775674
 11
198.6789398714
 21
189.7507234527
  0
LINE
  5
2ED
100
AcDbEntity
  8
0
100
AcDbLine
 62
7
  6
CONTINUOUS
 10
198.9120227771
 20
236.0363106643
 11
198.9120227771
 21
239.3676405261
  0
LINE
  5
2EE
100
AcDbEntity
  8
0
100
AcDbLine
 62
7
  6
CONTINUOUS
 10
200.3916527013
 20
192.2092317176
 11
200.3916527013
 21
183.0728647239
  0
LINE
  5
2EF
100
AcDbEntity
  8
0
100
AcDbLine
 62
7
  6
CONTINUOUS
 10
200.3916527013
 20
163.4934831892
 11
200.3916527013
 21
152.891082119
  0
LINE
  5
2F0
100
AcDbEntity
  8
0
100
AcDbLine
 62
7
  6
CONTINUOUS
 10
201.1671264989
 20
179.8691985726
 11
201.1671264989
 21
165.400253779
  0
LINE
  5
2F1
100
AcDbEntity
  8
0
100
AcDbLine
 62
7
  6
CONTINUOUS
 10
201.6644502066
 20
191.4743983594
 11
201.6644502066
 21
182.3380313658
  0
LINE
  5
2F2
100
AcDbEntity
  8
0
100
AcDbLine
 62
7
  6
CONTINUOUS
 10
201.6644502066
 20
164.228328785
 11
201.6644502066
 21
152.1562487609
  0
LINE
  5
2F3
100
AcDbEntity
  8
0
100
AcDbLine
 62
7
  6
CONTINUOUS
 10
202.290293515
 20
164.5896574308
 11
202.290293515
 21
181.9767087374
  0
LINE
  5
2F4
100
AcDbEntity
  8
0
100
AcDbLine
 62
7
  6
CONTINUOUS
 10
202.5894267747
 20
187.2681886564
 11
202.5894267747
 21
170.2053714067
  0
LINE
  5
2F5
100
AcDbEntity
  8
0
100
AcDbLine
 62
7
  6
CONTINUOUS
 10
203.9868952887
 20
108.6938759697
 11
203.9868952887
 21
106.4118796324
  0
LINE
  5
2F6
100
AcDbEntity
  8
0
100
AcDbLine
 62
7
  6
CONTINUOUS
 10
205.1006994265
 20
201.8379030752
 11
205.1006994265
 21
196.0897030741
  0
LINE
  5
2F7
100
AcDbEntity
  8
0
100
AcDbLine
 62
7
  6
CONTINUOUS
 10
206.3734969318
 20
202.572748671
 11
206.3734969318
 21
195.3548697159
  0
LINE
  5
2F8
100
AcDbEntity
  8
0
100
AcDbLine
 62
7
  6
CONTINUOUS
 10
207.1856399881
 20
184.614623752
 11
207.1856399881
 21
167.5518065023
  0
LINE
  5
2F9
100
AcDbEntity
  8
0
100
AcDbLine
 62
7
  6
CONTINUOUS
 10
202.4143332002
 20
200.2869380693
 11
202.237642979
 21
199.4067647946
  0
LINE
  5
2FA
100
AcDbEntity
  8
0
100
AcDbLine
 62
7
  6
CONTINUOUS
 10
196.5709132855
 20
168.0538186834
 11
189.1983779842
 21
163.7973088505
  0
LINE
  5
2FB
100
AcDbEntity
  8
0
100
AcDbLine
 62
7
  6
CONTINUOUS
 10
215.9972330287
 20
179.0000864347
 11
208.0631142194
 21
174.4193481477
  0
LINE
  5
2FC
100
AcDbEntity
  8
0
100
AcDbLine
 62
7
  6
CONTINUOUS
 10
201.1671264989
 20
165.400253779
 11
189.1983779842
 21
158.49013485
  0
LINE
  5
2FD
100
AcDbEntity
  8
0
100
AcDbLine
 62
7
  6
CONTINUOUS
 10
220.5934462422
 20
176.3465215303
 11
208.0631142194
 21
169.1121741472
  0
LINE
  5
2FE
100
AcDbEntity
  8
0
100
AcDbLine
 62
7
  6
CONTINUOUS
 10
207.1856399881
 20
167.5518065023
 11
221.5762173812
 21
175.8601606398
  0
LINE
  5
2FF
100
AcDbEntity
  8
0
100
AcDbLine
 62
7
  6
CONTINUOUS
 10
188.1805078759
 20
156.4434175203
 11
202.290293515
 21
164.5896574308
  0
LINE
  5
300
100
AcDbEntity
  8
0
100
AcDbLine
 62
7
  6
CONTINUOUS
 10
151.1541211998
 20
260.3174535994
 11
166.8631645335
 21
251.2480383796
  0
LINE
  5
301
100
AcDbEntity
  8
0
100
AcDbLine
 62
7
  6
CONTINUOUS
 10
175.474908919
 20
246.2761579193
 11
176.7377115815
 21
245.5470949558
  0
LINE
  5
302
100
AcDbEntity
  8
0
100
AcDbLine
 62
7
  6
CONTINUOUS
 10
198.9120227771
 20
239.3676405261
 11
176.0394848573
 21
252.5728077104
  0
LINE
  5
303
100
AcDbEntity
  8
0
100
AcDbLine
 62
7
  6
CONTINUOUS
 10
172.598586787
 20
254.5593661956
 11
154.773685323
 21
264.8503450411
  0
LINE
  5
304
100
AcDbEntity
  8
0
100
AcDbLine
 62
7
  6
CONTINUOUS
 10
225.6638525682
 20
224.1808815539
 11
206.3173472169
 21
235.3503389395
  0
LINE
  5
305
100
AcDbEntity
  8
0
100
AcDbLine
 62
7
  6
CONTINUOUS
 10
175.9992144745
 20
253.9659343952
 11
174.2937152073
 21
255.5380432034
  0
LINE
  5
306
100
AcDbEntity
  8
0
100
AcDbLine
 62
7
  6
CONTINUOUS
 10
235.4721073144
 20
124.9919430066
 11
237.1357916444
 21
120.544278278
  0
LINE
  5
307
100
AcDbEntity
  8
0
100
AcDbLine
 62
7
  6
CONTINUOUS
 10
237.1357916444
 20
122.1619328668
 11
235.4721073144
 21
126.6095975954
  0
LINE
  5
308
100
AcDbEntity
  8
0
100
AcDbLine
 62
7
  6
CONTINUOUS
 10
208.0631142194
 20
169.1121741472
 11
208.0631142194
 21
184.1485285406
  0
LINE
  5
309
100
AcDbEntity
  8
0
100
AcDbLine
 62
7
  6
CONTINUOUS
 10
208.7031552378
 20
98.1495763154
 11
208.7031552378
 21
129.6097283969
  0
LINE
  5
30A
100
AcDbEntity
  8
0
100
AcDbLine
 62
7
  6
CONTINUOUS
 10
211.1010857706
 20
99.53401389
 11
211.1010857706
 21
130.9941659715
  0
LINE
  5
30B
100
AcDbEntity
  8
0
100
AcDbLine
 62
7
  6
CONTINUOUS
 10
212.5087867733
 20
128.563793216
 11
212.5087867733
 21
130.1814478048
  0
LINE
  5
30C
100
AcDbEntity
  8
0
100
AcDbLine
 62
7
  6
CONTINUOUS
 10
215.9972330287
 20
188.7292668276
 11
215.9972330287
 21
179.0000864347
  0
LINE
  5
30D
100
AcDbEntity
  8
0
100
AcDbLine
 62
7
  6
CONTINUOUS
 10
213.6213601084
 20
215.7585078385
 11
213.3761862645
 21
199.3978501539
  0
LINE
  5
30E
100
AcDbEntity
  8
0
100
AcDbLine
 62
7
  6
CONTINUOUS
 10
166.0517182626
 20
140.6732118528
 11
166.525382111
 21
140.9466801709
  0
LINE
  5
30F
100
AcDbEntity
  8
0
100
AcDbLine
 62
7
  6
CONTINUOUS
 10
182.5726466018
 20
141.1336566064
 11
198.6789398714
 21
150.4325738542
  0
LINE
  5
310
100
AcDbEntity
  8
0
100
AcDbLine
 62
7
  6
CONTINUOUS
 10
201.6644502066
 20
152.1562487609
 11
217.7707434761
 21
161.4551660087
  0
LINE
  5
311
100
AcDbEntity
  8
0
100
AcDbLine
 62
7
  6
CONTINUOUS
 10
122.9316267428
 20
294.5859602216
 11
131.7805725179
 21
289.5655312457
  0
LINE
  5
312
100
AcDbEntity
  8
0
100
AcDbLine
 62
7
  6
CONTINUOUS
 10
206.2879996649
 20
239.2165773886
 11
133.86101817
 21
281.0313686743
  0
LINE
  5
313
100
AcDbEntity
  8
0
100
AcDbLine
 62
7
  6
CONTINUOUS
 10
238.6864860826
 20
115.4670107334
 11
237.1357916444
 21
120.544278278
  0
LINE
  5
314
100
AcDbEntity
  8
0
100
AcDbLine
 62
7
  6
CONTINUOUS
 10
235.7753792974
 20
126.6161807746
 11
237.1357916444
 21
122.1619328668
  0
LINE
  5
315
100
AcDbEntity
  8
0
100
AcDbLine
 62
7
  6
CONTINUOUS
 10
235.5594467085
 20
127.4562543689
 11
235.711515327
 21
126.9583528854
  0
LINE
  5
316
100
AcDbEntity
  8
0
100
AcDbLine
 62
7
  6
CONTINUOUS
 10
235.711515327
 20
128.5760074742
 11
235.5594467085
 21
129.0739089577
  0
LINE
  5
317
100
AcDbEntity
  8
0
100
AcDbLine
 62
7
  6
CONTINUOUS
 10
232.8206375339
 20
143.617380568
 11
233.2696755159
 21
142.1471450939
  0
LINE
  5
318
100
AcDbEntity
  8
0
100
AcDbLine
 62
7
  6
CONTINUOUS
 10
237.7192837821
 20
142.6001305793
 11
240.6375857705
 21
133.0450566676
  0
LINE
  5
319
100
AcDbEntity
  8
0
100
AcDbLine
 62
7
  6
CONTINUOUS
 10
225.6638525682
 20
224.1808815539
 11
225.7216367363
 21
216.5684110948
  0
LINE
  5
31A
100
AcDbEntity
  8
0
100
AcDbLine
 62
7
  6
CONTINUOUS
 10
217.7707434761
 20
161.4551660087
 11
217.7707434761
 21
173.6630823711
  0
LINE
  5
31B
100
AcDbEntity
  8
0
100
AcDbLine
 62
7
  6
CONTINUOUS
 10
217.7707434761
 20
195.1200195693
 11
217.7707434761
 21
200.7733156072
  0
LINE
  5
31C
100
AcDbEntity
  8
0
100
AcDbLine
 62
7
  6
CONTINUOUS
 10
218.0530956217
 20
154.7408833219
 11
218.0530956217
 21
173.8260974853
  0
LINE
  5
31D
100
AcDbEntity
  8
0
100
AcDbLine
 62
7
  6
CONTINUOUS
 10
218.0530956217
 20
194.9570071698
 11
218.0530956217
 21
212.1410032461
  0
LINE
  5
31E
100
AcDbEntity
  8
0
100
AcDbLine
 62
7
  6
CONTINUOUS
 10
220.3525394477
 20
123.2019736125
 11
220.3525394477
 21
126.9467050596
  0
LINE
  5
31F
100
AcDbEntity
  8
0
100
AcDbLine
 62
7
  6
CONTINUOUS
 10
220.5934462422
 20
191.3828759237
 11
220.5934462422
 21
176.3465215303
  0
LINE
  5
320
100
AcDbEntity
  8
0
100
AcDbLine
 62
7
  6
CONTINUOUS
 10
221.5762173812
 20
175.8601606398
 11
221.5762173812
 21
192.9229778895
  0
LINE
  5
321
100
AcDbEntity
  8
0
100
AcDbLine
 62
7
  6
CONTINUOUS
 10
224.6864199707
 20
140.336927608
 11
224.6864199707
 21
141.9545821969
  0
LINE
  5
322
100
AcDbEntity
  8
0
100
AcDbLine
 62
7
  6
CONTINUOUS
 10
179.8694884122
 20
132.6956990128
 11
218.0530956217
 21
154.7408833219
  0
LINE
  5
323
100
AcDbEntity
  8
0
100
AcDbLine
 62
7
  6
CONTINUOUS
 10
223.29643981
 20
153.9110206644
 11
221.4011186848
 21
152.8167630344
  0
LINE
  5
324
100
AcDbEntity
  8
0
100
AcDbLine
 62
7
  6
CONTINUOUS
 10
122.9316267427
 20
294.5859602216
 11
85.9380330573
 21
306.2905577925
  0
LINE
  5
325
100
AcDbEntity
  8
0
100
AcDbLine
 62
7
  6
CONTINUOUS
 10
230.5058635057
 20
121.6434885566
 11
230.5058635057
 21
123.9215303004
  0
LINE
  5
326
100
AcDbEntity
  8
0
100
AcDbLine
 62
7
  6
CONTINUOUS
 10
235.0779384635
 20
144.920626088
 11
235.0779384635
 21
143.3029714991
  0
LINE
  5
327
100
AcDbEntity
  8
0
100
AcDbLine
 62
7
  6
CONTINUOUS
 10
235.0879345247
 20
144.9148549899
 11
235.0879345247
 21
142.3322501392
  0
LINE
  5
328
100
AcDbEntity
  8
0
100
AcDbLine
 62
7
  6
CONTINUOUS
 10
235.0879345247
 20
130.8624284197
 11
235.0879345247
 21
113.4950254763
  0
LINE
  5
329
100
AcDbEntity
  8
0
100
AcDbLine
 62
7
  6
CONTINUOUS
 10
235.4721073144
 20
126.6095975954
 11
235.4721073144
 21
124.9919430066
  0
LINE
  5
32A
100
AcDbEntity
  8
0
100
AcDbLine
 62
7
  6
CONTINUOUS
 10
235.5594467085
 20
129.0739089577
 11
235.5594467085
 21
127.4562543689
  0
LINE
  5
32B
100
AcDbEntity
  8
0
100
AcDbLine
 62
7
  6
CONTINUOUS
 10
235.711515327
 20
128.5760074742
 11
235.711515327
 21
126.9583528854
  0
LINE
  5
32C
100
AcDbEntity
  8
0
100
AcDbLine
 62
7
  6
CONTINUOUS
 10
235.7753792974
 20
126.6161807746
 11
235.7753792974
 21
130.9324126713
  0
LINE
  5
32D
100
AcDbEntity
  8
0
100
AcDbLine
 62
7
  6
CONTINUOUS
 10
236.98325565
 20
146.0091126199
 11
236.98325565
 21
142.525200374
  0
LINE
  5
32E
100
AcDbEntity
  8
0
100
AcDbLine
 62
7
  6
CONTINUOUS
 10
236.98325565
 20
120.9520653505
 11
236.98325565
 21
114.5892831064
  0
LINE
  5
32F
100
AcDbEntity
  8
0
100
AcDbLine
 62
7
  6
CONTINUOUS
 10
237.1357916444
 20
120.544278278
 11
237.1357916444
 21
122.1619328668
  0
LINE
  5
330
100
AcDbEntity
  8
0
100
AcDbLine
 62
7
  6
CONTINUOUS
 10
224.6864199707
 20
141.9545821969
 11
215.6707022932
 21
136.7493862396
  0
LINE
  5
331
100
AcDbEntity
  8
0
100
AcDbLine
 62
7
  6
CONTINUOUS
 10
238.6864860826
 20
131.2287733937
 11
238.6864860826
 21
115.4670107334
  0
LINE
  5
332
100
AcDbEntity
  8
0
100
AcDbLine
 62
7
  6
CONTINUOUS
 10
240.6375857705
 20
133.0450566676
 11
240.6375857705
 21
117.2832940073
  0
LINE
  5
333
100
AcDbEntity
  8
0
100
AcDbLine
 62
7
  6
CONTINUOUS
 10
241.6515073602
 20
134.8994677018
 11
241.6515073602
 21
131.3738102647
  0
LINE
  5
334
100
AcDbEntity
  8
0
100
AcDbLine
 62
7
  6
CONTINUOUS
 10
244.170643943
 20
137.7568870432
 11
244.170643943
 21
136.2014897684
  0
LINE
  5
335
100
AcDbEntity
  8
0
100
AcDbLine
 62
7
  6
CONTINUOUS
 10
244.5979073602
 20
123.2087860934
 11
244.5979073602
 21
128.3890501941
  0
LINE
  5
336
100
AcDbEntity
  8
0
100
AcDbLine
 62
7
  6
CONTINUOUS
 10
245.9949055659
 20
135.1482756563
 11
245.9949147627
 21
133.8729493246
  0
LINE
  5
337
100
AcDbEntity
  8
0
100
AcDbLine
 62
7
  6
CONTINUOUS
 10
247.3419383758
 20
135.9259807694
 11
247.3419383758
 21
134.1216737281
  0
LINE
  5
338
100
AcDbEntity
  8
0
100
AcDbLine
 62
7
  6
CONTINUOUS
 10
224.6864199707
 20
140.336927608
 11
217.0716522894
 21
135.9405656801
  0
LINE
  5
339
100
AcDbEntity
  8
0
100
AcDbLine
 62
7
  6
CONTINUOUS
 10
235.0779384635
 20
144.920626088
 11
232.8206375339
 21
143.617380568
  0
LINE
  5
33A
100
AcDbEntity
  8
0
100
AcDbLine
 62
7
  6
CONTINUOUS
 10
236.98325565
 20
146.0091126199
 11
235.0879345247
 21
144.9148549899
  0
LINE
  5
33B
100
AcDbEntity
  8
0
100
AcDbLine
 62
7
  6
CONTINUOUS
 10
208.7031552378
 20
129.6097283969
 11
211.1010857706
 21
130.9941659715
  0
LINE
  5
33C
100
AcDbEntity
  8
0
100
AcDbLine
 62
7
  6
CONTINUOUS
 10
235.0779384635
 20
143.3029714991
 11
233.2406399503
 21
142.2422130399
  0
LINE
  5
33D
100
AcDbEntity
  8
0
100
AcDbLine
 62
7
  6
CONTINUOUS
 10
221.2020917056
 20
133.5559093194
 11
230.2178093832
 21
138.7611052767
  0
LINE
  5
33E
100
AcDbEntity
  8
0
100
AcDbLine
 62
7
  6
CONTINUOUS
 10
193.8864276592
 20
111.6874885182
 11
196.2843581919
 21
113.0719260928
  0
LINE
  5
33F
100
AcDbEntity
  8
0
100
AcDbLine
 62
7
  6
CONTINUOUS
 10
222.247860573
 20
128.0409626896
 11
220.3525394477
 21
126.9467050596
  0
LINE
  5
340
100
AcDbEntity
  8
0
100
AcDbLine
 62
7
  6
CONTINUOUS
 10
249.3129258634
 20
116.5488189947
 11
249.3129258635
 21
118.1664735835
  0
LINE
  5
341
100
AcDbEntity
  8
0
100
AcDbLine
 62
7
  6
CONTINUOUS
 10
249.5508999576
 20
135.9259860791
 11
249.5509091544
 21
133.0952624726
  0
LINE
  5
342
100
AcDbEntity
  8
0
100
AcDbLine
 62
7
  6
CONTINUOUS
 10
250.9479073602
 20
116.8692507235
 11
250.9479073602
 21
116.6490055908
  0
LINE
  5
343
100
AcDbEntity
  8
0
100
AcDbLine
 62
7
  6
CONTINUOUS
 10
250.9479073602
 20
123.2087860934
 11
250.9479073602
 21
128.3767270201
  0
LINE
  5
344
100
AcDbEntity
  8
0
100
AcDbLine
 62
7
  6
CONTINUOUS
 10
251.3751707773
 20
132.0420483605
 11
251.3751707773
 21
130.2377413191
  0
LINE
  5
345
100
AcDbEntity
  8
0
100
AcDbLine
 62
7
  6
CONTINUOUS
 10
252.7222035871
 20
131.0154464322
 11
252.7222035871
 21
132.8197534736
  0
LINE
  5
346
100
AcDbEntity
  8
0
100
AcDbLine
 62
7
  6
CONTINUOUS
 10
253.8943073602
 20
134.8994677018
 11
253.8943073602
 21
131.3738102647
  0
LINE
  5
347
100
AcDbEntity
  8
0
100
AcDbLine
 62
7
  6
CONTINUOUS
 10
256.6413110613
 20
121.5911315046
 11
256.6413110613
 21
123.2087860934
  0
LINE
  5
348
100
AcDbEntity
  8
0
100
AcDbLine
 62
7
  6
CONTINUOUS
 10
235.5594467085
 20
129.0739089577
 11
235.7753792974
 21
129.1943393211
  0
LINE
  5
349
100
AcDbEntity
  8
0
100
AcDbLine
 62
7
  6
CONTINUOUS
 10
236.98325565
 20
114.5892831064
 11
235.0879345247
 21
113.4950254763
  0
LINE
  5
34A
100
AcDbEntity
  8
0
100
AcDbLine
 62
7
  6
CONTINUOUS
 10
208.7031552378
 20
98.1495763154
 11
211.1010857706
 21
99.53401389
  0
LINE
  5
34B
100
AcDbEntity
  8
0
100
AcDbLine
 62
7
  6
CONTINUOUS
 10
249.299557307
 20
114.9380471008
 11
250.0179811206
 21
115.3528409739
  0
SPLINE
  5
34C
100
AcDbEntity
  8
0
100
AcDbSpline
 62
7
  6
CONTINUOUS
 70
0
 71
3
 72
10
 73
6
 74
0
 42
0.0000001
 43
0.0000001
 44
0.0000000001
 40
0.0
 40
0.0
 40
0.0
 40
0.0
 40
0.2258570516
 40
0.5936568026
 40
1.0
 40
1.0
 40
1.0
 40
1.0
 10
244.7539041024
 20
116.0814915421
 30
0.0
 10
244.7936246792
 20
116.0110621728
 30
0.0
 10
244.9145127268
 20
115.834971301
 30
0.0
 10
245.1712463244
 20
115.5818141462
 30
0.0
 10
245.401868619
 20
115.4255656872
 30
0.0
 10
245.5278526669
 20
115.3528304081
 30
0.0
  0
SPLINE
  5
34D
100
AcDbEntity
  8
0
100
AcDbSpline
 62
7
  6
CONTINUOUS
 70
0
 71
3
 72
15
 73
11
 74
0
 42
0.0000001
 43
0.0000001
 44
0.0000000001
 40
0.0
 40
0.0
 40
0.0
 40
0.0
 40
0.1141581171
 40
0.2373254444
 40
0.3669768515
 40
0.5000005115
 40
0.6330241004
 40
0.7626752999
 40
0.8858423003
 40
1.0
 40
1.0
 40
1.0
 40
1.0
 10
246.2462701253
 20
114.9380400611
 30
0.0
 10
246.3507844668
 20
114.8777000429
 30
0.0
 10
246.5793150512
 20
114.7712809031
 30
0.0
 10
246.9514695238
 20
114.6581790386
 30
0.0
 10
247.3543772294
 20
114.5885522505
 30
0.0
 10
247.7729162609
 20
114.5650670017
 30
0.0
 10
248.1914549626
 20
114.5885542304
 30
0.0
 10
248.5943616937
 20
114.6581829278
 30
0.0
 10
248.9665145841
 20
114.771286563
 30
0.0
 10
249.1950437828
 20
114.8777068491
 30
0.0
 10
249.2995573071
 20
114.9380474003
 30
0.0
  0
SPLINE
  5
34E
100
AcDbEntity
  8
0
100
AcDbSpline
 62
7
  6
CONTINUOUS
 70
0
 71
3
 72
14
 73
10
 74
0
 42
0.0000001
 43
0.0000001
 44
0.0000000001
 40
0.0
 40
0.0
 40
0.0
 40
0.0
 40
0.2892818991
 40
0.4225411562
 40
0.5484954364
 40
0.6678954678
 40
0.7818694504
 40
0.8919526736
 40
1.0
 40
1.0
 40
1.0
 40
1.0
 10
250.0179807375
 20
115.3528411952
 30
0.0
 10
250.1573482618
 20
115.4333045926
 30
0.0
 10
250.3525222539
 20
115.5676828408
 30
0.0
 10
250.5733372309
 20
115.7790178014
 30
0.0
 10
250.7077229708
 20
115.9419249973
 30
0.0
 10
250.8139752929
 20
116.1119873278
 30
0.0
 10
250.8908768002
 20
116.2877166345
 30
0.0
 10
250.9374608598
 20
116.4673094971
 30
0.0
 10
250.9479073592
 20
116.5888988651
 30
0.0
 10
250.9479073602
 20
116.6490055908
 30
0.0
  0
SPLINE
  5
34F
100
AcDbEntity
  8
0
100
AcDbSpline
 62
7
  6
CONTINUOUS
 70
0
 71
3
 72
15
 73
11
 74
0
 42
0.0000001
 43
0.0000001
 44
0.0000000001
 40
0.0
 40
0.0
 40
0.0
 40
0.0
 40
0.1141581486
 40
0.2373252107
 40
0.3669761752
 40
0.5000005211
 40
0.6330247945
 40
0.7626755472
 40
0.8858422759
 40
1.0
 40
1.0
 40
1.0
 40
1.0
 10
245.5278526669
 20
115.3528304081
 30
0.0
 10
245.6815503268
 20
115.2640950295
 30
0.0
 10
246.0176247308
 20
115.1075969744
 30
0.0
 10
246.5649093136
 20
114.9412690975
 30
0.0
 10
247.1574203797
 20
114.8388751119
 30
0.0
 10
247.7729204863
 20
114.8043314984
 30
0.0
 10
248.3884201012
 20
114.8388780316
 30
0.0
 10
248.9809297143
 20
114.941274829
 30
0.0
 10
249.5282119425
 20
115.107605306
 30
0.0
 10
249.8642842887
 20
115.2641050388
 30
0.0
 10
250.0179807375
 20
115.3528411952
 30
0.0
  0
SPLINE
  5
350
100
AcDbEntity
  8
0
100
AcDbSpline
 62
7
  6
CONTINUOUS
 70
0
 71
3
 72
21
 73
17
 74
0
 42
0.0000001
 43
0.0000001
 44
0.0000000001
 40
0.0
 40
0.0
 40
0.0
 40
0.0
 40
0.0428261412
 40
0.0874203061
 40
0.1352162541
 40
0.187139637
 40
0.2436015929
 40
0.3045757043
 40
0.3696915691
 40
0.4383186321
 40
0.5825507046
 40
0.729589378
 40
0.8015974462
 40
0.8712188823
 40
0.9375913508
 40
1.0
 40
1.0
 40
1.0
 40
1.0
 10
244.5979129938
 20
123.2087860744
 30
0.0
 10
244.5979071474
 20
123.1184006536
 30
0.0
 10
244.6220839803
 20
122.9331127308
 30
0.0
 10
244.728347578
 20
122.6655757047
 30
0.0
 10
244.900780238
 20
122.411954966
 30
0.0
 10
245.1344867951
 20
122.1772680163
 30
0.0
 10
245.4240799521
 20
121.9656589428
 30
0.0
 10
245.7633893806
 20
121.7811143568
 30
0.0
 10
246.145328999
 20
121.6272343728
 30
0.0
 10
246.7098817305
 20
121.4646026273
 30
0.0
 10
247.4662830697
 20
121.3585122102
 30
0.0
 10
248.2365316021
 20
121.3796845089
 30
0.0
 10
248.8389430627
 20
121.4751611395
 30
0.0
 10
249.2651121376
 20
121.5833471581
 30
0.0
 10
249.6594479738
 20
121.7262350587
 30
0.0
 10
249.9039122972
 20
121.8467646462
 30
0.0
 10
250.0179807375
 20
121.9126216978
 30
0.0
  0
SPLINE
  5
351
100
AcDbEntity
  8
0
100
AcDbSpline
 62
7
  6
CONTINUOUS
 70
0
 71
3
 72
24
 73
20
 74
0
 42
0.0000001
 43
0.0000001
 44
0.0000000001
 40
0.0
 40
0.0
 40
0.0
 40
0.0
 40
0.0213333749
 40
0.0428952758
 40
0.0874727512
 40
0.1352510391
 40
0.1871556244
 40
0.2435974631
 40
0.3045499821
 40
0.3696427848
 40
0.4382454255
 40
0.5095374411
 40
0.5825673704
 40
0.6563045835
 40
0.7296874666
 40
0.8016693892
 40
0.8712679373
 40
0.9376113136
 40
1.0
 40
1.0
 40
1.0
 40
1.0
 10
241.6515158014
 20
131.3738102653
 30
0.0
 10
241.6515159067
 20
131.2869716405
 30
0.0
 10
241.6627269262
 20
131.1121493599
 30
0.0
 10
241.730344305
 20
130.7617645852
 30
0.0
 10
241.9029713783
 20
130.3263165395
 30
0.0
 10
242.2354295837
 20
129.8375919281
 30
0.0
 10
242.686010779
 20
129.3850375643
 30
0.0
 10
243.2443481518
 20
128.9770784145
 30
0.0
 10
243.898546385
 20
128.6212594375
 30
0.0
 10
244.634906108
 20
128.3246093053
 30
0.0
 10
245.4379557445
 20
128.0931716367
 30
0.0
 10
246.2907185105
 20
127.9317760464
 30
0.0
 10
247.1750780281
 20
127.8438317092
 30
0.0
 10
248.0721903486
 20
127.8312077771
 30
0.0
 10
248.9629206243
 20
127.8941770221
 30
0.0
 10
249.8282685653
 20
128.0313886568
 30
0.0
 10
250.6498702588
 20
128.2399680169
 30
0.0
 10
251.4101639376
 20
128.5154424667
 30
0.0
 10
251.8814757839
 20
128.7478276636
 30
0.0
 10
252.1014088317
 20
128.8748053099
 30
0.0
  0
SPLINE
  5
352
100
AcDbEntity
  8
0
100
AcDbSpline
 62
7
  6
CONTINUOUS
 70
0
 71
3
 72
13
 73
9
 74
0
 42
0.0000001
 43
0.0000001
 44
0.0000000001
 40
0.0
 40
0.0
 40
0.0
 40
0.0
 40
0.1127474063
 40
0.2268690539
 40
0.3436607848
 40
0.4642661019
 40
0.7201423503
 40
1.0
 40
1.0
 40
1.0
 40
1.0
 10
241.6515157258
 20
134.8994677007
 30
0.0
 10
241.65151473
 20
134.9922333674
 30
0.0
 10
241.6643153605
 20
135.1791410197
 30
0.0
 10
241.7216816447
 20
135.4568244255
 30
0.0
 10
241.8167587274
 20
135.7308158428
 30
0.0
 10
241.9962650543
 20
136.0958055741
 30
0.0
 10
242.3178413551
 20
136.5350847928
 30
0.0
 10
242.6432154454
 20
136.8360843581
 30
0.0
 10
242.8236111332
 20
136.9791819301
 30
0.0
  0
SPLINE
  5
353
100
AcDbEntity
  8
0
100
AcDbSpline
 62
7
  6
CONTINUOUS
 70
0
 71
3
 72
14
 73
10
 74
0
 42
0.0000001
 43
0.0000001
 44
0.0000000001
 40
0.0
 40
0.0
 40
0.0
 40
0.0
 40
0.289280315
 40
0.42253828
 40
0.5484982283
 40
0.6678954444
 40
0.7818689412
 40
0.8919530582
 40
1.0
 40
1.0
 40
1.0
 40
1.0
 10
252.1014088317
 20
128.8748053099
 30
0.0
 10
252.3701079535
 20
129.0299378943
 30
0.0
 10
252.7464030415
 20
129.2890161663
 30
0.0
 10
253.1721295841
 20
129.6964772327
 30
0.0
 10
253.4312442521
 20
130.010550189
 30
0.0
 10
253.6360775545
 20
130.3384469583
 30
0.0
 10
253.7843544702
 20
130.6772434463
 30
0.0
 10
253.8741774268
 20
131.0234985808
 30
0.0
 10
253.8942990593
 20
131.2579249066
 30
0.0
 10
253.8942989189
 20
131.373810264
 30
0.0
  0
SPLINE
  5
354
100
AcDbEntity
  8
0
100
AcDbSpline
 62
7
  6
CONTINUOUS
 70
0
 71
3
 72
23
 73
19
 74
0
 42
0.0000001
 43
0.0000001
 44
0.0000000001
 40
0.0
 40
0.0
 40
0.0
 40
0.0
 40
0.0664522747
 40
0.1359497054
 40
0.2077355644
 40
0.2809610028
 40
0.3547205717
 40
0.4280871428
 40
0.5001485552
 40
0.5700441442
 40
0.6370022719
 40
0.7003825246
 40
0.7597241922
 40
0.8148038044
 40
0.8657026331
 40
0.9128779329
 40
0.9572136772
 40
1.0
 40
1.0
 40
1.0
 40
1.0
 10
244.1706439431
 20
137.7568870432
 30
0.0
 10
244.4034799267
 20
137.8547273745
 30
0.0
 10
244.8906265374
 20
138.0298638852
 30
0.0
 10
245.6560449964
 20
138.2273469265
 30
0.0
 10
246.4609491695
 20
138.3628067853
 30
0.0
 10
247.2902672072
 20
138.4337005777
 30
0.0
 10
248.128590645
 20
138.438714926
 30
0.0
 10
248.9602861034
 20
138.3777565372
 30
0.0
 10
249.7698601956
 20
138.2519583614
 30
0.0
 10
250.542259149
 20
138.063652908
 30
0.0
 10
251.2631714864
 20
137.8163019933
 30
0.0
 10
251.9193030634
 20
137.514389073
 30
0.0
 10
252.4986119918
 20
137.1632669574
 30
0.0
 10
252.9904548236
 20
136.7689387997
 30
0.0
 10
253.3855681356
 20
136.3379125446
 30
0.0
 10
253.6758200083
 20
135.876998734
 30
0.0
 10
253.8539470807
 20
135.3944441923
 30
0.0
 10
253.894297249
 20
135.0620807921
 30
0.0
 10
253.8942989946
 20
134.899467703
 30
0.0
  0
SPLINE
  5
355
100
AcDbEntity
  8
0
100
AcDbSpline
 62
7
  6
CONTINUOUS
 70
0
 71
3
 72
13
 73
9
 74
0
 42
0.0000001
 43
0.0000001
 44
0.0000000001
 40
0.0
 40
0.0
 40
0.0
 40
0.0
 40
0.2894115553
 40
0.5482922216
 40
0.6677465135
 40
0.7817706808
 40
0.8919031245
 40
1.0
 40
1.0
 40
1.0
 40
1.0
 10
250.0179807375
 20
121.9126216978
 30
0.0
 10
250.157348007
 20
121.9930849481
 30
0.0
 10
250.410067614
 20
122.1669603865
 30
0.0
 10
250.6684559593
 20
122.4388766825
 30
0.0
 10
250.8139749267
 20
122.6717621725
 30
0.0
 10
250.8908696882
 20
122.8474991945
 30
0.0
 10
250.9374684729
 20
123.027087491
 30
0.0
 10
250.9478978385
 20
123.1486788727
 30
0.0
 10
250.9479017265
 20
123.2087861124
 30
0.0
  0
SPLINE
  5
356
100
AcDbEntity
  8
0
100
AcDbSpline
 62
7
  6
CONTINUOUS
 70
0
 71
3
 72
9
 73
5
 74
0
 42
0.0000001
 43
0.0000001
 44
0.0000000001
 40
0.0
 40
0.0
 40
0.0
 40
0.0
 40
0.2432849683
 40
1.0
 40
1.0
 40
1.0
 40
1.0
 10
252.1014088317
 20
130.5961557057
 30
0.0
 10
252.0445101992
 20
130.5633054611
 30
0.0
 10
251.8083354644
 20
130.4322773126
 30
0.0
 10
251.5635692352
 20
130.3169084962
 30
0.0
 10
251.3751707773
 20
130.2377413191
 30
0.0
  0
SPLINE
  5
357
100
AcDbEntity
  8
0
100
AcDbSpline
 62
7
  6
CONTINUOUS
 70
0
 71
3
 72
13
 73
9
 74
0
 42
0.0000001
 43
0.0000001
 44
0.0000000001
 40
0.0
 40
0.0
 40
0.0
 40
0.0
 40
0.1127474063
 40
0.2268690539
 40
0.3436607848
 40
0.4642661019
 40
0.7201423503
 40
1.0
 40
1.0
 40
1.0
 40
1.0
 10
253.8942989946
 20
134.899467703
 30
0.0
 10
253.8942999904
 20
134.8067020362
 30
0.0
 10
253.8814993598
 20
134.619794384
 30
0.0
 10
253.8241330756
 20
134.3421109782
 30
0.0
 10
253.7290559929
 20
134.0681195609
 30
0.0
 10
253.549549666
 20
133.7031298295
 30
0.0
 10
253.2279733652
 20
133.2638506108
 30
0.0
 10
252.9025992749
 20
132.9628510455
 30
0.0
 10
252.7222035872
 20
132.8197534736
 30
0.0
  0
SPLINE
  5
358
100
AcDbEntity
  8
0
100
AcDbSpline
 62
7
  6
CONTINUOUS
 70
0
 71
3
 72
23
 73
19
 74
0
 42
0.0000001
 43
0.0000001
 44
0.0000000001
 40
0.0
 40
0.0
 40
0.0
 40
0.0
 40
0.0664522747
 40
0.1359497054
 40
0.2077355644
 40
0.2809610028
 40
0.3547205717
 40
0.4280871428
 40
0.5001485552
 40
0.5700441442
 40
0.6370022719
 40
0.7003825246
 40
0.7597241922
 40
0.8148038044
 40
0.8657026331
 40
0.9128779329
 40
0.9572136772
 40
1.0
 40
1.0
 40
1.0
 40
1.0
 10
251.3751707773
 20
132.0420483605
 30
0.0
 10
251.1423347936
 20
131.9442080291
 30
0.0
 10
250.6551881829
 20
131.7690715185
 30
0.0
 10
249.8897697239
 20
131.5715884772
 30
0.0
 10
249.0848655508
 20
131.4361286184
 30
0.0
 10
248.2555475131
 20
131.365234826
 30
0.0
 10
247.4172240753
 20
131.3602204777
 30
0.0
 10
246.5855286169
 20
131.4211788665
 30
0.0
 10
245.7759545248
 20
131.5469770423
 30
0.0
 10
245.0035555713
 20
131.7352824956
 30
0.0
 10
244.2826432339
 20
131.9826334104
 30
0.0
 10
243.6265116569
 20
132.2845463307
 30
0.0
 10
243.0472027285
 20
132.6356684462
 30
0.0
 10
242.5553598967
 20
133.029996604
 30
0.0
 10
242.1602465847
 20
133.4610228591
 30
0.0
 10
241.869994712
 20
133.9219366696
 30
0.0
 10
241.6918676396
 20
134.4044912114
 30
0.0
 10
241.6515174713
 20
134.7368546116
 30
0.0
 10
241.6515157258
 20
134.8994677007
 30
0.0
  0
SPLINE
  5
359
100
AcDbEntity
  8
0
100
AcDbSpline
 62
7
  6
CONTINUOUS
 70
0
 71
3
 72
9
 73
5
 74
0
 42
0.0000001
 43
0.0000001
 44
0.0000000001
 40
0.0
 40
0.0
 40
0.0
 40
0.0
 40
0.2422246443
 40
1.0
 40
1.0
 40
1.0
 40
1.0
 10
252.7222035872
 20
131.0154464322
 30
0.0
 10
252.6747919912
 20
130.9778375273
 30
0.0
 10
252.4759285656
 20
130.8265347947
 30
0.0
 10
252.2653657494
 20
130.6908157113
 30
0.0
 10
252.1014088317
 20
130.5961557057
 30
0.0
  0
SPLINE
  5
35A
100
AcDbEntity
  8
0
100
AcDbSpline
 62
7
  6
CONTINUOUS
 70
0
 71
3
 72
9
 73
5
 74
0
 42
0.0000001
 43
0.0000001
 44
0.0000000001
 40
0.0
 40
0.0
 40
0.0
 40
0.0
 40
0.2469678631
 40
1.0
 40
1.0
 40
1.0
 40
1.0
 10
240.6268866533
 20
131.4966265823
 30
0.0
 10
240.7086053408
 20
131.5148104829
 30
0.0
 10
241.040443452
 20
131.5841176032
 30
0.0
 10
241.3758002877
 20
131.636447433
 30
0.0
 10
241.629270311
 20
131.6666530537
 30
0.0
  0
SPLINE
  5
35B
100
AcDbEntity
  8
0
100
AcDbSpline
 62
7
  6
CONTINUOUS
 70
0
 71
3
 72
12
 73
8
 74
0
 42
0.0000001
 43
0.0000001
 44
0.0000000001
 40
0.0
 40
0.0
 40
0.0
 40
0.0
 40
0.2895914966
 40
0.5486322636
 40
0.7816375215
 40
0.8918386468
 40
1.0
 40
1.0
 40
1.0
 40
1.0
 10
254.0437896472
 20
126.8292600585
 30
0.0
 10
254.4330779266
 20
126.6045094502
 30
0.0
 10
255.1391850711
 20
126.1182234271
 30
0.0
 10
255.9827217294
 20
125.2321510865
 30
0.0
 10
256.4356508402
 20
124.3972530187
 30
0.0
 10
256.6121153146
 20
123.7163279169
 30
0.0
 10
256.6412776029
 20
123.3766759843
 30
0.0
 10
256.6412776066
 20
123.2087860934
 30
0.0
  0
SPLINE
  5
35C
100
AcDbEntity
  8
0
100
AcDbSpline
 62
7
  6
CONTINUOUS
 70
0
 71
3
 72
9
 73
5
 74
0
 42
0.0000001
 43
0.0000001
 44
0.0000000001
 40
0.0
 40
0.0
 40
0.0
 40
0.0
 40
0.5242347107
 40
1.0
 40
1.0
 40
1.0
 40
1.0
 10
249.3129258635
 20
116.5488189947
 30
0.0
 10
250.1763271378
 20
116.6367162257
 30
0.0
 10
251.8124963333
 20
116.9463722431
 30
0.0
 10
253.3617390119
 20
117.5768777719
 30
0.0
 10
254.0438418637
 20
117.9706876862
 30
0.0
  0
SPLINE
  5
35D
100
AcDbEntity
  8
0
100
AcDbSpline
 62
7
  6
CONTINUOUS
 70
0
 71
3
 72
12
 73
8
 74
0
 42
0.0000001
 43
0.0000001
 44
0.0000000001
 40
0.0
 40
0.0
 40
0.0
 40
0.0
 40
0.2895910236
 40
0.5486316181
 40
0.7816370724
 40
0.8918384035
 40
1.0
 40
1.0
 40
1.0
 40
1.0
 10
254.0438418637
 20
117.9706876862
 30
0.0
 10
254.4331228666
 20
118.1954378364
 30
0.0
 10
255.139216616
 20
118.6817219908
 30
0.0
 10
255.9827361297
 20
119.5677877968
 30
0.0
 10
256.4356553278
 20
120.4026774562
 30
0.0
 10
256.6121159439
 20
121.0835951633
 30
0.0
 10
256.6412776062
 20
121.4232434009
 30
0.0
 10
256.6412776066
 20
121.5911315046
 30
0.0
  0
SPLINE
  5
35E
100
AcDbEntity
  8
0
100
AcDbSpline
 62
7
  6
CONTINUOUS
 70
0
 71
3
 72
9
 73
5
 74
0
 42
0.0000001
 43
0.0000001
 44
0.0000000001
 40
0.0
 40
0.0
 40
0.0
 40
0.0
 40
0.4757652893
 40
1.0
 40
1.0
 40
1.0
 40
1.0
 10
254.0438418637
 20
119.588342275
 30
0.0
 10
253.361739012
 20
119.1945323607
 30
0.0
 10
251.8124963334
 20
118.564026832
 30
0.0
 10
250.1763271379
 20
118.2543708145
 30
0.0
 10
249.3129258637
 20
118.1664735836
 30
0.0
  0
SPLINE
  5
35F
100
AcDbEntity
  8
0
100
AcDbSpline
 62
7
  6
CONTINUOUS
 70
0
 71
3
 72
12
 73
8
 74
0
 42
0.0000001
 43
0.0000001
 44
0.0000000001
 40
0.0
 40
0.0
 40
0.0
 40
0.0
 40
0.1081615928
 40
0.2183629213
 40
0.4513683727
 40
0.7104089697
 40
1.0
 40
1.0
 40
1.0
 40
1.0
 10
256.6412776066
 20
123.2087860934
 30
0.0
 10
256.6412776102
 20
123.0408979955
 30
0.0
 10
256.6121159387
 20
122.7012497684
 30
0.0
 10
256.4356553425
 20
122.0203320723
 30
0.0
 10
255.9827361494
 20
121.1854424135
 30
0.0
 10
255.1392166355
 20
120.2993765953
 30
0.0
 10
254.4331228755
 20
119.8130924304
 30
0.0
 10
254.0438418637
 20
119.588342275
 30
0.0
  0
SPLINE
  5
360
100
AcDbEntity
  8
0
100
AcDbSpline
 62
7
  6
CONTINUOUS
 70
0
 71
3
 72
11
 73
7
 74
0
 42
0.0000001
 43
0.0000001
 44
0.0000000001
 40
0.0
 40
0.0
 40
0.0
 40
0.0
 40
0.2177822878
 40
0.4509146108
 40
0.7103059136
 40
1.0
 40
1.0
 40
1.0
 40
1.0
 10
199.1240934547
 20
217.5414652124
 30
0.0
 10
199.1241128362
 20
217.3995380754
 30
0.0
 10
199.1765316199
 20
217.1037133805
 30
0.0
 10
199.4008101621
 20
216.691533391
 30
0.0
 10
199.7553411141
 20
216.3189543211
 30
0.0
 10
200.0519784413
 20
216.1146437656
 30
0.0
 10
200.2154776324
 20
216.020249599
 30
0.0
  0
SPLINE
  5
361
100
AcDbEntity
  8
0
100
AcDbSpline
 62
7
  6
CONTINUOUS
 70
0
 71
3
 72
11
 73
7
 74
0
 42
0.0000001
 43
0.0000001
 44
0.0000000001
 40
0.0
 40
0.0
 40
0.0
 40
0.0
 40
0.2177822878
 40
0.4509146108
 40
0.7103059136
 40
1.0
 40
1.0
 40
1.0
 40
1.0
 10
180.03228985
 20
206.5188730579
 30
0.0
 10
180.0323092314
 20
206.3769459208
 30
0.0
 10
180.0847280151
 20
206.081121226
 30
0.0
 10
180.3090065573
 20
205.6689412365
 30
0.0
 10
180.6635375093
 20
205.2963621666
 30
0.0
 10
180.9601748365
 20
205.092051611
 30
0.0
 10
181.1236740276
 20
204.9976574445
 30
0.0
  0
SPLINE
  5
362
100
AcDbEntity
  8
0
100
AcDbSpline
 62
7
  6
CONTINUOUS
 70
0
 71
3
 72
11
 73
7
 74
0
 42
0.0000001
 43
0.0000001
 44
0.0000000001
 40
0.0
 40
0.0
 40
0.0
 40
0.0
 40
0.2177643494
 40
0.4508943819
 40
0.7103680107
 40
1.0
 40
1.0
 40
1.0
 40
1.0
 10
127.1129548631
 20
263.2693248931
 30
0.0
 10
127.1130041636
 20
263.1452171533
 30
0.0
 10
127.1586741446
 20
262.8865048145
 30
0.0
 10
127.3549075178
 20
262.5260203773
 30
0.0
 10
127.6649989055
 20
262.2002464058
 30
0.0
 10
127.9243897061
 20
262.0215183337
 30
0.0
 10
128.0673421992
 20
261.9389865405
 30
0.0
  0
SPLINE
  5
363
100
AcDbEntity
  8
0
100
AcDbSpline
 62
7
  6
CONTINUOUS
 70
0
 71
3
 72
11
 73
7
 74
0
 42
0.0000001
 43
0.0000001
 44
0.0000000001
 40
0.0
 40
0.0
 40
0.0
 40
0.0
 40
0.2177643494
 40
0.4508943819
 40
0.7103680107
 40
1.0
 40
1.0
 40
1.0
 40
1.0
 10
108.0211512583
 20
252.2467327386
 30
0.0
 10
108.0212005588
 20
252.1226249988
 30
0.0
 10
108.0668705398
 20
251.8639126599
 30
0.0
 10
108.2631039131
 20
251.5034282228
 30
0.0
 10
108.5731953008
 20
251.1776542513
 30
0.0
 10
108.8325861014
 20
250.9989261792
 30
0.0
 10
108.9755385944
 20
250.916394386
 30
0.0
  0
SPLINE
  5
364
100
AcDbEntity
  8
0
100
AcDbSpline
 62
7
  6
CONTINUOUS
 70
0
 71
3
 72
16
 73
12
 74
0
 42
0.0000001
 43
0.0000001
 44
0.0000000001
 40
0.0
 40
0.0
 40
0.0
 40
0.0
 40
0.1287489199
 40
0.2703975045
 40
0.4176202269
 40
0.5620248003
 40
0.6957524809
 40
0.8130665861
 40
0.9124734249
 40
0.957120225
 40
1.0
 40
1.0
 40
1.0
 40
1.0
 10
181.1236740276
 20
204.9976574445
 30
0.0
 10
181.399512902
 20
204.8384053989
 30
0.0
 10
182.0240403102
 20
204.5807242896
 30
0.0
 10
183.041886946
 20
204.3771035376
 30
0.0
 10
184.1185036921
 20
204.347366044
 30
0.0
 10
185.1656797965
 20
204.4942946291
 30
0.0
 10
186.0997615718
 20
204.8069366625
 30
0.0
 10
186.8481605205
 20
205.2611359667
 30
0.0
 10
187.2842075975
 20
205.7617827617
 30
0.0
 10
187.4563007709
 20
206.1953513066
 30
0.0
 10
187.4847494629
 20
206.4127935171
 30
0.0
 10
187.4847349768
 20
206.5188729729
 30
0.0
  0
SPLINE
  5
365
100
AcDbEntity
  8
0
100
AcDbSpline
 62
7
  6
CONTINUOUS
 70
0
 71
3
 72
16
 73
12
 74
0
 42
0.0000001
 43
0.0000001
 44
0.0000000001
 40
0.0
 40
0.0
 40
0.0
 40
0.0
 40
0.1287489199
 40
0.2703975045
 40
0.4176202269
 40
0.5620248003
 40
0.6957524809
 40
0.8130665861
 40
0.9124734249
 40
0.957120225
 40
1.0
 40
1.0
 40
1.0
 40
1.0
 10
200.2154776324
 20
216.020249599
 30
0.0
 10
200.4913165068
 20
215.8609975534
 30
0.0
 10
201.1158439149
 20
215.6033164441
 30
0.0
 10
202.1336905507
 20
215.3996956922
 30
0.0
 10
203.2103072968
 20
215.3699581985
 30
0.0
 10
204.2574834013
 20
215.5168867836
 30
0.0
 10
205.1915651766
 20
215.829528817
 30
0.0
 10
205.9399641253
 20
216.2837281212
 30
0.0
 10
206.3760112023
 20
216.7843749162
 30
0.0
 10
206.5481043757
 20
217.2179434611
 30
0.0
 10
206.5765530677
 20
217.4353856716
 30
0.0
 10
206.5765385816
 20
217.5414651274
 30
0.0
  0
SPLINE
  5
366
100
AcDbEntity
  8
0
100
AcDbSpline
 62
7
  6
CONTINUOUS
 70
0
 71
3
 72
16
 73
12
 74
0
 42
0.0000001
 43
0.0000001
 44
0.0000000001
 40
0.0
 40
0.0
 40
0.0
 40
0.0
 40
0.1287447646
 40
0.2703977196
 40
0.417614529
 40
0.5620195613
 40
0.695750276
 40
0.8130651897
 40
0.9124721393
 40
0.9571212017
 40
1.0
 40
1.0
 40
1.0
 40
1.0
 10
108.9755385944
 20
250.916394386
 30
0.0
 10
109.2167579443
 20
250.77712948
 30
0.0
 10
109.7629235841
 20
250.5517915612
 30
0.0
 10
110.6530332338
 20
250.3736850853
 30
0.0
 10
111.594556859
 20
250.347691806
 30
0.0
 10
112.5103326531
 20
250.4761675021
 30
0.0
 10
113.327213066
 20
250.749583179
 30
0.0
 10
113.9817227118
 20
251.1468016588
 30
0.0
 10
114.3630083906
 20
251.5846514618
 30
0.0
 10
114.5135933615
 20
251.963790888
 30
0.0
 10
114.5384167639
 20
252.1539656113
 30
0.0
 10
114.5383799133
 20
252.2467322987
 30
0.0
  0
SPLINE
  5
367
100
AcDbEntity
  8
0
100
AcDbSpline
 62
7
  6
CONTINUOUS
 70
0
 71
3
 72
16
 73
12
 74
0
 42
0.0000001
 43
0.0000001
 44
0.0000000001
 40
0.0
 40
0.0
 40
0.0
 40
0.0
 40
0.1287447646
 40
0.2703977196
 40
0.417614529
 40
0.5620195613
 40
0.695750276
 40
0.8130651897
 40
0.9124721393
 40
0.9571212017
 40
1.0
 40
1.0
 40
1.0
 40
1.0
 10
128.0673421992
 20
261.9389865405
 30
0.0
 10
128.3085615491
 20
261.7997216345
 30
0.0
 10
128.8547271889
 20
261.5743837157
 30
0.0
 10
129.7448368386
 20
261.3962772398
 30
0.0
 10
130.6863604638
 20
261.3702839606
 30
0.0
 10
131.6021362578
 20
261.4987596566
 30
0.0
 10
132.4190166708
 20
261.7721753335
 30
0.0
 10
133.0735263166
 20
262.1693938133
 30
0.0
 10
133.4548119954
 20
262.6072436163
 30
0.0
 10
133.6053969663
 20
262.9863830426
 30
0.0
 10
133.6302203686
 20
263.1765577658
 30
0.0
 10
133.6301835181
 20
263.2693244533
 30
0.0
  0
SPLINE
  5
368
100
AcDbEntity
  8
0
100
AcDbSpline
 62
7
  6
CONTINUOUS
 70
0
 71
3
 72
16
 73
12
 74
0
 42
0.0000001
 43
0.0000001
 44
0.0000000001
 40
0.0
 40
0.0
 40
0.0
 40
0.0
 40
0.1287489199
 40
0.2703975045
 40
0.4176202269
 40
0.5620248003
 40
0.6957524809
 40
0.8130665861
 40
0.9124734249
 40
0.957120225
 40
1.0
 40
1.0
 40
1.0
 40
1.0
 10
186.3933507991
 20
208.0400885862
 30
0.0
 10
186.1175119248
 20
208.1993406318
 30
0.0
 10
185.4929845166
 20
208.4570217411
 30
0.0
 10
184.4751378808
 20
208.6606424931
 30
0.0
 10
183.3985211347
 20
208.6903799867
 30
0.0
 10
182.3513450302
 20
208.5434514016
 30
0.0
 10
181.4172632549
 20
208.2308093683
 30
0.0
 10
180.6688643063
 20
207.7766100641
 30
0.0
 10
180.2328172293
 20
207.275963269
 30
0.0
 10
180.0607240558
 20
206.8423947241
 30
0.0
 10
180.0322753639
 20
206.6249525136
 30
0.0
 10
180.03228985
 20
206.5188730579
 30
0.0
  0
SPLINE
  5
369
100
AcDbEntity
  8
0
100
AcDbSpline
 62
7
  6
CONTINUOUS
 70
0
 71
3
 72
11
 73
7
 74
0
 42
0.0000001
 43
0.0000001
 44
0.0000000001
 40
0.0
 40
0.0
 40
0.0
 40
0.0
 40
0.2177643494
 40
0.4508943819
 40
0.7103680107
 40
1.0
 40
1.0
 40
1.0
 40
1.0
 10
133.6301835181
 20
263.2693244533
 30
0.0
 10
133.6301342176
 20
263.3934321931
 30
0.0
 10
133.5844642366
 20
263.6521445319
 30
0.0
 10
133.3882308633
 20
264.012628969
 30
0.0
 10
133.0781394756
 20
264.3384029406
 30
0.0
 10
132.818748675
 20
264.5171310126
 30
0.0
 10
132.675796182
 20
264.5996628059
 30
0.0
  0
SPLINE
  5
36A
100
AcDbEntity
  8
0
100
AcDbSpline
 62
7
  6
CONTINUOUS
 70
0
 71
3
 72
16
 73
12
 74
0
 42
0.0000001
 43
0.0000001
 44
0.0000000001
 40
0.0
 40
0.0
 40
0.0
 40
0.0
 40
0.1287489199
 40
0.2703975045
 40
0.4176202269
 40
0.5620248003
 40
0.6957524809
 40
0.8130665861
 40
0.9124734249
 40
0.957120225
 40
1.0
 40
1.0
 40
1.0
 40
1.0
 10
205.4851544039
 20
219.0626807407
 30
0.0
 10
205.2093155295
 20
219.2219327863
 30
0.0
 10
204.5847881214
 20
219.4796138957
 30
0.0
 10
203.5669414856
 20
219.6832346476
 30
0.0
 10
202.4903247395
 20
219.7129721413
 30
0.0
 10
201.443148635
 20
219.5660435562
 30
0.0
 10
200.5090668597
 20
219.2534015228
 30
0.0
 10
199.760667911
 20
218.7992022186
 30
0.0
 10
199.324620834
 20
218.2985554236
 30
0.0
 10
199.1525276606
 20
217.8649868787
 30
0.0
 10
199.1240789686
 20
217.6475446682
 30
0.0
 10
199.1240934547
 20
217.5414652124
 30
0.0
  0
SPLINE
  5
36B
100
AcDbEntity
  8
0
100
AcDbSpline
 62
7
  6
CONTINUOUS
 70
0
 71
3
 72
11
 73
7
 74
0
 42
0.0000001
 43
0.0000001
 44
0.0000000001
 40
0.0
 40
0.0
 40
0.0
 40
0.0
 40
0.2177822878
 40
0.4509146108
 40
0.7103059136
 40
1.0
 40
1.0
 40
1.0
 40
1.0
 10
206.5765385816
 20
217.5414651274
 30
0.0
 10
206.5765192001
 20
217.6833922644
 30
0.0
 10
206.5241004164
 20
217.9792169593
 30
0.0
 10
206.2998218742
 20
218.3913969487
 30
0.0
 10
205.9452909222
 20
218.7639760187
 30
0.0
 10
205.648653595
 20
218.9682865742
 30
0.0
 10
205.4851544039
 20
219.0626807407
 30
0.0
  0
SPLINE
  5
36C
100
AcDbEntity
  8
0
100
AcDbSpline
 62
7
  6
CONTINUOUS
 70
0
 71
3
 72
11
 73
7
 74
0
 42
0.0000001
 43
0.0000001
 44
0.0000000001
 40
0.0
 40
0.0
 40
0.0
 40
0.0
 40
0.2177822878
 40
0.4509146108
 40
0.7103059136
 40
1.0
 40
1.0
 40
1.0
 40
1.0
 10
187.4847349768
 20
206.5188729729
 30
0.0
 10
187.4847155954
 20
206.6608001099
 30
0.0
 10
187.4322968117
 20
206.9566248047
 30
0.0
 10
187.2080182695
 20
207.3688047942
 30
0.0
 10
186.8534873174
 20
207.7413838642
 30
0.0
 10
186.5568499902
 20
207.9456944197
 30
0.0
 10
186.3933507991
 20
208.0400885862
 30
0.0
  0
SPLINE
  5
36D
100
AcDbEntity
  8
0
100
AcDbSpline
 62
7
  6
CONTINUOUS
 70
0
 71
3
 72
11
 73
7
 74
0
 42
0.0000001
 43
0.0000001
 44
0.0000000001
 40
0.0
 40
0.0
 40
0.0
 40
0.0
 40
0.2177643494
 40
0.4508943819
 40
0.7103680107
 40
1.0
 40
1.0
 40
1.0
 40
1.0
 10
114.5383799133
 20
252.2467322987
 30
0.0
 10
114.5383306128
 20
252.3708400385
 30
0.0
 10
114.4926606318
 20
252.6295523774
 30
0.0
 10
114.2964272586
 20
252.9900368145
 30
0.0
 10
113.9863358709
 20
253.315810786
 30
0.0
 10
113.7269450703
 20
253.4945388581
 30
0.0
 10
113.5839925772
 20
253.5770706514
 30
0.0
  0
SPLINE
  5
36E
100
AcDbEntity
  8
0
100
AcDbSpline
 62
7
  6
CONTINUOUS
 70
0
 71
3
 72
16
 73
12
 74
0
 42
0.0000001
 43
0.0000001
 44
0.0000000001
 40
0.0
 40
0.0
 40
0.0
 40
0.0
 40
0.1287447646
 40
0.2703977196
 40
0.417614529
 40
0.5620195613
 40
0.695750276
 40
0.8130651897
 40
0.9124721393
 40
0.9571212017
 40
1.0
 40
1.0
 40
1.0
 40
1.0
 10
113.5839925772
 20
253.5770706514
 30
0.0
 10
113.3427732273
 20
253.7163355573
 30
0.0
 10
112.7966075875
 20
253.9416734761
 30
0.0
 10
111.9064979378
 20
254.119779952
 30
0.0
 10
110.9649743126
 20
254.1457732313
 30
0.0
 10
110.0491985186
 20
254.0172975352
 30
0.0
 10
109.2323181056
 20
253.7438818583
 30
0.0
 10
108.5778084598
 20
253.3466633786
 30
0.0
 10
108.196522781
 20
252.9088135755
 30
0.0
 10
108.0459378101
 20
252.5296741493
 30
0.0
 10
108.0211144078
 20
252.339499426
 30
0.0
 10
108.0211512583
 20
252.2467327386
 30
0.0
  0
SPLINE
  5
36F
100
AcDbEntity
  8
0
100
AcDbSpline
 62
7
  6
CONTINUOUS
 70
0
 71
3
 72
16
 73
12
 74
0
 42
0.0000001
 43
0.0000001
 44
0.0000000001
 40
0.0
 40
0.0
 40
0.0
 40
0.0
 40
0.1287447646
 40
0.2703977196
 40
0.417614529
 40
0.5620195613
 40
0.695750276
 40
0.8130651897
 40
0.9124721393
 40
0.9571212017
 40
1.0
 40
1.0
 40
1.0
 40
1.0
 10
132.675796182
 20
264.5996628059
 30
0.0
 10
132.4345768321
 20
264.7389277119
 30
0.0
 10
131.8884111923
 20
264.9642656306
 30
0.0
 10
130.9983015426
 20
265.1423721066
 30
0.0
 10
130.0567779174
 20
265.1683653858
 30
0.0
 10
129.1410021233
 20
265.0398896898
 30
0.0
 10
128.3241217104
 20
264.7664740128
 30
0.0
 10
127.6696120646
 20
264.3692555331
 30
0.0
 10
127.2883263858
 20
263.93140573
 30
0.0
 10
127.1377414149
 20
263.5522663038
 30
0.0
 10
127.1129180125
 20
263.3620915805
 30
0.0
 10
127.1129548631
 20
263.2693248931
 30
0.0
  0
ENDSEC
  0
SECTION
  2
OBJECTS
  0
DICTIONARY
  5
C
100
AcDbDictionary
280
0
281
1
  3
ACAD_GROUP
350
D
  3
ACAD_MLINESTYLE
350
17
  3
ACAD_LAYOUT
350
1A
  3
ACAD_PLOTSETTINGS
350
19
  3
ACAD_PLOTSTYLENAME
350
E
  0
DICTIONARY
  5
D
102
{ACAD_REACTORS
330
C
102
}
100
AcDbDictionary
280
0
281
1
  0
ACDBDICTIONARYWDFLT
  5
E
102
{ACAD_REACTORS
330
C
102
}
100
AcDbDictionary
281
1
  3
Normal
350
F
100
AcDbDictionaryWithDefault
340
F
  0
DICTIONARY
  5
17
102
{ACAD_REACTORS
330
C
102
}
100
AcDbDictionary
280
0
281
1
  3
Standard
350
18
  0
DICTIONARY
  5
19
102
{ACAD_REACTORS
330
C
102
}
100
AcDbDictionary
281
1
  0
DICTIONARY
  5
1A
102
{ACAD_REACTORS
330
C
102
}
100
AcDbDictionary
281
1
  3
Model
350
370
  3
Layout1
350
371
  0
ACDBPLACEHOLDER
  5
F
102
{ACAD_REACTORS
330
E
102
}
  0
MLINESTYLE
  5
18
102
{ACAD_REACTORS
330
17
102
}
100
AcDbMlineStyle
  2
STANDARD
 70
0
  3

 62
256
 51
90.0
 52
90.0
 71
2
 49
0.5
 62
256
  6
BYLAYER
 49
-0.5
 62
256
  6
BYLAYER
  0
LAYOUT
  5
370
102
{ACAD_REACTORS
330
1A
102
}
100
AcDbPlotSettings
  1

  2
none_device
  4

  6

 40
0.0
 41
0.0
 42
0.0
 43
0.0
 44
210.0
 45
297.0
 46
0.0
 47
0.0
 48
0.0
 49
0.0
140
0.0
141
0.0
142
1.0
143
1.0
 70
1024
 72
1
 73
0
 74
0
  7

 75
0
147
1.0
148
0.0
149
0.0
100
AcDbLayout
  1
Model
 70
0
 71
0
 10
0.0
 20
0.0
 11
210.0
 21
297.0
 12
0.0
 22
0.0
 32
0.0
 14
0.0
 24
0.0
 34
0.0
 15
0.0
 25
0.0
 35
0.0
146
0.0
 13
0.0
 23
0.0
 33
0.0
 16
1.0
 26
0.0
 36
0.0
 17
0.0
 27
1.0
 37
0.0
 76
0
330
210
345
0
346
0
  0
LAYOUT
  5
371
102
{ACAD_REACTORS
330
1A
102
}
100
AcDbPlotSettings
  1

  2
none_device
  4

  6

 40
0.0
 41
0.0
 42
0.0
 43
0.0
 44
210.0
 45
297.0
 46
0.0
 47
0.0
 48
0.0
 49
0.0
140
0.0
141
0.0
142
1.0
143
1.0
 70
0
 72
1
 73
0
 74
0
  7

 75
0
147
1.0
148
0.0
149
0.0
100
AcDbLayout
  1
Layout1
 70
0
 71
1
 10
0.0
 20
0.0
 11
210.0
 21
297.0
 12
0.0
 22
0.0
 32
0.0
 14
0.0
 24
0.0
 34
0.0
 15
0.0
 25
0.0
 35
0.0
146
0.0
 13
0.0
 23
0.0
 33
0.0
 16
1.0
 26
0.0
 36
0.0
 17
0.0
 27
1.0
 37
0.0
 76
0
330
211
345
0
346
0
  0
ENDSEC
  0
EOF
