  0
SECTION
  2
HEADER
  9
$ACADVER
  1
AC1009
  9
$DWGCODEPAGE
  3
ansi_1250
  9
$INSBASE
 10
0.0
 20
0.0
 30
0.0
  9
$EXTMIN
 10
-4.135
 20
-6.43
 30
0.0
  9
$EXTMAX
 10
4.135
 20
6.43
 30
0.0
  9
$LIMMIN
 10
0.0
 20
0.0
  9
$LIMMAX
 10
0.0
 20
0.0
  9
$ORTHOMODE
 70
     0
  9
$REGENMODE
 70
     1
  9
$FILLMODE
 70
     1
  9
$QTEXTMODE
 70
     0
  9
$MIRRTEXT
 70
     1
  9
$DRAGMODE
 70
     2
  9
$LTSCALE
 40
1.0
  9
$OSMODE
 70
     0
  9
$ATTMODE
 70
     1
  9
$TEXTSIZE
 40
0.2
  9
$TRACEWID
 40
0.05
  9
$TEXTSTYLE
  7
STANDARD
  9
$CLAYER
  8
0
  9
$CELTYPE
  6
CONTINUOUS
  9
$CECOLOR
 62
   256
  9
$DIMSCALE
 40
1.0
  9
$DIMASZ
 40
0.18
  9
$DIMEXO
 40
0.0625
  9
$DIMDLI
 40
0.38
  9
$DIMRND
 40
0.0
  9
$DIMDLE
 40
0.0
  9
$DIMEXE
 40
0.18
  9
$DIMTP
 40
0.0
  9
$DIMTM
 40
0.0
  9
$DIMTXT
 40
0.18
  9
$DIMCEN
 40
0.09
  9
$DIMTSZ
 40
0.0
  9
$DIMTOL
 70
     0
  9
$DIMLIM
 70
     0
  9
$DIMTIH
 70
     1
  9
$DIMTOH
 70
     1
  9
$DIMSE1
 70
     0
  9
$DIMSE2
 70
     0
  9
$DIMTAD
 70
     0
  9
$DIMZIN
 70
     0
  9
$DIMBLK
  1

  9
$DIMASO
 70
     1
  9
$DIMSHO
 70
     1
  9
$DIMPOST
  1

  9
$DIMAPOST
  1

  9
$DIMALT
 70
     0
  9
$DIMALTD
 70
     2
  9
$DIMALTF
 40
25.4
  9
$DIMLFAC
 40
1.0
  9
$DIMTOFL
 70
     0
  9
$DIMTVP
 40
0.0
  9
$DIMTIX
 70
     0
  9
$DIMSOXD
 70
     0
  9
$DIMSAH
 70
     0
  9
$DIMBLK1
  1

  9
$DIMBLK2
  1

  9
$DIMSTYLE
  2
STANDARD
  9
$DIMCLRD
 70
     0
  9
$DIMCLRE
 70
     0
  9
$DIMCLRT
 70
     0
  9
$DIMTFAC
 40
1.0
  9
$DIMGAP
 40
0.09
  9
$LUNITS
 70
     2
  9
$LUPREC
 70
     4
  9
$AXISMODE
 70
     0
  9
$AXISUNIT
 10
0.0
 20
0.0
  9
$SKETCHINC
 40
0.1
  9
$FILLETRAD
 40
0.0
  9
$AUNITS
 70
     0
  9
$AUPREC
 70
     0
  9
$MENU
  1
acad
  9
$ELEVATION
 40
0.0
  9
$PELEVATION
 40
0.0
  9
$THICKNESS
 40
0.0
  9
$LIMCHECK
 70
     0
  9
$BLIPMODE
 70
     1
  9
$CHAMFERA
 40
0.0
  9
$CHAMFERB
 40
0.0
  9
$SKPOLY
 70
     0
  9
$TDCREATE
 40
0.000000000
  9
$TDUPDATE
 40
0.000000000
  9
$TDINDWG
 40
0.0000000000
  9
$TDUSRTIMER
 40
0.0000000000
  9
$USRTIMER
 70
     1
  9
$ANGBASE
 50
0.0
  9
$ANGDIR
 70
     0
  9
$PDMODE
 70
     0
  9
$PDSIZE
 40
0.0
  9
$PLINEWID
 40
0.0
  9
$COORDS
 70
     0
  9
$SPLFRAME
 70
     0
  9
$SPLINETYPE
 70
     6
  9
$SPLINESEGS
 70
     8
  9
$ATTDIA
 70
     0
  9
$ATTREQ
 70
     1
  9
$HANDLING
 70
     1
  9
$HANDSEED
  5
50C
  9
$SURFTAB1
 70
     6
  9
$SURFTAB2
 70
     6
  9
$SURFTYPE
 70
     6
  9
$SURFU
 70
     6
  9
$SURFV
 70
     6
  9
$UCSNAME
  2

  9
$UCSORG
 10
0.0
 20
0.0
 30
0.0
  9
$UCSXDIR
 10
1.0
 20
0.0
 30
0.0
  9
$UCSYDIR
 10
0.0
 20
1.0
 30
0.0
  9
$PUCSNAME
  2

  9
$PUCSORG
 10
0.0
 20
0.0
 30
0.0
  9
$PUCSXDIR
 10
1.0
 20
0.0
 30
0.0
  9
$PUCSYDIR
 10
0.0
 20
1.0
 30
0.0
  9
$USERI1
 70
     0
  9
$USERI2
 70
     0
  9
$USERI3
 70
     0
  9
$USERI4
 70
     0
  9
$USERI5
 70
     0
  9
$USERR1
 40
0.0
  9
$USERR2
 40
0.0
  9
$USERR3
 40
0.0
  9
$USERR4
 40
0.0
  9
$USERR5
 40
0.0
  9
$WORLDVIEW
 70
     1
  9
$SHADEDGE
 70
     3
  9
$SHADEDIF
 70
    70
  9
$TILEMODE
 70
     1
  9
$MAXACTVP
 70
    16
  9
$PINSBASE
 10
0.0
 20
0.0
 30
0.0
  9
$PLIMCHECK
 70
     0
  9
$PEXTMIN
 10
1.000000E+20
 20
1.000000E+20
 30
1.000000E+20
  9
$PEXTMAX
 10
-1.000000E+20
 20
-1.000000E+20
 30
-1.000000E+20
  9
$PLIMMIN
 10
0.0
 20
0.0
  9
$PLIMMAX
 10
12.0
 20
9.0
  9
$UNITMODE
 70
     0
  9
$VISRETAIN
 70
     0
  9
$PLINEGEN
 70
     1
  9
$PSLTSCALE
 70
     0
  9
$TREEDEPTH
 70
  3020
  0
ENDSEC
  0
SECTION
  2
TABLES
  0
TABLE
  2
VPORT
 70
     1
  0
VPORT
  2
*ACTIVE
 70
     0
 10
0.0
 20
0.0
 11
1.0
 21
1.0
 12
6.591288
 22
4.579184
 13
0.0
 23
0.0
 14
1.0
 24
1.0
 15
0.0
 25
0.0
 16
0.0
 26
0.0
 36
1.0
 17
0.0
 27
0.0
 37
0.0
 40
9.158369
 41
0.688564
 42
50.0
 43
0.0
 44
0.0
 50
0.0
 51
0.0
 71
     0
 72
   100
 73
     1
 74
     1
 75
     0
 76
     0
 77
     0
 78
     0
  0
ENDTAB
  0
TABLE
  2
LTYPE
 70
     5
  0
LTYPE
  2
CONTINUOUS
 70
    64
  3
Solid line
 72
    65
 73
     0
 40
0.0
  0
LTYPE
  2
CENTER
 70
    64
  3
Center ____ _ ____ _ ____ _ ____ _ ____ _ ____
 72
    65
 73
     4
 40
50.8
 49
31.75
 49
-6.35
 49
6.35
 49
-6.35
  0
LTYPE
  2
HIDDEN
 70
    64
  3
Hidden __ __ __ __ __ __ __ __ __ __ __ __ __ __
 72
    65
 73
     2
 40
9.525
 49
6.35
 49
-3.175
  0
LTYPE
  2
CENTER2
 70
    64
  3
Center (.5x) ___ _ ___ _ ___ _ ___ _ ___ _ ___
 72
    65
 73
     4
 40
28.575
 49
19.05
 49
-3.175
 49
3.175
 49
-3.175
  0
LTYPE
  2
HIDDEN2
 70
    64
  3
Hidden (.5x) _ _ _ _ _ _ _ _ _ _ _ _ _ _ _ _ _
 72
    65
 73
     2
 40
4.7625
 49
3.175
 49
-1.5875
  0
ENDTAB
  0
TABLE
  2
LAYER
 70
     1
  0
LAYER
  2
0
 70
     0
 62
     7
  6
CONTINUOUS
  0
ENDTAB
  0
TABLE
  2
STYLE
 70
     1
  0
STYLE
  2
STANDARD
 70
     0
 40
0.0
 41
1.0
 50
0.0
 71
     0
 42
0.0
  3
txt
  4

  0
ENDTAB
  0
TABLE
  2
VIEW
 70
     0
  0
ENDTAB
  0
TABLE
  2
UCS
 70
     0
  0
ENDTAB
  0
TABLE
  2
APPID
 70
     1
  0
APPID
  2
ACAD
 70
     0
  0
ENDTAB
  0
TABLE
  2
DIMSTYLE
 70
     1
  0
DIMSTYLE
  2
STANDARD
 70
     0
  3

  4

  5

  6

  7

 40
1.0
 41
0.18
 42
0.0625
 43
0.38
 44
0.18
 45
0.0
 46
0.0
 47
0.0
 48
0.0
 71
     0
 72
     0
 73
     1
 74
     1
 75
     0
 76
     0
 77
     0
 78
     0
140
0.18
141
0.09
142
0.0
143
25.4
144
1.0
145
0.0
146
1.0
147
0.09
170
     0
171
     2
172
     0
173
     0
174
     0
175
     0
176
     0
177
     0
178
     0
  0
ENDTAB
  0
ENDSEC
  0
SECTION
  2
BLOCKS
  0
ENDSEC
  0
SECTION
  2
ENTITIES
  0
LINE
  8
0
  6
CONTINUOUS
 62
     7
  5
2B4
 10
-3.997167
 20
6.23315
 30
0.0
 11
-3.997167
 21
6.43
 31
0.0
  0
LINE
  8
0
  6
CONTINUOUS
 62
     7
  5
2B5
 10
-1.516167
 20
6.43
 30
0.0
 11
-1.516167
 21
6.23315
 31
0.0
  0
LINE
  8
0
  6
CONTINUOUS
 62
     7
  5
2B6
 10
-2.099659
 20
-5.343386
 30
0.0
 11
-2.10013
 21
-5.355838
 31
0.0
  0
LINE
  8
0
  6
CONTINUOUS
 62
     7
  5
2B7
 10
-2.10013
 20
-5.355838
 30
0.0
 11
-2.101573
 21
-5.368434
 31
0.0
  0
LINE
  8
0
  6
CONTINUOUS
 62
     7
  5
2B8
 10
-2.101573
 20
-5.368434
 30
0.0
 11
-2.104013
 21
-5.381028
 31
0.0
  0
LINE
  8
0
  6
CONTINUOUS
 62
     7
  5
2B9
 10
-2.104013
 20
-5.381028
 30
0.0
 11
-2.107449
 21
-5.39347
 31
0.0
  0
LINE
  8
0
  6
CONTINUOUS
 62
     7
  5
2BA
 10
-2.107449
 20
-5.39347
 30
0.0
 11
-2.111857
 21
-5.405624
 31
0.0
  0
LINE
  8
0
  6
CONTINUOUS
 62
     7
  5
2BB
 10
-2.111857
 20
-5.405624
 30
0.0
 11
-2.117192
 21
-5.417375
 31
0.0
  0
LINE
  8
0
  6
CONTINUOUS
 62
     7
  5
2BC
 10
-2.117192
 20
-5.417375
 30
0.0
 11
-2.123396
 21
-5.428617
 31
0.0
  0
LINE
  8
0
  6
CONTINUOUS
 62
     7
  5
2BD
 10
-2.123396
 20
-5.428617
 30
0.0
 11
-2.130387
 21
-5.439244
 31
0.0
  0
LINE
  8
0
  6
CONTINUOUS
 62
     7
  5
2BE
 10
-2.130387
 20
-5.439244
 30
0.0
 11
-2.138059
 21
-5.449162
 31
0.0
  0
LINE
  8
0
  6
CONTINUOUS
 62
     7
  5
2BF
 10
-2.138059
 20
-5.449162
 30
0.0
 11
-2.146291
 21
-5.45829
 31
0.0
  0
LINE
  8
0
  6
CONTINUOUS
 62
     7
  5
2C0
 10
-2.146291
 20
-5.45829
 30
0.0
 11
-2.155105
 21
-5.466714
 31
0.0
  0
LINE
  8
0
  6
CONTINUOUS
 62
     7
  5
2C1
 10
-2.155105
 20
-5.466714
 30
0.0
 11
-2.164729
 21
-5.474625
 31
0.0
  0
LINE
  8
0
  6
CONTINUOUS
 62
     7
  5
2C2
 10
-2.164729
 20
-5.474625
 30
0.0
 11
-2.175101
 21
-5.481901
 31
0.0
  0
LINE
  8
0
  6
CONTINUOUS
 62
     7
  5
2C3
 10
-2.175101
 20
-5.481901
 30
0.0
 11
-2.18613
 21
-5.48843
 31
0.0
  0
LINE
  8
0
  6
CONTINUOUS
 62
     7
  5
2C4
 10
-2.18613
 20
-5.48843
 30
0.0
 11
-2.197712
 21
-5.494117
 31
0.0
  0
LINE
  8
0
  6
CONTINUOUS
 62
     7
  5
2C5
 10
-2.197712
 20
-5.494117
 30
0.0
 11
-2.20974
 21
-5.498894
 31
0.0
  0
LINE
  8
0
  6
CONTINUOUS
 62
     7
  5
2C6
 10
-2.20974
 20
-5.498894
 30
0.0
 11
-2.222102
 21
-5.502713
 31
0.0
  0
LINE
  8
0
  6
CONTINUOUS
 62
     7
  5
2C7
 10
-2.222102
 20
-5.502713
 30
0.0
 11
-2.234668
 21
-5.505539
 31
0.0
  0
LINE
  8
0
  6
CONTINUOUS
 62
     7
  5
2C8
 10
-2.234668
 20
-5.505539
 30
0.0
 11
-2.247291
 21
-5.507363
 31
0.0
  0
LINE
  8
0
  6
CONTINUOUS
 62
     7
  5
2C9
 10
-2.247291
 20
-5.507363
 30
0.0
 11
-2.25982
 21
-5.5082
 31
0.0
  0
LINE
  8
0
  6
CONTINUOUS
 62
     7
  5
2CA
 10
-2.25982
 20
-5.5082
 30
0.0
 11
-2.272222
 21
-5.508089
 31
0.0
  0
LINE
  8
0
  6
CONTINUOUS
 62
     7
  5
2CB
 10
-2.272222
 20
-5.508089
 30
0.0
 11
-2.284787
 21
-5.50702
 31
0.0
  0
LINE
  8
0
  6
CONTINUOUS
 62
     7
  5
2CC
 10
-2.284787
 20
-5.50702
 30
0.0
 11
-2.29741
 21
-5.504958
 31
0.0
  0
LINE
  8
0
  6
CONTINUOUS
 62
     7
  5
2CD
 10
-2.29741
 20
-5.504958
 30
0.0
 11
-2.30994
 21
-5.501894
 31
0.0
  0
LINE
  8
0
  6
CONTINUOUS
 62
     7
  5
2CE
 10
-2.30994
 20
-5.501894
 30
0.0
 11
-2.322234
 21
-5.497845
 31
0.0
  0
LINE
  8
0
  6
CONTINUOUS
 62
     7
  5
2CF
 10
-2.322234
 20
-5.497845
 30
0.0
 11
-2.334166
 21
-5.492846
 31
0.0
  0
LINE
  8
0
  6
CONTINUOUS
 62
     7
  5
2D0
 10
-2.334166
 20
-5.492846
 30
0.0
 11
-2.345626
 21
-5.486952
 31
0.0
  0
LINE
  8
0
  6
CONTINUOUS
 62
     7
  5
2D1
 10
-2.345626
 20
-5.486952
 30
0.0
 11
-2.356508
 21
-5.480236
 31
0.0
  0
LINE
  8
0
  6
CONTINUOUS
 62
     7
  5
2D2
 10
-2.356508
 20
-5.480236
 30
0.0
 11
-2.36671
 21
-5.472798
 31
0.0
  0
LINE
  8
0
  6
CONTINUOUS
 62
     7
  5
2D3
 10
-2.36671
 20
-5.472798
 30
0.0
 11
-2.376145
 21
-5.464755
 31
0.0
  0
LINE
  8
0
  6
CONTINUOUS
 62
     7
  5
2D4
 10
-2.376145
 20
-5.464755
 30
0.0
 11
-2.38479
 21
-5.456196
 31
0.0
  0
LINE
  8
0
  6
CONTINUOUS
 62
     7
  5
2D5
 10
-2.38479
 20
-5.456196
 30
0.0
 11
-2.392901
 21
-5.446874
 31
0.0
  0
LINE
  8
0
  6
CONTINUOUS
 62
     7
  5
2D6
 10
-2.392901
 20
-5.446874
 30
0.0
 11
-2.400422
 21
-5.43678
 31
0.0
  0
LINE
  8
0
  6
CONTINUOUS
 62
     7
  5
2D7
 10
-2.400422
 20
-5.43678
 30
0.0
 11
-2.407234
 21
-5.425997
 31
0.0
  0
LINE
  8
0
  6
CONTINUOUS
 62
     7
  5
2D8
 10
-2.407234
 20
-5.425997
 30
0.0
 11
-2.413238
 21
-5.414625
 31
0.0
  0
LINE
  8
0
  6
CONTINUOUS
 62
     7
  5
2D9
 10
-1.516167
 20
-6.23315
 30
0.0
 11
-1.516167
 21
-6.43
 31
0.0
  0
LINE
  8
0
  6
CONTINUOUS
 62
     7
  5
2DA
 10
-3.997167
 20
-6.43
 30
0.0
 11
-3.997167
 21
-6.23315
 31
0.0
  0
LINE
  8
0
  6
CONTINUOUS
 62
     7
  5
2DB
 10
-1.575238
 20
-5.542216
 30
0.0
 11
-1.565005
 21
-5.533982
 31
0.0
  0
LINE
  8
0
  6
CONTINUOUS
 62
     7
  5
2DC
 10
-1.565005
 20
-5.533982
 30
0.0
 11
-1.555218
 21
-5.525222
 31
0.0
  0
LINE
  8
0
  6
CONTINUOUS
 62
     7
  5
2DD
 10
-1.555218
 20
-5.525222
 30
0.0
 11
-1.545904
 21
-5.51596
 31
0.0
  0
LINE
  8
0
  6
CONTINUOUS
 62
     7
  5
2DE
 10
-1.545904
 20
-5.51596
 30
0.0
 11
-1.53709
 21
-5.506222
 31
0.0
  0
LINE
  8
0
  6
CONTINUOUS
 62
     7
  5
2DF
 10
-1.53709
 20
-5.506222
 30
0.0
 11
-1.5288
 21
-5.496034
 31
0.0
  0
LINE
  8
0
  6
CONTINUOUS
 62
     7
  5
2E0
 10
-1.5288
 20
-5.496034
 30
0.0
 11
-1.521056
 21
-5.485425
 31
0.0
  0
LINE
  8
0
  6
CONTINUOUS
 62
     7
  5
2E1
 10
-1.521056
 20
-5.485425
 30
0.0
 11
-1.51388
 21
-5.474424
 31
0.0
  0
LINE
  8
0
  6
CONTINUOUS
 62
     7
  5
2E2
 10
-1.51388
 20
-5.474424
 30
0.0
 11
-1.507291
 21
-5.463061
 31
0.0
  0
LINE
  8
0
  6
CONTINUOUS
 62
     7
  5
2E3
 10
-1.507291
 20
-5.463061
 30
0.0
 11
-1.501309
 21
-5.451368
 31
0.0
  0
LINE
  8
0
  6
CONTINUOUS
 62
     7
  5
2E4
 10
-1.501309
 20
-5.451368
 30
0.0
 11
-1.495949
 21
-5.439377
 31
0.0
  0
LINE
  8
0
  6
CONTINUOUS
 62
     7
  5
2E5
 10
-1.495949
 20
-5.439377
 30
0.0
 11
-1.491226
 21
-5.427121
 31
0.0
  0
LINE
  8
0
  6
CONTINUOUS
 62
     7
  5
2E6
 10
-1.491226
 20
-5.427121
 30
0.0
 11
-1.487153
 21
-5.414633
 31
0.0
  0
LINE
  8
0
  6
CONTINUOUS
 62
     7
  5
2E7
 10
-1.487153
 20
-5.414633
 30
0.0
 11
-1.483742
 21
-5.401949
 31
0.0
  0
LINE
  8
0
  6
CONTINUOUS
 62
     7
  5
2E8
 10
-1.483742
 20
-5.401949
 30
0.0
 11
-1.481002
 21
-5.389104
 31
0.0
  0
LINE
  8
0
  6
CONTINUOUS
 62
     7
  5
2E9
 10
-1.481002
 20
-5.389104
 30
0.0
 11
-1.47894
 21
-5.376132
 31
0.0
  0
LINE
  8
0
  6
CONTINUOUS
 62
     7
  5
2EA
 10
-1.47894
 20
-5.376132
 30
0.0
 11
-1.477562
 21
-5.36307
 31
0.0
  0
LINE
  8
0
  6
CONTINUOUS
 62
     7
  5
2EB
 10
-1.477562
 20
-5.36307
 30
0.0
 11
-1.476872
 21
-5.349953
 31
0.0
  0
LINE
  8
0
  6
CONTINUOUS
 62
     7
  5
2EC
 10
-1.476872
 20
-5.349953
 30
0.0
 11
-1.476872
 21
-5.336818
 31
0.0
  0
LINE
  8
0
  6
CONTINUOUS
 62
     7
  5
2ED
 10
-1.476872
 20
-5.336818
 30
0.0
 11
-1.477562
 21
-5.323702
 31
0.0
  0
LINE
  8
0
  6
CONTINUOUS
 62
     7
  5
2EE
 10
-1.477562
 20
-5.323702
 30
0.0
 11
-1.47894
 21
-5.31064
 31
0.0
  0
LINE
  8
0
  6
CONTINUOUS
 62
     7
  5
2EF
 10
-1.47894
 20
-5.31064
 30
0.0
 11
-1.481002
 21
-5.297668
 31
0.0
  0
LINE
  8
0
  6
CONTINUOUS
 62
     7
  5
2F0
 10
-1.481002
 20
-5.297668
 30
0.0
 11
-1.483742
 21
-5.284822
 31
0.0
  0
LINE
  8
0
  6
CONTINUOUS
 62
     7
  5
2F1
 10
-1.483742
 20
-5.284822
 30
0.0
 11
-1.487153
 21
-5.272138
 31
0.0
  0
LINE
  8
0
  6
CONTINUOUS
 62
     7
  5
2F2
 10
-1.487153
 20
-5.272138
 30
0.0
 11
-1.491226
 21
-5.259651
 31
0.0
  0
LINE
  8
0
  6
CONTINUOUS
 62
     7
  5
2F3
 10
-1.491226
 20
-5.259651
 30
0.0
 11
-1.495949
 21
-5.247395
 31
0.0
  0
LINE
  8
0
  6
CONTINUOUS
 62
     7
  5
2F4
 10
-1.495949
 20
-5.247395
 30
0.0
 11
-1.501309
 21
-5.235403
 31
0.0
  0
LINE
  8
0
  6
CONTINUOUS
 62
     7
  5
2F5
 10
-1.501309
 20
-5.235403
 30
0.0
 11
-1.507291
 21
-5.22371
 31
0.0
  0
LINE
  8
0
  6
CONTINUOUS
 62
     7
  5
2F6
 10
-1.507291
 20
-5.22371
 30
0.0
 11
-1.51388
 21
-5.212347
 31
0.0
  0
LINE
  8
0
  6
CONTINUOUS
 62
     7
  5
2F7
 10
-1.51388
 20
-5.212347
 30
0.0
 11
-1.521056
 21
-5.201346
 31
0.0
  0
LINE
  8
0
  6
CONTINUOUS
 62
     7
  5
2F8
 10
-1.521056
 20
-5.201346
 30
0.0
 11
-1.5288
 21
-5.190737
 31
0.0
  0
LINE
  8
0
  6
CONTINUOUS
 62
     7
  5
2F9
 10
-1.5288
 20
-5.190737
 30
0.0
 11
-1.53709
 21
-5.18055
 31
0.0
  0
LINE
  8
0
  6
CONTINUOUS
 62
     7
  5
2FA
 10
-1.53709
 20
-5.18055
 30
0.0
 11
-1.545904
 21
-5.170811
 31
0.0
  0
LINE
  8
0
  6
CONTINUOUS
 62
     7
  5
2FB
 10
-1.545904
 20
-5.170811
 30
0.0
 11
-1.555218
 21
-5.16155
 31
0.0
  0
LINE
  8
0
  6
CONTINUOUS
 62
     7
  5
2FC
 10
-1.555218
 20
-5.16155
 30
0.0
 11
-1.565005
 21
-5.15279
 31
0.0
  0
LINE
  8
0
  6
CONTINUOUS
 62
     7
  5
2FD
 10
-1.565005
 20
-5.15279
 30
0.0
 11
-1.575238
 21
-5.144556
 31
0.0
  0
LINE
  8
0
  6
CONTINUOUS
 62
     7
  5
2FE
 10
-1.378333
 20
-6.23315
 30
0.0
 11
-1.575238
 21
-6.23315
 31
0.0
  0
LINE
  8
0
  6
CONTINUOUS
 62
     7
  5
2FF
 10
-1.378333
 20
-6.23315
 30
0.0
 11
-1.378333
 21
-4.192375
 31
0.0
  0
LINE
  8
0
  6
CONTINUOUS
 62
     7
  5
300
 10
-1.575238
 20
-5.144556
 30
0.0
 11
-1.575238
 21
-4.192375
 31
0.0
  0
LINE
  8
0
  6
CONTINUOUS
 62
     7
  5
301
 10
-1.575238
 20
-6.23315
 30
0.0
 11
-1.575238
 21
-5.542216
 31
0.0
  0
ARC
  8
0
  6
CONTINUOUS
 62
     7
  5
302
 10
-1.726786
 20
-5.343386
 30
0.0
 40
0.25
 50
52.685444
 51
90.0
  0
ARC
  8
0
  6
CONTINUOUS
 62
     7
  5
303
 10
-1.726786
 20
-5.343386
 30
0.0
 40
0.25
 50
270.0
 51
307.314556
  0
LINE
  8
0
  6
CONTINUOUS
 62
     7
  5
304
 10
-1.575238
 20
-4.192375
 30
0.0
 11
-4.135
 21
-4.192375
 31
0.0
  0
LINE
  8
0
  6
CONTINUOUS
 62
     7
  5
305
 10
-1.575238
 20
5.542216
 30
0.0
 11
-1.575238
 21
6.23315
 31
0.0
  0
LINE
  8
0
  6
CONTINUOUS
 62
     7
  5
306
 10
-1.575238
 20
4.192375
 30
0.0
 11
-1.575238
 21
5.144556
 31
0.0
  0
LINE
  8
0
  6
CONTINUOUS
 62
     7
  5
307
 10
-1.575238
 20
6.23315
 30
0.0
 11
-1.378333
 21
6.23315
 31
0.0
  0
LINE
  8
0
  6
CONTINUOUS
 62
     7
  5
308
 10
-1.575238
 20
5.144556
 30
0.0
 11
-1.565005
 21
5.15279
 31
0.0
  0
LINE
  8
0
  6
CONTINUOUS
 62
     7
  5
309
 10
-1.565005
 20
5.15279
 30
0.0
 11
-1.555218
 21
5.16155
 31
0.0
  0
LINE
  8
0
  6
CONTINUOUS
 62
     7
  5
30A
 10
-1.555218
 20
5.16155
 30
0.0
 11
-1.545904
 21
5.170811
 31
0.0
  0
LINE
  8
0
  6
CONTINUOUS
 62
     7
  5
30B
 10
-1.545904
 20
5.170811
 30
0.0
 11
-1.53709
 21
5.18055
 31
0.0
  0
LINE
  8
0
  6
CONTINUOUS
 62
     7
  5
30C
 10
-1.53709
 20
5.18055
 30
0.0
 11
-1.5288
 21
5.190737
 31
0.0
  0
LINE
  8
0
  6
CONTINUOUS
 62
     7
  5
30D
 10
-1.5288
 20
5.190737
 30
0.0
 11
-1.521056
 21
5.201346
 31
0.0
  0
LINE
  8
0
  6
CONTINUOUS
 62
     7
  5
30E
 10
-1.521056
 20
5.201346
 30
0.0
 11
-1.51388
 21
5.212347
 31
0.0
  0
LINE
  8
0
  6
CONTINUOUS
 62
     7
  5
30F
 10
-1.51388
 20
5.212347
 30
0.0
 11
-1.507291
 21
5.22371
 31
0.0
  0
LINE
  8
0
  6
CONTINUOUS
 62
     7
  5
310
 10
-1.507291
 20
5.22371
 30
0.0
 11
-1.501309
 21
5.235403
 31
0.0
  0
LINE
  8
0
  6
CONTINUOUS
 62
     7
  5
311
 10
-1.501309
 20
5.235403
 30
0.0
 11
-1.495949
 21
5.247395
 31
0.0
  0
LINE
  8
0
  6
CONTINUOUS
 62
     7
  5
312
 10
-1.495949
 20
5.247395
 30
0.0
 11
-1.491226
 21
5.259651
 31
0.0
  0
LINE
  8
0
  6
CONTINUOUS
 62
     7
  5
313
 10
-1.491226
 20
5.259651
 30
0.0
 11
-1.487153
 21
5.272138
 31
0.0
  0
LINE
  8
0
  6
CONTINUOUS
 62
     7
  5
314
 10
-1.487153
 20
5.272138
 30
0.0
 11
-1.483742
 21
5.284822
 31
0.0
  0
LINE
  8
0
  6
CONTINUOUS
 62
     7
  5
315
 10
-1.483742
 20
5.284822
 30
0.0
 11
-1.481002
 21
5.297668
 31
0.0
  0
LINE
  8
0
  6
CONTINUOUS
 62
     7
  5
316
 10
-1.481002
 20
5.297668
 30
0.0
 11
-1.47894
 21
5.31064
 31
0.0
  0
LINE
  8
0
  6
CONTINUOUS
 62
     7
  5
317
 10
-1.47894
 20
5.31064
 30
0.0
 11
-1.477562
 21
5.323702
 31
0.0
  0
LINE
  8
0
  6
CONTINUOUS
 62
     7
  5
318
 10
-1.477562
 20
5.323702
 30
0.0
 11
-1.476872
 21
5.336818
 31
0.0
  0
LINE
  8
0
  6
CONTINUOUS
 62
     7
  5
319
 10
-1.476872
 20
5.336818
 30
0.0
 11
-1.476872
 21
5.349953
 31
0.0
  0
LINE
  8
0
  6
CONTINUOUS
 62
     7
  5
31A
 10
-1.476872
 20
5.349953
 30
0.0
 11
-1.477562
 21
5.36307
 31
0.0
  0
LINE
  8
0
  6
CONTINUOUS
 62
     7
  5
31B
 10
-1.477562
 20
5.36307
 30
0.0
 11
-1.47894
 21
5.376132
 31
0.0
  0
LINE
  8
0
  6
CONTINUOUS
 62
     7
  5
31C
 10
-1.47894
 20
5.376132
 30
0.0
 11
-1.481002
 21
5.389104
 31
0.0
  0
LINE
  8
0
  6
CONTINUOUS
 62
     7
  5
31D
 10
-1.481002
 20
5.389104
 30
0.0
 11
-1.483742
 21
5.401949
 31
0.0
  0
LINE
  8
0
  6
CONTINUOUS
 62
     7
  5
31E
 10
-1.483742
 20
5.401949
 30
0.0
 11
-1.487153
 21
5.414633
 31
0.0
  0
LINE
  8
0
  6
CONTINUOUS
 62
     7
  5
31F
 10
-1.487153
 20
5.414633
 30
0.0
 11
-1.491226
 21
5.427121
 31
0.0
  0
LINE
  8
0
  6
CONTINUOUS
 62
     7
  5
320
 10
-1.491226
 20
5.427121
 30
0.0
 11
-1.495949
 21
5.439377
 31
0.0
  0
LINE
  8
0
  6
CONTINUOUS
 62
     7
  5
321
 10
-1.495949
 20
5.439377
 30
0.0
 11
-1.501309
 21
5.451368
 31
0.0
  0
LINE
  8
0
  6
CONTINUOUS
 62
     7
  5
322
 10
-1.501309
 20
5.451368
 30
0.0
 11
-1.507291
 21
5.463061
 31
0.0
  0
LINE
  8
0
  6
CONTINUOUS
 62
     7
  5
323
 10
-1.507291
 20
5.463061
 30
0.0
 11
-1.51388
 21
5.474424
 31
0.0
  0
LINE
  8
0
  6
CONTINUOUS
 62
     7
  5
324
 10
-1.51388
 20
5.474424
 30
0.0
 11
-1.521056
 21
5.485425
 31
0.0
  0
LINE
  8
0
  6
CONTINUOUS
 62
     7
  5
325
 10
-1.521056
 20
5.485425
 30
0.0
 11
-1.5288
 21
5.496034
 31
0.0
  0
LINE
  8
0
  6
CONTINUOUS
 62
     7
  5
326
 10
-1.5288
 20
5.496034
 30
0.0
 11
-1.53709
 21
5.506222
 31
0.0
  0
LINE
  8
0
  6
CONTINUOUS
 62
     7
  5
327
 10
-1.53709
 20
5.506222
 30
0.0
 11
-1.545904
 21
5.51596
 31
0.0
  0
LINE
  8
0
  6
CONTINUOUS
 62
     7
  5
328
 10
-1.545904
 20
5.51596
 30
0.0
 11
-1.555218
 21
5.525222
 31
0.0
  0
LINE
  8
0
  6
CONTINUOUS
 62
     7
  5
329
 10
-1.555218
 20
5.525222
 30
0.0
 11
-1.565005
 21
5.533982
 31
0.0
  0
LINE
  8
0
  6
CONTINUOUS
 62
     7
  5
32A
 10
-1.565005
 20
5.533982
 30
0.0
 11
-1.575238
 21
5.542216
 31
0.0
  0
LINE
  8
0
  6
CONTINUOUS
 62
     7
  5
32B
 10
-1.378333
 20
4.192375
 30
0.0
 11
-1.378333
 21
6.23315
 31
0.0
  0
LINE
  8
0
  6
CONTINUOUS
 62
     7
  5
32C
 10
-4.135
 20
4.192375
 30
0.0
 11
-1.575238
 21
4.192375
 31
0.0
  0
ARC
  8
0
  6
CONTINUOUS
 62
     7
  5
32D
 10
-1.726786
 20
5.343386
 30
0.0
 40
0.25
 50
52.685444
 51
90.0
  0
ARC
  8
0
  6
CONTINUOUS
 62
     7
  5
32E
 10
-1.726786
 20
5.343386
 30
0.0
 40
0.25
 50
270.0
 51
307.314556
  0
LINE
  8
0
  6
CONTINUOUS
 62
     7
  5
32F
 10
-1.726786
 20
5.093386
 30
0.0
 11
-3.786548
 21
5.093386
 31
0.0
  0
ARC
  8
0
  6
CONTINUOUS
 62
     7
  5
330
 10
-3.786548
 20
5.343386
 30
0.0
 40
0.25
 50
90.0
 51
270.0
  0
LINE
  8
0
  6
CONTINUOUS
 62
     7
  5
331
 10
-3.786548
 20
5.593386
 30
0.0
 11
-1.726786
 21
5.593386
 31
0.0
  0
LINE
  8
0
  6
CONTINUOUS
 62
     7
  5
332
 10
-1.575238
 20
6.23315
 30
0.0
 11
-4.135
 21
6.23315
 31
0.0
  0
LINE
  8
0
  6
CONTINUOUS
 62
     7
  5
333
 10
-4.135
 20
6.23315
 30
0.0
 11
-4.135
 21
4.192375
 31
0.0
  0
CIRCLE
  8
0
  6
CONTINUOUS
 62
     7
  5
334
 10
-3.915
 20
3.93
 30
0.0
 40
0.11
  0
CIRCLE
  8
0
  6
CONTINUOUS
 62
     7
  5
335
 10
-3.915
 20
-3.94
 30
0.0
 40
0.11
  0
LINE
  8
0
  6
CONTINUOUS
 62
     7
  5
336
 10
-1.726786
 20
-5.593386
 30
0.0
 11
-3.786548
 21
-5.593386
 31
0.0
  0
ARC
  8
0
  6
CONTINUOUS
 62
     7
  5
337
 10
-3.786548
 20
-5.343386
 30
0.0
 40
0.25
 50
90.0
 51
270.0
  0
LINE
  8
0
  6
CONTINUOUS
 62
     7
  5
338
 10
-3.786548
 20
-5.093386
 30
0.0
 11
-1.726786
 21
-5.093386
 31
0.0
  0
LINE
  8
0
  6
CONTINUOUS
 62
     7
  5
339
 10
-4.135
 20
-4.192375
 30
0.0
 11
-4.135
 21
-6.23315
 31
0.0
  0
LINE
  8
0
  6
CONTINUOUS
 62
     7
  5
33A
 10
-4.135
 20
-6.23315
 30
0.0
 11
-1.575238
 21
-6.23315
 31
0.0
  0
CIRCLE
  8
0
  6
CONTINUOUS
 62
     7
  5
33B
 10
-2.756667
 20
5.343386
 30
0.0
 40
0.164882
  0
CIRCLE
  8
0
  6
CONTINUOUS
 62
     7
  5
33C
 10
-2.756667
 20
-5.343386
 30
0.0
 40
0.164882
  0
CIRCLE
  8
0
  6
CONTINUOUS
 62
     7
  5
33D
 10
-3.248793
 20
5.343386
 30
0.0
 40
0.164882
  0
CIRCLE
  8
0
  6
CONTINUOUS
 62
     7
  5
33E
 10
-2.264541
 20
5.343386
 30
0.0
 40
0.164882
  0
CIRCLE
  8
0
  6
CONTINUOUS
 62
     7
  5
33F
 10
-3.248793
 20
-5.343386
 30
0.0
 40
0.164882
  0
CIRCLE
  8
0
  6
CONTINUOUS
 62
     7
  5
340
 10
-2.264541
 20
-5.343386
 30
0.0
 40
0.164882
  0
LINE
  8
0
  6
CONTINUOUS
 62
     7
  5
341
 10
-1.516167
 20
-6.43
 30
0.0
 11
-3.997167
 21
-6.43
 31
0.0
  0
LINE
  8
0
  6
CONTINUOUS
 62
     7
  5
342
 10
-3.997167
 20
6.43
 30
0.0
 11
-1.516167
 21
6.43
 31
0.0
  0
LINE
  8
0
  6
CONTINUOUS
 62
     7
  5
343
 10
-4.135
 20
6.43
 30
0.0
 11
-3.997167
 21
6.43
 31
0.0
  0
LINE
  8
0
  6
CONTINUOUS
 62
     7
  5
344
 10
-4.135
 20
6.23315
 30
0.0
 11
-4.135
 21
6.43
 31
0.0
  0
LINE
  8
0
  6
CONTINUOUS
 62
     7
  5
345
 10
-4.135
 20
-6.43
 30
0.0
 11
-4.135
 21
-6.23315
 31
0.0
  0
LINE
  8
0
  6
CONTINUOUS
 62
     7
  5
346
 10
-3.997167
 20
-6.43
 30
0.0
 11
-4.135
 21
-6.43
 31
0.0
  0
LINE
  8
0
  6
CONTINUOUS
 62
     7
  5
347
 10
-4.135
 20
-4.192375
 30
0.0
 11
-4.135
 21
4.192375
 31
0.0
  0
LINE
  8
0
  6
CONTINUOUS
 62
     7
  5
348
 10
-1.2405
 20
6.23315
 30
0.0
 11
-1.2405
 21
6.43
 31
0.0
  0
LINE
  8
0
  6
CONTINUOUS
 62
     7
  5
349
 10
1.2405
 20
6.43
 30
0.0
 11
1.2405
 21
6.23315
 31
0.0
  0
LINE
  8
0
  6
CONTINUOUS
 62
     7
  5
34A
 10
1.2405
 20
-6.23315
 30
0.0
 11
1.2405
 21
-6.43
 31
0.0
  0
LINE
  8
0
  6
CONTINUOUS
 62
     7
  5
34B
 10
-1.2405
 20
-6.43
 30
0.0
 11
-1.2405
 21
-6.23315
 31
0.0
  0
LINE
  8
0
  6
CONTINUOUS
 62
     7
  5
34C
 10
-1.181429
 20
-4.192375
 30
0.0
 11
-1.181429
 21
-5.144556
 31
0.0
  0
LINE
  8
0
  6
CONTINUOUS
 62
     7
  5
34D
 10
-1.181429
 20
-5.542216
 30
0.0
 11
-1.181429
 21
-6.23315
 31
0.0
  0
LINE
  8
0
  6
CONTINUOUS
 62
     7
  5
34E
 10
-1.575238
 20
-4.192375
 30
0.0
 11
-1.181429
 21
-4.192375
 31
0.0
  0
LINE
  8
0
  6
CONTINUOUS
 62
     7
  5
34F
 10
-1.181429
 20
-5.144556
 30
0.0
 11
-1.191662
 21
-5.15279
 31
0.0
  0
LINE
  8
0
  6
CONTINUOUS
 62
     7
  5
350
 10
-1.191662
 20
-5.15279
 30
0.0
 11
-1.201449
 21
-5.16155
 31
0.0
  0
LINE
  8
0
  6
CONTINUOUS
 62
     7
  5
351
 10
-1.201449
 20
-5.16155
 30
0.0
 11
-1.210762
 21
-5.170811
 31
0.0
  0
LINE
  8
0
  6
CONTINUOUS
 62
     7
  5
352
 10
-1.210762
 20
-5.170811
 30
0.0
 11
-1.219576
 21
-5.18055
 31
0.0
  0
LINE
  8
0
  6
CONTINUOUS
 62
     7
  5
353
 10
-1.219576
 20
-5.18055
 30
0.0
 11
-1.227867
 21
-5.190737
 31
0.0
  0
LINE
  8
0
  6
CONTINUOUS
 62
     7
  5
354
 10
-1.227867
 20
-5.190737
 30
0.0
 11
-1.235611
 21
-5.201346
 31
0.0
  0
LINE
  8
0
  6
CONTINUOUS
 62
     7
  5
355
 10
-1.235611
 20
-5.201346
 30
0.0
 11
-1.242787
 21
-5.212347
 31
0.0
  0
LINE
  8
0
  6
CONTINUOUS
 62
     7
  5
356
 10
-1.242787
 20
-5.212347
 30
0.0
 11
-1.249375
 21
-5.22371
 31
0.0
  0
LINE
  8
0
  6
CONTINUOUS
 62
     7
  5
357
 10
-1.249375
 20
-5.22371
 30
0.0
 11
-1.255358
 21
-5.235403
 31
0.0
  0
LINE
  8
0
  6
CONTINUOUS
 62
     7
  5
358
 10
-1.255358
 20
-5.235403
 30
0.0
 11
-1.260718
 21
-5.247395
 31
0.0
  0
LINE
  8
0
  6
CONTINUOUS
 62
     7
  5
359
 10
-1.260718
 20
-5.247395
 30
0.0
 11
-1.265441
 21
-5.259651
 31
0.0
  0
LINE
  8
0
  6
CONTINUOUS
 62
     7
  5
35A
 10
-1.265441
 20
-5.259651
 30
0.0
 11
-1.269514
 21
-5.272138
 31
0.0
  0
LINE
  8
0
  6
CONTINUOUS
 62
     7
  5
35B
 10
-1.269514
 20
-5.272138
 30
0.0
 11
-1.272925
 21
-5.284822
 31
0.0
  0
LINE
  8
0
  6
CONTINUOUS
 62
     7
  5
35C
 10
-1.272925
 20
-5.284822
 30
0.0
 11
-1.275665
 21
-5.297668
 31
0.0
  0
LINE
  8
0
  6
CONTINUOUS
 62
     7
  5
35D
 10
-1.275665
 20
-5.297668
 30
0.0
 11
-1.277727
 21
-5.31064
 31
0.0
  0
LINE
  8
0
  6
CONTINUOUS
 62
     7
  5
35E
 10
-1.277727
 20
-5.31064
 30
0.0
 11
-1.279105
 21
-5.323702
 31
0.0
  0
LINE
  8
0
  6
CONTINUOUS
 62
     7
  5
35F
 10
-1.279105
 20
-5.323702
 30
0.0
 11
-1.279795
 21
-5.336818
 31
0.0
  0
LINE
  8
0
  6
CONTINUOUS
 62
     7
  5
360
 10
-1.279795
 20
-5.336818
 30
0.0
 11
-1.279795
 21
-5.349953
 31
0.0
  0
LINE
  8
0
  6
CONTINUOUS
 62
     7
  5
361
 10
-1.279795
 20
-5.349953
 30
0.0
 11
-1.279105
 21
-5.36307
 31
0.0
  0
LINE
  8
0
  6
CONTINUOUS
 62
     7
  5
362
 10
-1.279105
 20
-5.36307
 30
0.0
 11
-1.277727
 21
-5.376132
 31
0.0
  0
LINE
  8
0
  6
CONTINUOUS
 62
     7
  5
363
 10
-1.277727
 20
-5.376132
 30
0.0
 11
-1.275665
 21
-5.389104
 31
0.0
  0
LINE
  8
0
  6
CONTINUOUS
 62
     7
  5
364
 10
-1.275665
 20
-5.389104
 30
0.0
 11
-1.272925
 21
-5.401949
 31
0.0
  0
LINE
  8
0
  6
CONTINUOUS
 62
     7
  5
365
 10
-1.272925
 20
-5.401949
 30
0.0
 11
-1.269514
 21
-5.414633
 31
0.0
  0
LINE
  8
0
  6
CONTINUOUS
 62
     7
  5
366
 10
-1.269514
 20
-5.414633
 30
0.0
 11
-1.265441
 21
-5.427121
 31
0.0
  0
LINE
  8
0
  6
CONTINUOUS
 62
     7
  5
367
 10
-1.265441
 20
-5.427121
 30
0.0
 11
-1.260718
 21
-5.439377
 31
0.0
  0
LINE
  8
0
  6
CONTINUOUS
 62
     7
  5
368
 10
-1.260718
 20
-5.439377
 30
0.0
 11
-1.255358
 21
-5.451368
 31
0.0
  0
LINE
  8
0
  6
CONTINUOUS
 62
     7
  5
369
 10
-1.255358
 20
-5.451368
 30
0.0
 11
-1.249375
 21
-5.463061
 31
0.0
  0
LINE
  8
0
  6
CONTINUOUS
 62
     7
  5
36A
 10
-1.249375
 20
-5.463061
 30
0.0
 11
-1.242787
 21
-5.474424
 31
0.0
  0
LINE
  8
0
  6
CONTINUOUS
 62
     7
  5
36B
 10
-1.242787
 20
-5.474424
 30
0.0
 11
-1.235611
 21
-5.485425
 31
0.0
  0
LINE
  8
0
  6
CONTINUOUS
 62
     7
  5
36C
 10
-1.235611
 20
-5.485425
 30
0.0
 11
-1.227867
 21
-5.496034
 31
0.0
  0
LINE
  8
0
  6
CONTINUOUS
 62
     7
  5
36D
 10
-1.227867
 20
-5.496034
 30
0.0
 11
-1.219576
 21
-5.506222
 31
0.0
  0
LINE
  8
0
  6
CONTINUOUS
 62
     7
  5
36E
 10
-1.219576
 20
-5.506222
 30
0.0
 11
-1.210762
 21
-5.51596
 31
0.0
  0
LINE
  8
0
  6
CONTINUOUS
 62
     7
  5
36F
 10
-1.210762
 20
-5.51596
 30
0.0
 11
-1.201449
 21
-5.525222
 31
0.0
  0
LINE
  8
0
  6
CONTINUOUS
 62
     7
  5
370
 10
-1.201449
 20
-5.525222
 30
0.0
 11
-1.191662
 21
-5.533982
 31
0.0
  0
LINE
  8
0
  6
CONTINUOUS
 62
     7
  5
371
 10
-1.191662
 20
-5.533982
 30
0.0
 11
-1.181429
 21
-5.542216
 31
0.0
  0
LINE
  8
0
  6
CONTINUOUS
 62
     7
  5
372
 10
-1.181429
 20
-6.23315
 30
0.0
 11
-1.378333
 21
-6.23315
 31
0.0
  0
ARC
  8
0
  6
CONTINUOUS
 62
     7
  5
373
 10
-1.029881
 20
-5.343386
 30
0.0
 40
0.25
 50
90.0
 51
127.314556
  0
LINE
  8
0
  6
CONTINUOUS
 62
     7
  5
374
 10
-1.029881
 20
-5.093386
 30
0.0
 11
1.029881
 21
-5.093386
 31
0.0
  0
ARC
  8
0
  6
CONTINUOUS
 62
     7
  5
375
 10
1.029881
 20
-5.343386
 30
0.0
 40
0.25
 50
52.685444
 51
90.0
  0
LINE
  8
0
  6
CONTINUOUS
 62
     7
  5
376
 10
1.181429
 20
-5.144556
 30
0.0
 11
1.181429
 21
-4.192375
 31
0.0
  0
LINE
  8
0
  6
CONTINUOUS
 62
     7
  5
377
 10
1.181429
 20
-4.192375
 30
0.0
 11
-1.181429
 21
-4.192375
 31
0.0
  0
LINE
  8
0
  6
CONTINUOUS
 62
     7
  5
378
 10
-1.181429
 20
-6.23315
 30
0.0
 11
1.181429
 21
-6.23315
 31
0.0
  0
LINE
  8
0
  6
CONTINUOUS
 62
     7
  5
379
 10
1.181429
 20
-6.23315
 30
0.0
 11
1.181429
 21
-5.542216
 31
0.0
  0
ARC
  8
0
  6
CONTINUOUS
 62
     7
  5
37A
 10
1.029881
 20
-5.343386
 30
0.0
 40
0.25
 50
270.0
 51
307.314556
  0
LINE
  8
0
  6
CONTINUOUS
 62
     7
  5
37B
 10
1.029881
 20
-5.593386
 30
0.0
 11
-1.029881
 21
-5.593386
 31
0.0
  0
ARC
  8
0
  6
CONTINUOUS
 62
     7
  5
37C
 10
-1.029881
 20
-5.343386
 30
0.0
 40
0.25
 50
232.685444
 51
270.0
  0
LINE
  8
0
  6
CONTINUOUS
 62
     7
  5
37D
 10
-1.181429
 20
4.192375
 30
0.0
 11
-1.575238
 21
4.192375
 31
0.0
  0
LINE
  8
0
  6
CONTINUOUS
 62
     7
  5
37E
 10
-1.181429
 20
6.23315
 30
0.0
 11
-1.181429
 21
5.542216
 31
0.0
  0
LINE
  8
0
  6
CONTINUOUS
 62
     7
  5
37F
 10
-1.181429
 20
5.542216
 30
0.0
 11
-1.191662
 21
5.533982
 31
0.0
  0
LINE
  8
0
  6
CONTINUOUS
 62
     7
  5
380
 10
-1.191662
 20
5.533982
 30
0.0
 11
-1.201449
 21
5.525222
 31
0.0
  0
LINE
  8
0
  6
CONTINUOUS
 62
     7
  5
381
 10
-1.201449
 20
5.525222
 30
0.0
 11
-1.210762
 21
5.51596
 31
0.0
  0
LINE
  8
0
  6
CONTINUOUS
 62
     7
  5
382
 10
-1.210762
 20
5.51596
 30
0.0
 11
-1.219576
 21
5.506222
 31
0.0
  0
LINE
  8
0
  6
CONTINUOUS
 62
     7
  5
383
 10
-1.219576
 20
5.506222
 30
0.0
 11
-1.227867
 21
5.496034
 31
0.0
  0
LINE
  8
0
  6
CONTINUOUS
 62
     7
  5
384
 10
-1.227867
 20
5.496034
 30
0.0
 11
-1.235611
 21
5.485425
 31
0.0
  0
LINE
  8
0
  6
CONTINUOUS
 62
     7
  5
385
 10
-1.235611
 20
5.485425
 30
0.0
 11
-1.242787
 21
5.474424
 31
0.0
  0
LINE
  8
0
  6
CONTINUOUS
 62
     7
  5
386
 10
-1.242787
 20
5.474424
 30
0.0
 11
-1.249375
 21
5.463061
 31
0.0
  0
LINE
  8
0
  6
CONTINUOUS
 62
     7
  5
387
 10
-1.249375
 20
5.463061
 30
0.0
 11
-1.255358
 21
5.451368
 31
0.0
  0
LINE
  8
0
  6
CONTINUOUS
 62
     7
  5
388
 10
-1.255358
 20
5.451368
 30
0.0
 11
-1.260718
 21
5.439377
 31
0.0
  0
LINE
  8
0
  6
CONTINUOUS
 62
     7
  5
389
 10
-1.260718
 20
5.439377
 30
0.0
 11
-1.265441
 21
5.427121
 31
0.0
  0
LINE
  8
0
  6
CONTINUOUS
 62
     7
  5
38A
 10
-1.265441
 20
5.427121
 30
0.0
 11
-1.269514
 21
5.414633
 31
0.0
  0
LINE
  8
0
  6
CONTINUOUS
 62
     7
  5
38B
 10
-1.269514
 20
5.414633
 30
0.0
 11
-1.272925
 21
5.401949
 31
0.0
  0
LINE
  8
0
  6
CONTINUOUS
 62
     7
  5
38C
 10
-1.272925
 20
5.401949
 30
0.0
 11
-1.275665
 21
5.389104
 31
0.0
  0
LINE
  8
0
  6
CONTINUOUS
 62
     7
  5
38D
 10
-1.275665
 20
5.389104
 30
0.0
 11
-1.277727
 21
5.376132
 31
0.0
  0
LINE
  8
0
  6
CONTINUOUS
 62
     7
  5
38E
 10
-1.277727
 20
5.376132
 30
0.0
 11
-1.279105
 21
5.36307
 31
0.0
  0
LINE
  8
0
  6
CONTINUOUS
 62
     7
  5
38F
 10
-1.279105
 20
5.36307
 30
0.0
 11
-1.279795
 21
5.349953
 31
0.0
  0
LINE
  8
0
  6
CONTINUOUS
 62
     7
  5
390
 10
-1.279795
 20
5.349953
 30
0.0
 11
-1.279795
 21
5.336818
 31
0.0
  0
LINE
  8
0
  6
CONTINUOUS
 62
     7
  5
391
 10
-1.279795
 20
5.336818
 30
0.0
 11
-1.279105
 21
5.323702
 31
0.0
  0
LINE
  8
0
  6
CONTINUOUS
 62
     7
  5
392
 10
-1.279105
 20
5.323702
 30
0.0
 11
-1.277727
 21
5.31064
 31
0.0
  0
LINE
  8
0
  6
CONTINUOUS
 62
     7
  5
393
 10
-1.277727
 20
5.31064
 30
0.0
 11
-1.275665
 21
5.297668
 31
0.0
  0
LINE
  8
0
  6
CONTINUOUS
 62
     7
  5
394
 10
-1.275665
 20
5.297668
 30
0.0
 11
-1.272925
 21
5.284822
 31
0.0
  0
LINE
  8
0
  6
CONTINUOUS
 62
     7
  5
395
 10
-1.272925
 20
5.284822
 30
0.0
 11
-1.269514
 21
5.272138
 31
0.0
  0
LINE
  8
0
  6
CONTINUOUS
 62
     7
  5
396
 10
-1.269514
 20
5.272138
 30
0.0
 11
-1.265441
 21
5.259651
 31
0.0
  0
LINE
  8
0
  6
CONTINUOUS
 62
     7
  5
397
 10
-1.265441
 20
5.259651
 30
0.0
 11
-1.260718
 21
5.247395
 31
0.0
  0
LINE
  8
0
  6
CONTINUOUS
 62
     7
  5
398
 10
-1.260718
 20
5.247395
 30
0.0
 11
-1.255358
 21
5.235403
 31
0.0
  0
LINE
  8
0
  6
CONTINUOUS
 62
     7
  5
399
 10
-1.255358
 20
5.235403
 30
0.0
 11
-1.249375
 21
5.22371
 31
0.0
  0
LINE
  8
0
  6
CONTINUOUS
 62
     7
  5
39A
 10
-1.249375
 20
5.22371
 30
0.0
 11
-1.242787
 21
5.212347
 31
0.0
  0
LINE
  8
0
  6
CONTINUOUS
 62
     7
  5
39B
 10
-1.242787
 20
5.212347
 30
0.0
 11
-1.235611
 21
5.201346
 31
0.0
  0
LINE
  8
0
  6
CONTINUOUS
 62
     7
  5
39C
 10
-1.235611
 20
5.201346
 30
0.0
 11
-1.227867
 21
5.190737
 31
0.0
  0
LINE
  8
0
  6
CONTINUOUS
 62
     7
  5
39D
 10
-1.227867
 20
5.190737
 30
0.0
 11
-1.219576
 21
5.18055
 31
0.0
  0
LINE
  8
0
  6
CONTINUOUS
 62
     7
  5
39E
 10
-1.219576
 20
5.18055
 30
0.0
 11
-1.210762
 21
5.170811
 31
0.0
  0
LINE
  8
0
  6
CONTINUOUS
 62
     7
  5
39F
 10
-1.210762
 20
5.170811
 30
0.0
 11
-1.201449
 21
5.16155
 31
0.0
  0
LINE
  8
0
  6
CONTINUOUS
 62
     7
  5
3A0
 10
-1.201449
 20
5.16155
 30
0.0
 11
-1.191662
 21
5.15279
 31
0.0
  0
LINE
  8
0
  6
CONTINUOUS
 62
     7
  5
3A1
 10
-1.191662
 20
5.15279
 30
0.0
 11
-1.181429
 21
5.144556
 31
0.0
  0
LINE
  8
0
  6
CONTINUOUS
 62
     7
  5
3A2
 10
-1.378333
 20
6.23315
 30
0.0
 11
-1.181429
 21
6.23315
 31
0.0
  0
LINE
  8
0
  6
CONTINUOUS
 62
     7
  5
3A3
 10
-1.181429
 20
5.144556
 30
0.0
 11
-1.181429
 21
4.192375
 31
0.0
  0
ARC
  8
0
  6
CONTINUOUS
 62
     7
  5
3A4
 10
-1.029881
 20
5.343386
 30
0.0
 40
0.25
 50
90.0
 51
127.314556
  0
LINE
  8
0
  6
CONTINUOUS
 62
     7
  5
3A5
 10
-1.029881
 20
5.593386
 30
0.0
 11
1.029881
 21
5.593386
 31
0.0
  0
ARC
  8
0
  6
CONTINUOUS
 62
     7
  5
3A6
 10
1.029881
 20
5.343386
 30
0.0
 40
0.25
 50
52.685444
 51
90.0
  0
LINE
  8
0
  6
CONTINUOUS
 62
     7
  5
3A7
 10
1.181429
 20
5.542216
 30
0.0
 11
1.181429
 21
6.23315
 31
0.0
  0
LINE
  8
0
  6
CONTINUOUS
 62
     7
  5
3A8
 10
1.181429
 20
6.23315
 30
0.0
 11
-1.181429
 21
6.23315
 31
0.0
  0
LINE
  8
0
  6
CONTINUOUS
 62
     7
  5
3A9
 10
1.181429
 20
-5.542216
 30
0.0
 11
1.191662
 21
-5.533982
 31
0.0
  0
LINE
  8
0
  6
CONTINUOUS
 62
     7
  5
3AA
 10
1.191662
 20
-5.533982
 30
0.0
 11
1.201449
 21
-5.525222
 31
0.0
  0
LINE
  8
0
  6
CONTINUOUS
 62
     7
  5
3AB
 10
1.201449
 20
-5.525222
 30
0.0
 11
1.210762
 21
-5.51596
 31
0.0
  0
LINE
  8
0
  6
CONTINUOUS
 62
     7
  5
3AC
 10
1.210762
 20
-5.51596
 30
0.0
 11
1.219576
 21
-5.506222
 31
0.0
  0
LINE
  8
0
  6
CONTINUOUS
 62
     7
  5
3AD
 10
1.219576
 20
-5.506222
 30
0.0
 11
1.227867
 21
-5.496034
 31
0.0
  0
LINE
  8
0
  6
CONTINUOUS
 62
     7
  5
3AE
 10
1.227867
 20
-5.496034
 30
0.0
 11
1.235611
 21
-5.485425
 31
0.0
  0
LINE
  8
0
  6
CONTINUOUS
 62
     7
  5
3AF
 10
1.235611
 20
-5.485425
 30
0.0
 11
1.242787
 21
-5.474424
 31
0.0
  0
LINE
  8
0
  6
CONTINUOUS
 62
     7
  5
3B0
 10
1.242787
 20
-5.474424
 30
0.0
 11
1.249375
 21
-5.463061
 31
0.0
  0
LINE
  8
0
  6
CONTINUOUS
 62
     7
  5
3B1
 10
1.249375
 20
-5.463061
 30
0.0
 11
1.255358
 21
-5.451368
 31
0.0
  0
LINE
  8
0
  6
CONTINUOUS
 62
     7
  5
3B2
 10
1.255358
 20
-5.451368
 30
0.0
 11
1.260718
 21
-5.439377
 31
0.0
  0
LINE
  8
0
  6
CONTINUOUS
 62
     7
  5
3B3
 10
1.260718
 20
-5.439377
 30
0.0
 11
1.265441
 21
-5.427121
 31
0.0
  0
LINE
  8
0
  6
CONTINUOUS
 62
     7
  5
3B4
 10
1.265441
 20
-5.427121
 30
0.0
 11
1.269514
 21
-5.414633
 31
0.0
  0
LINE
  8
0
  6
CONTINUOUS
 62
     7
  5
3B5
 10
1.269514
 20
-5.414633
 30
0.0
 11
1.272925
 21
-5.401949
 31
0.0
  0
LINE
  8
0
  6
CONTINUOUS
 62
     7
  5
3B6
 10
1.272925
 20
-5.401949
 30
0.0
 11
1.275665
 21
-5.389104
 31
0.0
  0
LINE
  8
0
  6
CONTINUOUS
 62
     7
  5
3B7
 10
1.275665
 20
-5.389104
 30
0.0
 11
1.277727
 21
-5.376132
 31
0.0
  0
LINE
  8
0
  6
CONTINUOUS
 62
     7
  5
3B8
 10
1.277727
 20
-5.376132
 30
0.0
 11
1.279105
 21
-5.36307
 31
0.0
  0
LINE
  8
0
  6
CONTINUOUS
 62
     7
  5
3B9
 10
1.279105
 20
-5.36307
 30
0.0
 11
1.279795
 21
-5.349953
 31
0.0
  0
LINE
  8
0
  6
CONTINUOUS
 62
     7
  5
3BA
 10
1.279795
 20
-5.349953
 30
0.0
 11
1.279795
 21
-5.336818
 31
0.0
  0
LINE
  8
0
  6
CONTINUOUS
 62
     7
  5
3BB
 10
1.279795
 20
-5.336818
 30
0.0
 11
1.279105
 21
-5.323702
 31
0.0
  0
LINE
  8
0
  6
CONTINUOUS
 62
     7
  5
3BC
 10
1.279105
 20
-5.323702
 30
0.0
 11
1.277727
 21
-5.31064
 31
0.0
  0
LINE
  8
0
  6
CONTINUOUS
 62
     7
  5
3BD
 10
1.277727
 20
-5.31064
 30
0.0
 11
1.275665
 21
-5.297668
 31
0.0
  0
LINE
  8
0
  6
CONTINUOUS
 62
     7
  5
3BE
 10
1.275665
 20
-5.297668
 30
0.0
 11
1.272925
 21
-5.284822
 31
0.0
  0
LINE
  8
0
  6
CONTINUOUS
 62
     7
  5
3BF
 10
1.272925
 20
-5.284822
 30
0.0
 11
1.269514
 21
-5.272138
 31
0.0
  0
LINE
  8
0
  6
CONTINUOUS
 62
     7
  5
3C0
 10
1.269514
 20
-5.272138
 30
0.0
 11
1.265441
 21
-5.259651
 31
0.0
  0
LINE
  8
0
  6
CONTINUOUS
 62
     7
  5
3C1
 10
1.265441
 20
-5.259651
 30
0.0
 11
1.260718
 21
-5.247395
 31
0.0
  0
LINE
  8
0
  6
CONTINUOUS
 62
     7
  5
3C2
 10
1.260718
 20
-5.247395
 30
0.0
 11
1.255358
 21
-5.235403
 31
0.0
  0
LINE
  8
0
  6
CONTINUOUS
 62
     7
  5
3C3
 10
1.255358
 20
-5.235403
 30
0.0
 11
1.249375
 21
-5.22371
 31
0.0
  0
LINE
  8
0
  6
CONTINUOUS
 62
     7
  5
3C4
 10
1.249375
 20
-5.22371
 30
0.0
 11
1.242787
 21
-5.212347
 31
0.0
  0
LINE
  8
0
  6
CONTINUOUS
 62
     7
  5
3C5
 10
1.242787
 20
-5.212347
 30
0.0
 11
1.235611
 21
-5.201346
 31
0.0
  0
LINE
  8
0
  6
CONTINUOUS
 62
     7
  5
3C6
 10
1.235611
 20
-5.201346
 30
0.0
 11
1.227867
 21
-5.190737
 31
0.0
  0
LINE
  8
0
  6
CONTINUOUS
 62
     7
  5
3C7
 10
1.227867
 20
-5.190737
 30
0.0
 11
1.219576
 21
-5.18055
 31
0.0
  0
LINE
  8
0
  6
CONTINUOUS
 62
     7
  5
3C8
 10
1.219576
 20
-5.18055
 30
0.0
 11
1.210762
 21
-5.170811
 31
0.0
  0
LINE
  8
0
  6
CONTINUOUS
 62
     7
  5
3C9
 10
1.210762
 20
-5.170811
 30
0.0
 11
1.201449
 21
-5.16155
 31
0.0
  0
LINE
  8
0
  6
CONTINUOUS
 62
     7
  5
3CA
 10
1.201449
 20
-5.16155
 30
0.0
 11
1.191662
 21
-5.15279
 31
0.0
  0
LINE
  8
0
  6
CONTINUOUS
 62
     7
  5
3CB
 10
1.191662
 20
-5.15279
 30
0.0
 11
1.181429
 21
-5.144556
 31
0.0
  0
LINE
  8
0
  6
CONTINUOUS
 62
     7
  5
3CC
 10
1.378333
 20
-6.23315
 30
0.0
 11
1.181429
 21
-6.23315
 31
0.0
  0
LINE
  8
0
  6
CONTINUOUS
 62
     7
  5
3CD
 10
1.378333
 20
-6.23315
 30
0.0
 11
1.378333
 21
-4.192375
 31
0.0
  0
LINE
  8
0
  6
CONTINUOUS
 62
     7
  5
3CE
 10
1.181429
 20
4.192375
 30
0.0
 11
1.181429
 21
5.144556
 31
0.0
  0
LINE
  8
0
  6
CONTINUOUS
 62
     7
  5
3CF
 10
1.181429
 20
6.23315
 30
0.0
 11
1.378333
 21
6.23315
 31
0.0
  0
LINE
  8
0
  6
CONTINUOUS
 62
     7
  5
3D0
 10
1.181429
 20
5.144556
 30
0.0
 11
1.191662
 21
5.15279
 31
0.0
  0
LINE
  8
0
  6
CONTINUOUS
 62
     7
  5
3D1
 10
1.191662
 20
5.15279
 30
0.0
 11
1.201449
 21
5.16155
 31
0.0
  0
LINE
  8
0
  6
CONTINUOUS
 62
     7
  5
3D2
 10
1.201449
 20
5.16155
 30
0.0
 11
1.210762
 21
5.170811
 31
0.0
  0
LINE
  8
0
  6
CONTINUOUS
 62
     7
  5
3D3
 10
1.210762
 20
5.170811
 30
0.0
 11
1.219576
 21
5.18055
 31
0.0
  0
LINE
  8
0
  6
CONTINUOUS
 62
     7
  5
3D4
 10
1.219576
 20
5.18055
 30
0.0
 11
1.227867
 21
5.190737
 31
0.0
  0
LINE
  8
0
  6
CONTINUOUS
 62
     7
  5
3D5
 10
1.227867
 20
5.190737
 30
0.0
 11
1.235611
 21
5.201346
 31
0.0
  0
LINE
  8
0
  6
CONTINUOUS
 62
     7
  5
3D6
 10
1.235611
 20
5.201346
 30
0.0
 11
1.242787
 21
5.212347
 31
0.0
  0
LINE
  8
0
  6
CONTINUOUS
 62
     7
  5
3D7
 10
1.242787
 20
5.212347
 30
0.0
 11
1.249375
 21
5.22371
 31
0.0
  0
LINE
  8
0
  6
CONTINUOUS
 62
     7
  5
3D8
 10
1.249375
 20
5.22371
 30
0.0
 11
1.255358
 21
5.235403
 31
0.0
  0
LINE
  8
0
  6
CONTINUOUS
 62
     7
  5
3D9
 10
1.255358
 20
5.235403
 30
0.0
 11
1.260718
 21
5.247395
 31
0.0
  0
LINE
  8
0
  6
CONTINUOUS
 62
     7
  5
3DA
 10
1.260718
 20
5.247395
 30
0.0
 11
1.265441
 21
5.259651
 31
0.0
  0
LINE
  8
0
  6
CONTINUOUS
 62
     7
  5
3DB
 10
1.265441
 20
5.259651
 30
0.0
 11
1.269514
 21
5.272138
 31
0.0
  0
LINE
  8
0
  6
CONTINUOUS
 62
     7
  5
3DC
 10
1.269514
 20
5.272138
 30
0.0
 11
1.272925
 21
5.284822
 31
0.0
  0
LINE
  8
0
  6
CONTINUOUS
 62
     7
  5
3DD
 10
1.272925
 20
5.284822
 30
0.0
 11
1.275665
 21
5.297668
 31
0.0
  0
LINE
  8
0
  6
CONTINUOUS
 62
     7
  5
3DE
 10
1.275665
 20
5.297668
 30
0.0
 11
1.277727
 21
5.31064
 31
0.0
  0
LINE
  8
0
  6
CONTINUOUS
 62
     7
  5
3DF
 10
1.277727
 20
5.31064
 30
0.0
 11
1.279105
 21
5.323702
 31
0.0
  0
LINE
  8
0
  6
CONTINUOUS
 62
     7
  5
3E0
 10
1.279105
 20
5.323702
 30
0.0
 11
1.279795
 21
5.336818
 31
0.0
  0
LINE
  8
0
  6
CONTINUOUS
 62
     7
  5
3E1
 10
1.279795
 20
5.336818
 30
0.0
 11
1.279795
 21
5.349953
 31
0.0
  0
LINE
  8
0
  6
CONTINUOUS
 62
     7
  5
3E2
 10
1.279795
 20
5.349953
 30
0.0
 11
1.279105
 21
5.36307
 31
0.0
  0
LINE
  8
0
  6
CONTINUOUS
 62
     7
  5
3E3
 10
1.279105
 20
5.36307
 30
0.0
 11
1.277727
 21
5.376132
 31
0.0
  0
LINE
  8
0
  6
CONTINUOUS
 62
     7
  5
3E4
 10
1.277727
 20
5.376132
 30
0.0
 11
1.275665
 21
5.389104
 31
0.0
  0
LINE
  8
0
  6
CONTINUOUS
 62
     7
  5
3E5
 10
1.275665
 20
5.389104
 30
0.0
 11
1.272925
 21
5.401949
 31
0.0
  0
LINE
  8
0
  6
CONTINUOUS
 62
     7
  5
3E6
 10
1.272925
 20
5.401949
 30
0.0
 11
1.269514
 21
5.414633
 31
0.0
  0
LINE
  8
0
  6
CONTINUOUS
 62
     7
  5
3E7
 10
1.269514
 20
5.414633
 30
0.0
 11
1.265441
 21
5.427121
 31
0.0
  0
LINE
  8
0
  6
CONTINUOUS
 62
     7
  5
3E8
 10
1.265441
 20
5.427121
 30
0.0
 11
1.260718
 21
5.439377
 31
0.0
  0
LINE
  8
0
  6
CONTINUOUS
 62
     7
  5
3E9
 10
1.260718
 20
5.439377
 30
0.0
 11
1.255358
 21
5.451368
 31
0.0
  0
LINE
  8
0
  6
CONTINUOUS
 62
     7
  5
3EA
 10
1.255358
 20
5.451368
 30
0.0
 11
1.249375
 21
5.463061
 31
0.0
  0
LINE
  8
0
  6
CONTINUOUS
 62
     7
  5
3EB
 10
1.249375
 20
5.463061
 30
0.0
 11
1.242787
 21
5.474424
 31
0.0
  0
LINE
  8
0
  6
CONTINUOUS
 62
     7
  5
3EC
 10
1.242787
 20
5.474424
 30
0.0
 11
1.235611
 21
5.485425
 31
0.0
  0
LINE
  8
0
  6
CONTINUOUS
 62
     7
  5
3ED
 10
1.235611
 20
5.485425
 30
0.0
 11
1.227867
 21
5.496034
 31
0.0
  0
LINE
  8
0
  6
CONTINUOUS
 62
     7
  5
3EE
 10
1.227867
 20
5.496034
 30
0.0
 11
1.219576
 21
5.506222
 31
0.0
  0
LINE
  8
0
  6
CONTINUOUS
 62
     7
  5
3EF
 10
1.219576
 20
5.506222
 30
0.0
 11
1.210762
 21
5.51596
 31
0.0
  0
LINE
  8
0
  6
CONTINUOUS
 62
     7
  5
3F0
 10
1.210762
 20
5.51596
 30
0.0
 11
1.201449
 21
5.525222
 31
0.0
  0
LINE
  8
0
  6
CONTINUOUS
 62
     7
  5
3F1
 10
1.201449
 20
5.525222
 30
0.0
 11
1.191662
 21
5.533982
 31
0.0
  0
LINE
  8
0
  6
CONTINUOUS
 62
     7
  5
3F2
 10
1.191662
 20
5.533982
 30
0.0
 11
1.181429
 21
5.542216
 31
0.0
  0
LINE
  8
0
  6
CONTINUOUS
 62
     7
  5
3F3
 10
1.378333
 20
4.192375
 30
0.0
 11
1.378333
 21
6.23315
 31
0.0
  0
LINE
  8
0
  6
CONTINUOUS
 62
     7
  5
3F4
 10
-1.181429
 20
4.192375
 30
0.0
 11
1.181429
 21
4.192375
 31
0.0
  0
ARC
  8
0
  6
CONTINUOUS
 62
     7
  5
3F5
 10
1.029881
 20
5.343386
 30
0.0
 40
0.25
 50
270.0
 51
307.314556
  0
LINE
  8
0
  6
CONTINUOUS
 62
     7
  5
3F6
 10
1.029881
 20
5.093386
 30
0.0
 11
-1.029881
 21
5.093386
 31
0.0
  0
ARC
  8
0
  6
CONTINUOUS
 62
     7
  5
3F7
 10
-1.029881
 20
5.343386
 30
0.0
 40
0.25
 50
232.685444
 51
270.0
  0
CIRCLE
  8
0
  6
CONTINUOUS
 62
     7
  5
3F8
 10
0.0
 20
5.343386
 30
0.0
 40
0.164882
  0
CIRCLE
  8
0
  6
CONTINUOUS
 62
     7
  5
3F9
 10
0.0
 20
-5.343386
 30
0.0
 40
0.164882
  0
CIRCLE
  8
0
  6
CONTINUOUS
 62
     7
  5
3FA
 10
-0.492126
 20
5.343386
 30
0.0
 40
0.164882
  0
CIRCLE
  8
0
  6
CONTINUOUS
 62
     7
  5
3FB
 10
0.492126
 20
5.343386
 30
0.0
 40
0.164882
  0
CIRCLE
  8
0
  6
CONTINUOUS
 62
     7
  5
3FC
 10
-0.492126
 20
-5.343386
 30
0.0
 40
0.164882
  0
CIRCLE
  8
0
  6
CONTINUOUS
 62
     7
  5
3FD
 10
0.492126
 20
-5.343386
 30
0.0
 40
0.164882
  0
LINE
  8
0
  6
CONTINUOUS
 62
     7
  5
3FE
 10
1.2405
 20
-6.43
 30
0.0
 11
-1.2405
 21
-6.43
 31
0.0
  0
LINE
  8
0
  6
CONTINUOUS
 62
     7
  5
3FF
 10
-1.2405
 20
6.43
 30
0.0
 11
1.2405
 21
6.43
 31
0.0
  0
LINE
  8
0
  6
CONTINUOUS
 62
     7
  5
400
 10
-1.516167
 20
6.43
 30
0.0
 11
-1.2405
 21
6.43
 31
0.0
  0
LINE
  8
0
  6
CONTINUOUS
 62
     7
  5
401
 10
-1.2405
 20
-6.43
 30
0.0
 11
-1.516167
 21
-6.43
 31
0.0
  0
LINE
  8
0
  6
CONTINUOUS
 62
     7
  5
402
 10
1.181429
 20
-4.192375
 30
0.0
 11
1.575238
 21
-4.192375
 31
0.0
  0
LINE
  8
0
  6
CONTINUOUS
 62
     7
  5
403
 10
4.135
 20
4.192375
 30
0.0
 11
4.135
 21
-4.192375
 31
0.0
  0
LINE
  8
0
  6
CONTINUOUS
 62
     7
  5
404
 10
1.575238
 20
4.192375
 30
0.0
 11
1.181429
 21
4.192375
 31
0.0
  0
CIRCLE
  8
0
  6
CONTINUOUS
 62
     7
  5
405
 10
3.915
 20
-3.94
 30
0.0
 40
0.11
  0
CIRCLE
  8
0
  6
CONTINUOUS
 62
     7
  5
406
 10
3.915
 20
3.93
 30
0.0
 40
0.11
  0
LINE
  8
0
  6
CONTINUOUS
 62
     7
  5
407
 10
1.516167
 20
6.23315
 30
0.0
 11
1.516167
 21
6.43
 31
0.0
  0
LINE
  8
0
  6
CONTINUOUS
 62
     7
  5
408
 10
3.997167
 20
6.43
 30
0.0
 11
3.997167
 21
6.23315
 31
0.0
  0
LINE
  8
0
  6
CONTINUOUS
 62
     7
  5
409
 10
2.413238
 20
-5.414625
 30
0.0
 11
2.407234
 21
-5.425997
 31
0.0
  0
LINE
  8
0
  6
CONTINUOUS
 62
     7
  5
40A
 10
2.407234
 20
-5.425997
 30
0.0
 11
2.400422
 21
-5.43678
 31
0.0
  0
LINE
  8
0
  6
CONTINUOUS
 62
     7
  5
40B
 10
2.400422
 20
-5.43678
 30
0.0
 11
2.392901
 21
-5.446874
 31
0.0
  0
LINE
  8
0
  6
CONTINUOUS
 62
     7
  5
40C
 10
2.392901
 20
-5.446874
 30
0.0
 11
2.38479
 21
-5.456196
 31
0.0
  0
LINE
  8
0
  6
CONTINUOUS
 62
     7
  5
40D
 10
2.38479
 20
-5.456196
 30
0.0
 11
2.376145
 21
-5.464755
 31
0.0
  0
LINE
  8
0
  6
CONTINUOUS
 62
     7
  5
40E
 10
2.376145
 20
-5.464755
 30
0.0
 11
2.36671
 21
-5.472798
 31
0.0
  0
LINE
  8
0
  6
CONTINUOUS
 62
     7
  5
40F
 10
2.36671
 20
-5.472798
 30
0.0
 11
2.356508
 21
-5.480236
 31
0.0
  0
LINE
  8
0
  6
CONTINUOUS
 62
     7
  5
410
 10
2.356508
 20
-5.480236
 30
0.0
 11
2.345626
 21
-5.486952
 31
0.0
  0
LINE
  8
0
  6
CONTINUOUS
 62
     7
  5
411
 10
2.345626
 20
-5.486952
 30
0.0
 11
2.334166
 21
-5.492846
 31
0.0
  0
LINE
  8
0
  6
CONTINUOUS
 62
     7
  5
412
 10
2.334166
 20
-5.492846
 30
0.0
 11
2.322234
 21
-5.497845
 31
0.0
  0
LINE
  8
0
  6
CONTINUOUS
 62
     7
  5
413
 10
2.322234
 20
-5.497845
 30
0.0
 11
2.30994
 21
-5.501894
 31
0.0
  0
LINE
  8
0
  6
CONTINUOUS
 62
     7
  5
414
 10
2.30994
 20
-5.501894
 30
0.0
 11
2.29741
 21
-5.504958
 31
0.0
  0
LINE
  8
0
  6
CONTINUOUS
 62
     7
  5
415
 10
2.29741
 20
-5.504958
 30
0.0
 11
2.284787
 21
-5.50702
 31
0.0
  0
LINE
  8
0
  6
CONTINUOUS
 62
     7
  5
416
 10
2.284787
 20
-5.50702
 30
0.0
 11
2.272222
 21
-5.508089
 31
0.0
  0
LINE
  8
0
  6
CONTINUOUS
 62
     7
  5
417
 10
2.272222
 20
-5.508089
 30
0.0
 11
2.25982
 21
-5.5082
 31
0.0
  0
LINE
  8
0
  6
CONTINUOUS
 62
     7
  5
418
 10
2.25982
 20
-5.5082
 30
0.0
 11
2.247291
 21
-5.507363
 31
0.0
  0
LINE
  8
0
  6
CONTINUOUS
 62
     7
  5
419
 10
2.247291
 20
-5.507363
 30
0.0
 11
2.234668
 21
-5.505539
 31
0.0
  0
LINE
  8
0
  6
CONTINUOUS
 62
     7
  5
41A
 10
2.234668
 20
-5.505539
 30
0.0
 11
2.222102
 21
-5.502713
 31
0.0
  0
LINE
  8
0
  6
CONTINUOUS
 62
     7
  5
41B
 10
2.222102
 20
-5.502713
 30
0.0
 11
2.20974
 21
-5.498894
 31
0.0
  0
LINE
  8
0
  6
CONTINUOUS
 62
     7
  5
41C
 10
2.20974
 20
-5.498894
 30
0.0
 11
2.197712
 21
-5.494117
 31
0.0
  0
LINE
  8
0
  6
CONTINUOUS
 62
     7
  5
41D
 10
2.197712
 20
-5.494117
 30
0.0
 11
2.18613
 21
-5.48843
 31
0.0
  0
LINE
  8
0
  6
CONTINUOUS
 62
     7
  5
41E
 10
2.18613
 20
-5.48843
 30
0.0
 11
2.175101
 21
-5.481901
 31
0.0
  0
LINE
  8
0
  6
CONTINUOUS
 62
     7
  5
41F
 10
2.175101
 20
-5.481901
 30
0.0
 11
2.164729
 21
-5.474625
 31
0.0
  0
LINE
  8
0
  6
CONTINUOUS
 62
     7
  5
420
 10
2.164729
 20
-5.474625
 30
0.0
 11
2.155105
 21
-5.466714
 31
0.0
  0
LINE
  8
0
  6
CONTINUOUS
 62
     7
  5
421
 10
2.155105
 20
-5.466714
 30
0.0
 11
2.146291
 21
-5.45829
 31
0.0
  0
LINE
  8
0
  6
CONTINUOUS
 62
     7
  5
422
 10
2.146291
 20
-5.45829
 30
0.0
 11
2.138059
 21
-5.449162
 31
0.0
  0
LINE
  8
0
  6
CONTINUOUS
 62
     7
  5
423
 10
2.138059
 20
-5.449162
 30
0.0
 11
2.130387
 21
-5.439244
 31
0.0
  0
LINE
  8
0
  6
CONTINUOUS
 62
     7
  5
424
 10
2.130387
 20
-5.439244
 30
0.0
 11
2.123396
 21
-5.428617
 31
0.0
  0
LINE
  8
0
  6
CONTINUOUS
 62
     7
  5
425
 10
2.123396
 20
-5.428617
 30
0.0
 11
2.117192
 21
-5.417375
 31
0.0
  0
LINE
  8
0
  6
CONTINUOUS
 62
     7
  5
426
 10
2.117192
 20
-5.417375
 30
0.0
 11
2.111857
 21
-5.405624
 31
0.0
  0
LINE
  8
0
  6
CONTINUOUS
 62
     7
  5
427
 10
2.111857
 20
-5.405624
 30
0.0
 11
2.107449
 21
-5.39347
 31
0.0
  0
LINE
  8
0
  6
CONTINUOUS
 62
     7
  5
428
 10
2.107449
 20
-5.39347
 30
0.0
 11
2.104013
 21
-5.381028
 31
0.0
  0
LINE
  8
0
  6
CONTINUOUS
 62
     7
  5
429
 10
2.104013
 20
-5.381028
 30
0.0
 11
2.101573
 21
-5.368434
 31
0.0
  0
LINE
  8
0
  6
CONTINUOUS
 62
     7
  5
42A
 10
2.101573
 20
-5.368434
 30
0.0
 11
2.10013
 21
-5.355838
 31
0.0
  0
LINE
  8
0
  6
CONTINUOUS
 62
     7
  5
42B
 10
2.10013
 20
-5.355838
 30
0.0
 11
2.099659
 21
-5.343386
 31
0.0
  0
LINE
  8
0
  6
CONTINUOUS
 62
     7
  5
42C
 10
3.997167
 20
-6.23315
 30
0.0
 11
3.997167
 21
-6.43
 31
0.0
  0
LINE
  8
0
  6
CONTINUOUS
 62
     7
  5
42D
 10
1.516167
 20
-6.43
 30
0.0
 11
1.516167
 21
-6.23315
 31
0.0
  0
LINE
  8
0
  6
CONTINUOUS
 62
     7
  5
42E
 10
1.575238
 20
-4.192375
 30
0.0
 11
1.575238
 21
-5.144556
 31
0.0
  0
LINE
  8
0
  6
CONTINUOUS
 62
     7
  5
42F
 10
1.575238
 20
-5.542216
 30
0.0
 11
1.575238
 21
-6.23315
 31
0.0
  0
LINE
  8
0
  6
CONTINUOUS
 62
     7
  5
430
 10
1.575238
 20
-5.144556
 30
0.0
 11
1.565005
 21
-5.15279
 31
0.0
  0
LINE
  8
0
  6
CONTINUOUS
 62
     7
  5
431
 10
1.565005
 20
-5.15279
 30
0.0
 11
1.555218
 21
-5.16155
 31
0.0
  0
LINE
  8
0
  6
CONTINUOUS
 62
     7
  5
432
 10
1.555218
 20
-5.16155
 30
0.0
 11
1.545904
 21
-5.170811
 31
0.0
  0
LINE
  8
0
  6
CONTINUOUS
 62
     7
  5
433
 10
1.545904
 20
-5.170811
 30
0.0
 11
1.53709
 21
-5.18055
 31
0.0
  0
LINE
  8
0
  6
CONTINUOUS
 62
     7
  5
434
 10
1.53709
 20
-5.18055
 30
0.0
 11
1.5288
 21
-5.190737
 31
0.0
  0
LINE
  8
0
  6
CONTINUOUS
 62
     7
  5
435
 10
1.5288
 20
-5.190737
 30
0.0
 11
1.521056
 21
-5.201346
 31
0.0
  0
LINE
  8
0
  6
CONTINUOUS
 62
     7
  5
436
 10
1.521056
 20
-5.201346
 30
0.0
 11
1.51388
 21
-5.212347
 31
0.0
  0
LINE
  8
0
  6
CONTINUOUS
 62
     7
  5
437
 10
1.51388
 20
-5.212347
 30
0.0
 11
1.507291
 21
-5.22371
 31
0.0
  0
LINE
  8
0
  6
CONTINUOUS
 62
     7
  5
438
 10
1.507291
 20
-5.22371
 30
0.0
 11
1.501309
 21
-5.235403
 31
0.0
  0
LINE
  8
0
  6
CONTINUOUS
 62
     7
  5
439
 10
1.501309
 20
-5.235403
 30
0.0
 11
1.495949
 21
-5.247395
 31
0.0
  0
LINE
  8
0
  6
CONTINUOUS
 62
     7
  5
43A
 10
1.495949
 20
-5.247395
 30
0.0
 11
1.491226
 21
-5.259651
 31
0.0
  0
LINE
  8
0
  6
CONTINUOUS
 62
     7
  5
43B
 10
1.491226
 20
-5.259651
 30
0.0
 11
1.487153
 21
-5.272138
 31
0.0
  0
LINE
  8
0
  6
CONTINUOUS
 62
     7
  5
43C
 10
1.487153
 20
-5.272138
 30
0.0
 11
1.483742
 21
-5.284822
 31
0.0
  0
LINE
  8
0
  6
CONTINUOUS
 62
     7
  5
43D
 10
1.483742
 20
-5.284822
 30
0.0
 11
1.481002
 21
-5.297668
 31
0.0
  0
LINE
  8
0
  6
CONTINUOUS
 62
     7
  5
43E
 10
1.481002
 20
-5.297668
 30
0.0
 11
1.47894
 21
-5.31064
 31
0.0
  0
LINE
  8
0
  6
CONTINUOUS
 62
     7
  5
43F
 10
1.47894
 20
-5.31064
 30
0.0
 11
1.477562
 21
-5.323702
 31
0.0
  0
LINE
  8
0
  6
CONTINUOUS
 62
     7
  5
440
 10
1.477562
 20
-5.323702
 30
0.0
 11
1.476872
 21
-5.336818
 31
0.0
  0
LINE
  8
0
  6
CONTINUOUS
 62
     7
  5
441
 10
1.476872
 20
-5.336818
 30
0.0
 11
1.476872
 21
-5.349953
 31
0.0
  0
LINE
  8
0
  6
CONTINUOUS
 62
     7
  5
442
 10
1.476872
 20
-5.349953
 30
0.0
 11
1.477562
 21
-5.36307
 31
0.0
  0
LINE
  8
0
  6
CONTINUOUS
 62
     7
  5
443
 10
1.477562
 20
-5.36307
 30
0.0
 11
1.47894
 21
-5.376132
 31
0.0
  0
LINE
  8
0
  6
CONTINUOUS
 62
     7
  5
444
 10
1.47894
 20
-5.376132
 30
0.0
 11
1.481002
 21
-5.389104
 31
0.0
  0
LINE
  8
0
  6
CONTINUOUS
 62
     7
  5
445
 10
1.481002
 20
-5.389104
 30
0.0
 11
1.483742
 21
-5.401949
 31
0.0
  0
LINE
  8
0
  6
CONTINUOUS
 62
     7
  5
446
 10
1.483742
 20
-5.401949
 30
0.0
 11
1.487153
 21
-5.414633
 31
0.0
  0
LINE
  8
0
  6
CONTINUOUS
 62
     7
  5
447
 10
1.487153
 20
-5.414633
 30
0.0
 11
1.491226
 21
-5.427121
 31
0.0
  0
LINE
  8
0
  6
CONTINUOUS
 62
     7
  5
448
 10
1.491226
 20
-5.427121
 30
0.0
 11
1.495949
 21
-5.439377
 31
0.0
  0
LINE
  8
0
  6
CONTINUOUS
 62
     7
  5
449
 10
1.495949
 20
-5.439377
 30
0.0
 11
1.501309
 21
-5.451368
 31
0.0
  0
LINE
  8
0
  6
CONTINUOUS
 62
     7
  5
44A
 10
1.501309
 20
-5.451368
 30
0.0
 11
1.507291
 21
-5.463061
 31
0.0
  0
LINE
  8
0
  6
CONTINUOUS
 62
     7
  5
44B
 10
1.507291
 20
-5.463061
 30
0.0
 11
1.51388
 21
-5.474424
 31
0.0
  0
LINE
  8
0
  6
CONTINUOUS
 62
     7
  5
44C
 10
1.51388
 20
-5.474424
 30
0.0
 11
1.521056
 21
-5.485425
 31
0.0
  0
LINE
  8
0
  6
CONTINUOUS
 62
     7
  5
44D
 10
1.521056
 20
-5.485425
 30
0.0
 11
1.5288
 21
-5.496034
 31
0.0
  0
LINE
  8
0
  6
CONTINUOUS
 62
     7
  5
44E
 10
1.5288
 20
-5.496034
 30
0.0
 11
1.53709
 21
-5.506222
 31
0.0
  0
LINE
  8
0
  6
CONTINUOUS
 62
     7
  5
44F
 10
1.53709
 20
-5.506222
 30
0.0
 11
1.545904
 21
-5.51596
 31
0.0
  0
LINE
  8
0
  6
CONTINUOUS
 62
     7
  5
450
 10
1.545904
 20
-5.51596
 30
0.0
 11
1.555218
 21
-5.525222
 31
0.0
  0
LINE
  8
0
  6
CONTINUOUS
 62
     7
  5
451
 10
1.555218
 20
-5.525222
 30
0.0
 11
1.565005
 21
-5.533982
 31
0.0
  0
LINE
  8
0
  6
CONTINUOUS
 62
     7
  5
452
 10
1.565005
 20
-5.533982
 30
0.0
 11
1.575238
 21
-5.542216
 31
0.0
  0
LINE
  8
0
  6
CONTINUOUS
 62
     7
  5
453
 10
1.575238
 20
-6.23315
 30
0.0
 11
1.378333
 21
-6.23315
 31
0.0
  0
LINE
  8
0
  6
CONTINUOUS
 62
     7
  5
454
 10
1.575238
 20
-6.23315
 30
0.0
 11
4.135
 21
-6.23315
 31
0.0
  0
LINE
  8
0
  6
CONTINUOUS
 62
     7
  5
455
 10
4.135
 20
-4.192375
 30
0.0
 11
4.135
 21
-6.23315
 31
0.0
  0
LINE
  8
0
  6
CONTINUOUS
 62
     7
  5
456
 10
4.135
 20
-4.192375
 30
0.0
 11
1.575238
 21
-4.192375
 31
0.0
  0
ARC
  8
0
  6
CONTINUOUS
 62
     7
  5
457
 10
1.726786
 20
-5.343386
 30
0.0
 40
0.25
 50
90.0
 51
127.314556
  0
LINE
  8
0
  6
CONTINUOUS
 62
     7
  5
458
 10
1.726786
 20
-5.093386
 30
0.0
 11
3.786548
 21
-5.093386
 31
0.0
  0
ARC
  8
0
  6
CONTINUOUS
 62
     7
  5
459
 10
3.786548
 20
-5.343386
 30
0.0
 40
0.25
 50
270.0
 51
90.0
  0
LINE
  8
0
  6
CONTINUOUS
 62
     7
  5
45A
 10
3.786548
 20
-5.593386
 30
0.0
 11
1.726786
 21
-5.593386
 31
0.0
  0
ARC
  8
0
  6
CONTINUOUS
 62
     7
  5
45B
 10
1.726786
 20
-5.343386
 30
0.0
 40
0.25
 50
232.685444
 51
270.0
  0
LINE
  8
0
  6
CONTINUOUS
 62
     7
  5
45C
 10
1.575238
 20
6.23315
 30
0.0
 11
1.575238
 21
5.542216
 31
0.0
  0
LINE
  8
0
  6
CONTINUOUS
 62
     7
  5
45D
 10
1.575238
 20
5.542216
 30
0.0
 11
1.565005
 21
5.533982
 31
0.0
  0
LINE
  8
0
  6
CONTINUOUS
 62
     7
  5
45E
 10
1.565005
 20
5.533982
 30
0.0
 11
1.555218
 21
5.525222
 31
0.0
  0
LINE
  8
0
  6
CONTINUOUS
 62
     7
  5
45F
 10
1.555218
 20
5.525222
 30
0.0
 11
1.545904
 21
5.51596
 31
0.0
  0
LINE
  8
0
  6
CONTINUOUS
 62
     7
  5
460
 10
1.545904
 20
5.51596
 30
0.0
 11
1.53709
 21
5.506222
 31
0.0
  0
LINE
  8
0
  6
CONTINUOUS
 62
     7
  5
461
 10
1.53709
 20
5.506222
 30
0.0
 11
1.5288
 21
5.496034
 31
0.0
  0
LINE
  8
0
  6
CONTINUOUS
 62
     7
  5
462
 10
1.5288
 20
5.496034
 30
0.0
 11
1.521056
 21
5.485425
 31
0.0
  0
LINE
  8
0
  6
CONTINUOUS
 62
     7
  5
463
 10
1.521056
 20
5.485425
 30
0.0
 11
1.51388
 21
5.474424
 31
0.0
  0
LINE
  8
0
  6
CONTINUOUS
 62
     7
  5
464
 10
1.51388
 20
5.474424
 30
0.0
 11
1.507291
 21
5.463061
 31
0.0
  0
LINE
  8
0
  6
CONTINUOUS
 62
     7
  5
465
 10
1.507291
 20
5.463061
 30
0.0
 11
1.501309
 21
5.451368
 31
0.0
  0
LINE
  8
0
  6
CONTINUOUS
 62
     7
  5
466
 10
1.501309
 20
5.451368
 30
0.0
 11
1.495949
 21
5.439377
 31
0.0
  0
LINE
  8
0
  6
CONTINUOUS
 62
     7
  5
467
 10
1.495949
 20
5.439377
 30
0.0
 11
1.491226
 21
5.427121
 31
0.0
  0
LINE
  8
0
  6
CONTINUOUS
 62
     7
  5
468
 10
1.491226
 20
5.427121
 30
0.0
 11
1.487153
 21
5.414633
 31
0.0
  0
LINE
  8
0
  6
CONTINUOUS
 62
     7
  5
469
 10
1.487153
 20
5.414633
 30
0.0
 11
1.483742
 21
5.401949
 31
0.0
  0
LINE
  8
0
  6
CONTINUOUS
 62
     7
  5
46A
 10
1.483742
 20
5.401949
 30
0.0
 11
1.481002
 21
5.389104
 31
0.0
  0
LINE
  8
0
  6
CONTINUOUS
 62
     7
  5
46B
 10
1.481002
 20
5.389104
 30
0.0
 11
1.47894
 21
5.376132
 31
0.0
  0
LINE
  8
0
  6
CONTINUOUS
 62
     7
  5
46C
 10
1.47894
 20
5.376132
 30
0.0
 11
1.477562
 21
5.36307
 31
0.0
  0
LINE
  8
0
  6
CONTINUOUS
 62
     7
  5
46D
 10
1.477562
 20
5.36307
 30
0.0
 11
1.476872
 21
5.349953
 31
0.0
  0
LINE
  8
0
  6
CONTINUOUS
 62
     7
  5
46E
 10
1.476872
 20
5.349953
 30
0.0
 11
1.476872
 21
5.336818
 31
0.0
  0
LINE
  8
0
  6
CONTINUOUS
 62
     7
  5
46F
 10
1.476872
 20
5.336818
 30
0.0
 11
1.477562
 21
5.323702
 31
0.0
  0
LINE
  8
0
  6
CONTINUOUS
 62
     7
  5
470
 10
1.477562
 20
5.323702
 30
0.0
 11
1.47894
 21
5.31064
 31
0.0
  0
LINE
  8
0
  6
CONTINUOUS
 62
     7
  5
471
 10
1.47894
 20
5.31064
 30
0.0
 11
1.481002
 21
5.297668
 31
0.0
  0
LINE
  8
0
  6
CONTINUOUS
 62
     7
  5
472
 10
1.481002
 20
5.297668
 30
0.0
 11
1.483742
 21
5.284822
 31
0.0
  0
LINE
  8
0
  6
CONTINUOUS
 62
     7
  5
473
 10
1.483742
 20
5.284822
 30
0.0
 11
1.487153
 21
5.272138
 31
0.0
  0
LINE
  8
0
  6
CONTINUOUS
 62
     7
  5
474
 10
1.487153
 20
5.272138
 30
0.0
 11
1.491226
 21
5.259651
 31
0.0
  0
LINE
  8
0
  6
CONTINUOUS
 62
     7
  5
475
 10
1.491226
 20
5.259651
 30
0.0
 11
1.495949
 21
5.247395
 31
0.0
  0
LINE
  8
0
  6
CONTINUOUS
 62
     7
  5
476
 10
1.495949
 20
5.247395
 30
0.0
 11
1.501309
 21
5.235403
 31
0.0
  0
LINE
  8
0
  6
CONTINUOUS
 62
     7
  5
477
 10
1.501309
 20
5.235403
 30
0.0
 11
1.507291
 21
5.22371
 31
0.0
  0
LINE
  8
0
  6
CONTINUOUS
 62
     7
  5
478
 10
1.507291
 20
5.22371
 30
0.0
 11
1.51388
 21
5.212347
 31
0.0
  0
LINE
  8
0
  6
CONTINUOUS
 62
     7
  5
479
 10
1.51388
 20
5.212347
 30
0.0
 11
1.521056
 21
5.201346
 31
0.0
  0
LINE
  8
0
  6
CONTINUOUS
 62
     7
  5
47A
 10
1.521056
 20
5.201346
 30
0.0
 11
1.5288
 21
5.190737
 31
0.0
  0
LINE
  8
0
  6
CONTINUOUS
 62
     7
  5
47B
 10
1.5288
 20
5.190737
 30
0.0
 11
1.53709
 21
5.18055
 31
0.0
  0
LINE
  8
0
  6
CONTINUOUS
 62
     7
  5
47C
 10
1.53709
 20
5.18055
 30
0.0
 11
1.545904
 21
5.170811
 31
0.0
  0
LINE
  8
0
  6
CONTINUOUS
 62
     7
  5
47D
 10
1.545904
 20
5.170811
 30
0.0
 11
1.555218
 21
5.16155
 31
0.0
  0
LINE
  8
0
  6
CONTINUOUS
 62
     7
  5
47E
 10
1.555218
 20
5.16155
 30
0.0
 11
1.565005
 21
5.15279
 31
0.0
  0
LINE
  8
0
  6
CONTINUOUS
 62
     7
  5
47F
 10
1.565005
 20
5.15279
 30
0.0
 11
1.575238
 21
5.144556
 31
0.0
  0
LINE
  8
0
  6
CONTINUOUS
 62
     7
  5
480
 10
1.378333
 20
6.23315
 30
0.0
 11
1.575238
 21
6.23315
 31
0.0
  0
LINE
  8
0
  6
CONTINUOUS
 62
     7
  5
481
 10
1.575238
 20
5.144556
 30
0.0
 11
1.575238
 21
4.192375
 31
0.0
  0
LINE
  8
0
  6
CONTINUOUS
 62
     7
  5
482
 10
4.135
 20
6.23315
 30
0.0
 11
1.575238
 21
6.23315
 31
0.0
  0
LINE
  8
0
  6
CONTINUOUS
 62
     7
  5
483
 10
1.575238
 20
4.192375
 30
0.0
 11
4.135
 21
4.192375
 31
0.0
  0
LINE
  8
0
  6
CONTINUOUS
 62
     7
  5
484
 10
4.135
 20
6.23315
 30
0.0
 11
4.135
 21
4.192375
 31
0.0
  0
ARC
  8
0
  6
CONTINUOUS
 62
     7
  5
485
 10
1.726786
 20
5.343386
 30
0.0
 40
0.25
 50
90.0
 51
127.314556
  0
LINE
  8
0
  6
CONTINUOUS
 62
     7
  5
486
 10
1.726786
 20
5.593386
 30
0.0
 11
3.786548
 21
5.593386
 31
0.0
  0
ARC
  8
0
  6
CONTINUOUS
 62
     7
  5
487
 10
3.786548
 20
5.343386
 30
0.0
 40
0.25
 50
270.0
 51
90.0
  0
LINE
  8
0
  6
CONTINUOUS
 62
     7
  5
488
 10
3.786548
 20
5.093386
 30
0.0
 11
1.726786
 21
5.093386
 31
0.0
  0
ARC
  8
0
  6
CONTINUOUS
 62
     7
  5
489
 10
1.726786
 20
5.343386
 30
0.0
 40
0.25
 50
232.685444
 51
270.0
  0
LINE
  8
0
  6
CONTINUOUS
 62
     7
  5
48A
 10
4.135
 20
-6.23315
 30
0.0
 11
4.135
 21
-6.43
 31
0.0
  0
LINE
  8
0
  6
CONTINUOUS
 62
     7
  5
48B
 10
4.135
 20
6.43
 30
0.0
 11
4.135
 21
6.23315
 31
0.0
  0
CIRCLE
  8
0
  6
CONTINUOUS
 62
     7
  5
48C
 10
2.756667
 20
5.343386
 30
0.0
 40
0.164882
  0
CIRCLE
  8
0
  6
CONTINUOUS
 62
     7
  5
48D
 10
2.756667
 20
-5.343386
 30
0.0
 40
0.164882
  0
CIRCLE
  8
0
  6
CONTINUOUS
 62
     7
  5
48E
 10
2.264541
 20
5.343386
 30
0.0
 40
0.164882
  0
CIRCLE
  8
0
  6
CONTINUOUS
 62
     7
  5
48F
 10
3.248793
 20
5.343386
 30
0.0
 40
0.164882
  0
CIRCLE
  8
0
  6
CONTINUOUS
 62
     7
  5
490
 10
2.264541
 20
-5.343386
 30
0.0
 40
0.164882
  0
CIRCLE
  8
0
  6
CONTINUOUS
 62
     7
  5
491
 10
3.248793
 20
-5.343386
 30
0.0
 40
0.164882
  0
LINE
  8
0
  6
CONTINUOUS
 62
     7
  5
492
 10
3.997167
 20
-6.43
 30
0.0
 11
1.516167
 21
-6.43
 31
0.0
  0
LINE
  8
0
  6
CONTINUOUS
 62
     7
  5
493
 10
4.135
 20
-6.43
 30
0.0
 11
3.997167
 21
-6.43
 31
0.0
  0
LINE
  8
0
  6
CONTINUOUS
 62
     7
  5
494
 10
1.516167
 20
6.43
 30
0.0
 11
3.997167
 21
6.43
 31
0.0
  0
LINE
  8
0
  6
CONTINUOUS
 62
     7
  5
495
 10
1.2405
 20
6.43
 30
0.0
 11
1.516167
 21
6.43
 31
0.0
  0
LINE
  8
0
  6
CONTINUOUS
 62
     7
  5
496
 10
3.997167
 20
6.43
 30
0.0
 11
4.135
 21
6.43
 31
0.0
  0
LINE
  8
0
  6
CONTINUOUS
 62
     7
  5
497
 10
1.516167
 20
-6.43
 30
0.0
 11
1.2405
 21
-6.43
 31
0.0
  0
LINE
  8
0
  6
CONTINUOUS
 62
     7
  5
498
 10
0.72
 20
-0.125951
 30
0.0
 11
0.8
 21
-0.125951
 31
0.0
  0
LINE
  8
0
  6
CONTINUOUS
 62
     7
  5
499
 10
-0.8
 20
-0.125951
 30
0.0
 11
-0.72
 21
-0.125951
 31
0.0
  0
LINE
  8
0
  6
CONTINUOUS
 62
     7
  5
49A
 10
-0.72
 20
-2.754049
 30
0.0
 11
-0.8
 21
-2.754049
 31
0.0
  0
LINE
  8
0
  6
CONTINUOUS
 62
     7
  5
49B
 10
0.8
 20
-2.754049
 30
0.0
 11
0.72
 21
-2.754049
 31
0.0
  0
LINE
  8
0
  6
CONTINUOUS
 62
     7
  5
49C
 10
0.72
 20
-1.505129
 30
0.0
 11
-0.72
 21
-1.505129
 31
0.0
  0
LINE
  8
0
  6
CONTINUOUS
 62
     7
  5
49D
 10
0.72
 20
-0.670038
 30
0.0
 11
-0.72
 21
-0.670038
 31
0.0
  0
LINE
  8
0
  6
CONTINUOUS
 62
     7
  5
49E
 10
-0.72
 20
-2.10525
 30
0.0
 11
0.72
 21
-2.10525
 31
0.0
  0
LINE
  8
0
  6
CONTINUOUS
 62
     7
  5
49F
 10
-0.72
 20
-3.001098
 30
0.0
 11
-0.72
 21
-2.10525
 31
0.0
  0
LINE
  8
0
  6
CONTINUOUS
 62
     7
  5
4A0
 10
0.72
 20
-3.001098
 30
0.0
 11
-0.72
 21
-3.001098
 31
0.0
  0
LINE
  8
0
  6
CONTINUOUS
 62
     7
  5
4A1
 10
0.72
 20
-3.001098
 30
0.0
 11
0.72
 21
-2.10525
 31
0.0
  0
LINE
  8
0
  6
CONTINUOUS
 62
     7
  5
4A2
 10
-0.72
 20
-3.001098
 30
0.0
 11
-0.72
 21
-3.454252
 31
0.0
  0
LINE
  8
0
  6
CONTINUOUS
 62
     7
  5
4A3
 10
-0.72
 20
-3.454252
 30
0.0
 11
0.72
 21
-3.454252
 31
0.0
  0
LINE
  8
0
  6
CONTINUOUS
 62
     7
  5
4A4
 10
0.72
 20
-3.454252
 30
0.0
 11
0.72
 21
-3.001098
 31
0.0
  0
LINE
  8
0
  6
CONTINUOUS
 62
     7
  5
4A5
 10
0.72
 20
0.766602
 30
0.0
 11
-0.72
 21
0.766602
 31
0.0
  0
LINE
  8
0
  6
CONTINUOUS
 62
     7
  5
4A6
 10
-0.72
 20
0.325128
 30
0.0
 11
-0.72
 21
-0.670038
 31
0.0
  0
LINE
  8
0
  6
CONTINUOUS
 62
     7
  5
4A7
 10
-0.72
 20
0.766602
 30
0.0
 11
-0.72
 21
0.325128
 31
0.0
  0
LINE
  8
0
  6
CONTINUOUS
 62
     7
  5
4A8
 10
-0.72
 20
0.325128
 30
0.0
 11
0.72
 21
0.325128
 31
0.0
  0
LINE
  8
0
  6
CONTINUOUS
 62
     7
  5
4A9
 10
0.72
 20
0.325128
 30
0.0
 11
0.72
 21
0.766602
 31
0.0
  0
LINE
  8
0
  6
CONTINUOUS
 62
     7
  5
4AA
 10
0.72
 20
0.325128
 30
0.0
 11
0.72
 21
-0.670038
 31
0.0
  0
LINE
  8
0
  6
CONTINUOUS
 62
     7
  5
4AB
 10
0.72
 20
-0.822283
 30
0.0
 11
-0.72
 21
-0.822283
 31
0.0
  0
LINE
  8
0
  6
CONTINUOUS
 62
     7
  5
4AC
 10
-0.72
 20
-1.32038
 30
0.0
 11
-0.72
 21
-1.505129
 31
0.0
  0
LINE
  8
0
  6
CONTINUOUS
 62
     7
  5
4AD
 10
-0.72
 20
-0.822283
 30
0.0
 11
-0.72
 21
-1.32038
 31
0.0
  0
LINE
  8
0
  6
CONTINUOUS
 62
     7
  5
4AE
 10
-0.72
 20
-1.32038
 30
0.0
 11
0.72
 21
-1.32038
 31
0.0
  0
LINE
  8
0
  6
CONTINUOUS
 62
     7
  5
4AF
 10
0.72
 20
-1.32038
 30
0.0
 11
0.72
 21
-0.822283
 31
0.0
  0
LINE
  8
0
  6
CONTINUOUS
 62
     7
  5
4B0
 10
0.72
 20
-1.32038
 30
0.0
 11
0.72
 21
-1.505129
 31
0.0
  0
LINE
  8
0
  6
CONTINUOUS
 62
     7
  5
4B1
 10
0.72
 20
0.06
 30
0.0
 11
0.8
 21
0.06
 31
0.0
  0
LINE
  8
0
  6
CONTINUOUS
 62
     7
  5
4B2
 10
-0.8
 20
0.06
 30
0.0
 11
-0.72
 21
0.06
 31
0.0
  0
LINE
  8
0
  6
CONTINUOUS
 62
     7
  5
4B3
 10
0.8
 20
0.06
 30
0.0
 11
0.8
 21
-2.94
 31
0.0
  0
LINE
  8
0
  6
CONTINUOUS
 62
     7
  5
4B4
 10
-0.72
 20
-2.94
 30
0.0
 11
-0.8
 21
-2.94
 31
0.0
  0
LINE
  8
0
  6
CONTINUOUS
 62
     7
  5
4B5
 10
0.8
 20
-2.94
 30
0.0
 11
0.72
 21
-2.94
 31
0.0
  0
LINE
  8
0
  6
CONTINUOUS
 62
     7
  5
4B6
 10
-0.8
 20
-2.94
 30
0.0
 11
-0.8
 21
0.06
 31
0.0
  0
LINE
  8
0
  6
CONTINUOUS
 62
     7
  5
4B7
 10
-1.28
 20
-3.645
 30
0.0
 11
1.28
 21
-3.645
 31
0.0
  0
LINE
  8
0
  6
CONTINUOUS
 62
     7
  5
4B8
 10
-1.28
 20
0.805
 30
0.0
 11
1.28
 21
0.805
 31
0.0
  0
LINE
  8
0
  6
CONTINUOUS
 62
     7
  5
4B9
 10
1.28
 20
-1.61
 30
0.0
 11
1.655
 21
-1.61
 31
0.0
  0
LINE
  8
0
  6
CONTINUOUS
 62
     7
  5
4BA
 10
1.655
 20
-1.61
 30
0.0
 11
1.655
 21
3.115
 31
0.0
  0
LINE
  8
0
  6
CONTINUOUS
 62
     7
  5
4BB
 10
1.655
 20
3.115
 30
0.0
 11
-1.395
 21
3.115
 31
0.0
  0
LINE
  8
0
  6
CONTINUOUS
 62
     7
  5
4BC
 10
-1.395
 20
3.115
 30
0.0
 11
-1.395
 21
-1.61
 31
0.0
  0
LINE
  8
0
  6
CONTINUOUS
 62
     7
  5
4BD
 10
-1.395
 20
-1.61
 30
0.0
 11
-1.28
 21
-1.61
 31
0.0
  0
LINE
  8
0
  6
CONTINUOUS
 62
     7
  5
4BE
 10
1.655
 20
-1.66
 30
0.0
 11
1.28
 21
-1.66
 31
0.0
  0
LINE
  8
0
  6
CONTINUOUS
 62
     7
  5
4BF
 10
1.705
 20
-1.66
 30
0.0
 11
1.705
 21
-3.835
 31
0.0
  0
LINE
  8
0
  6
CONTINUOUS
 62
     7
  5
4C0
 10
1.705
 20
3.115
 30
0.0
 11
1.705
 21
-1.61
 31
0.0
  0
LINE
  8
0
  6
CONTINUOUS
 62
     7
  5
4C1
 10
1.655
 20
-3.835
 30
0.0
 11
1.655
 21
-1.66
 31
0.0
  0
LINE
  8
0
  6
CONTINUOUS
 62
     7
  5
4C2
 10
-1.395
 20
3.165
 30
0.0
 11
3.445
 21
3.165
 31
0.0
  0
LINE
  8
0
  6
CONTINUOUS
 62
     7
  5
4C3
 10
3.445
 20
3.115
 30
0.0
 11
1.705
 21
3.115
 31
0.0
  0
LINE
  8
0
  6
CONTINUOUS
 62
     7
  5
4C4
 10
1.705
 20
-3.835
 30
0.0
 11
1.655
 21
-3.835
 31
0.0
  0
LINE
  8
0
  6
CONTINUOUS
 62
     7
  5
4C5
 10
1.655
 20
-3.835
 30
0.0
 11
-1.395
 21
-3.835
 31
0.0
  0
LINE
  8
0
  6
CONTINUOUS
 62
     7
  5
4C6
 10
-1.395
 20
-3.835
 30
0.0
 11
-1.445
 21
-3.835
 31
0.0
  0
LINE
  8
0
  6
CONTINUOUS
 62
     7
  5
4C7
 10
-1.445
 20
-3.835
 30
0.0
 11
-3.445
 21
-3.835
 31
0.0
  0
LINE
  8
0
  6
CONTINUOUS
 62
     7
  5
4C8
 10
3.445
 20
-3.835
 30
0.0
 11
1.705
 21
-3.835
 31
0.0
  0
LINE
  8
0
  6
CONTINUOUS
 62
     7
  5
4C9
 10
1.705
 20
-1.61
 30
0.0
 11
3.445
 21
-1.61
 31
0.0
  0
LINE
  8
0
  6
CONTINUOUS
 62
     7
  5
4CA
 10
3.445
 20
3.115
 30
0.0
 11
3.445
 21
-1.61
 31
0.0
  0
LINE
  8
0
  6
CONTINUOUS
 62
     7
  5
4CB
 10
-1.28
 20
-1.66
 30
0.0
 11
-1.395
 21
-1.66
 31
0.0
  0
LINE
  8
0
  6
CONTINUOUS
 62
     7
  5
4CC
 10
-1.395
 20
-1.66
 30
0.0
 11
-1.395
 21
-3.835
 31
0.0
  0
LINE
  8
0
  6
CONTINUOUS
 62
     7
  5
4CD
 10
3.445
 20
-1.61
 30
0.0
 11
3.445
 21
-1.66
 31
0.0
  0
LINE
  8
0
  6
CONTINUOUS
 62
     7
  5
4CE
 10
3.445
 20
3.165
 30
0.0
 11
3.445
 21
3.115
 31
0.0
  0
LINE
  8
0
  6
CONTINUOUS
 62
     7
  5
4CF
 10
-1.445
 20
3.835
 30
0.0
 11
-1.395
 21
3.835
 31
0.0
  0
LINE
  8
0
  6
CONTINUOUS
 62
     7
  5
4D0
 10
-3.445
 20
3.115
 30
0.0
 11
-3.445
 21
3.165
 31
0.0
  0
LINE
  8
0
  6
CONTINUOUS
 62
     7
  5
4D1
 10
-1.395
 20
3.835
 30
0.0
 11
-1.395
 21
3.165
 31
0.0
  0
LINE
  8
0
  6
CONTINUOUS
 62
     7
  5
4D2
 10
-1.445
 20
3.165
 30
0.0
 11
-1.445
 21
3.835
 31
0.0
  0
LINE
  8
0
  6
CONTINUOUS
 62
     7
  5
4D3
 10
-3.445
 20
3.835
 30
0.0
 11
-1.445
 21
3.835
 31
0.0
  0
LINE
  8
0
  6
CONTINUOUS
 62
     7
  5
4D4
 10
-3.445
 20
3.835
 30
0.0
 11
-3.445
 21
3.165
 31
0.0
  0
LINE
  8
0
  6
CONTINUOUS
 62
     7
  5
4D5
 10
-3.445
 20
3.165
 30
0.0
 11
-1.445
 21
3.165
 31
0.0
  0
LINE
  8
0
  6
CONTINUOUS
 62
     7
  5
4D6
 10
3.445
 20
3.835
 30
0.0
 11
3.445
 21
3.165
 31
0.0
  0
LINE
  8
0
  6
CONTINUOUS
 62
     7
  5
4D7
 10
-1.395
 20
3.835
 30
0.0
 11
3.445
 21
3.835
 31
0.0
  0
LINE
  8
0
  6
CONTINUOUS
 62
     7
  5
4D8
 10
-1.445
 20
3.115
 30
0.0
 11
-3.445
 21
3.115
 31
0.0
  0
LINE
  8
0
  6
CONTINUOUS
 62
     7
  5
4D9
 10
3.445
 20
-1.66
 30
0.0
 11
1.705
 21
-1.66
 31
0.0
  0
LINE
  8
0
  6
CONTINUOUS
 62
     7
  5
4DA
 10
3.445
 20
-1.66
 30
0.0
 11
3.445
 21
-3.835
 31
0.0
  0
LINE
  8
0
  6
CONTINUOUS
 62
     7
  5
4DB
 10
-1.445
 20
-3.835
 30
0.0
 11
-1.445
 21
3.115
 31
0.0
  0
LINE
  8
0
  6
CONTINUOUS
 62
     7
  5
4DC
 10
-3.445
 20
3.115
 30
0.0
 11
-3.445
 21
-3.835
 31
0.0
  0
LINE
  8
0
  6
CONTINUOUS
 62
     7
  5
4DD
 10
3.705
 20
-4.135
 30
0.0
 11
3.705
 21
4.135
 31
0.0
  0
LINE
  8
0
  6
CONTINUOUS
 62
     7
  5
4DE
 10
3.76
 20
-3.895
 30
0.0
 11
3.76
 21
-4.135
 31
0.0
  0
LINE
  8
0
  6
CONTINUOUS
 62
     7
  5
4DF
 10
4.0
 20
-3.655
 30
0.0
 11
3.76
 21
-3.895
 31
0.0
  0
LINE
  8
0
  6
CONTINUOUS
 62
     7
  5
4E0
 10
4.0
 20
-2.89733
 30
0.0
 11
4.0
 21
-3.655
 31
0.0
  0
LINE
  8
0
  6
CONTINUOUS
 62
     7
  5
4E1
 10
3.80534
 20
-2.89733
 30
0.0
 11
4.0
 21
-2.89733
 31
0.0
  0
ARC
  8
0
  6
CONTINUOUS
 62
     7
  5
4E2
 10
3.80534
 20
-2.8
 30
0.0
 40
0.09733
 50
90.0
 51
270.0
  0
LINE
  8
0
  6
CONTINUOUS
 62
     7
  5
4E3
 10
4.0
 20
-2.70267
 30
0.0
 11
3.80534
 21
-2.70267
 31
0.0
  0
LINE
  8
0
  6
CONTINUOUS
 62
     7
  5
4E4
 10
4.0
 20
2.70267
 30
0.0
 11
4.0
 21
-2.70267
 31
0.0
  0
LINE
  8
0
  6
CONTINUOUS
 62
     7
  5
4E5
 10
3.80534
 20
2.70267
 30
0.0
 11
4.0
 21
2.70267
 31
0.0
  0
ARC
  8
0
  6
CONTINUOUS
 62
     7
  5
4E6
 10
3.80534
 20
2.8
 30
0.0
 40
0.09733
 50
90.0
 51
270.0
  0
LINE
  8
0
  6
CONTINUOUS
 62
     7
  5
4E7
 10
4.0
 20
2.89733
 30
0.0
 11
3.80534
 21
2.89733
 31
0.0
  0
LINE
  8
0
  6
CONTINUOUS
 62
     7
  5
4E8
 10
4.0
 20
3.655
 30
0.0
 11
4.0
 21
2.89733
 31
0.0
  0
LINE
  8
0
  6
CONTINUOUS
 62
     7
  5
4E9
 10
3.76
 20
3.895
 30
0.0
 11
4.0
 21
3.655
 31
0.0
  0
LINE
  8
0
  6
CONTINUOUS
 62
     7
  5
4EA
 10
3.76
 20
4.135
 30
0.0
 11
3.76
 21
3.895
 31
0.0
  0
LINE
  8
0
  6
CONTINUOUS
 62
     7
  5
4EB
 10
3.705
 20
4.135
 30
0.0
 11
3.76
 21
4.135
 31
0.0
  0
LINE
  8
0
  6
CONTINUOUS
 62
     7
  5
4EC
 10
3.76
 20
-4.135
 30
0.0
 11
3.705
 21
-4.135
 31
0.0
  0
LINE
  8
0
  6
CONTINUOUS
 62
     7
  5
4ED
 10
3.705
 20
-4.135
 30
0.0
 11
-3.705
 21
-4.135
 31
0.0
  0
LINE
  8
0
  6
CONTINUOUS
 62
     7
  5
4EE
 10
-3.705
 20
-4.135
 30
0.0
 11
-3.76
 21
-4.135
 31
0.0
  0
LINE
  8
0
  6
CONTINUOUS
 62
     7
  5
4EF
 10
-3.705
 20
4.135
 30
0.0
 11
3.705
 21
4.135
 31
0.0
  0
LINE
  8
0
  6
CONTINUOUS
 62
     7
  5
4F0
 10
-3.705
 20
4.135
 30
0.0
 11
-3.705
 21
-4.135
 31
0.0
  0
LINE
  8
0
  6
CONTINUOUS
 62
     7
  5
4F1
 10
-3.76
 20
4.135
 30
0.0
 11
-3.705
 21
4.135
 31
0.0
  0
LINE
  8
0
  6
CONTINUOUS
 62
     7
  5
4F2
 10
-3.76
 20
-4.135
 30
0.0
 11
-3.76
 21
-3.895
 31
0.0
  0
LINE
  8
0
  6
CONTINUOUS
 62
     7
  5
4F3
 10
-3.76
 20
3.895
 30
0.0
 11
-3.76
 21
4.135
 31
0.0
  0
LINE
  8
0
  6
CONTINUOUS
 62
     7
  5
4F4
 10
-4.0
 20
3.655
 30
0.0
 11
-3.76
 21
3.895
 31
0.0
  0
LINE
  8
0
  6
CONTINUOUS
 62
     7
  5
4F5
 10
-4.0
 20
2.89733
 30
0.0
 11
-4.0
 21
3.655
 31
0.0
  0
LINE
  8
0
  6
CONTINUOUS
 62
     7
  5
4F6
 10
-3.80534
 20
2.89733
 30
0.0
 11
-4.0
 21
2.89733
 31
0.0
  0
ARC
  8
0
  6
CONTINUOUS
 62
     7
  5
4F7
 10
-3.80534
 20
2.8
 30
0.0
 40
0.09733
 50
270.0
 51
90.0
  0
LINE
  8
0
  6
CONTINUOUS
 62
     7
  5
4F8
 10
-4.0
 20
2.70267
 30
0.0
 11
-3.80534
 21
2.70267
 31
0.0
  0
LINE
  8
0
  6
CONTINUOUS
 62
     7
  5
4F9
 10
-4.0
 20
-2.70267
 30
0.0
 11
-4.0
 21
2.70267
 31
0.0
  0
LINE
  8
0
  6
CONTINUOUS
 62
     7
  5
4FA
 10
-3.80534
 20
-2.70267
 30
0.0
 11
-4.0
 21
-2.70267
 31
0.0
  0
ARC
  8
0
  6
CONTINUOUS
 62
     7
  5
4FB
 10
-3.80534
 20
-2.8
 30
0.0
 40
0.09733
 50
270.0
 51
90.0
  0
LINE
  8
0
  6
CONTINUOUS
 62
     7
  5
4FC
 10
-4.0
 20
-2.89733
 30
0.0
 11
-3.80534
 21
-2.89733
 31
0.0
  0
LINE
  8
0
  6
CONTINUOUS
 62
     7
  5
4FD
 10
-4.0
 20
-3.655
 30
0.0
 11
-4.0
 21
-2.89733
 31
0.0
  0
LINE
  8
0
  6
CONTINUOUS
 62
     7
  5
4FE
 10
-3.76
 20
-3.895
 30
0.0
 11
-4.0
 21
-3.655
 31
0.0
  0
LINE
  8
0
  6
CONTINUOUS
 62
     7
  5
4FF
 10
1.28
 20
-3.645
 30
0.0
 11
1.28
 21
0.805
 31
0.0
  0
LINE
  8
0
  6
CONTINUOUS
 62
     7
  5
500
 10
-1.28
 20
0.805
 30
0.0
 11
-1.28
 21
-3.645
 31
0.0
  0
LINE
  8
0
  6
CONTINUOUS
 62
     3
  5
501
 10
-4.047
 20
-3.94
 30
0.0
 11
-3.783
 21
-3.94
 31
0.0
  0
LINE
  8
0
  6
CONTINUOUS
 62
     3
  5
502
 10
-3.915
 20
-4.072
 30
0.0
 11
-3.915
 21
-3.808
 31
0.0
  0
LINE
  8
0
  6
CONTINUOUS
 62
     3
  5
503
 10
-4.047
 20
3.93
 30
0.0
 11
-3.783
 21
3.93
 31
0.0
  0
LINE
  8
0
  6
CONTINUOUS
 62
     3
  5
504
 10
-3.915
 20
3.798
 30
0.0
 11
-3.915
 21
4.062
 31
0.0
  0
LINE
  8
0
  6
CONTINUOUS
 62
     3
  5
505
 10
3.783
 20
-3.94
 30
0.0
 11
4.047
 21
-3.94
 31
0.0
  0
LINE
  8
0
  6
CONTINUOUS
 62
     3
  5
506
 10
3.915
 20
-4.072
 30
0.0
 11
3.915
 21
-3.808
 31
0.0
  0
LINE
  8
0
  6
CONTINUOUS
 62
     3
  5
507
 10
3.783
 20
3.93
 30
0.0
 11
4.047
 21
3.93
 31
0.0
  0
LINE
  8
0
  6
CONTINUOUS
 62
     3
  5
508
 10
3.915
 20
3.798
 30
0.0
 11
3.915
 21
4.062
 31
0.0
  0
LINE
  8
0
  6
CONTINUOUS
 62
     3
  5
509
 10
0.0
 20
-3.345675
 30
0.0
 11
0.0
 21
0.663865
 31
0.0
  0
ENDSEC
  0
EOF
