  0
SECTION
  2
HEADER
  9
$ACADVER
  1
AC1009
  9
$DWGCODEPAGE
  3
ansi_1250
  9
$INSBASE
 10
0.0
 20
0.0
 30
0.0
  9
$EXTMIN
 10
-4.482283
 20
-8.002992
 30
0.0
  9
$EXTMAX
 10
4.482283
 20
6.847402
 30
0.0
  9
$LIMMIN
 10
0.0
 20
0.0
  9
$LIMMAX
 10
0.0
 20
0.0
  9
$ORTHOMODE
 70
     0
  9
$REGENMODE
 70
     1
  9
$FILLMODE
 70
     1
  9
$QTEXTMODE
 70
     0
  9
$MIRRTEXT
 70
     1
  9
$DRAGMODE
 70
     2
  9
$LTSCALE
 40
1.0
  9
$OSMODE
 70
     0
  9
$ATTMODE
 70
     1
  9
$TEXTSIZE
 40
0.2
  9
$TRACEWID
 40
0.05
  9
$TEXTSTYLE
  7
STANDARD
  9
$CLAYER
  8
0
  9
$CELTYPE
  6
CONTINUOUS
  9
$CECOLOR
 62
   256
  9
$DIMSCALE
 40
1.0
  9
$DIMASZ
 40
0.18
  9
$DIMEXO
 40
0.0625
  9
$DIMDLI
 40
0.38
  9
$DIMRND
 40
0.0
  9
$DIMDLE
 40
0.0
  9
$DIMEXE
 40
0.18
  9
$DIMTP
 40
0.0
  9
$DIMTM
 40
0.0
  9
$DIMTXT
 40
0.18
  9
$DIMCEN
 40
0.09
  9
$DIMTSZ
 40
0.0
  9
$DIMTOL
 70
     0
  9
$DIMLIM
 70
     0
  9
$DIMTIH
 70
     1
  9
$DIMTOH
 70
     1
  9
$DIMSE1
 70
     0
  9
$DIMSE2
 70
     0
  9
$DIMTAD
 70
     0
  9
$DIMZIN
 70
     0
  9
$DIMBLK
  1

  9
$DIMASO
 70
     1
  9
$DIMSHO
 70
     1
  9
$DIMPOST
  1

  9
$DIMAPOST
  1

  9
$DIMALT
 70
     0
  9
$DIMALTD
 70
     2
  9
$DIMALTF
 40
25.4
  9
$DIMLFAC
 40
1.0
  9
$DIMTOFL
 70
     0
  9
$DIMTVP
 40
0.0
  9
$DIMTIX
 70
     0
  9
$DIMSOXD
 70
     0
  9
$DIMSAH
 70
     0
  9
$DIMBLK1
  1

  9
$DIMBLK2
  1

  9
$DIMSTYLE
  2
STANDARD
  9
$DIMCLRD
 70
     0
  9
$DIMCLRE
 70
     0
  9
$DIMCLRT
 70
     0
  9
$DIMTFAC
 40
1.0
  9
$DIMGAP
 40
0.09
  9
$LUNITS
 70
     2
  9
$LUPREC
 70
     4
  9
$AXISMODE
 70
     0
  9
$AXISUNIT
 10
0.0
 20
0.0
  9
$SKETCHINC
 40
0.1
  9
$FILLETRAD
 40
0.0
  9
$AUNITS
 70
     0
  9
$AUPREC
 70
     0
  9
$MENU
  1
acad
  9
$ELEVATION
 40
0.0
  9
$PELEVATION
 40
0.0
  9
$THICKNESS
 40
0.0
  9
$LIMCHECK
 70
     0
  9
$BLIPMODE
 70
     1
  9
$CHAMFERA
 40
0.0
  9
$CHAMFERB
 40
0.0
  9
$SKPOLY
 70
     0
  9
$TDCREATE
 40
0.000000000
  9
$TDUPDATE
 40
0.000000000
  9
$TDINDWG
 40
0.0000000000
  9
$TDUSRTIMER
 40
0.0000000000
  9
$USRTIMER
 70
     1
  9
$ANGBASE
 50
0.0
  9
$ANGDIR
 70
     0
  9
$PDMODE
 70
     0
  9
$PDSIZE
 40
0.0
  9
$PLINEWID
 40
0.0
  9
$COORDS
 70
     0
  9
$SPLFRAME
 70
     0
  9
$SPLINETYPE
 70
     6
  9
$SPLINESEGS
 70
     8
  9
$ATTDIA
 70
     0
  9
$ATTREQ
 70
     1
  9
$HANDLING
 70
     1
  9
$HANDSEED
  5
3E7
  9
$SURFTAB1
 70
     6
  9
$SURFTAB2
 70
     6
  9
$SURFTYPE
 70
     6
  9
$SURFU
 70
     6
  9
$SURFV
 70
     6
  9
$UCSNAME
  2

  9
$UCSORG
 10
0.0
 20
0.0
 30
0.0
  9
$UCSXDIR
 10
1.0
 20
0.0
 30
0.0
  9
$UCSYDIR
 10
0.0
 20
1.0
 30
0.0
  9
$PUCSNAME
  2

  9
$PUCSORG
 10
0.0
 20
0.0
 30
0.0
  9
$PUCSXDIR
 10
1.0
 20
0.0
 30
0.0
  9
$PUCSYDIR
 10
0.0
 20
1.0
 30
0.0
  9
$USERI1
 70
     0
  9
$USERI2
 70
     0
  9
$USERI3
 70
     0
  9
$USERI4
 70
     0
  9
$USERI5
 70
     0
  9
$USERR1
 40
0.0
  9
$USERR2
 40
0.0
  9
$USERR3
 40
0.0
  9
$USERR4
 40
0.0
  9
$USERR5
 40
0.0
  9
$WORLDVIEW
 70
     1
  9
$SHADEDGE
 70
     3
  9
$SHADEDIF
 70
    70
  9
$TILEMODE
 70
     1
  9
$MAXACTVP
 70
    16
  9
$PINSBASE
 10
0.0
 20
0.0
 30
0.0
  9
$PLIMCHECK
 70
     0
  9
$PEXTMIN
 10
1.000000E+20
 20
1.000000E+20
 30
1.000000E+20
  9
$PEXTMAX
 10
-1.000000E+20
 20
-1.000000E+20
 30
-1.000000E+20
  9
$PLIMMIN
 10
0.0
 20
0.0
  9
$PLIMMAX
 10
12.0
 20
9.0
  9
$UNITMODE
 70
     0
  9
$VISRETAIN
 70
     0
  9
$PLINEGEN
 70
     1
  9
$PSLTSCALE
 70
     0
  9
$TREEDEPTH
 70
  3020
  0
ENDSEC
  0
SECTION
  2
TABLES
  0
TABLE
  2
VPORT
 70
     1
  0
VPORT
  2
*ACTIVE
 70
     0
 10
0.0
 20
0.0
 11
1.0
 21
1.0
 12
6.591288
 22
4.579184
 13
0.0
 23
0.0
 14
1.0
 24
1.0
 15
0.0
 25
0.0
 16
0.0
 26
0.0
 36
1.0
 17
0.0
 27
0.0
 37
0.0
 40
9.158369
 41
0.688564
 42
50.0
 43
0.0
 44
0.0
 50
0.0
 51
0.0
 71
     0
 72
   100
 73
     1
 74
     1
 75
     0
 76
     0
 77
     0
 78
     0
  0
ENDTAB
  0
TABLE
  2
LTYPE
 70
     5
  0
LTYPE
  2
CONTINUOUS
 70
    64
  3
Solid line
 72
    65
 73
     0
 40
0.0
  0
LTYPE
  2
CENTER
 70
    64
  3
Center ____ _ ____ _ ____ _ ____ _ ____ _ ____
 72
    65
 73
     4
 40
50.8
 49
31.75
 49
-6.35
 49
6.35
 49
-6.35
  0
LTYPE
  2
HIDDEN
 70
    64
  3
Hidden __ __ __ __ __ __ __ __ __ __ __ __ __ __
 72
    65
 73
     2
 40
9.525
 49
6.35
 49
-3.175
  0
LTYPE
  2
CENTER2
 70
    64
  3
Center (.5x) ___ _ ___ _ ___ _ ___ _ ___ _ ___
 72
    65
 73
     4
 40
28.575
 49
19.05
 49
-3.175
 49
3.175
 49
-3.175
  0
LTYPE
  2
HIDDEN2
 70
    64
  3
Hidden (.5x) _ _ _ _ _ _ _ _ _ _ _ _ _ _ _ _ _
 72
    65
 73
     2
 40
4.7625
 49
3.175
 49
-1.5875
  0
ENDTAB
  0
TABLE
  2
LAYER
 70
     1
  0
LAYER
  2
0
 70
     0
 62
     7
  6
CONTINUOUS
  0
ENDTAB
  0
TABLE
  2
STYLE
 70
     1
  0
STYLE
  2
STANDARD
 70
     0
 40
0.0
 41
1.0
 50
0.0
 71
     0
 42
0.0
  3
txt
  4

  0
ENDTAB
  0
TABLE
  2
VIEW
 70
     0
  0
ENDTAB
  0
TABLE
  2
UCS
 70
     0
  0
ENDTAB
  0
TABLE
  2
APPID
 70
     1
  0
APPID
  2
ACAD
 70
     0
  0
ENDTAB
  0
TABLE
  2
DIMSTYLE
 70
     1
  0
DIMSTYLE
  2
STANDARD
 70
     0
  3

  4

  5

  6

  7

 40
1.0
 41
0.18
 42
0.0625
 43
0.38
 44
0.18
 45
0.0
 46
0.0
 47
0.0
 48
0.0
 71
     0
 72
     0
 73
     1
 74
     1
 75
     0
 76
     0
 77
     0
 78
     0
140
0.18
141
0.09
142
0.0
143
25.4
144
1.0
145
0.0
146
1.0
147
0.09
170
     0
171
     2
172
     0
173
     0
174
     0
175
     0
176
     0
177
     0
178
     0
  0
ENDTAB
  0
ENDSEC
  0
SECTION
  2
BLOCKS
  0
ENDSEC
  0
SECTION
  2
ENTITIES
  0
LINE
  8
0
  6
CONTINUOUS
 62
     7
  5
229
 10
-4.133858
 20
-6.43
 30
0.0
 11
-4.133858
 21
-6.23315
 31
0.0
  0
LINE
  8
0
  6
CONTINUOUS
 62
     7
  5
22A
 10
-4.133858
 20
-4.395
 30
0.0
 11
-4.133858
 21
-6.23315
 31
0.0
  0
LINE
  8
0
  6
CONTINUOUS
 62
     7
  5
22B
 10
-1.515748
 20
-6.23315
 30
0.0
 11
-1.515748
 21
-6.43
 31
0.0
  0
LINE
  8
0
  6
CONTINUOUS
 62
     7
  5
22C
 10
-3.39935
 20
-6.43
 30
0.0
 11
-3.996063
 21
-6.43
 31
0.0
  0
LINE
  8
0
  6
CONTINUOUS
 62
     7
  5
22D
 10
-3.996063
 20
-6.43
 30
0.0
 11
-4.133858
 21
-6.43
 31
0.0
  0
LINE
  8
0
  6
CONTINUOUS
 62
     7
  5
22E
 10
-3.39935
 20
-6.23315
 30
0.0
 11
-3.39935
 21
-6.43
 31
0.0
  0
LINE
  8
0
  6
CONTINUOUS
 62
     7
  5
22F
 10
-3.996063
 20
-6.43
 30
0.0
 11
-3.996063
 21
-6.23315
 31
0.0
  0
LINE
  8
0
  6
CONTINUOUS
 62
     7
  5
230
 10
-1.574803
 20
-5.144577
 30
0.0
 11
-1.574803
 21
-4.395
 31
0.0
  0
LINE
  8
0
  6
CONTINUOUS
 62
     7
  5
231
 10
-1.574803
 20
-5.542195
 30
0.0
 11
-1.564572
 21
-5.533961
 31
0.0
  0
LINE
  8
0
  6
CONTINUOUS
 62
     7
  5
232
 10
-1.564572
 20
-5.533961
 30
0.0
 11
-1.554788
 21
-5.525201
 31
0.0
  0
LINE
  8
0
  6
CONTINUOUS
 62
     7
  5
233
 10
-1.554788
 20
-5.525201
 30
0.0
 11
-1.545477
 21
-5.51594
 31
0.0
  0
LINE
  8
0
  6
CONTINUOUS
 62
     7
  5
234
 10
-1.545477
 20
-5.51594
 30
0.0
 11
-1.536665
 21
-5.506202
 31
0.0
  0
LINE
  8
0
  6
CONTINUOUS
 62
     7
  5
235
 10
-1.536665
 20
-5.506202
 30
0.0
 11
-1.528377
 21
-5.496015
 31
0.0
  0
LINE
  8
0
  6
CONTINUOUS
 62
     7
  5
236
 10
-1.528377
 20
-5.496015
 30
0.0
 11
-1.520635
 21
-5.485407
 31
0.0
  0
LINE
  8
0
  6
CONTINUOUS
 62
     7
  5
237
 10
-1.520635
 20
-5.485407
 30
0.0
 11
-1.513461
 21
-5.474407
 31
0.0
  0
LINE
  8
0
  6
CONTINUOUS
 62
     7
  5
238
 10
-1.513461
 20
-5.474407
 30
0.0
 11
-1.506875
 21
-5.463045
 31
0.0
  0
LINE
  8
0
  6
CONTINUOUS
 62
     7
  5
239
 10
-1.506875
 20
-5.463045
 30
0.0
 11
-1.500894
 21
-5.451353
 31
0.0
  0
LINE
  8
0
  6
CONTINUOUS
 62
     7
  5
23A
 10
-1.500894
 20
-5.451353
 30
0.0
 11
-1.495535
 21
-5.439363
 31
0.0
  0
LINE
  8
0
  6
CONTINUOUS
 62
     7
  5
23B
 10
-1.495535
 20
-5.439363
 30
0.0
 11
-1.490814
 21
-5.427109
 31
0.0
  0
LINE
  8
0
  6
CONTINUOUS
 62
     7
  5
23C
 10
-1.490814
 20
-5.427109
 30
0.0
 11
-1.486742
 21
-5.414623
 31
0.0
  0
LINE
  8
0
  6
CONTINUOUS
 62
     7
  5
23D
 10
-1.486742
 20
-5.414623
 30
0.0
 11
-1.483332
 21
-5.401941
 31
0.0
  0
LINE
  8
0
  6
CONTINUOUS
 62
     7
  5
23E
 10
-1.483332
 20
-5.401941
 30
0.0
 11
-1.480593
 21
-5.389097
 31
0.0
  0
LINE
  8
0
  6
CONTINUOUS
 62
     7
  5
23F
 10
-1.480593
 20
-5.389097
 30
0.0
 11
-1.478531
 21
-5.376127
 31
0.0
  0
LINE
  8
0
  6
CONTINUOUS
 62
     7
  5
240
 10
-1.478531
 20
-5.376127
 30
0.0
 11
-1.477154
 21
-5.363067
 31
0.0
  0
LINE
  8
0
  6
CONTINUOUS
 62
     7
  5
241
 10
-1.477154
 20
-5.363067
 30
0.0
 11
-1.476464
 21
-5.349952
 31
0.0
  0
LINE
  8
0
  6
CONTINUOUS
 62
     7
  5
242
 10
-1.476464
 20
-5.349952
 30
0.0
 11
-1.476464
 21
-5.336819
 31
0.0
  0
LINE
  8
0
  6
CONTINUOUS
 62
     7
  5
243
 10
-1.476464
 20
-5.336819
 30
0.0
 11
-1.477154
 21
-5.323705
 31
0.0
  0
LINE
  8
0
  6
CONTINUOUS
 62
     7
  5
244
 10
-1.477154
 20
-5.323705
 30
0.0
 11
-1.478531
 21
-5.310645
 31
0.0
  0
LINE
  8
0
  6
CONTINUOUS
 62
     7
  5
245
 10
-1.478531
 20
-5.310645
 30
0.0
 11
-1.480593
 21
-5.297675
 31
0.0
  0
LINE
  8
0
  6
CONTINUOUS
 62
     7
  5
246
 10
-1.480593
 20
-5.297675
 30
0.0
 11
-1.483332
 21
-5.284831
 31
0.0
  0
LINE
  8
0
  6
CONTINUOUS
 62
     7
  5
247
 10
-1.483332
 20
-5.284831
 30
0.0
 11
-1.486742
 21
-5.272148
 31
0.0
  0
LINE
  8
0
  6
CONTINUOUS
 62
     7
  5
248
 10
-1.486742
 20
-5.272148
 30
0.0
 11
-1.490814
 21
-5.259663
 31
0.0
  0
LINE
  8
0
  6
CONTINUOUS
 62
     7
  5
249
 10
-1.490814
 20
-5.259663
 30
0.0
 11
-1.495535
 21
-5.247408
 31
0.0
  0
LINE
  8
0
  6
CONTINUOUS
 62
     7
  5
24A
 10
-1.495535
 20
-5.247408
 30
0.0
 11
-1.500894
 21
-5.235418
 31
0.0
  0
LINE
  8
0
  6
CONTINUOUS
 62
     7
  5
24B
 10
-1.500894
 20
-5.235418
 30
0.0
 11
-1.506875
 21
-5.223727
 31
0.0
  0
LINE
  8
0
  6
CONTINUOUS
 62
     7
  5
24C
 10
-1.506875
 20
-5.223727
 30
0.0
 11
-1.513461
 21
-5.212365
 31
0.0
  0
LINE
  8
0
  6
CONTINUOUS
 62
     7
  5
24D
 10
-1.513461
 20
-5.212365
 30
0.0
 11
-1.520635
 21
-5.201365
 31
0.0
  0
LINE
  8
0
  6
CONTINUOUS
 62
     7
  5
24E
 10
-1.520635
 20
-5.201365
 30
0.0
 11
-1.528377
 21
-5.190757
 31
0.0
  0
LINE
  8
0
  6
CONTINUOUS
 62
     7
  5
24F
 10
-1.528377
 20
-5.190757
 30
0.0
 11
-1.536665
 21
-5.18057
 31
0.0
  0
LINE
  8
0
  6
CONTINUOUS
 62
     7
  5
250
 10
-1.536665
 20
-5.18057
 30
0.0
 11
-1.545477
 21
-5.170832
 31
0.0
  0
LINE
  8
0
  6
CONTINUOUS
 62
     7
  5
251
 10
-1.545477
 20
-5.170832
 30
0.0
 11
-1.554788
 21
-5.16157
 31
0.0
  0
LINE
  8
0
  6
CONTINUOUS
 62
     7
  5
252
 10
-1.554788
 20
-5.16157
 30
0.0
 11
-1.564572
 21
-5.152811
 31
0.0
  0
LINE
  8
0
  6
CONTINUOUS
 62
     7
  5
253
 10
-1.564572
 20
-5.152811
 30
0.0
 11
-1.574803
 21
-5.144577
 31
0.0
  0
LINE
  8
0
  6
CONTINUOUS
 62
     7
  5
254
 10
-1.377953
 20
-6.23315
 30
0.0
 11
-1.574803
 21
-6.23315
 31
0.0
  0
LINE
  8
0
  6
CONTINUOUS
 62
     7
  5
255
 10
-1.377953
 20
-6.23315
 30
0.0
 11
-1.377953
 21
-4.395
 31
0.0
  0
LINE
  8
0
  6
CONTINUOUS
 62
     7
  5
256
 10
-1.574803
 20
-6.23315
 30
0.0
 11
-1.574803
 21
-5.542195
 31
0.0
  0
ARC
  8
0
  6
CONTINUOUS
 62
     7
  5
257
 10
-1.726378
 20
-5.343386
 30
0.0
 40
0.25
 50
52.67761
 51
90.0
  0
ARC
  8
0
  6
CONTINUOUS
 62
     7
  5
258
 10
-1.726378
 20
-5.343386
 30
0.0
 40
0.25
 50
270.0
 51
307.32239
  0
CIRCLE
  8
0
  6
CONTINUOUS
 62
     7
  5
259
 10
-2.755906
 20
-5.343386
 30
0.0
 40
0.164882
  0
CIRCLE
  8
0
  6
CONTINUOUS
 62
     7
  5
25A
 10
-3.248031
 20
-5.343386
 30
0.0
 40
0.164882
  0
CIRCLE
  8
0
  6
CONTINUOUS
 62
     7
  5
25B
 10
-2.26378
 20
-5.343386
 30
0.0
 40
0.164882
  0
ARC
  8
0
  6
CONTINUOUS
 62
     7
  5
25C
 10
-3.785433
 20
-5.343386
 30
0.0
 40
0.25
 50
90.0
 51
270.0
  0
LINE
  8
0
  6
CONTINUOUS
 62
     7
  5
25D
 10
-1.726378
 20
-5.593386
 30
0.0
 11
-3.785433
 21
-5.593386
 31
0.0
  0
LINE
  8
0
  6
CONTINUOUS
 62
     7
  5
25E
 10
-3.785433
 20
-5.093386
 30
0.0
 11
-1.726378
 21
-5.093386
 31
0.0
  0
LINE
  8
0
  6
CONTINUOUS
 62
     7
  5
25F
 10
-3.246803
 20
-6.843543
 30
0.0
 11
-3.127953
 21
-6.843543
 31
0.0
  0
LINE
  8
0
  6
CONTINUOUS
 62
     7
  5
260
 10
-3.127953
 20
-6.843543
 30
0.0
 11
-3.127953
 21
-6.922283
 31
0.0
  0
LINE
  8
0
  6
CONTINUOUS
 62
     7
  5
261
 10
-3.127953
 20
-6.922283
 30
0.0
 11
-3.789134
 21
-6.922283
 31
0.0
  0
LINE
  8
0
  6
CONTINUOUS
 62
     7
  5
262
 10
-3.789134
 20
-6.922283
 30
0.0
 11
-3.789134
 21
-7.591575
 31
0.0
  0
LINE
  8
0
  6
CONTINUOUS
 62
     7
  5
263
 10
-3.789134
 20
-7.591575
 30
0.0
 11
3.041102
 21
-7.591575
 31
0.0
  0
LINE
  8
0
  6
CONTINUOUS
 62
     7
  5
264
 10
3.041102
 20
-7.591575
 30
0.0
 11
3.041102
 21
-6.922283
 31
0.0
  0
LINE
  8
0
  6
CONTINUOUS
 62
     7
  5
265
 10
3.041102
 20
-6.922283
 30
0.0
 11
2.379921
 21
-6.922283
 31
0.0
  0
LINE
  8
0
  6
CONTINUOUS
 62
     7
  5
266
 10
2.379921
 20
-6.922283
 30
0.0
 11
2.379921
 21
-6.843543
 31
0.0
  0
LINE
  8
0
  6
CONTINUOUS
 62
     7
  5
267
 10
2.379921
 20
-6.843543
 30
0.0
 11
2.498772
 21
-6.843543
 31
0.0
  0
LINE
  8
0
  6
CONTINUOUS
 62
     7
  5
268
 10
-1.181102
 20
-4.395
 30
0.0
 11
-1.574803
 21
-4.395
 31
0.0
  0
LINE
  8
0
  6
CONTINUOUS
 62
     7
  5
269
 10
1.240157
 20
-6.23315
 30
0.0
 11
1.240157
 21
-6.43
 31
0.0
  0
LINE
  8
0
  6
CONTINUOUS
 62
     7
  5
26A
 10
-1.181102
 20
-4.395
 30
0.0
 11
-1.181102
 21
-5.144577
 31
0.0
  0
LINE
  8
0
  6
CONTINUOUS
 62
     7
  5
26B
 10
-1.181102
 20
-6.23315
 30
0.0
 11
-1.377953
 21
-6.23315
 31
0.0
  0
LINE
  8
0
  6
CONTINUOUS
 62
     7
  5
26C
 10
-1.181102
 20
-5.144577
 30
0.0
 11
-1.191333
 21
-5.152811
 31
0.0
  0
LINE
  8
0
  6
CONTINUOUS
 62
     7
  5
26D
 10
-1.191333
 20
-5.152811
 30
0.0
 11
-1.201118
 21
-5.16157
 31
0.0
  0
LINE
  8
0
  6
CONTINUOUS
 62
     7
  5
26E
 10
-1.201118
 20
-5.16157
 30
0.0
 11
-1.210429
 21
-5.170832
 31
0.0
  0
LINE
  8
0
  6
CONTINUOUS
 62
     7
  5
26F
 10
-1.210429
 20
-5.170832
 30
0.0
 11
-1.21924
 21
-5.18057
 31
0.0
  0
LINE
  8
0
  6
CONTINUOUS
 62
     7
  5
270
 10
-1.21924
 20
-5.18057
 30
0.0
 11
-1.227528
 21
-5.190757
 31
0.0
  0
LINE
  8
0
  6
CONTINUOUS
 62
     7
  5
271
 10
-1.227528
 20
-5.190757
 30
0.0
 11
-1.23527
 21
-5.201365
 31
0.0
  0
LINE
  8
0
  6
CONTINUOUS
 62
     7
  5
272
 10
-1.23527
 20
-5.201365
 30
0.0
 11
-1.242444
 21
-5.212365
 31
0.0
  0
LINE
  8
0
  6
CONTINUOUS
 62
     7
  5
273
 10
-1.242444
 20
-5.212365
 30
0.0
 11
-1.249031
 21
-5.223727
 31
0.0
  0
LINE
  8
0
  6
CONTINUOUS
 62
     7
  5
274
 10
-1.249031
 20
-5.223727
 30
0.0
 11
-1.255012
 21
-5.235418
 31
0.0
  0
LINE
  8
0
  6
CONTINUOUS
 62
     7
  5
275
 10
-1.255012
 20
-5.235418
 30
0.0
 11
-1.26037
 21
-5.247408
 31
0.0
  0
LINE
  8
0
  6
CONTINUOUS
 62
     7
  5
276
 10
-1.26037
 20
-5.247408
 30
0.0
 11
-1.265092
 21
-5.259663
 31
0.0
  0
LINE
  8
0
  6
CONTINUOUS
 62
     7
  5
277
 10
-1.265092
 20
-5.259663
 30
0.0
 11
-1.269163
 21
-5.272148
 31
0.0
  0
LINE
  8
0
  6
CONTINUOUS
 62
     7
  5
278
 10
-1.269163
 20
-5.272148
 30
0.0
 11
-1.272573
 21
-5.284831
 31
0.0
  0
LINE
  8
0
  6
CONTINUOUS
 62
     7
  5
279
 10
-1.272573
 20
-5.284831
 30
0.0
 11
-1.275313
 21
-5.297675
 31
0.0
  0
LINE
  8
0
  6
CONTINUOUS
 62
     7
  5
27A
 10
-1.275313
 20
-5.297675
 30
0.0
 11
-1.277374
 21
-5.310645
 31
0.0
  0
LINE
  8
0
  6
CONTINUOUS
 62
     7
  5
27B
 10
-1.277374
 20
-5.310645
 30
0.0
 11
-1.278752
 21
-5.323705
 31
0.0
  0
LINE
  8
0
  6
CONTINUOUS
 62
     7
  5
27C
 10
-1.278752
 20
-5.323705
 30
0.0
 11
-1.279441
 21
-5.336819
 31
0.0
  0
LINE
  8
0
  6
CONTINUOUS
 62
     7
  5
27D
 10
-1.279441
 20
-5.336819
 30
0.0
 11
-1.279441
 21
-5.349952
 31
0.0
  0
LINE
  8
0
  6
CONTINUOUS
 62
     7
  5
27E
 10
-1.279441
 20
-5.349952
 30
0.0
 11
-1.278752
 21
-5.363067
 31
0.0
  0
LINE
  8
0
  6
CONTINUOUS
 62
     7
  5
27F
 10
-1.278752
 20
-5.363067
 30
0.0
 11
-1.277374
 21
-5.376127
 31
0.0
  0
LINE
  8
0
  6
CONTINUOUS
 62
     7
  5
280
 10
-1.277374
 20
-5.376127
 30
0.0
 11
-1.275313
 21
-5.389097
 31
0.0
  0
LINE
  8
0
  6
CONTINUOUS
 62
     7
  5
281
 10
-1.275313
 20
-5.389097
 30
0.0
 11
-1.272573
 21
-5.401941
 31
0.0
  0
LINE
  8
0
  6
CONTINUOUS
 62
     7
  5
282
 10
-1.272573
 20
-5.401941
 30
0.0
 11
-1.269163
 21
-5.414623
 31
0.0
  0
LINE
  8
0
  6
CONTINUOUS
 62
     7
  5
283
 10
-1.269163
 20
-5.414623
 30
0.0
 11
-1.265092
 21
-5.427109
 31
0.0
  0
LINE
  8
0
  6
CONTINUOUS
 62
     7
  5
284
 10
-1.265092
 20
-5.427109
 30
0.0
 11
-1.26037
 21
-5.439363
 31
0.0
  0
LINE
  8
0
  6
CONTINUOUS
 62
     7
  5
285
 10
-1.26037
 20
-5.439363
 30
0.0
 11
-1.255012
 21
-5.451353
 31
0.0
  0
LINE
  8
0
  6
CONTINUOUS
 62
     7
  5
286
 10
-1.255012
 20
-5.451353
 30
0.0
 11
-1.249031
 21
-5.463045
 31
0.0
  0
LINE
  8
0
  6
CONTINUOUS
 62
     7
  5
287
 10
-1.249031
 20
-5.463045
 30
0.0
 11
-1.242444
 21
-5.474407
 31
0.0
  0
LINE
  8
0
  6
CONTINUOUS
 62
     7
  5
288
 10
-1.242444
 20
-5.474407
 30
0.0
 11
-1.23527
 21
-5.485407
 31
0.0
  0
LINE
  8
0
  6
CONTINUOUS
 62
     7
  5
289
 10
-1.23527
 20
-5.485407
 30
0.0
 11
-1.227528
 21
-5.496015
 31
0.0
  0
LINE
  8
0
  6
CONTINUOUS
 62
     7
  5
28A
 10
-1.227528
 20
-5.496015
 30
0.0
 11
-1.21924
 21
-5.506202
 31
0.0
  0
LINE
  8
0
  6
CONTINUOUS
 62
     7
  5
28B
 10
-1.21924
 20
-5.506202
 30
0.0
 11
-1.210429
 21
-5.51594
 31
0.0
  0
LINE
  8
0
  6
CONTINUOUS
 62
     7
  5
28C
 10
-1.210429
 20
-5.51594
 30
0.0
 11
-1.201118
 21
-5.525201
 31
0.0
  0
LINE
  8
0
  6
CONTINUOUS
 62
     7
  5
28D
 10
-1.201118
 20
-5.525201
 30
0.0
 11
-1.191333
 21
-5.533961
 31
0.0
  0
LINE
  8
0
  6
CONTINUOUS
 62
     7
  5
28E
 10
-1.191333
 20
-5.533961
 30
0.0
 11
-1.181102
 21
-5.542195
 31
0.0
  0
LINE
  8
0
  6
CONTINUOUS
 62
     7
  5
28F
 10
-1.240157
 20
-6.43
 30
0.0
 11
-1.240157
 21
-6.23315
 31
0.0
  0
LINE
  8
0
  6
CONTINUOUS
 62
     7
  5
290
 10
-1.181102
 20
-5.542195
 30
0.0
 11
-1.181102
 21
-6.23315
 31
0.0
  0
LINE
  8
0
  6
CONTINUOUS
 62
     7
  5
291
 10
-1.181102
 20
-6.23315
 30
0.0
 11
1.181102
 21
-6.23315
 31
0.0
  0
LINE
  8
0
  6
CONTINUOUS
 62
     7
  5
292
 10
1.181102
 20
-6.23315
 30
0.0
 11
1.181102
 21
-5.542195
 31
0.0
  0
ARC
  8
0
  6
CONTINUOUS
 62
     7
  5
293
 10
1.029528
 20
-5.343386
 30
0.0
 40
0.25
 50
270.0
 51
307.32239
  0
LINE
  8
0
  6
CONTINUOUS
 62
     7
  5
294
 10
1.029528
 20
-5.593386
 30
0.0
 11
-1.029528
 21
-5.593386
 31
0.0
  0
ARC
  8
0
  6
CONTINUOUS
 62
     7
  5
295
 10
-1.029528
 20
-5.343386
 30
0.0
 40
0.25
 50
232.67761
 51
270.0
  0
LINE
  8
0
  6
CONTINUOUS
 62
     7
  5
296
 10
1.181102
 20
-5.144577
 30
0.0
 11
1.181102
 21
-4.395
 31
0.0
  0
LINE
  8
0
  6
CONTINUOUS
 62
     7
  5
297
 10
1.181102
 20
-5.542195
 30
0.0
 11
1.191333
 21
-5.533961
 31
0.0
  0
LINE
  8
0
  6
CONTINUOUS
 62
     7
  5
298
 10
1.191333
 20
-5.533961
 30
0.0
 11
1.201118
 21
-5.525201
 31
0.0
  0
LINE
  8
0
  6
CONTINUOUS
 62
     7
  5
299
 10
1.201118
 20
-5.525201
 30
0.0
 11
1.210429
 21
-5.51594
 31
0.0
  0
LINE
  8
0
  6
CONTINUOUS
 62
     7
  5
29A
 10
1.210429
 20
-5.51594
 30
0.0
 11
1.21924
 21
-5.506202
 31
0.0
  0
LINE
  8
0
  6
CONTINUOUS
 62
     7
  5
29B
 10
1.21924
 20
-5.506202
 30
0.0
 11
1.227528
 21
-5.496015
 31
0.0
  0
LINE
  8
0
  6
CONTINUOUS
 62
     7
  5
29C
 10
1.227528
 20
-5.496015
 30
0.0
 11
1.23527
 21
-5.485407
 31
0.0
  0
LINE
  8
0
  6
CONTINUOUS
 62
     7
  5
29D
 10
1.23527
 20
-5.485407
 30
0.0
 11
1.242444
 21
-5.474407
 31
0.0
  0
LINE
  8
0
  6
CONTINUOUS
 62
     7
  5
29E
 10
1.242444
 20
-5.474407
 30
0.0
 11
1.249031
 21
-5.463045
 31
0.0
  0
LINE
  8
0
  6
CONTINUOUS
 62
     7
  5
29F
 10
1.249031
 20
-5.463045
 30
0.0
 11
1.255012
 21
-5.451353
 31
0.0
  0
LINE
  8
0
  6
CONTINUOUS
 62
     7
  5
2A0
 10
1.255012
 20
-5.451353
 30
0.0
 11
1.26037
 21
-5.439363
 31
0.0
  0
LINE
  8
0
  6
CONTINUOUS
 62
     7
  5
2A1
 10
1.26037
 20
-5.439363
 30
0.0
 11
1.265092
 21
-5.427109
 31
0.0
  0
LINE
  8
0
  6
CONTINUOUS
 62
     7
  5
2A2
 10
1.265092
 20
-5.427109
 30
0.0
 11
1.269163
 21
-5.414623
 31
0.0
  0
LINE
  8
0
  6
CONTINUOUS
 62
     7
  5
2A3
 10
1.269163
 20
-5.414623
 30
0.0
 11
1.272573
 21
-5.401941
 31
0.0
  0
LINE
  8
0
  6
CONTINUOUS
 62
     7
  5
2A4
 10
1.272573
 20
-5.401941
 30
0.0
 11
1.275313
 21
-5.389097
 31
0.0
  0
LINE
  8
0
  6
CONTINUOUS
 62
     7
  5
2A5
 10
1.275313
 20
-5.389097
 30
0.0
 11
1.277374
 21
-5.376127
 31
0.0
  0
LINE
  8
0
  6
CONTINUOUS
 62
     7
  5
2A6
 10
1.277374
 20
-5.376127
 30
0.0
 11
1.278752
 21
-5.363067
 31
0.0
  0
LINE
  8
0
  6
CONTINUOUS
 62
     7
  5
2A7
 10
1.278752
 20
-5.363067
 30
0.0
 11
1.279441
 21
-5.349952
 31
0.0
  0
LINE
  8
0
  6
CONTINUOUS
 62
     7
  5
2A8
 10
1.279441
 20
-5.349952
 30
0.0
 11
1.279441
 21
-5.336819
 31
0.0
  0
LINE
  8
0
  6
CONTINUOUS
 62
     7
  5
2A9
 10
1.279441
 20
-5.336819
 30
0.0
 11
1.278752
 21
-5.323705
 31
0.0
  0
LINE
  8
0
  6
CONTINUOUS
 62
     7
  5
2AA
 10
1.278752
 20
-5.323705
 30
0.0
 11
1.277374
 21
-5.310645
 31
0.0
  0
LINE
  8
0
  6
CONTINUOUS
 62
     7
  5
2AB
 10
1.277374
 20
-5.310645
 30
0.0
 11
1.275313
 21
-5.297675
 31
0.0
  0
LINE
  8
0
  6
CONTINUOUS
 62
     7
  5
2AC
 10
1.275313
 20
-5.297675
 30
0.0
 11
1.272573
 21
-5.284831
 31
0.0
  0
LINE
  8
0
  6
CONTINUOUS
 62
     7
  5
2AD
 10
1.272573
 20
-5.284831
 30
0.0
 11
1.269163
 21
-5.272148
 31
0.0
  0
LINE
  8
0
  6
CONTINUOUS
 62
     7
  5
2AE
 10
1.269163
 20
-5.272148
 30
0.0
 11
1.265092
 21
-5.259663
 31
0.0
  0
LINE
  8
0
  6
CONTINUOUS
 62
     7
  5
2AF
 10
1.265092
 20
-5.259663
 30
0.0
 11
1.26037
 21
-5.247408
 31
0.0
  0
LINE
  8
0
  6
CONTINUOUS
 62
     7
  5
2B0
 10
1.26037
 20
-5.247408
 30
0.0
 11
1.255012
 21
-5.235418
 31
0.0
  0
LINE
  8
0
  6
CONTINUOUS
 62
     7
  5
2B1
 10
1.255012
 20
-5.235418
 30
0.0
 11
1.249031
 21
-5.223727
 31
0.0
  0
LINE
  8
0
  6
CONTINUOUS
 62
     7
  5
2B2
 10
1.249031
 20
-5.223727
 30
0.0
 11
1.242444
 21
-5.212365
 31
0.0
  0
LINE
  8
0
  6
CONTINUOUS
 62
     7
  5
2B3
 10
1.242444
 20
-5.212365
 30
0.0
 11
1.23527
 21
-5.201365
 31
0.0
  0
LINE
  8
0
  6
CONTINUOUS
 62
     7
  5
2B4
 10
1.23527
 20
-5.201365
 30
0.0
 11
1.227528
 21
-5.190757
 31
0.0
  0
LINE
  8
0
  6
CONTINUOUS
 62
     7
  5
2B5
 10
1.227528
 20
-5.190757
 30
0.0
 11
1.21924
 21
-5.18057
 31
0.0
  0
LINE
  8
0
  6
CONTINUOUS
 62
     7
  5
2B6
 10
1.21924
 20
-5.18057
 30
0.0
 11
1.210429
 21
-5.170832
 31
0.0
  0
LINE
  8
0
  6
CONTINUOUS
 62
     7
  5
2B7
 10
1.210429
 20
-5.170832
 30
0.0
 11
1.201118
 21
-5.16157
 31
0.0
  0
LINE
  8
0
  6
CONTINUOUS
 62
     7
  5
2B8
 10
1.201118
 20
-5.16157
 30
0.0
 11
1.191333
 21
-5.152811
 31
0.0
  0
LINE
  8
0
  6
CONTINUOUS
 62
     7
  5
2B9
 10
1.191333
 20
-5.152811
 30
0.0
 11
1.181102
 21
-5.144577
 31
0.0
  0
LINE
  8
0
  6
CONTINUOUS
 62
     7
  5
2BA
 10
1.377953
 20
-6.23315
 30
0.0
 11
1.181102
 21
-6.23315
 31
0.0
  0
LINE
  8
0
  6
CONTINUOUS
 62
     7
  5
2BB
 10
1.377953
 20
-6.23315
 30
0.0
 11
1.377953
 21
-4.395
 31
0.0
  0
ARC
  8
0
  6
CONTINUOUS
 62
     7
  5
2BC
 10
1.029528
 20
-5.343386
 30
0.0
 40
0.25
 50
52.67761
 51
90.0
  0
CIRCLE
  8
0
  6
CONTINUOUS
 62
     7
  5
2BD
 10
0.0
 20
-5.343386
 30
0.0
 40
0.164882
  0
CIRCLE
  8
0
  6
CONTINUOUS
 62
     7
  5
2BE
 10
-0.492126
 20
-5.343386
 30
0.0
 40
0.164882
  0
CIRCLE
  8
0
  6
CONTINUOUS
 62
     7
  5
2BF
 10
0.492126
 20
-5.343386
 30
0.0
 40
0.164882
  0
ARC
  8
0
  6
CONTINUOUS
 62
     7
  5
2C0
 10
-1.029528
 20
-5.343386
 30
0.0
 40
0.25
 50
90.0
 51
127.32239
  0
LINE
  8
0
  6
CONTINUOUS
 62
     7
  5
2C1
 10
-1.029528
 20
-5.093386
 30
0.0
 11
1.029528
 21
-5.093386
 31
0.0
  0
LINE
  8
0
  6
CONTINUOUS
 62
     7
  5
2C2
 10
-1.240157
 20
-6.43
 30
0.0
 11
-1.515748
 21
-6.43
 31
0.0
  0
LINE
  8
0
  6
CONTINUOUS
 62
     7
  5
2C3
 10
1.574803
 20
-4.395
 30
0.0
 11
1.181102
 21
-4.395
 31
0.0
  0
LINE
  8
0
  6
CONTINUOUS
 62
     7
  5
2C4
 10
4.133858
 20
-4.395
 30
0.0
 11
4.133858
 21
-6.23315
 31
0.0
  0
LINE
  8
0
  6
CONTINUOUS
 62
     7
  5
2C5
 10
4.133858
 20
-6.23315
 30
0.0
 11
4.133858
 21
-6.43
 31
0.0
  0
LINE
  8
0
  6
CONTINUOUS
 62
     7
  5
2C6
 10
3.996063
 20
-6.23315
 30
0.0
 11
3.996063
 21
-6.43
 31
0.0
  0
LINE
  8
0
  6
CONTINUOUS
 62
     7
  5
2C7
 10
2.651319
 20
-6.43
 30
0.0
 11
2.651319
 21
-6.23315
 31
0.0
  0
LINE
  8
0
  6
CONTINUOUS
 62
     7
  5
2C8
 10
3.996063
 20
-6.43
 30
0.0
 11
2.651319
 21
-6.43
 31
0.0
  0
LINE
  8
0
  6
CONTINUOUS
 62
     7
  5
2C9
 10
4.133858
 20
-6.43
 30
0.0
 11
3.996063
 21
-6.43
 31
0.0
  0
LINE
  8
0
  6
CONTINUOUS
 62
     7
  5
2CA
 10
2.591024
 20
-5.343386
 30
0.0
 11
2.591664
 21
-5.328866
 31
0.0
  0
LINE
  8
0
  6
CONTINUOUS
 62
     7
  5
2CB
 10
2.591664
 20
-5.328866
 30
0.0
 11
2.59363
 21
-5.314183
 31
0.0
  0
LINE
  8
0
  6
CONTINUOUS
 62
     7
  5
2CC
 10
2.59363
 20
-5.314183
 30
0.0
 11
2.596952
 21
-5.299571
 31
0.0
  0
LINE
  8
0
  6
CONTINUOUS
 62
     7
  5
2CD
 10
2.596952
 20
-5.299571
 30
0.0
 11
2.60161
 21
-5.285257
 31
0.0
  0
LINE
  8
0
  6
CONTINUOUS
 62
     7
  5
2CE
 10
2.60161
 20
-5.285257
 30
0.0
 11
2.607548
 21
-5.27144
 31
0.0
  0
LINE
  8
0
  6
CONTINUOUS
 62
     7
  5
2CF
 10
2.607548
 20
-5.27144
 30
0.0
 11
2.614681
 21
-5.258288
 31
0.0
  0
LINE
  8
0
  6
CONTINUOUS
 62
     7
  5
2D0
 10
2.614681
 20
-5.258288
 30
0.0
 11
2.62288
 21
-5.245967
 31
0.0
  0
LINE
  8
0
  6
CONTINUOUS
 62
     7
  5
2D1
 10
2.62288
 20
-5.245967
 30
0.0
 11
2.63198
 21
-5.234627
 31
0.0
  0
LINE
  8
0
  6
CONTINUOUS
 62
     7
  5
2D2
 10
2.63198
 20
-5.234627
 30
0.0
 11
2.641801
 21
-5.224364
 31
0.0
  0
LINE
  8
0
  6
CONTINUOUS
 62
     7
  5
2D3
 10
2.641801
 20
-5.224364
 30
0.0
 11
2.652601
 21
-5.214878
 31
0.0
  0
LINE
  8
0
  6
CONTINUOUS
 62
     7
  5
2D4
 10
2.652601
 20
-5.214878
 30
0.0
 11
2.664453
 21
-5.206191
 31
0.0
  0
LINE
  8
0
  6
CONTINUOUS
 62
     7
  5
2D5
 10
2.664453
 20
-5.206191
 30
0.0
 11
2.677219
 21
-5.198491
 31
0.0
  0
LINE
  8
0
  6
CONTINUOUS
 62
     7
  5
2D6
 10
2.677219
 20
-5.198491
 30
0.0
 11
2.69074
 21
-5.191928
 31
0.0
  0
LINE
  8
0
  6
CONTINUOUS
 62
     7
  5
2D7
 10
2.69074
 20
-5.191928
 30
0.0
 11
2.704845
 21
-5.186609
 31
0.0
  0
LINE
  8
0
  6
CONTINUOUS
 62
     7
  5
2D8
 10
2.704845
 20
-5.186609
 30
0.0
 11
2.719351
 21
-5.182607
 31
0.0
  0
LINE
  8
0
  6
CONTINUOUS
 62
     7
  5
2D9
 10
2.719351
 20
-5.182607
 30
0.0
 11
2.734042
 21
-5.17996
 31
0.0
  0
LINE
  8
0
  6
CONTINUOUS
 62
     7
  5
2DA
 10
2.734042
 20
-5.17996
 30
0.0
 11
2.748679
 21
-5.178662
 31
0.0
  0
LINE
  8
0
  6
CONTINUOUS
 62
     7
  5
2DB
 10
2.748679
 20
-5.178662
 30
0.0
 11
2.763132
 21
-5.178662
 31
0.0
  0
LINE
  8
0
  6
CONTINUOUS
 62
     7
  5
2DC
 10
2.763132
 20
-5.178662
 30
0.0
 11
2.777769
 21
-5.17996
 31
0.0
  0
LINE
  8
0
  6
CONTINUOUS
 62
     7
  5
2DD
 10
2.777769
 20
-5.17996
 30
0.0
 11
2.79246
 21
-5.182607
 31
0.0
  0
LINE
  8
0
  6
CONTINUOUS
 62
     7
  5
2DE
 10
2.79246
 20
-5.182607
 30
0.0
 11
2.806966
 21
-5.186609
 31
0.0
  0
LINE
  8
0
  6
CONTINUOUS
 62
     7
  5
2DF
 10
2.806966
 20
-5.186609
 30
0.0
 11
2.821071
 21
-5.191928
 31
0.0
  0
LINE
  8
0
  6
CONTINUOUS
 62
     7
  5
2E0
 10
2.821071
 20
-5.191928
 30
0.0
 11
2.834592
 21
-5.198491
 31
0.0
  0
LINE
  8
0
  6
CONTINUOUS
 62
     7
  5
2E1
 10
2.834592
 20
-5.198491
 30
0.0
 11
2.847358
 21
-5.206191
 31
0.0
  0
LINE
  8
0
  6
CONTINUOUS
 62
     7
  5
2E2
 10
2.847358
 20
-5.206191
 30
0.0
 11
2.85921
 21
-5.214878
 31
0.0
  0
LINE
  8
0
  6
CONTINUOUS
 62
     7
  5
2E3
 10
2.85921
 20
-5.214878
 30
0.0
 11
2.87001
 21
-5.224364
 31
0.0
  0
LINE
  8
0
  6
CONTINUOUS
 62
     7
  5
2E4
 10
2.87001
 20
-5.224364
 30
0.0
 11
2.879831
 21
-5.234627
 31
0.0
  0
LINE
  8
0
  6
CONTINUOUS
 62
     7
  5
2E5
 10
2.879831
 20
-5.234627
 30
0.0
 11
2.888931
 21
-5.245967
 31
0.0
  0
LINE
  8
0
  6
CONTINUOUS
 62
     7
  5
2E6
 10
2.888931
 20
-5.245967
 30
0.0
 11
2.89713
 21
-5.258288
 31
0.0
  0
LINE
  8
0
  6
CONTINUOUS
 62
     7
  5
2E7
 10
2.89713
 20
-5.258288
 30
0.0
 11
2.904263
 21
-5.27144
 31
0.0
  0
LINE
  8
0
  6
CONTINUOUS
 62
     7
  5
2E8
 10
2.904263
 20
-5.27144
 30
0.0
 11
2.910201
 21
-5.285257
 31
0.0
  0
LINE
  8
0
  6
CONTINUOUS
 62
     7
  5
2E9
 10
2.910201
 20
-5.285257
 30
0.0
 11
2.914859
 21
-5.299571
 31
0.0
  0
LINE
  8
0
  6
CONTINUOUS
 62
     7
  5
2EA
 10
2.914859
 20
-5.299571
 30
0.0
 11
2.918181
 21
-5.314183
 31
0.0
  0
LINE
  8
0
  6
CONTINUOUS
 62
     7
  5
2EB
 10
2.918181
 20
-5.314183
 30
0.0
 11
2.920147
 21
-5.328866
 31
0.0
  0
LINE
  8
0
  6
CONTINUOUS
 62
     7
  5
2EC
 10
2.920147
 20
-5.328866
 30
0.0
 11
2.920787
 21
-5.343386
 31
0.0
  0
LINE
  8
0
  6
CONTINUOUS
 62
     7
  5
2ED
 10
2.412477
 20
-5.414625
 30
0.0
 11
2.406473
 21
-5.425997
 31
0.0
  0
LINE
  8
0
  6
CONTINUOUS
 62
     7
  5
2EE
 10
2.406473
 20
-5.425997
 30
0.0
 11
2.39966
 21
-5.43678
 31
0.0
  0
LINE
  8
0
  6
CONTINUOUS
 62
     7
  5
2EF
 10
2.39966
 20
-5.43678
 30
0.0
 11
2.392139
 21
-5.446874
 31
0.0
  0
LINE
  8
0
  6
CONTINUOUS
 62
     7
  5
2F0
 10
2.392139
 20
-5.446874
 30
0.0
 11
2.384029
 21
-5.456196
 31
0.0
  0
LINE
  8
0
  6
CONTINUOUS
 62
     7
  5
2F1
 10
2.384029
 20
-5.456196
 30
0.0
 11
2.375384
 21
-5.464755
 31
0.0
  0
LINE
  8
0
  6
CONTINUOUS
 62
     7
  5
2F2
 10
2.375384
 20
-5.464755
 30
0.0
 11
2.365949
 21
-5.472798
 31
0.0
  0
LINE
  8
0
  6
CONTINUOUS
 62
     7
  5
2F3
 10
2.365949
 20
-5.472798
 30
0.0
 11
2.355747
 21
-5.480236
 31
0.0
  0
LINE
  8
0
  6
CONTINUOUS
 62
     7
  5
2F4
 10
2.355747
 20
-5.480236
 30
0.0
 11
2.344865
 21
-5.486952
 31
0.0
  0
LINE
  8
0
  6
CONTINUOUS
 62
     7
  5
2F5
 10
2.344865
 20
-5.486952
 30
0.0
 11
2.333405
 21
-5.492846
 31
0.0
  0
LINE
  8
0
  6
CONTINUOUS
 62
     7
  5
2F6
 10
2.333405
 20
-5.492846
 30
0.0
 11
2.321473
 21
-5.497845
 31
0.0
  0
LINE
  8
0
  6
CONTINUOUS
 62
     7
  5
2F7
 10
2.321473
 20
-5.497845
 30
0.0
 11
2.309179
 21
-5.501894
 31
0.0
  0
LINE
  8
0
  6
CONTINUOUS
 62
     7
  5
2F8
 10
2.309179
 20
-5.501894
 30
0.0
 11
2.296649
 21
-5.504958
 31
0.0
  0
LINE
  8
0
  6
CONTINUOUS
 62
     7
  5
2F9
 10
2.296649
 20
-5.504958
 30
0.0
 11
2.284026
 21
-5.50702
 31
0.0
  0
LINE
  8
0
  6
CONTINUOUS
 62
     7
  5
2FA
 10
2.284026
 20
-5.50702
 30
0.0
 11
2.271461
 21
-5.508089
 31
0.0
  0
LINE
  8
0
  6
CONTINUOUS
 62
     7
  5
2FB
 10
2.271461
 20
-5.508089
 30
0.0
 11
2.259059
 21
-5.5082
 31
0.0
  0
LINE
  8
0
  6
CONTINUOUS
 62
     7
  5
2FC
 10
2.259059
 20
-5.5082
 30
0.0
 11
2.24653
 21
-5.507363
 31
0.0
  0
LINE
  8
0
  6
CONTINUOUS
 62
     7
  5
2FD
 10
2.24653
 20
-5.507363
 30
0.0
 11
2.233907
 21
-5.505539
 31
0.0
  0
LINE
  8
0
  6
CONTINUOUS
 62
     7
  5
2FE
 10
2.233907
 20
-5.505539
 30
0.0
 11
2.221341
 21
-5.502713
 31
0.0
  0
LINE
  8
0
  6
CONTINUOUS
 62
     7
  5
2FF
 10
2.221341
 20
-5.502713
 30
0.0
 11
2.208979
 21
-5.498894
 31
0.0
  0
LINE
  8
0
  6
CONTINUOUS
 62
     7
  5
300
 10
2.208979
 20
-5.498894
 30
0.0
 11
2.196951
 21
-5.494117
 31
0.0
  0
LINE
  8
0
  6
CONTINUOUS
 62
     7
  5
301
 10
2.196951
 20
-5.494117
 30
0.0
 11
2.185369
 21
-5.48843
 31
0.0
  0
LINE
  8
0
  6
CONTINUOUS
 62
     7
  5
302
 10
2.185369
 20
-5.48843
 30
0.0
 11
2.17434
 21
-5.481901
 31
0.0
  0
LINE
  8
0
  6
CONTINUOUS
 62
     7
  5
303
 10
2.17434
 20
-5.481901
 30
0.0
 11
2.163968
 21
-5.474625
 31
0.0
  0
LINE
  8
0
  6
CONTINUOUS
 62
     7
  5
304
 10
2.163968
 20
-5.474625
 30
0.0
 11
2.154344
 21
-5.466714
 31
0.0
  0
LINE
  8
0
  6
CONTINUOUS
 62
     7
  5
305
 10
2.154344
 20
-5.466714
 30
0.0
 11
2.14553
 21
-5.45829
 31
0.0
  0
LINE
  8
0
  6
CONTINUOUS
 62
     7
  5
306
 10
2.14553
 20
-5.45829
 30
0.0
 11
2.137298
 21
-5.449162
 31
0.0
  0
LINE
  8
0
  6
CONTINUOUS
 62
     7
  5
307
 10
2.137298
 20
-5.449162
 30
0.0
 11
2.129626
 21
-5.439244
 31
0.0
  0
LINE
  8
0
  6
CONTINUOUS
 62
     7
  5
308
 10
2.129626
 20
-5.439244
 30
0.0
 11
2.122635
 21
-5.428617
 31
0.0
  0
LINE
  8
0
  6
CONTINUOUS
 62
     7
  5
309
 10
2.122635
 20
-5.428617
 30
0.0
 11
2.116431
 21
-5.417375
 31
0.0
  0
LINE
  8
0
  6
CONTINUOUS
 62
     7
  5
30A
 10
2.116431
 20
-5.417375
 30
0.0
 11
2.111095
 21
-5.405624
 31
0.0
  0
LINE
  8
0
  6
CONTINUOUS
 62
     7
  5
30B
 10
2.111095
 20
-5.405624
 30
0.0
 11
2.106688
 21
-5.39347
 31
0.0
  0
LINE
  8
0
  6
CONTINUOUS
 62
     7
  5
30C
 10
2.106688
 20
-5.39347
 30
0.0
 11
2.103252
 21
-5.381028
 31
0.0
  0
LINE
  8
0
  6
CONTINUOUS
 62
     7
  5
30D
 10
2.103252
 20
-5.381028
 30
0.0
 11
2.100811
 21
-5.368434
 31
0.0
  0
LINE
  8
0
  6
CONTINUOUS
 62
     7
  5
30E
 10
2.100811
 20
-5.368434
 30
0.0
 11
2.099368
 21
-5.355838
 31
0.0
  0
LINE
  8
0
  6
CONTINUOUS
 62
     7
  5
30F
 10
2.099368
 20
-5.355838
 30
0.0
 11
2.098898
 21
-5.343386
 31
0.0
  0
LINE
  8
0
  6
CONTINUOUS
 62
     7
  5
310
 10
1.515748
 20
-6.43
 30
0.0
 11
1.515748
 21
-6.23315
 31
0.0
  0
LINE
  8
0
  6
CONTINUOUS
 62
     7
  5
311
 10
1.574803
 20
-4.395
 30
0.0
 11
1.574803
 21
-5.144577
 31
0.0
  0
LINE
  8
0
  6
CONTINUOUS
 62
     7
  5
312
 10
1.574803
 20
-5.542195
 30
0.0
 11
1.574803
 21
-6.23315
 31
0.0
  0
LINE
  8
0
  6
CONTINUOUS
 62
     7
  5
313
 10
1.574803
 20
-6.23315
 30
0.0
 11
1.377953
 21
-6.23315
 31
0.0
  0
LINE
  8
0
  6
CONTINUOUS
 62
     7
  5
314
 10
1.574803
 20
-5.144577
 30
0.0
 11
1.564572
 21
-5.152811
 31
0.0
  0
LINE
  8
0
  6
CONTINUOUS
 62
     7
  5
315
 10
1.564572
 20
-5.152811
 30
0.0
 11
1.554788
 21
-5.16157
 31
0.0
  0
LINE
  8
0
  6
CONTINUOUS
 62
     7
  5
316
 10
1.554788
 20
-5.16157
 30
0.0
 11
1.545477
 21
-5.170832
 31
0.0
  0
LINE
  8
0
  6
CONTINUOUS
 62
     7
  5
317
 10
1.545477
 20
-5.170832
 30
0.0
 11
1.536665
 21
-5.18057
 31
0.0
  0
LINE
  8
0
  6
CONTINUOUS
 62
     7
  5
318
 10
1.536665
 20
-5.18057
 30
0.0
 11
1.528377
 21
-5.190757
 31
0.0
  0
LINE
  8
0
  6
CONTINUOUS
 62
     7
  5
319
 10
1.528377
 20
-5.190757
 30
0.0
 11
1.520635
 21
-5.201365
 31
0.0
  0
LINE
  8
0
  6
CONTINUOUS
 62
     7
  5
31A
 10
1.520635
 20
-5.201365
 30
0.0
 11
1.513461
 21
-5.212365
 31
0.0
  0
LINE
  8
0
  6
CONTINUOUS
 62
     7
  5
31B
 10
1.513461
 20
-5.212365
 30
0.0
 11
1.506875
 21
-5.223727
 31
0.0
  0
LINE
  8
0
  6
CONTINUOUS
 62
     7
  5
31C
 10
1.506875
 20
-5.223727
 30
0.0
 11
1.500894
 21
-5.235418
 31
0.0
  0
LINE
  8
0
  6
CONTINUOUS
 62
     7
  5
31D
 10
1.500894
 20
-5.235418
 30
0.0
 11
1.495535
 21
-5.247408
 31
0.0
  0
LINE
  8
0
  6
CONTINUOUS
 62
     7
  5
31E
 10
1.495535
 20
-5.247408
 30
0.0
 11
1.490814
 21
-5.259663
 31
0.0
  0
LINE
  8
0
  6
CONTINUOUS
 62
     7
  5
31F
 10
1.490814
 20
-5.259663
 30
0.0
 11
1.486742
 21
-5.272148
 31
0.0
  0
LINE
  8
0
  6
CONTINUOUS
 62
     7
  5
320
 10
1.486742
 20
-5.272148
 30
0.0
 11
1.483332
 21
-5.284831
 31
0.0
  0
LINE
  8
0
  6
CONTINUOUS
 62
     7
  5
321
 10
1.483332
 20
-5.284831
 30
0.0
 11
1.480593
 21
-5.297675
 31
0.0
  0
LINE
  8
0
  6
CONTINUOUS
 62
     7
  5
322
 10
1.480593
 20
-5.297675
 30
0.0
 11
1.478531
 21
-5.310645
 31
0.0
  0
LINE
  8
0
  6
CONTINUOUS
 62
     7
  5
323
 10
1.478531
 20
-5.310645
 30
0.0
 11
1.477154
 21
-5.323705
 31
0.0
  0
LINE
  8
0
  6
CONTINUOUS
 62
     7
  5
324
 10
1.477154
 20
-5.323705
 30
0.0
 11
1.476464
 21
-5.336819
 31
0.0
  0
LINE
  8
0
  6
CONTINUOUS
 62
     7
  5
325
 10
1.476464
 20
-5.336819
 30
0.0
 11
1.476464
 21
-5.349952
 31
0.0
  0
LINE
  8
0
  6
CONTINUOUS
 62
     7
  5
326
 10
1.476464
 20
-5.349952
 30
0.0
 11
1.477154
 21
-5.363067
 31
0.0
  0
LINE
  8
0
  6
CONTINUOUS
 62
     7
  5
327
 10
1.477154
 20
-5.363067
 30
0.0
 11
1.478531
 21
-5.376127
 31
0.0
  0
LINE
  8
0
  6
CONTINUOUS
 62
     7
  5
328
 10
1.478531
 20
-5.376127
 30
0.0
 11
1.480593
 21
-5.389097
 31
0.0
  0
LINE
  8
0
  6
CONTINUOUS
 62
     7
  5
329
 10
1.480593
 20
-5.389097
 30
0.0
 11
1.483332
 21
-5.401941
 31
0.0
  0
LINE
  8
0
  6
CONTINUOUS
 62
     7
  5
32A
 10
1.483332
 20
-5.401941
 30
0.0
 11
1.486742
 21
-5.414623
 31
0.0
  0
LINE
  8
0
  6
CONTINUOUS
 62
     7
  5
32B
 10
1.486742
 20
-5.414623
 30
0.0
 11
1.490814
 21
-5.427109
 31
0.0
  0
LINE
  8
0
  6
CONTINUOUS
 62
     7
  5
32C
 10
1.490814
 20
-5.427109
 30
0.0
 11
1.495535
 21
-5.439363
 31
0.0
  0
LINE
  8
0
  6
CONTINUOUS
 62
     7
  5
32D
 10
1.495535
 20
-5.439363
 30
0.0
 11
1.500894
 21
-5.451353
 31
0.0
  0
LINE
  8
0
  6
CONTINUOUS
 62
     7
  5
32E
 10
1.500894
 20
-5.451353
 30
0.0
 11
1.506875
 21
-5.463045
 31
0.0
  0
LINE
  8
0
  6
CONTINUOUS
 62
     7
  5
32F
 10
1.506875
 20
-5.463045
 30
0.0
 11
1.513461
 21
-5.474407
 31
0.0
  0
LINE
  8
0
  6
CONTINUOUS
 62
     7
  5
330
 10
1.513461
 20
-5.474407
 30
0.0
 11
1.520635
 21
-5.485407
 31
0.0
  0
LINE
  8
0
  6
CONTINUOUS
 62
     7
  5
331
 10
1.520635
 20
-5.485407
 30
0.0
 11
1.528377
 21
-5.496015
 31
0.0
  0
LINE
  8
0
  6
CONTINUOUS
 62
     7
  5
332
 10
1.528377
 20
-5.496015
 30
0.0
 11
1.536665
 21
-5.506202
 31
0.0
  0
LINE
  8
0
  6
CONTINUOUS
 62
     7
  5
333
 10
1.536665
 20
-5.506202
 30
0.0
 11
1.545477
 21
-5.51594
 31
0.0
  0
LINE
  8
0
  6
CONTINUOUS
 62
     7
  5
334
 10
1.545477
 20
-5.51594
 30
0.0
 11
1.554788
 21
-5.525201
 31
0.0
  0
LINE
  8
0
  6
CONTINUOUS
 62
     7
  5
335
 10
1.554788
 20
-5.525201
 30
0.0
 11
1.564572
 21
-5.533961
 31
0.0
  0
LINE
  8
0
  6
CONTINUOUS
 62
     7
  5
336
 10
1.564572
 20
-5.533961
 30
0.0
 11
1.574803
 21
-5.542195
 31
0.0
  0
LINE
  8
0
  6
CONTINUOUS
 62
     7
  5
337
 10
-4.133858
 20
-6.23315
 30
0.0
 11
-1.574803
 21
-6.23315
 31
0.0
  0
LINE
  8
0
  6
CONTINUOUS
 62
     7
  5
338
 10
1.574803
 20
-6.23315
 30
0.0
 11
4.133858
 21
-6.23315
 31
0.0
  0
CIRCLE
  8
0
  6
CONTINUOUS
 62
     7
  5
339
 10
2.755906
 20
-5.343386
 30
0.0
 40
0.164882
  0
CIRCLE
  8
0
  6
CONTINUOUS
 62
     7
  5
33A
 10
2.26378
 20
-5.343386
 30
0.0
 40
0.164882
  0
CIRCLE
  8
0
  6
CONTINUOUS
 62
     7
  5
33B
 10
3.248031
 20
-5.343386
 30
0.0
 40
0.164882
  0
ARC
  8
0
  6
CONTINUOUS
 62
     7
  5
33C
 10
1.726378
 20
-5.343386
 30
0.0
 40
0.25
 50
232.67761
 51
270.0
  0
ARC
  8
0
  6
CONTINUOUS
 62
     7
  5
33D
 10
1.726378
 20
-5.343386
 30
0.0
 40
0.25
 50
90.0
 51
127.32239
  0
LINE
  8
0
  6
CONTINUOUS
 62
     7
  5
33E
 10
3.785433
 20
-5.593386
 30
0.0
 11
1.726378
 21
-5.593386
 31
0.0
  0
ARC
  8
0
  6
CONTINUOUS
 62
     7
  5
33F
 10
3.785433
 20
-5.343386
 30
0.0
 40
0.25
 50
270.0
 51
90.0
  0
LINE
  8
0
  6
CONTINUOUS
 62
     7
  5
340
 10
1.726378
 20
-5.093386
 30
0.0
 11
3.785433
 21
-5.093386
 31
0.0
  0
LINE
  8
0
  6
CONTINUOUS
 62
     7
  5
341
 10
1.515748
 20
-6.43
 30
0.0
 11
1.240157
 21
-6.43
 31
0.0
  0
LINE
  8
0
  6
CONTINUOUS
 62
     7
  5
342
 10
3.041102
 20
-8.002992
 30
0.0
 11
3.041102
 21
-7.591575
 31
0.0
  0
LINE
  8
0
  6
CONTINUOUS
 62
     7
  5
343
 10
-3.789134
 20
-7.591575
 30
0.0
 11
-3.789134
 21
-8.002992
 31
0.0
  0
LINE
  8
0
  6
CONTINUOUS
 62
     7
  5
344
 10
-3.789134
 20
-8.002992
 30
0.0
 11
3.041102
 21
-8.002992
 31
0.0
  0
CIRCLE
  8
0
  6
CONTINUOUS
 62
     7
  5
345
 10
2.625984
 20
-7.298268
 30
0.0
 40
0.241
  0
LINE
  8
0
  6
CONTINUOUS
 62
     7
  5
346
 10
2.675197
 20
-6.843543
 30
0.0
 11
2.675197
 21
-6.43
 31
0.0
  0
CIRCLE
  8
0
  6
CONTINUOUS
 62
     7
  5
347
 10
-0.374016
 20
-7.298268
 30
0.0
 40
0.241
  0
LINE
  8
0
  6
CONTINUOUS
 62
     7
  5
348
 10
-3.423228
 20
-6.843543
 30
0.0
 11
-3.423228
 21
-6.43
 31
0.0
  0
LINE
  8
0
  6
CONTINUOUS
 62
     7
  5
349
 10
-3.423228
 20
-6.843543
 30
0.0
 11
-3.246803
 21
-6.843543
 31
0.0
  0
LINE
  8
0
  6
CONTINUOUS
 62
     7
  5
34A
 10
2.498772
 20
-6.843543
 30
0.0
 11
2.675197
 21
-6.843543
 31
0.0
  0
CIRCLE
  8
0
  6
CONTINUOUS
 62
     7
  5
34B
 10
-3.374016
 20
-7.298268
 30
0.0
 40
0.241
  0
LINE
  8
0
  6
CONTINUOUS
 62
     7
  5
34C
 10
4.482283
 20
-4.395
 30
0.0
 11
4.133858
 21
-4.395
 31
0.0
  0
LINE
  8
0
  6
CONTINUOUS
 62
     7
  5
34D
 10
-4.133858
 20
-4.395
 30
0.0
 11
-4.482283
 21
-4.395
 31
0.0
  0
LINE
  8
0
  6
CONTINUOUS
 62
     7
  5
34E
 10
4.442283
 20
4.385
 30
0.0
 11
4.442283
 21
4.387271
 31
0.0
  0
LINE
  8
0
  6
CONTINUOUS
 62
     7
  5
34F
 10
-3.755906
 20
6.790402
 30
0.0
 11
-3.755906
 21
6.737166
 31
0.0
  0
LINE
  8
0
  6
CONTINUOUS
 62
     7
  5
350
 10
-3.755906
 20
6.836402
 30
0.0
 11
-3.755906
 21
6.790402
 31
0.0
  0
LINE
  8
0
  6
CONTINUOUS
 62
     7
  5
351
 10
-3.055906
 20
6.790402
 30
0.0
 11
-3.055906
 21
6.836402
 31
0.0
  0
LINE
  8
0
  6
CONTINUOUS
 62
     7
  5
352
 10
-3.055906
 20
6.737166
 30
0.0
 11
-3.055906
 21
6.790402
 31
0.0
  0
LINE
  8
0
  6
CONTINUOUS
 62
     7
  5
353
 10
-2.455906
 20
6.836402
 30
0.0
 11
-3.055906
 21
6.836402
 31
0.0
  0
LINE
  8
0
  6
CONTINUOUS
 62
     7
  5
354
 10
-2.455906
 20
6.790402
 30
0.0
 11
-2.455906
 21
6.737166
 31
0.0
  0
LINE
  8
0
  6
CONTINUOUS
 62
     7
  5
355
 10
-2.455906
 20
6.836402
 30
0.0
 11
-2.455906
 21
6.790402
 31
0.0
  0
LINE
  8
0
  6
CONTINUOUS
 62
     7
  5
356
 10
-2.455906
 20
6.836402
 30
0.0
 11
-1.755906
 21
6.836402
 31
0.0
  0
LINE
  8
0
  6
CONTINUOUS
 62
     7
  5
357
 10
-2.455906
 20
6.790402
 30
0.0
 11
-1.755906
 21
6.790402
 31
0.0
  0
LINE
  8
0
  6
CONTINUOUS
 62
     7
  5
358
 10
-1.755906
 20
6.790402
 30
0.0
 11
-1.755906
 21
6.836402
 31
0.0
  0
LINE
  8
0
  6
CONTINUOUS
 62
     7
  5
359
 10
-1.755906
 20
6.737166
 30
0.0
 11
-1.755906
 21
6.790402
 31
0.0
  0
LINE
  8
0
  6
CONTINUOUS
 62
     7
  5
35A
 10
-3.755906
 20
6.790402
 30
0.0
 11
-3.055906
 21
6.790402
 31
0.0
  0
LINE
  8
0
  6
CONTINUOUS
 62
     7
  5
35B
 10
-3.755906
 20
6.836402
 30
0.0
 11
-3.055906
 21
6.836402
 31
0.0
  0
LINE
  8
0
  6
CONTINUOUS
 62
     7
  5
35C
 10
-4.442283
 20
4.387271
 30
0.0
 11
-4.442283
 21
4.385
 31
0.0
  0
LINE
  8
0
  6
CONTINUOUS
 62
     7
  5
35D
 10
-4.005906
 20
6.800889
 30
0.0
 11
-4.005906
 21
6.847402
 31
0.0
  0
LINE
  8
0
  6
CONTINUOUS
 62
     7
  5
35E
 10
-4.005906
 20
6.737166
 30
0.0
 11
-4.005906
 21
6.800889
 31
0.0
  0
LINE
  8
0
  6
CONTINUOUS
 62
     7
  5
35F
 10
-4.005906
 20
6.847402
 30
0.0
 11
-1.505906
 21
6.847402
 31
0.0
  0
LINE
  8
0
  6
CONTINUOUS
 62
     7
  5
360
 10
-1.505906
 20
6.800889
 30
0.0
 11
-1.505906
 21
6.737166
 31
0.0
  0
LINE
  8
0
  6
CONTINUOUS
 62
     7
  5
361
 10
-1.505906
 20
6.847402
 30
0.0
 11
-1.505906
 21
6.800889
 31
0.0
  0
LINE
  8
0
  6
CONTINUOUS
 62
     7
  5
362
 10
4.482283
 20
6.737166
 30
0.0
 11
-4.482283
 21
6.737166
 31
0.0
  0
LINE
  8
0
  6
CONTINUOUS
 62
     7
  5
363
 10
-4.482283
 20
6.800889
 30
0.0
 11
-4.482283
 21
6.700384
 31
0.0
  0
LINE
  8
0
  6
CONTINUOUS
 62
     7
  5
364
 10
-4.005906
 20
6.847402
 30
0.0
 11
-4.482283
 21
6.847402
 31
0.0
  0
LINE
  8
0
  6
CONTINUOUS
 62
     7
  5
365
 10
-4.482283
 20
6.847402
 30
0.0
 11
-4.482283
 21
6.800889
 31
0.0
  0
LINE
  8
0
  6
CONTINUOUS
 62
     7
  5
366
 10
4.482283
 20
6.847402
 30
0.0
 11
4.482283
 21
6.800889
 31
0.0
  0
LINE
  8
0
  6
CONTINUOUS
 62
     7
  5
367
 10
4.482283
 20
6.800889
 30
0.0
 11
4.482283
 21
6.700384
 31
0.0
  0
LINE
  8
0
  6
CONTINUOUS
 62
     7
  5
368
 10
4.482283
 20
6.737166
 30
0.0
 11
4.482283
 21
6.700384
 31
0.0
  0
LINE
  8
0
  6
CONTINUOUS
 62
     7
  5
369
 10
4.482283
 20
6.700384
 30
0.0
 11
4.482283
 21
5.174672
 31
0.0
  0
LINE
  8
0
  6
CONTINUOUS
 62
     7
  5
36A
 10
4.482283
 20
5.174672
 30
0.0
 11
4.482283
 21
4.387271
 31
0.0
  0
LINE
  8
0
  6
CONTINUOUS
 62
     7
  5
36B
 10
4.482283
 20
4.387271
 30
0.0
 11
-4.482283
 21
4.387271
 31
0.0
  0
LINE
  8
0
  6
CONTINUOUS
 62
     7
  5
36C
 10
4.482283
 20
6.847402
 30
0.0
 11
-1.505906
 21
6.847402
 31
0.0
  0
LINE
  8
0
  6
CONTINUOUS
 62
     7
  5
36D
 10
-4.482283
 20
6.737166
 30
0.0
 11
-4.482283
 21
6.700384
 31
0.0
  0
LINE
  8
0
  6
CONTINUOUS
 62
     7
  5
36E
 10
-4.482283
 20
6.700384
 30
0.0
 11
-4.482283
 21
5.174672
 31
0.0
  0
LINE
  8
0
  6
CONTINUOUS
 62
     7
  5
36F
 10
4.482283
 20
5.174672
 30
0.0
 11
-4.482283
 21
5.174672
 31
0.0
  0
LINE
  8
0
  6
CONTINUOUS
 62
     7
  5
370
 10
-4.482283
 20
5.174672
 30
0.0
 11
-4.482283
 21
4.387271
 31
0.0
  0
LINE
  8
0
  6
CONTINUOUS
 62
     7
  5
371
 10
-4.480283
 20
4.385
 30
0.0
 11
4.480283
 21
4.385
 31
0.0
  0
LINE
  8
0
  6
CONTINUOUS
 62
     7
  5
372
 10
-4.480283
 20
-4.135
 30
0.0
 11
-4.480283
 21
-4.385
 31
0.0
  0
LINE
  8
0
  6
CONTINUOUS
 62
     7
  5
373
 10
-4.480283
 20
-3.835
 30
0.0
 11
-4.480283
 21
-4.135
 31
0.0
  0
LINE
  8
0
  6
CONTINUOUS
 62
     7
  5
374
 10
-4.480283
 20
-3.75
 30
0.0
 11
-4.480283
 21
-3.835
 31
0.0
  0
LINE
  8
0
  6
CONTINUOUS
 62
     7
  5
375
 10
-4.480283
 20
-3.75
 30
0.0
 11
-4.480283
 21
-3.45
 31
0.0
  0
LINE
  8
0
  6
CONTINUOUS
 62
     7
  5
376
 10
-4.480283
 20
3.45
 30
0.0
 11
-4.480283
 21
-3.45
 31
0.0
  0
LINE
  8
0
  6
CONTINUOUS
 62
     7
  5
377
 10
-4.480283
 20
3.45
 30
0.0
 11
-4.480283
 21
3.75
 31
0.0
  0
LINE
  8
0
  6
CONTINUOUS
 62
     7
  5
378
 10
-4.480283
 20
3.835
 30
0.0
 11
-4.480283
 21
3.75
 31
0.0
  0
LINE
  8
0
  6
CONTINUOUS
 62
     7
  5
379
 10
-4.480283
 20
4.135
 30
0.0
 11
-4.480283
 21
3.835
 31
0.0
  0
LINE
  8
0
  6
CONTINUOUS
 62
     7
  5
37A
 10
-4.480283
 20
4.385
 30
0.0
 11
-4.480283
 21
4.135
 31
0.0
  0
LINE
  8
0
  6
CONTINUOUS
 62
     7
  5
37B
 10
4.480283
 20
-4.385
 30
0.0
 11
-4.480283
 21
-4.385
 31
0.0
  0
LINE
  8
0
  6
CONTINUOUS
 62
     7
  5
37C
 10
0.72
 20
-0.125951
 30
0.0
 11
0.8
 21
-0.125951
 31
0.0
  0
LINE
  8
0
  6
CONTINUOUS
 62
     7
  5
37D
 10
-0.8
 20
-0.125951
 30
0.0
 11
-0.72
 21
-0.125951
 31
0.0
  0
LINE
  8
0
  6
CONTINUOUS
 62
     7
  5
37E
 10
-0.72
 20
-2.754049
 30
0.0
 11
-0.8
 21
-2.754049
 31
0.0
  0
LINE
  8
0
  6
CONTINUOUS
 62
     7
  5
37F
 10
0.8
 20
-2.754049
 30
0.0
 11
0.72
 21
-2.754049
 31
0.0
  0
LINE
  8
0
  6
CONTINUOUS
 62
     7
  5
380
 10
0.72
 20
-1.505129
 30
0.0
 11
-0.72
 21
-1.505129
 31
0.0
  0
LINE
  8
0
  6
CONTINUOUS
 62
     7
  5
381
 10
0.72
 20
-0.670038
 30
0.0
 11
-0.72
 21
-0.670038
 31
0.0
  0
LINE
  8
0
  6
CONTINUOUS
 62
     7
  5
382
 10
-0.72
 20
-2.10525
 30
0.0
 11
0.72
 21
-2.10525
 31
0.0
  0
LINE
  8
0
  6
CONTINUOUS
 62
     7
  5
383
 10
-0.72
 20
-3.001098
 30
0.0
 11
-0.72
 21
-2.10525
 31
0.0
  0
LINE
  8
0
  6
CONTINUOUS
 62
     7
  5
384
 10
0.72
 20
-3.001098
 30
0.0
 11
-0.72
 21
-3.001098
 31
0.0
  0
LINE
  8
0
  6
CONTINUOUS
 62
     7
  5
385
 10
0.72
 20
-3.001098
 30
0.0
 11
0.72
 21
-2.10525
 31
0.0
  0
LINE
  8
0
  6
CONTINUOUS
 62
     7
  5
386
 10
-0.72
 20
-3.001098
 30
0.0
 11
-0.72
 21
-3.454252
 31
0.0
  0
LINE
  8
0
  6
CONTINUOUS
 62
     7
  5
387
 10
-0.72
 20
-3.454252
 30
0.0
 11
0.72
 21
-3.454252
 31
0.0
  0
LINE
  8
0
  6
CONTINUOUS
 62
     7
  5
388
 10
0.72
 20
-3.454252
 30
0.0
 11
0.72
 21
-3.001098
 31
0.0
  0
LINE
  8
0
  6
CONTINUOUS
 62
     7
  5
389
 10
0.72
 20
0.766602
 30
0.0
 11
-0.72
 21
0.766602
 31
0.0
  0
LINE
  8
0
  6
CONTINUOUS
 62
     7
  5
38A
 10
-0.72
 20
0.325128
 30
0.0
 11
-0.72
 21
-0.670038
 31
0.0
  0
LINE
  8
0
  6
CONTINUOUS
 62
     7
  5
38B
 10
-0.72
 20
0.766602
 30
0.0
 11
-0.72
 21
0.325128
 31
0.0
  0
LINE
  8
0
  6
CONTINUOUS
 62
     7
  5
38C
 10
-0.72
 20
0.325128
 30
0.0
 11
0.72
 21
0.325128
 31
0.0
  0
LINE
  8
0
  6
CONTINUOUS
 62
     7
  5
38D
 10
0.72
 20
0.325128
 30
0.0
 11
0.72
 21
0.766602
 31
0.0
  0
LINE
  8
0
  6
CONTINUOUS
 62
     7
  5
38E
 10
0.72
 20
0.325128
 30
0.0
 11
0.72
 21
-0.670038
 31
0.0
  0
LINE
  8
0
  6
CONTINUOUS
 62
     7
  5
38F
 10
0.72
 20
-0.822283
 30
0.0
 11
-0.72
 21
-0.822283
 31
0.0
  0
LINE
  8
0
  6
CONTINUOUS
 62
     7
  5
390
 10
-0.72
 20
-1.32038
 30
0.0
 11
-0.72
 21
-1.505129
 31
0.0
  0
LINE
  8
0
  6
CONTINUOUS
 62
     7
  5
391
 10
-0.72
 20
-0.822283
 30
0.0
 11
-0.72
 21
-1.32038
 31
0.0
  0
LINE
  8
0
  6
CONTINUOUS
 62
     7
  5
392
 10
-0.72
 20
-1.32038
 30
0.0
 11
0.72
 21
-1.32038
 31
0.0
  0
LINE
  8
0
  6
CONTINUOUS
 62
     7
  5
393
 10
0.72
 20
-1.32038
 30
0.0
 11
0.72
 21
-0.822283
 31
0.0
  0
LINE
  8
0
  6
CONTINUOUS
 62
     7
  5
394
 10
0.72
 20
-1.32038
 30
0.0
 11
0.72
 21
-1.505129
 31
0.0
  0
LINE
  8
0
  6
CONTINUOUS
 62
     7
  5
395
 10
0.72
 20
0.06
 30
0.0
 11
0.8
 21
0.06
 31
0.0
  0
LINE
  8
0
  6
CONTINUOUS
 62
     7
  5
396
 10
-0.8
 20
0.06
 30
0.0
 11
-0.72
 21
0.06
 31
0.0
  0
LINE
  8
0
  6
CONTINUOUS
 62
     7
  5
397
 10
0.8
 20
0.06
 30
0.0
 11
0.8
 21
-2.94
 31
0.0
  0
LINE
  8
0
  6
CONTINUOUS
 62
     7
  5
398
 10
-0.72
 20
-2.94
 30
0.0
 11
-0.8
 21
-2.94
 31
0.0
  0
LINE
  8
0
  6
CONTINUOUS
 62
     7
  5
399
 10
0.8
 20
-2.94
 30
0.0
 11
0.72
 21
-2.94
 31
0.0
  0
LINE
  8
0
  6
CONTINUOUS
 62
     7
  5
39A
 10
-0.8
 20
-2.94
 30
0.0
 11
-0.8
 21
0.06
 31
0.0
  0
LINE
  8
0
  6
CONTINUOUS
 62
     7
  5
39B
 10
-1.28
 20
-3.645
 30
0.0
 11
1.28
 21
-3.645
 31
0.0
  0
LINE
  8
0
  6
CONTINUOUS
 62
     7
  5
39C
 10
-1.28
 20
0.805
 30
0.0
 11
1.28
 21
0.805
 31
0.0
  0
LINE
  8
0
  6
CONTINUOUS
 62
     7
  5
39D
 10
1.28
 20
-1.61
 30
0.0
 11
1.830283
 21
-1.61
 31
0.0
  0
LINE
  8
0
  6
CONTINUOUS
 62
     7
  5
39E
 10
1.830283
 20
-1.61
 30
0.0
 11
1.830283
 21
3.115
 31
0.0
  0
LINE
  8
0
  6
CONTINUOUS
 62
     7
  5
39F
 10
1.830283
 20
3.115
 30
0.0
 11
-1.530283
 21
3.115
 31
0.0
  0
LINE
  8
0
  6
CONTINUOUS
 62
     7
  5
3A0
 10
-1.530283
 20
3.115
 30
0.0
 11
-1.530283
 21
-1.61
 31
0.0
  0
LINE
  8
0
  6
CONTINUOUS
 62
     7
  5
3A1
 10
-1.530283
 20
-1.61
 30
0.0
 11
-1.28
 21
-1.61
 31
0.0
  0
LINE
  8
0
  6
CONTINUOUS
 62
     7
  5
3A2
 10
1.830283
 20
-1.66
 30
0.0
 11
1.28
 21
-1.66
 31
0.0
  0
LINE
  8
0
  6
CONTINUOUS
 62
     7
  5
3A3
 10
-1.28
 20
-1.66
 30
0.0
 11
-1.530283
 21
-1.66
 31
0.0
  0
LINE
  8
0
  6
CONTINUOUS
 62
     7
  5
3A4
 10
1.880283
 20
-3.835
 30
0.0
 11
1.830283
 21
-3.835
 31
0.0
  0
LINE
  8
0
  6
CONTINUOUS
 62
     7
  5
3A5
 10
3.580283
 20
-3.835
 30
0.0
 11
3.530283
 21
-3.835
 31
0.0
  0
LINE
  8
0
  6
CONTINUOUS
 62
     7
  5
3A6
 10
3.530283
 20
3.835
 30
0.0
 11
3.580283
 21
3.835
 31
0.0
  0
LINE
  8
0
  6
CONTINUOUS
 62
     7
  5
3A7
 10
1.830283
 20
3.835
 30
0.0
 11
1.880283
 21
3.835
 31
0.0
  0
LINE
  8
0
  6
CONTINUOUS
 62
     7
  5
3A8
 10
-1.580283
 20
3.835
 30
0.0
 11
-1.530283
 21
3.835
 31
0.0
  0
LINE
  8
0
  6
CONTINUOUS
 62
     7
  5
3A9
 10
-3.630283
 20
3.835
 30
0.0
 11
-3.580283
 21
3.835
 31
0.0
  0
LINE
  8
0
  6
CONTINUOUS
 62
     7
  5
3AA
 10
-3.580283
 20
-3.835
 30
0.0
 11
-3.630283
 21
-3.835
 31
0.0
  0
LINE
  8
0
  6
CONTINUOUS
 62
     7
  5
3AB
 10
-1.530283
 20
-3.835
 30
0.0
 11
-1.580283
 21
-3.835
 31
0.0
  0
LINE
  8
0
  6
CONTINUOUS
 62
     7
  5
3AC
 10
1.880283
 20
3.835
 30
0.0
 11
1.880283
 21
3.165
 31
0.0
  0
LINE
  8
0
  6
CONTINUOUS
 62
     7
  5
3AD
 10
1.830283
 20
-3.835
 30
0.0
 11
1.830283
 21
-1.66
 31
0.0
  0
LINE
  8
0
  6
CONTINUOUS
 62
     7
  5
3AE
 10
1.830283
 20
3.165
 30
0.0
 11
1.830283
 21
3.835
 31
0.0
  0
LINE
  8
0
  6
CONTINUOUS
 62
     7
  5
3AF
 10
1.880283
 20
3.835
 30
0.0
 11
3.530283
 21
3.835
 31
0.0
  0
LINE
  8
0
  6
CONTINUOUS
 62
     7
  5
3B0
 10
3.580283
 20
3.835
 30
0.0
 11
4.480283
 21
3.835
 31
0.0
  0
LINE
  8
0
  6
CONTINUOUS
 62
     7
  5
3B1
 10
-4.480283
 20
3.835
 30
0.0
 11
-3.630283
 21
3.835
 31
0.0
  0
LINE
  8
0
  6
CONTINUOUS
 62
     7
  5
3B2
 10
-3.580283
 20
3.835
 30
0.0
 11
-1.580283
 21
3.835
 31
0.0
  0
LINE
  8
0
  6
CONTINUOUS
 62
     7
  5
3B3
 10
-1.530283
 20
3.835
 30
0.0
 11
1.830283
 21
3.835
 31
0.0
  0
LINE
  8
0
  6
CONTINUOUS
 62
     7
  5
3B4
 10
1.880283
 20
3.165
 30
0.0
 11
3.530283
 21
3.165
 31
0.0
  0
LINE
  8
0
  6
CONTINUOUS
 62
     7
  5
3B5
 10
3.530283
 20
3.165
 30
0.0
 11
3.530283
 21
3.835
 31
0.0
  0
LINE
  8
0
  6
CONTINUOUS
 62
     7
  5
3B6
 10
3.530283
 20
3.115
 30
0.0
 11
1.880283
 21
3.115
 31
0.0
  0
LINE
  8
0
  6
CONTINUOUS
 62
     7
  5
3B7
 10
1.830283
 20
-3.835
 30
0.0
 11
-1.530283
 21
-3.835
 31
0.0
  0
LINE
  8
0
  6
CONTINUOUS
 62
     7
  5
3B8
 10
-1.580283
 20
-3.835
 30
0.0
 11
-3.580283
 21
-3.835
 31
0.0
  0
LINE
  8
0
  6
CONTINUOUS
 62
     7
  5
3B9
 10
-3.630283
 20
-3.835
 30
0.0
 11
-4.480283
 21
-3.835
 31
0.0
  0
LINE
  8
0
  6
CONTINUOUS
 62
     7
  5
3BA
 10
4.480283
 20
-3.835
 30
0.0
 11
3.580283
 21
-3.835
 31
0.0
  0
LINE
  8
0
  6
CONTINUOUS
 62
     7
  5
3BB
 10
3.530283
 20
-3.835
 30
0.0
 11
1.880283
 21
-3.835
 31
0.0
  0
LINE
  8
0
  6
CONTINUOUS
 62
     7
  5
3BC
 10
-1.530283
 20
-1.66
 30
0.0
 11
-1.530283
 21
-3.835
 31
0.0
  0
LINE
  8
0
  6
CONTINUOUS
 62
     7
  5
3BD
 10
1.880283
 20
3.115
 30
0.0
 11
1.880283
 21
-3.835
 31
0.0
  0
LINE
  8
0
  6
CONTINUOUS
 62
     7
  5
3BE
 10
3.530283
 20
-3.835
 30
0.0
 11
3.530283
 21
3.115
 31
0.0
  0
LINE
  8
0
  6
CONTINUOUS
 62
     7
  5
3BF
 10
-1.530283
 20
3.835
 30
0.0
 11
-1.530283
 21
3.165
 31
0.0
  0
LINE
  8
0
  6
CONTINUOUS
 62
     7
  5
3C0
 10
-1.530283
 20
3.165
 30
0.0
 11
1.830283
 21
3.165
 31
0.0
  0
LINE
  8
0
  6
CONTINUOUS
 62
     7
  5
3C1
 10
3.580283
 20
3.835
 30
0.0
 11
3.580283
 21
-3.835
 31
0.0
  0
LINE
  8
0
  6
CONTINUOUS
 62
     7
  5
3C2
 10
4.480283
 20
-3.75
 30
0.0
 11
4.480283
 21
-3.835
 31
0.0
  0
LINE
  8
0
  6
CONTINUOUS
 62
     7
  5
3C3
 10
4.480283
 20
-3.75
 30
0.0
 11
4.285623
 21
-3.75
 31
0.0
  0
ARC
  8
0
  6
CONTINUOUS
 62
     7
  5
3C4
 10
4.285623
 20
-3.6
 30
0.0
 40
0.15
 50
90.0
 51
270.0
  0
LINE
  8
0
  6
CONTINUOUS
 62
     7
  5
3C5
 10
4.285623
 20
-3.45
 30
0.0
 11
4.480283
 21
-3.45
 31
0.0
  0
LINE
  8
0
  6
CONTINUOUS
 62
     7
  5
3C6
 10
4.480283
 20
3.45
 30
0.0
 11
4.480283
 21
-3.45
 31
0.0
  0
LINE
  8
0
  6
CONTINUOUS
 62
     7
  5
3C7
 10
4.480283
 20
3.45
 30
0.0
 11
4.285623
 21
3.45
 31
0.0
  0
ARC
  8
0
  6
CONTINUOUS
 62
     7
  5
3C8
 10
4.285623
 20
3.6
 30
0.0
 40
0.15
 50
90.0
 51
270.0
  0
LINE
  8
0
  6
CONTINUOUS
 62
     7
  5
3C9
 10
4.285623
 20
3.75
 30
0.0
 11
4.480283
 21
3.75
 31
0.0
  0
LINE
  8
0
  6
CONTINUOUS
 62
     7
  5
3CA
 10
4.480283
 20
3.835
 30
0.0
 11
4.480283
 21
3.75
 31
0.0
  0
LINE
  8
0
  6
CONTINUOUS
 62
     7
  5
3CB
 10
-1.580283
 20
-3.835
 30
0.0
 11
-1.580283
 21
3.115
 31
0.0
  0
LINE
  8
0
  6
CONTINUOUS
 62
     7
  5
3CC
 10
-1.580283
 20
3.165
 30
0.0
 11
-1.580283
 21
3.835
 31
0.0
  0
LINE
  8
0
  6
CONTINUOUS
 62
     7
  5
3CD
 10
-1.580283
 20
3.115
 30
0.0
 11
-3.580283
 21
3.115
 31
0.0
  0
LINE
  8
0
  6
CONTINUOUS
 62
     7
  5
3CE
 10
-3.580283
 20
3.115
 30
0.0
 11
-3.580283
 21
-3.835
 31
0.0
  0
LINE
  8
0
  6
CONTINUOUS
 62
     7
  5
3CF
 10
-3.630283
 20
-3.835
 30
0.0
 11
-3.630283
 21
3.835
 31
0.0
  0
LINE
  8
0
  6
CONTINUOUS
 62
     7
  5
3D0
 10
-3.580283
 20
3.835
 30
0.0
 11
-3.580283
 21
3.165
 31
0.0
  0
LINE
  8
0
  6
CONTINUOUS
 62
     7
  5
3D1
 10
-3.580283
 20
3.165
 30
0.0
 11
-1.580283
 21
3.165
 31
0.0
  0
LINE
  8
0
  6
CONTINUOUS
 62
     7
  5
3D2
 10
-4.480283
 20
3.75
 30
0.0
 11
-4.285623
 21
3.75
 31
0.0
  0
ARC
  8
0
  6
CONTINUOUS
 62
     7
  5
3D3
 10
-4.285623
 20
3.6
 30
0.0
 40
0.15
 50
270.0
 51
90.0
  0
LINE
  8
0
  6
CONTINUOUS
 62
     7
  5
3D4
 10
-4.285623
 20
3.45
 30
0.0
 11
-4.480283
 21
3.45
 31
0.0
  0
LINE
  8
0
  6
CONTINUOUS
 62
     7
  5
3D5
 10
-4.480283
 20
-3.45
 30
0.0
 11
-4.285623
 21
-3.45
 31
0.0
  0
ARC
  8
0
  6
CONTINUOUS
 62
     7
  5
3D6
 10
-4.285623
 20
-3.6
 30
0.0
 40
0.15
 50
270.0
 51
90.0
  0
LINE
  8
0
  6
CONTINUOUS
 62
     7
  5
3D7
 10
-4.285623
 20
-3.75
 30
0.0
 11
-4.480283
 21
-3.75
 31
0.0
  0
LINE
  8
0
  6
CONTINUOUS
 62
     7
  5
3D8
 10
4.480283
 20
-3.45
 30
0.0
 11
4.480283
 21
-3.75
 31
0.0
  0
LINE
  8
0
  6
CONTINUOUS
 62
     7
  5
3D9
 10
4.480283
 20
3.75
 30
0.0
 11
4.480283
 21
3.45
 31
0.0
  0
LINE
  8
0
  6
CONTINUOUS
 62
     7
  5
3DA
 10
4.480283
 20
-4.135
 30
0.0
 11
4.480283
 21
-4.385
 31
0.0
  0
LINE
  8
0
  6
CONTINUOUS
 62
     7
  5
3DB
 10
4.480283
 20
4.385
 30
0.0
 11
4.480283
 21
4.135
 31
0.0
  0
LINE
  8
0
  6
CONTINUOUS
 62
     7
  5
3DC
 10
-4.480283
 20
4.135
 30
0.0
 11
4.480283
 21
4.135
 31
0.0
  0
LINE
  8
0
  6
CONTINUOUS
 62
     7
  5
3DD
 10
4.480283
 20
-4.135
 30
0.0
 11
-4.480283
 21
-4.135
 31
0.0
  0
LINE
  8
0
  6
CONTINUOUS
 62
     7
  5
3DE
 10
4.480283
 20
-3.835
 30
0.0
 11
4.480283
 21
-4.135
 31
0.0
  0
LINE
  8
0
  6
CONTINUOUS
 62
     7
  5
3DF
 10
4.480283
 20
4.135
 30
0.0
 11
4.480283
 21
3.835
 31
0.0
  0
LINE
  8
0
  6
CONTINUOUS
 62
     7
  5
3E0
 10
1.28
 20
-3.645
 30
0.0
 11
1.28
 21
0.805
 31
0.0
  0
LINE
  8
0
  6
CONTINUOUS
 62
     7
  5
3E1
 10
-1.28
 20
0.805
 30
0.0
 11
-1.28
 21
-3.645
 31
0.0
  0
LINE
  8
0
  6
CONTINUOUS
 62
     7
  5
3E2
 10
-4.482283
 20
4.387271
 30
0.0
 11
-4.482283
 21
-4.395
 31
0.0
  0
LINE
  8
0
  6
CONTINUOUS
 62
     7
  5
3E3
 10
4.482283
 20
4.387271
 30
0.0
 11
4.482283
 21
-4.395
 31
0.0
  0
LINE
  8
0
  6
CONTINUOUS
 62
     3
  5
3E4
 10
0.0
 20
-3.227675
 30
0.0
 11
0.0
 21
0.545865
 31
0.0
  0
ENDSEC
  0
EOF
