  0
SECTION
  2
HEADER
  9
$ACADVER
  1
AC1009
  9
$DWGCODEPAGE
  3
ansi_1250
  9
$INSBASE
 10
0.0
 20
0.0
 30
0.0
  9
$EXTMIN
 10
-2.241142
 20
-1.51063
 30
0.0
  9
$EXTMAX
 10
2.241142
 20
4.145559
 30
0.0
  9
$LIMMIN
 10
0.0
 20
0.0
  9
$LIMMAX
 10
0.0
 20
0.0
  9
$ORTHOMODE
 70
     0
  9
$REGENMODE
 70
     1
  9
$FILLMODE
 70
     1
  9
$QTEXTMODE
 70
     0
  9
$MIRRTEXT
 70
     1
  9
$DRAGMODE
 70
     2
  9
$LTSCALE
 40
1.0
  9
$OSMODE
 70
     0
  9
$ATTMODE
 70
     1
  9
$TEXTSIZE
 40
0.2
  9
$TRACEWID
 40
0.05
  9
$TEXTSTYLE
  7
STANDARD
  9
$CLAYER
  8
0
  9
$CELTYPE
  6
CONTINUOUS
  9
$CECOLOR
 62
   256
  9
$DIMSCALE
 40
1.0
  9
$DIMASZ
 40
0.18
  9
$DIMEXO
 40
0.0625
  9
$DIMDLI
 40
0.38
  9
$DIMRND
 40
0.0
  9
$DIMDLE
 40
0.0
  9
$DIMEXE
 40
0.18
  9
$DIMTP
 40
0.0
  9
$DIMTM
 40
0.0
  9
$DIMTXT
 40
0.18
  9
$DIMCEN
 40
0.09
  9
$DIMTSZ
 40
0.0
  9
$DIMTOL
 70
     0
  9
$DIMLIM
 70
     0
  9
$DIMTIH
 70
     1
  9
$DIMTOH
 70
     1
  9
$DIMSE1
 70
     0
  9
$DIMSE2
 70
     0
  9
$DIMTAD
 70
     0
  9
$DIMZIN
 70
     0
  9
$DIMBLK
  1

  9
$DIMASO
 70
     1
  9
$DIMSHO
 70
     1
  9
$DIMPOST
  1

  9
$DIMAPOST
  1

  9
$DIMALT
 70
     0
  9
$DIMALTD
 70
     2
  9
$DIMALTF
 40
25.4
  9
$DIMLFAC
 40
1.0
  9
$DIMTOFL
 70
     0
  9
$DIMTVP
 40
0.0
  9
$DIMTIX
 70
     0
  9
$DIMSOXD
 70
     0
  9
$DIMSAH
 70
     0
  9
$DIMBLK1
  1

  9
$DIMBLK2
  1

  9
$DIMSTYLE
  2
STANDARD
  9
$DIMCLRD
 70
     0
  9
$DIMCLRE
 70
     0
  9
$DIMCLRT
 70
     0
  9
$DIMTFAC
 40
1.0
  9
$DIMGAP
 40
0.09
  9
$LUNITS
 70
     2
  9
$LUPREC
 70
     4
  9
$AXISMODE
 70
     0
  9
$AXISUNIT
 10
0.0
 20
0.0
  9
$SKETCHINC
 40
0.1
  9
$FILLETRAD
 40
0.0
  9
$AUNITS
 70
     0
  9
$AUPREC
 70
     0
  9
$MENU
  1
acad
  9
$ELEVATION
 40
0.0
  9
$PELEVATION
 40
0.0
  9
$THICKNESS
 40
0.0
  9
$LIMCHECK
 70
     0
  9
$BLIPMODE
 70
     1
  9
$CHAMFERA
 40
0.0
  9
$CHAMFERB
 40
0.0
  9
$SKPOLY
 70
     0
  9
$TDCREATE
 40
0.000000000
  9
$TDUPDATE
 40
0.000000000
  9
$TDINDWG
 40
0.0000000000
  9
$TDUSRTIMER
 40
0.0000000000
  9
$USRTIMER
 70
     1
  9
$ANGBASE
 50
0.0
  9
$ANGDIR
 70
     0
  9
$PDMODE
 70
     0
  9
$PDSIZE
 40
0.0
  9
$PLINEWID
 40
0.0
  9
$COORDS
 70
     0
  9
$SPLFRAME
 70
     0
  9
$SPLINETYPE
 70
     6
  9
$SPLINESEGS
 70
     8
  9
$ATTDIA
 70
     0
  9
$ATTREQ
 70
     1
  9
$HANDLING
 70
     1
  9
$HANDSEED
  5
4C6
  9
$SURFTAB1
 70
     6
  9
$SURFTAB2
 70
     6
  9
$SURFTYPE
 70
     6
  9
$SURFU
 70
     6
  9
$SURFV
 70
     6
  9
$UCSNAME
  2

  9
$UCSORG
 10
0.0
 20
0.0
 30
0.0
  9
$UCSXDIR
 10
1.0
 20
0.0
 30
0.0
  9
$UCSYDIR
 10
0.0
 20
1.0
 30
0.0
  9
$PUCSNAME
  2

  9
$PUCSORG
 10
0.0
 20
0.0
 30
0.0
  9
$PUCSXDIR
 10
1.0
 20
0.0
 30
0.0
  9
$PUCSYDIR
 10
0.0
 20
1.0
 30
0.0
  9
$USERI1
 70
     0
  9
$USERI2
 70
     0
  9
$USERI3
 70
     0
  9
$USERI4
 70
     0
  9
$USERI5
 70
     0
  9
$USERR1
 40
0.0
  9
$USERR2
 40
0.0
  9
$USERR3
 40
0.0
  9
$USERR4
 40
0.0
  9
$USERR5
 40
0.0
  9
$WORLDVIEW
 70
     1
  9
$SHADEDGE
 70
     3
  9
$SHADEDIF
 70
    70
  9
$TILEMODE
 70
     1
  9
$MAXACTVP
 70
    16
  9
$PINSBASE
 10
0.0
 20
0.0
 30
0.0
  9
$PLIMCHECK
 70
     0
  9
$PEXTMIN
 10
1.000000E+20
 20
1.000000E+20
 30
1.000000E+20
  9
$PEXTMAX
 10
-1.000000E+20
 20
-1.000000E+20
 30
-1.000000E+20
  9
$PLIMMIN
 10
0.0
 20
0.0
  9
$PLIMMAX
 10
12.0
 20
9.0
  9
$UNITMODE
 70
     0
  9
$VISRETAIN
 70
     0
  9
$PLINEGEN
 70
     1
  9
$PSLTSCALE
 70
     0
  9
$TREEDEPTH
 70
  3020
  0
ENDSEC
  0
SECTION
  2
TABLES
  0
TABLE
  2
VPORT
 70
     1
  0
VPORT
  2
*ACTIVE
 70
     0
 10
0.0
 20
0.0
 11
1.0
 21
1.0
 12
6.591288
 22
4.579184
 13
0.0
 23
0.0
 14
1.0
 24
1.0
 15
0.0
 25
0.0
 16
0.0
 26
0.0
 36
1.0
 17
0.0
 27
0.0
 37
0.0
 40
9.158369
 41
0.688564
 42
50.0
 43
0.0
 44
0.0
 50
0.0
 51
0.0
 71
     0
 72
   100
 73
     1
 74
     1
 75
     0
 76
     0
 77
     0
 78
     0
  0
ENDTAB
  0
TABLE
  2
LTYPE
 70
     5
  0
LTYPE
  2
CONTINUOUS
 70
    64
  3
Solid line
 72
    65
 73
     0
 40
0.0
  0
LTYPE
  2
CENTER
 70
    64
  3
Center ____ _ ____ _ ____ _ ____ _ ____ _ ____
 72
    65
 73
     4
 40
50.8
 49
31.75
 49
-6.35
 49
6.35
 49
-6.35
  0
LTYPE
  2
HIDDEN
 70
    64
  3
Hidden __ __ __ __ __ __ __ __ __ __ __ __ __ __
 72
    65
 73
     2
 40
9.525
 49
6.35
 49
-3.175
  0
LTYPE
  2
CENTER2
 70
    64
  3
Center (.5x) ___ _ ___ _ ___ _ ___ _ ___ _ ___
 72
    65
 73
     4
 40
28.575
 49
19.05
 49
-3.175
 49
3.175
 49
-3.175
  0
LTYPE
  2
HIDDEN2
 70
    64
  3
Hidden (.5x) _ _ _ _ _ _ _ _ _ _ _ _ _ _ _ _ _
 72
    65
 73
     2
 40
4.7625
 49
3.175
 49
-1.5875
  0
ENDTAB
  0
TABLE
  2
LAYER
 70
     1
  0
LAYER
  2
0
 70
     0
 62
     7
  6
CONTINUOUS
  0
ENDTAB
  0
TABLE
  2
STYLE
 70
     1
  0
STYLE
  2
STANDARD
 70
     0
 40
0.0
 41
1.0
 50
0.0
 71
     0
 42
0.0
  3
txt
  4

  0
ENDTAB
  0
TABLE
  2
VIEW
 70
     0
  0
ENDTAB
  0
TABLE
  2
UCS
 70
     0
  0
ENDTAB
  0
TABLE
  2
APPID
 70
     1
  0
APPID
  2
ACAD
 70
     0
  0
ENDTAB
  0
TABLE
  2
DIMSTYLE
 70
     1
  0
DIMSTYLE
  2
STANDARD
 70
     0
  3

  4

  5

  6

  7

 40
1.0
 41
0.18
 42
0.0625
 43
0.38
 44
0.18
 45
0.0
 46
0.0
 47
0.0
 48
0.0
 71
     0
 72
     0
 73
     1
 74
     1
 75
     0
 76
     0
 77
     0
 78
     0
140
0.18
141
0.09
142
0.0
143
25.4
144
1.0
145
0.0
146
1.0
147
0.09
170
     0
171
     2
172
     0
173
     0
174
     0
175
     0
176
     0
177
     0
178
     0
  0
ENDTAB
  0
ENDSEC
  0
SECTION
  2
BLOCKS
  0
ENDSEC
  0
SECTION
  2
ENTITIES
  0
LINE
  8
0
  6
CONTINUOUS
 62
     7
  5
29A
 10
-0.850394
 20
2.767717
 30
0.0
 11
-0.212598
 21
2.767717
 31
0.0
  0
LINE
  8
0
  6
CONTINUOUS
 62
     7
  5
29B
 10
-0.862205
 20
2.357711
 30
0.0
 11
-0.862205
 21
2.311024
 31
0.0
  0
LINE
  8
0
  6
CONTINUOUS
 62
     7
  5
29C
 10
-0.805118
 20
0.401575
 30
0.0
 11
-0.805118
 21
0.244094
 31
0.0
  0
LINE
  8
0
  6
CONTINUOUS
 62
     7
  5
29D
 10
-0.805118
 20
0.244094
 30
0.0
 11
-0.659449
 21
0.244094
 31
0.0
  0
LINE
  8
0
  6
CONTINUOUS
 62
     7
  5
29E
 10
-0.659449
 20
0.244094
 30
0.0
 11
-0.659449
 21
0.176378
 31
0.0
  0
LINE
  8
0
  6
CONTINUOUS
 62
     7
  5
29F
 10
-0.659449
 20
0.176378
 30
0.0
 11
-0.805118
 21
0.176378
 31
0.0
  0
LINE
  8
0
  6
CONTINUOUS
 62
     7
  5
2A0
 10
-0.805118
 20
0.176378
 30
0.0
 11
-0.805118
 21
0.0
 31
0.0
  0
LINE
  8
0
  6
CONTINUOUS
 62
     7
  5
2A1
 10
-0.257874
 20
0.0
 30
0.0
 11
-0.257874
 21
0.176378
 31
0.0
  0
LINE
  8
0
  6
CONTINUOUS
 62
     7
  5
2A2
 10
-0.257874
 20
0.176378
 30
0.0
 11
-0.403543
 21
0.176378
 31
0.0
  0
LINE
  8
0
  6
CONTINUOUS
 62
     7
  5
2A3
 10
-0.403543
 20
0.176378
 30
0.0
 11
-0.403543
 21
0.244094
 31
0.0
  0
LINE
  8
0
  6
CONTINUOUS
 62
     7
  5
2A4
 10
-0.403543
 20
0.244094
 30
0.0
 11
-0.257874
 21
0.244094
 31
0.0
  0
LINE
  8
0
  6
CONTINUOUS
 62
     7
  5
2A5
 10
-0.257874
 20
0.244094
 30
0.0
 11
-0.257874
 21
0.401575
 31
0.0
  0
LINE
  8
0
  6
CONTINUOUS
 62
     7
  5
2A6
 10
-0.200787
 20
2.311024
 30
0.0
 11
-0.200787
 21
2.357711
 31
0.0
  0
LINE
  8
0
  6
CONTINUOUS
 62
     7
  5
2A7
 10
0.212598
 20
2.767717
 30
0.0
 11
0.850394
 21
2.767717
 31
0.0
  0
LINE
  8
0
  6
CONTINUOUS
 62
     7
  5
2A8
 10
0.200787
 20
2.357711
 30
0.0
 11
0.200787
 21
2.311024
 31
0.0
  0
LINE
  8
0
  6
CONTINUOUS
 62
     7
  5
2A9
 10
0.257874
 20
0.401575
 30
0.0
 11
0.257874
 21
0.244094
 31
0.0
  0
LINE
  8
0
  6
CONTINUOUS
 62
     7
  5
2AA
 10
0.257874
 20
0.244094
 30
0.0
 11
0.403543
 21
0.244094
 31
0.0
  0
LINE
  8
0
  6
CONTINUOUS
 62
     7
  5
2AB
 10
0.403543
 20
0.244094
 30
0.0
 11
0.403543
 21
0.176378
 31
0.0
  0
LINE
  8
0
  6
CONTINUOUS
 62
     7
  5
2AC
 10
0.403543
 20
0.176378
 30
0.0
 11
0.257874
 21
0.176378
 31
0.0
  0
LINE
  8
0
  6
CONTINUOUS
 62
     7
  5
2AD
 10
0.257874
 20
0.176378
 30
0.0
 11
0.257874
 21
0.0
 31
0.0
  0
LINE
  8
0
  6
CONTINUOUS
 62
     7
  5
2AE
 10
0.362205
 20
0.0
 30
0.0
 11
0.362205
 21
0.062992
 31
0.0
  0
LINE
  8
0
  6
CONTINUOUS
 62
     7
  5
2AF
 10
0.362205
 20
0.062992
 30
0.0
 11
0.299213
 21
0.062992
 31
0.0
  0
LINE
  8
0
  6
CONTINUOUS
 62
     7
  5
2B0
 10
0.299213
 20
0.062992
 30
0.0
 11
0.299213
 21
0.125984
 31
0.0
  0
LINE
  8
0
  6
CONTINUOUS
 62
     7
  5
2B1
 10
0.299213
 20
0.125984
 30
0.0
 11
0.76378
 21
0.125984
 31
0.0
  0
LINE
  8
0
  6
CONTINUOUS
 62
     7
  5
2B2
 10
0.76378
 20
0.125984
 30
0.0
 11
0.76378
 21
0.062992
 31
0.0
  0
LINE
  8
0
  6
CONTINUOUS
 62
     7
  5
2B3
 10
0.76378
 20
0.062992
 30
0.0
 11
0.700787
 21
0.062992
 31
0.0
  0
LINE
  8
0
  6
CONTINUOUS
 62
     7
  5
2B4
 10
0.700787
 20
0.062992
 30
0.0
 11
0.700787
 21
0.0
 31
0.0
  0
LINE
  8
0
  6
CONTINUOUS
 62
     7
  5
2B5
 10
0.805118
 20
0.0
 30
0.0
 11
0.800917
 21
0.0
 31
0.0
  0
LINE
  8
0
  6
CONTINUOUS
 62
     7
  5
2B6
 10
0.805118
 20
0.0
 30
0.0
 11
0.805118
 21
0.176378
 31
0.0
  0
LINE
  8
0
  6
CONTINUOUS
 62
     7
  5
2B7
 10
0.805118
 20
0.176378
 30
0.0
 11
0.659449
 21
0.176378
 31
0.0
  0
LINE
  8
0
  6
CONTINUOUS
 62
     7
  5
2B8
 10
0.659449
 20
0.176378
 30
0.0
 11
0.659449
 21
0.244094
 31
0.0
  0
LINE
  8
0
  6
CONTINUOUS
 62
     7
  5
2B9
 10
0.659449
 20
0.244094
 30
0.0
 11
0.805118
 21
0.244094
 31
0.0
  0
LINE
  8
0
  6
CONTINUOUS
 62
     7
  5
2BA
 10
0.805118
 20
0.244094
 30
0.0
 11
0.805118
 21
0.401575
 31
0.0
  0
LINE
  8
0
  6
CONTINUOUS
 62
     7
  5
2BB
 10
0.862205
 20
2.311024
 30
0.0
 11
0.862205
 21
2.357711
 31
0.0
  0
LINE
  8
0
  6
CONTINUOUS
 62
     7
  5
2BC
 10
1.26378
 20
2.357711
 30
0.0
 11
1.26378
 21
2.311024
 31
0.0
  0
LINE
  8
0
  6
CONTINUOUS
 62
     7
  5
2BD
 10
1.320866
 20
0.401575
 30
0.0
 11
1.320866
 21
0.244094
 31
0.0
  0
LINE
  8
0
  6
CONTINUOUS
 62
     7
  5
2BE
 10
1.320866
 20
0.244094
 30
0.0
 11
1.466535
 21
0.244094
 31
0.0
  0
LINE
  8
0
  6
CONTINUOUS
 62
     7
  5
2BF
 10
1.466535
 20
0.244094
 30
0.0
 11
1.466535
 21
0.176378
 31
0.0
  0
LINE
  8
0
  6
CONTINUOUS
 62
     7
  5
2C0
 10
1.466535
 20
0.176378
 30
0.0
 11
1.320866
 21
0.176378
 31
0.0
  0
LINE
  8
0
  6
CONTINUOUS
 62
     7
  5
2C1
 10
1.320866
 20
0.176378
 30
0.0
 11
1.320866
 21
0.0
 31
0.0
  0
LINE
  8
0
  6
CONTINUOUS
 62
     7
  5
2C2
 10
1.594488
 20
0.0
 30
0.0
 11
1.320866
 21
0.0
 31
0.0
  0
LINE
  8
0
  6
CONTINUOUS
 62
     7
  5
2C3
 10
1.594488
 20
0.496063
 30
0.0
 11
1.594488
 21
0.0
 31
0.0
  0
LINE
  8
0
  6
CONTINUOUS
 62
     7
  5
2C4
 10
1.594488
 20
0.496063
 30
0.0
 11
1.541339
 21
0.496063
 31
0.0
  0
LINE
  8
0
  6
CONTINUOUS
 62
     7
  5
2C5
 10
1.541339
 20
0.496063
 30
0.0
 11
1.541339
 21
2.372835
 31
0.0
  0
LINE
  8
0
  6
CONTINUOUS
 62
     7
  5
2C6
 10
1.541339
 20
2.372835
 30
0.0
 11
1.334646
 21
2.372835
 31
0.0
  0
LINE
  8
0
  6
CONTINUOUS
 62
     7
  5
2C7
 10
1.334646
 20
2.372835
 30
0.0
 11
1.334646
 21
2.767717
 31
0.0
  0
LINE
  8
0
  6
CONTINUOUS
 62
     7
  5
2C8
 10
1.275591
 20
2.767717
 30
0.0
 11
1.334646
 21
2.767717
 31
0.0
  0
LINE
  8
0
  6
CONTINUOUS
 62
     7
  5
2C9
 10
-1.334646
 20
2.767717
 30
0.0
 11
-1.275591
 21
2.767717
 31
0.0
  0
LINE
  8
0
  6
CONTINUOUS
 62
     7
  5
2CA
 10
-0.815354
 20
0.401575
 30
0.0
 11
-0.815354
 21
0.23622
 31
0.0
  0
CIRCLE
  8
0
  6
CONTINUOUS
 62
     7
  5
2CB
 10
-1.062992
 20
1.649213
 30
0.0
 40
0.220079
  0
LINE
  8
0
  6
CONTINUOUS
 62
     7
  5
2CC
 10
-0.775591
 20
1.293701
 30
0.0
 11
-1.350394
 21
1.293701
 31
0.0
  0
ARC
  8
0
  6
CONTINUOUS
 62
     7
  5
2CD
 10
-1.350394
 20
1.36063
 30
0.0
 40
0.066929
 50
180.0
 51
270.0
  0
LINE
  8
0
  6
CONTINUOUS
 62
     7
  5
2CE
 10
-1.417323
 20
1.36063
 30
0.0
 11
-1.417323
 21
1.955118
 31
0.0
  0
ARC
  8
0
  6
CONTINUOUS
 62
     7
  5
2CF
 10
-1.350394
 20
1.955118
 30
0.0
 40
0.066929
 50
90.0
 51
180.0
  0
LINE
  8
0
  6
CONTINUOUS
 62
     7
  5
2D0
 10
-1.350394
 20
2.022047
 30
0.0
 11
-0.775591
 21
2.022047
 31
0.0
  0
ARC
  8
0
  6
CONTINUOUS
 62
     7
  5
2D1
 10
-0.775591
 20
1.955118
 30
0.0
 40
0.066929
 50
0.0
 51
90.0
  0
LINE
  8
0
  6
CONTINUOUS
 62
     7
  5
2D2
 10
-0.708661
 20
1.955118
 30
0.0
 11
-0.708661
 21
1.36063
 31
0.0
  0
ARC
  8
0
  6
CONTINUOUS
 62
     7
  5
2D3
 10
-0.775591
 20
1.36063
 30
0.0
 40
0.066929
 50
270.0
 51
360.0
  0
LINE
  8
0
  6
CONTINUOUS
 62
     7
  5
2D4
 10
-0.858268
 20
1.350394
 30
0.0
 11
-1.267717
 21
1.350394
 31
0.0
  0
ARC
  8
0
  6
CONTINUOUS
 62
     7
  5
2D5
 10
-1.267717
 20
1.417323
 30
0.0
 40
0.066929
 50
180.0
 51
270.0
  0
LINE
  8
0
  6
CONTINUOUS
 62
     7
  5
2D6
 10
-1.334646
 20
1.417323
 30
0.0
 11
-1.334646
 21
1.862205
 31
0.0
  0
ARC
  8
0
  6
CONTINUOUS
 62
     7
  5
2D7
 10
-1.267717
 20
1.862205
 30
0.0
 40
0.066929
 50
90.0
 51
180.0
  0
LINE
  8
0
  6
CONTINUOUS
 62
     7
  5
2D8
 10
-1.267717
 20
1.929134
 30
0.0
 11
-0.858268
 21
1.929134
 31
0.0
  0
ARC
  8
0
  6
CONTINUOUS
 62
     7
  5
2D9
 10
-0.858268
 20
1.862205
 30
0.0
 40
0.066929
 50
0.0
 51
90.0
  0
LINE
  8
0
  6
CONTINUOUS
 62
     7
  5
2DA
 10
-0.791339
 20
1.862205
 30
0.0
 11
-0.791339
 21
1.417323
 31
0.0
  0
ARC
  8
0
  6
CONTINUOUS
 62
     7
  5
2DB
 10
-0.858268
 20
1.417323
 30
0.0
 40
0.066929
 50
270.0
 51
360.0
  0
LINE
  8
0
  6
CONTINUOUS
 62
     7
  5
2DC
 10
-0.775591
 20
1.234646
 30
0.0
 11
-1.350394
 21
1.234646
 31
0.0
  0
ARC
  8
0
  6
CONTINUOUS
 62
     7
  5
2DD
 10
-1.350394
 20
1.36063
 30
0.0
 40
0.125984
 50
180.0
 51
270.0
  0
LINE
  8
0
  6
CONTINUOUS
 62
     7
  5
2DE
 10
-1.476378
 20
1.36063
 30
0.0
 11
-1.476378
 21
1.955118
 31
0.0
  0
ARC
  8
0
  6
CONTINUOUS
 62
     7
  5
2DF
 10
-1.350394
 20
1.955118
 30
0.0
 40
0.125984
 50
90.0
 51
180.0
  0
LINE
  8
0
  6
CONTINUOUS
 62
     7
  5
2E0
 10
-1.350394
 20
2.081102
 30
0.0
 11
-0.775591
 21
2.081102
 31
0.0
  0
ARC
  8
0
  6
CONTINUOUS
 62
     7
  5
2E1
 10
-0.775591
 20
1.955118
 30
0.0
 40
0.125984
 50
0.0
 51
90.0
  0
LINE
  8
0
  6
CONTINUOUS
 62
     7
  5
2E2
 10
-0.649606
 20
1.955118
 30
0.0
 11
-0.649606
 21
1.36063
 31
0.0
  0
ARC
  8
0
  6
CONTINUOUS
 62
     7
  5
2E3
 10
-0.775591
 20
1.36063
 30
0.0
 40
0.125984
 50
270.0
 51
360.0
  0
LINE
  8
0
  6
CONTINUOUS
 62
     7
  5
2E4
 10
-1.44685
 20
0.23622
 30
0.0
 11
-1.31063
 21
0.23622
 31
0.0
  0
LINE
  8
0
  6
CONTINUOUS
 62
     7
  5
2E5
 10
-0.815354
 20
0.23622
 30
0.0
 11
-0.679134
 21
0.23622
 31
0.0
  0
LINE
  8
0
  6
CONTINUOUS
 62
     7
  5
2E6
 10
-1.44685
 20
0.23622
 30
0.0
 11
-1.44685
 21
0.19685
 31
0.0
  0
LINE
  8
0
  6
CONTINUOUS
 62
     7
  5
2E7
 10
-0.679134
 20
0.23622
 30
0.0
 11
-0.679134
 21
0.19685
 31
0.0
  0
LINE
  8
0
  6
CONTINUOUS
 62
     7
  5
2E8
 10
-1.31063
 20
0.401575
 30
0.0
 11
-1.31063
 21
0.23622
 31
0.0
  0
LINE
  8
0
  6
CONTINUOUS
 62
     7
  5
2E9
 10
-0.679134
 20
0.19685
 30
0.0
 11
-1.44685
 21
0.19685
 31
0.0
  0
LINE
  8
0
  6
CONTINUOUS
 62
     7
  5
2EA
 10
-0.728346
 20
0.401575
 30
0.0
 11
-1.397638
 21
0.401575
 31
0.0
  0
ARC
  8
0
  6
CONTINUOUS
 62
     7
  5
2EB
 10
-1.397638
 20
0.519685
 30
0.0
 40
0.11811
 50
180.0
 51
270.0
  0
LINE
  8
0
  6
CONTINUOUS
 62
     7
  5
2EC
 10
-1.515748
 20
0.519685
 30
0.0
 11
-1.515748
 21
2.299213
 31
0.0
  0
ARC
  8
0
  6
CONTINUOUS
 62
     7
  5
2ED
 10
-1.503937
 20
2.299213
 30
0.0
 40
0.011811
 50
90.0
 51
180.0
  0
LINE
  8
0
  6
CONTINUOUS
 62
     7
  5
2EE
 10
-1.503937
 20
2.311024
 30
0.0
 11
-0.622047
 21
2.311024
 31
0.0
  0
ARC
  8
0
  6
CONTINUOUS
 62
     7
  5
2EF
 10
-0.622047
 20
2.299213
 30
0.0
 40
0.011811
 50
0.0
 51
90.0
  0
LINE
  8
0
  6
CONTINUOUS
 62
     7
  5
2F0
 10
-0.610236
 20
2.299213
 30
0.0
 11
-0.610236
 21
0.519685
 31
0.0
  0
ARC
  8
0
  6
CONTINUOUS
 62
     7
  5
2F1
 10
-0.728346
 20
0.519685
 30
0.0
 40
0.11811
 50
270.0
 51
360.0
  0
LINE
  8
0
  6
CONTINUOUS
 62
     7
  5
2F2
 10
-1.334646
 20
2.767717
 30
0.0
 11
-1.334646
 21
2.372835
 31
0.0
  0
LINE
  8
0
  6
CONTINUOUS
 62
     7
  5
2F3
 10
-1.334646
 20
2.372835
 30
0.0
 11
-1.541339
 21
2.372835
 31
0.0
  0
LINE
  8
0
  6
CONTINUOUS
 62
     7
  5
2F4
 10
-1.541339
 20
2.372835
 30
0.0
 11
-1.541339
 21
0.496063
 31
0.0
  0
LINE
  8
0
  6
CONTINUOUS
 62
     7
  5
2F5
 10
-1.541339
 20
0.496063
 30
0.0
 11
-1.594488
 21
0.496063
 31
0.0
  0
LINE
  8
0
  6
CONTINUOUS
 62
     7
  5
2F6
 10
-1.594488
 20
0.496063
 30
0.0
 11
-1.594488
 21
0.0
 31
0.0
  0
LINE
  8
0
  6
CONTINUOUS
 62
     7
  5
2F7
 10
-1.320866
 20
0.0
 30
0.0
 11
-1.594488
 21
0.0
 31
0.0
  0
LINE
  8
0
  6
CONTINUOUS
 62
     7
  5
2F8
 10
-1.320866
 20
0.0
 30
0.0
 11
-1.320866
 21
0.176378
 31
0.0
  0
LINE
  8
0
  6
CONTINUOUS
 62
     7
  5
2F9
 10
-1.320866
 20
0.176378
 30
0.0
 11
-1.466535
 21
0.176378
 31
0.0
  0
LINE
  8
0
  6
CONTINUOUS
 62
     7
  5
2FA
 10
-1.466535
 20
0.176378
 30
0.0
 11
-1.466535
 21
0.244094
 31
0.0
  0
LINE
  8
0
  6
CONTINUOUS
 62
     7
  5
2FB
 10
-1.466535
 20
0.244094
 30
0.0
 11
-1.320866
 21
0.244094
 31
0.0
  0
LINE
  8
0
  6
CONTINUOUS
 62
     7
  5
2FC
 10
-1.320866
 20
0.244094
 30
0.0
 11
-1.320866
 21
0.401575
 31
0.0
  0
LINE
  8
0
  6
CONTINUOUS
 62
     7
  5
2FD
 10
-1.26378
 20
2.311024
 30
0.0
 11
-1.26378
 21
2.357711
 31
0.0
  0
LINE
  8
0
  6
CONTINUOUS
 62
     7
  5
2FE
 10
0.247638
 20
0.401575
 30
0.0
 11
0.247638
 21
0.23622
 31
0.0
  0
CIRCLE
  8
0
  6
CONTINUOUS
 62
     7
  5
2FF
 10
0.0
 20
1.649213
 30
0.0
 40
0.220079
  0
LINE
  8
0
  6
CONTINUOUS
 62
     7
  5
300
 10
0.287402
 20
1.293701
 30
0.0
 11
-0.287402
 21
1.293701
 31
0.0
  0
ARC
  8
0
  6
CONTINUOUS
 62
     7
  5
301
 10
-0.287402
 20
1.36063
 30
0.0
 40
0.066929
 50
180.0
 51
270.0
  0
LINE
  8
0
  6
CONTINUOUS
 62
     7
  5
302
 10
-0.354331
 20
1.36063
 30
0.0
 11
-0.354331
 21
1.955118
 31
0.0
  0
ARC
  8
0
  6
CONTINUOUS
 62
     7
  5
303
 10
-0.287402
 20
1.955118
 30
0.0
 40
0.066929
 50
90.0
 51
180.0
  0
LINE
  8
0
  6
CONTINUOUS
 62
     7
  5
304
 10
-0.287402
 20
2.022047
 30
0.0
 11
0.287402
 21
2.022047
 31
0.0
  0
ARC
  8
0
  6
CONTINUOUS
 62
     7
  5
305
 10
0.287402
 20
1.955118
 30
0.0
 40
0.066929
 50
0.0
 51
90.0
  0
LINE
  8
0
  6
CONTINUOUS
 62
     7
  5
306
 10
0.354331
 20
1.955118
 30
0.0
 11
0.354331
 21
1.36063
 31
0.0
  0
ARC
  8
0
  6
CONTINUOUS
 62
     7
  5
307
 10
0.287402
 20
1.36063
 30
0.0
 40
0.066929
 50
270.0
 51
360.0
  0
LINE
  8
0
  6
CONTINUOUS
 62
     7
  5
308
 10
0.204724
 20
1.350394
 30
0.0
 11
-0.204724
 21
1.350394
 31
0.0
  0
ARC
  8
0
  6
CONTINUOUS
 62
     7
  5
309
 10
-0.204724
 20
1.417323
 30
0.0
 40
0.066929
 50
180.0
 51
270.0
  0
LINE
  8
0
  6
CONTINUOUS
 62
     7
  5
30A
 10
-0.271654
 20
1.417323
 30
0.0
 11
-0.271654
 21
1.862205
 31
0.0
  0
ARC
  8
0
  6
CONTINUOUS
 62
     7
  5
30B
 10
-0.204724
 20
1.862205
 30
0.0
 40
0.066929
 50
90.0
 51
180.0
  0
LINE
  8
0
  6
CONTINUOUS
 62
     7
  5
30C
 10
-0.204724
 20
1.929134
 30
0.0
 11
0.204724
 21
1.929134
 31
0.0
  0
ARC
  8
0
  6
CONTINUOUS
 62
     7
  5
30D
 10
0.204724
 20
1.862205
 30
0.0
 40
0.066929
 50
0.0
 51
90.0
  0
LINE
  8
0
  6
CONTINUOUS
 62
     7
  5
30E
 10
0.271654
 20
1.862205
 30
0.0
 11
0.271654
 21
1.417323
 31
0.0
  0
ARC
  8
0
  6
CONTINUOUS
 62
     7
  5
30F
 10
0.204724
 20
1.417323
 30
0.0
 40
0.066929
 50
270.0
 51
360.0
  0
LINE
  8
0
  6
CONTINUOUS
 62
     7
  5
310
 10
0.287402
 20
1.234646
 30
0.0
 11
-0.287402
 21
1.234646
 31
0.0
  0
ARC
  8
0
  6
CONTINUOUS
 62
     7
  5
311
 10
-0.287402
 20
1.36063
 30
0.0
 40
0.125984
 50
180.0
 51
270.0
  0
LINE
  8
0
  6
CONTINUOUS
 62
     7
  5
312
 10
-0.413386
 20
1.36063
 30
0.0
 11
-0.413386
 21
1.955118
 31
0.0
  0
ARC
  8
0
  6
CONTINUOUS
 62
     7
  5
313
 10
-0.287402
 20
1.955118
 30
0.0
 40
0.125984
 50
90.0
 51
180.0
  0
LINE
  8
0
  6
CONTINUOUS
 62
     7
  5
314
 10
-0.287402
 20
2.081102
 30
0.0
 11
0.287402
 21
2.081102
 31
0.0
  0
ARC
  8
0
  6
CONTINUOUS
 62
     7
  5
315
 10
0.287402
 20
1.955118
 30
0.0
 40
0.125984
 50
0.0
 51
90.0
  0
LINE
  8
0
  6
CONTINUOUS
 62
     7
  5
316
 10
0.413386
 20
1.955118
 30
0.0
 11
0.413386
 21
1.36063
 31
0.0
  0
ARC
  8
0
  6
CONTINUOUS
 62
     7
  5
317
 10
0.287402
 20
1.36063
 30
0.0
 40
0.125984
 50
270.0
 51
360.0
  0
LINE
  8
0
  6
CONTINUOUS
 62
     7
  5
318
 10
-0.383858
 20
0.23622
 30
0.0
 11
-0.247638
 21
0.23622
 31
0.0
  0
LINE
  8
0
  6
CONTINUOUS
 62
     7
  5
319
 10
0.247638
 20
0.23622
 30
0.0
 11
0.383858
 21
0.23622
 31
0.0
  0
LINE
  8
0
  6
CONTINUOUS
 62
     7
  5
31A
 10
-0.383858
 20
0.23622
 30
0.0
 11
-0.383858
 21
0.19685
 31
0.0
  0
LINE
  8
0
  6
CONTINUOUS
 62
     7
  5
31B
 10
0.383858
 20
0.23622
 30
0.0
 11
0.383858
 21
0.19685
 31
0.0
  0
LINE
  8
0
  6
CONTINUOUS
 62
     7
  5
31C
 10
-0.247638
 20
0.401575
 30
0.0
 11
-0.247638
 21
0.23622
 31
0.0
  0
LINE
  8
0
  6
CONTINUOUS
 62
     7
  5
31D
 10
0.383858
 20
0.19685
 30
0.0
 11
-0.383858
 21
0.19685
 31
0.0
  0
LINE
  8
0
  6
CONTINUOUS
 62
     7
  5
31E
 10
0.334646
 20
0.401575
 30
0.0
 11
-0.334646
 21
0.401575
 31
0.0
  0
ARC
  8
0
  6
CONTINUOUS
 62
     7
  5
31F
 10
-0.334646
 20
0.519685
 30
0.0
 40
0.11811
 50
180.0
 51
270.0
  0
LINE
  8
0
  6
CONTINUOUS
 62
     7
  5
320
 10
-0.452756
 20
0.519685
 30
0.0
 11
-0.452756
 21
2.299213
 31
0.0
  0
ARC
  8
0
  6
CONTINUOUS
 62
     7
  5
321
 10
-0.440945
 20
2.299213
 30
0.0
 40
0.011811
 50
90.0
 51
180.0
  0
LINE
  8
0
  6
CONTINUOUS
 62
     7
  5
322
 10
-0.440945
 20
2.311024
 30
0.0
 11
0.440945
 21
2.311024
 31
0.0
  0
ARC
  8
0
  6
CONTINUOUS
 62
     7
  5
323
 10
0.440945
 20
2.299213
 30
0.0
 40
0.011811
 50
0.0
 51
90.0
  0
LINE
  8
0
  6
CONTINUOUS
 62
     7
  5
324
 10
0.452756
 20
2.299213
 30
0.0
 11
0.452756
 21
0.519685
 31
0.0
  0
ARC
  8
0
  6
CONTINUOUS
 62
     7
  5
325
 10
0.334646
 20
0.519685
 30
0.0
 40
0.11811
 50
270.0
 51
360.0
  0
LINE
  8
0
  6
CONTINUOUS
 62
     7
  5
326
 10
1.31063
 20
0.401575
 30
0.0
 11
1.31063
 21
0.23622
 31
0.0
  0
CIRCLE
  8
0
  6
CONTINUOUS
 62
     7
  5
327
 10
1.062992
 20
1.649213
 30
0.0
 40
0.220079
  0
LINE
  8
0
  6
CONTINUOUS
 62
     7
  5
328
 10
1.350394
 20
1.293701
 30
0.0
 11
0.775591
 21
1.293701
 31
0.0
  0
ARC
  8
0
  6
CONTINUOUS
 62
     7
  5
329
 10
0.775591
 20
1.36063
 30
0.0
 40
0.066929
 50
180.0
 51
270.0
  0
LINE
  8
0
  6
CONTINUOUS
 62
     7
  5
32A
 10
0.708661
 20
1.36063
 30
0.0
 11
0.708661
 21
1.955118
 31
0.0
  0
ARC
  8
0
  6
CONTINUOUS
 62
     7
  5
32B
 10
0.775591
 20
1.955118
 30
0.0
 40
0.066929
 50
90.0
 51
180.0
  0
LINE
  8
0
  6
CONTINUOUS
 62
     7
  5
32C
 10
0.775591
 20
2.022047
 30
0.0
 11
1.350394
 21
2.022047
 31
0.0
  0
ARC
  8
0
  6
CONTINUOUS
 62
     7
  5
32D
 10
1.350394
 20
1.955118
 30
0.0
 40
0.066929
 50
0.0
 51
90.0
  0
LINE
  8
0
  6
CONTINUOUS
 62
     7
  5
32E
 10
1.417323
 20
1.955118
 30
0.0
 11
1.417323
 21
1.36063
 31
0.0
  0
ARC
  8
0
  6
CONTINUOUS
 62
     7
  5
32F
 10
1.350394
 20
1.36063
 30
0.0
 40
0.066929
 50
270.0
 51
360.0
  0
LINE
  8
0
  6
CONTINUOUS
 62
     7
  5
330
 10
1.267717
 20
1.350394
 30
0.0
 11
0.858268
 21
1.350394
 31
0.0
  0
ARC
  8
0
  6
CONTINUOUS
 62
     7
  5
331
 10
0.858268
 20
1.417323
 30
0.0
 40
0.066929
 50
180.0
 51
270.0
  0
LINE
  8
0
  6
CONTINUOUS
 62
     7
  5
332
 10
0.791339
 20
1.417323
 30
0.0
 11
0.791339
 21
1.862205
 31
0.0
  0
ARC
  8
0
  6
CONTINUOUS
 62
     7
  5
333
 10
0.858268
 20
1.862205
 30
0.0
 40
0.066929
 50
90.0
 51
180.0
  0
LINE
  8
0
  6
CONTINUOUS
 62
     7
  5
334
 10
0.858268
 20
1.929134
 30
0.0
 11
1.267717
 21
1.929134
 31
0.0
  0
ARC
  8
0
  6
CONTINUOUS
 62
     7
  5
335
 10
1.267717
 20
1.862205
 30
0.0
 40
0.066929
 50
0.0
 51
90.0
  0
LINE
  8
0
  6
CONTINUOUS
 62
     7
  5
336
 10
1.334646
 20
1.862205
 30
0.0
 11
1.334646
 21
1.417323
 31
0.0
  0
ARC
  8
0
  6
CONTINUOUS
 62
     7
  5
337
 10
1.267717
 20
1.417323
 30
0.0
 40
0.066929
 50
270.0
 51
360.0
  0
LINE
  8
0
  6
CONTINUOUS
 62
     7
  5
338
 10
1.350394
 20
1.234646
 30
0.0
 11
0.775591
 21
1.234646
 31
0.0
  0
ARC
  8
0
  6
CONTINUOUS
 62
     7
  5
339
 10
0.775591
 20
1.36063
 30
0.0
 40
0.125984
 50
180.0
 51
270.0
  0
LINE
  8
0
  6
CONTINUOUS
 62
     7
  5
33A
 10
0.649606
 20
1.36063
 30
0.0
 11
0.649606
 21
1.955118
 31
0.0
  0
ARC
  8
0
  6
CONTINUOUS
 62
     7
  5
33B
 10
0.775591
 20
1.955118
 30
0.0
 40
0.125984
 50
90.0
 51
180.0
  0
LINE
  8
0
  6
CONTINUOUS
 62
     7
  5
33C
 10
0.775591
 20
2.081102
 30
0.0
 11
1.350394
 21
2.081102
 31
0.0
  0
ARC
  8
0
  6
CONTINUOUS
 62
     7
  5
33D
 10
1.350394
 20
1.955118
 30
0.0
 40
0.125984
 50
0.0
 51
90.0
  0
LINE
  8
0
  6
CONTINUOUS
 62
     7
  5
33E
 10
1.476378
 20
1.955118
 30
0.0
 11
1.476378
 21
1.36063
 31
0.0
  0
ARC
  8
0
  6
CONTINUOUS
 62
     7
  5
33F
 10
1.350394
 20
1.36063
 30
0.0
 40
0.125984
 50
270.0
 51
360.0
  0
LINE
  8
0
  6
CONTINUOUS
 62
     7
  5
340
 10
0.679134
 20
0.23622
 30
0.0
 11
0.815354
 21
0.23622
 31
0.0
  0
LINE
  8
0
  6
CONTINUOUS
 62
     7
  5
341
 10
1.31063
 20
0.23622
 30
0.0
 11
1.44685
 21
0.23622
 31
0.0
  0
LINE
  8
0
  6
CONTINUOUS
 62
     7
  5
342
 10
0.679134
 20
0.23622
 30
0.0
 11
0.679134
 21
0.19685
 31
0.0
  0
LINE
  8
0
  6
CONTINUOUS
 62
     7
  5
343
 10
1.44685
 20
0.23622
 30
0.0
 11
1.44685
 21
0.19685
 31
0.0
  0
LINE
  8
0
  6
CONTINUOUS
 62
     7
  5
344
 10
0.815354
 20
0.401575
 30
0.0
 11
0.815354
 21
0.23622
 31
0.0
  0
LINE
  8
0
  6
CONTINUOUS
 62
     7
  5
345
 10
1.44685
 20
0.19685
 30
0.0
 11
0.679134
 21
0.19685
 31
0.0
  0
LINE
  8
0
  6
CONTINUOUS
 62
     7
  5
346
 10
1.397638
 20
0.401575
 30
0.0
 11
0.728346
 21
0.401575
 31
0.0
  0
ARC
  8
0
  6
CONTINUOUS
 62
     7
  5
347
 10
0.728346
 20
0.519685
 30
0.0
 40
0.11811
 50
180.0
 51
270.0
  0
LINE
  8
0
  6
CONTINUOUS
 62
     7
  5
348
 10
0.610236
 20
0.519685
 30
0.0
 11
0.610236
 21
2.299213
 31
0.0
  0
ARC
  8
0
  6
CONTINUOUS
 62
     7
  5
349
 10
0.622047
 20
2.299213
 30
0.0
 40
0.011811
 50
90.0
 51
180.0
  0
LINE
  8
0
  6
CONTINUOUS
 62
     7
  5
34A
 10
0.622047
 20
2.311024
 30
0.0
 11
1.503937
 21
2.311024
 31
0.0
  0
ARC
  8
0
  6
CONTINUOUS
 62
     7
  5
34B
 10
1.503937
 20
2.299213
 30
0.0
 40
0.011811
 50
0.0
 51
90.0
  0
LINE
  8
0
  6
CONTINUOUS
 62
     7
  5
34C
 10
1.515748
 20
2.299213
 30
0.0
 11
1.515748
 21
0.519685
 31
0.0
  0
ARC
  8
0
  6
CONTINUOUS
 62
     7
  5
34D
 10
1.397638
 20
0.519685
 30
0.0
 40
0.11811
 50
270.0
 51
360.0
  0
LINE
  8
0
  6
CONTINUOUS
 62
     7
  5
34E
 10
1.196749
 20
0.176378
 30
0.0
 11
1.320866
 21
0.176378
 31
0.0
  0
LINE
  8
0
  6
CONTINUOUS
 62
     7
  5
34F
 10
0.805118
 20
0.176378
 30
0.0
 11
0.929235
 21
0.176378
 31
0.0
  0
LINE
  8
0
  6
CONTINUOUS
 62
     7
  5
350
 10
1.196749
 20
0.176378
 30
0.0
 11
0.929235
 21
0.176378
 31
0.0
  0
LINE
  8
0
  6
CONTINUOUS
 62
     7
  5
351
 10
0.133757
 20
0.176378
 30
0.0
 11
0.257874
 21
0.176378
 31
0.0
  0
LINE
  8
0
  6
CONTINUOUS
 62
     7
  5
352
 10
-0.257874
 20
0.176378
 30
0.0
 11
-0.133757
 21
0.176378
 31
0.0
  0
LINE
  8
0
  6
CONTINUOUS
 62
     7
  5
353
 10
0.133757
 20
0.176378
 30
0.0
 11
-0.133757
 21
0.176378
 31
0.0
  0
LINE
  8
0
  6
CONTINUOUS
 62
     7
  5
354
 10
-0.929235
 20
0.176378
 30
0.0
 11
-0.805118
 21
0.176378
 31
0.0
  0
LINE
  8
0
  6
CONTINUOUS
 62
     7
  5
355
 10
-1.320866
 20
0.176378
 30
0.0
 11
-1.196749
 21
0.176378
 31
0.0
  0
LINE
  8
0
  6
CONTINUOUS
 62
     7
  5
356
 10
-0.929235
 20
0.176378
 30
0.0
 11
-1.196749
 21
0.176378
 31
0.0
  0
LINE
  8
0
  6
CONTINUOUS
 62
     7
  5
357
 10
1.320866
 20
0.0
 30
0.0
 11
0.805906
 21
0.0
 31
0.0
  0
LINE
  8
0
  6
CONTINUOUS
 62
     7
  5
358
 10
-1.008268
 20
0.0
 30
0.0
 11
-1.320866
 21
0.0
 31
0.0
  0
LINE
  8
0
  6
CONTINUOUS
 62
     7
  5
359
 10
1.594488
 20
2.372835
 30
0.0
 11
1.594488
 21
0.496063
 31
0.0
  0
LINE
  8
0
  6
CONTINUOUS
 62
     7
  5
35A
 10
1.541339
 20
2.372835
 30
0.0
 11
1.594488
 21
2.372835
 31
0.0
  0
LINE
  8
0
  6
CONTINUOUS
 62
     7
  5
35B
 10
1.594488
 20
2.767717
 30
0.0
 11
1.594488
 21
2.372835
 31
0.0
  0
LINE
  8
0
  6
CONTINUOUS
 62
     7
  5
35C
 10
-1.594488
 20
2.372835
 30
0.0
 11
-1.541339
 21
2.372835
 31
0.0
  0
LINE
  8
0
  6
CONTINUOUS
 62
     7
  5
35D
 10
-1.594488
 20
0.496063
 30
0.0
 11
-1.594488
 21
2.372835
 31
0.0
  0
LINE
  8
0
  6
CONTINUOUS
 62
     7
  5
35E
 10
-1.594488
 20
2.372835
 30
0.0
 11
-1.594488
 21
2.767717
 31
0.0
  0
LINE
  8
0
  6
CONTINUOUS
 62
     7
  5
35F
 10
-1.582677
 20
2.767717
 30
0.0
 11
-1.334646
 21
2.767717
 31
0.0
  0
LINE
  8
0
  6
CONTINUOUS
 62
     7
  5
360
 10
-1.593488
 20
2.767717
 30
0.0
 11
-1.582677
 21
2.767717
 31
0.0
  0
LINE
  8
0
  6
CONTINUOUS
 62
     7
  5
361
 10
1.582677
 20
2.767717
 30
0.0
 11
1.593488
 21
2.767717
 31
0.0
  0
LINE
  8
0
  6
CONTINUOUS
 62
     7
  5
362
 10
1.334646
 20
2.767717
 30
0.0
 11
1.582677
 21
2.767717
 31
0.0
  0
LINE
  8
0
  6
CONTINUOUS
 62
     7
  5
363
 10
-0.805118
 20
0.0
 30
0.0
 11
-1.594488
 21
0.0
 31
0.0
  0
LINE
  8
0
  6
CONTINUOUS
 62
     7
  5
364
 10
1.320866
 20
0.0
 30
0.0
 11
0.805118
 21
0.0
 31
0.0
  0
LINE
  8
0
  6
CONTINUOUS
 62
     7
  5
365
 10
-1.594094
 20
2.767819
 30
0.0
 11
-1.594094
 21
2.767717
 31
0.0
  0
LINE
  8
0
  6
CONTINUOUS
 62
     7
  5
366
 10
-1.594094
 20
2.768721
 30
0.0
 11
-1.594094
 21
2.767819
 31
0.0
  0
LINE
  8
0
  6
CONTINUOUS
 62
     7
  5
367
 10
-1.594094
 20
-0.815354
 30
0.0
 11
-1.594094
 21
-0.059055
 31
0.0
  0
LINE
  8
0
  6
CONTINUOUS
 62
     7
  5
368
 10
-1.594094
 20
0.0
 30
0.0
 11
-1.594094
 21
-0.059055
 31
0.0
  0
LINE
  8
0
  6
CONTINUOUS
 62
     7
  5
369
 10
1.594094
 20
2.767819
 30
0.0
 11
1.594094
 21
2.767717
 31
0.0
  0
LINE
  8
0
  6
CONTINUOUS
 62
     7
  5
36A
 10
-2.239961
 20
2.768717
 30
0.0
 11
-2.239961
 21
3.141732
 31
0.0
  0
LINE
  8
0
  6
CONTINUOUS
 62
     7
  5
36B
 10
-2.239961
 20
3.141732
 30
0.0
 11
-2.239961
 21
3.323622
 31
0.0
  0
LINE
  8
0
  6
CONTINUOUS
 62
     7
  5
36C
 10
-0.25
 20
3.640776
 30
0.0
 11
-0.25
 21
3.484252
 31
0.0
  0
LINE
  8
0
  6
CONTINUOUS
 62
     7
  5
36D
 10
-0.25
 20
3.66378
 30
0.0
 11
-0.25
 21
3.640776
 31
0.0
  0
LINE
  8
0
  6
CONTINUOUS
 62
     7
  5
36E
 10
-0.25
 20
3.909193
 30
0.0
 11
-0.25
 21
3.66378
 31
0.0
  0
LINE
  8
0
  6
CONTINUOUS
 62
     7
  5
36F
 10
-0.25
 20
3.939548
 30
0.0
 11
-0.25
 21
3.909193
 31
0.0
  0
LINE
  8
0
  6
CONTINUOUS
 62
     7
  5
370
 10
-0.25
 20
3.952578
 30
0.0
 11
-0.25
 21
3.939548
 31
0.0
  0
LINE
  8
0
  6
CONTINUOUS
 62
     7
  5
371
 10
-0.25
 20
3.953686
 30
0.0
 11
-0.25
 21
3.952578
 31
0.0
  0
LINE
  8
0
  6
CONTINUOUS
 62
     7
  5
372
 10
0.25
 20
3.640776
 30
0.0
 11
0.25
 21
3.484252
 31
0.0
  0
LINE
  8
0
  6
CONTINUOUS
 62
     7
  5
373
 10
0.25
 20
3.953686
 30
0.0
 11
0.25
 21
3.952578
 31
0.0
  0
LINE
  8
0
  6
CONTINUOUS
 62
     7
  5
374
 10
0.25
 20
3.952578
 30
0.0
 11
0.25
 21
3.939548
 31
0.0
  0
LINE
  8
0
  6
CONTINUOUS
 62
     7
  5
375
 10
0.25
 20
3.939548
 30
0.0
 11
0.25
 21
3.909193
 31
0.0
  0
LINE
  8
0
  6
CONTINUOUS
 62
     7
  5
376
 10
0.25
 20
3.909193
 30
0.0
 11
0.25
 21
3.66378
 31
0.0
  0
LINE
  8
0
  6
CONTINUOUS
 62
     7
  5
377
 10
0.25
 20
3.66378
 30
0.0
 11
0.25
 21
3.640776
 31
0.0
  0
ARC
  8
0
  6
CONTINUOUS
 62
     7
  5
378
 10
0.830709
 20
2.807087
 30
0.0
 40
0.019685
 50
0.0
 51
90.0
  0
LINE
  8
0
  6
CONTINUOUS
 62
     7
  5
379
 10
0.830709
 20
2.826772
 30
0.0
 11
0.673228
 21
2.826772
 31
0.0
  0
ARC
  8
0
  6
CONTINUOUS
 62
     7
  5
37A
 10
0.673228
 20
2.807087
 30
0.0
 40
0.019685
 50
90.0
 51
180.0
  0
LINE
  8
0
  6
CONTINUOUS
 62
     7
  5
37B
 10
0.850394
 20
2.385827
 30
0.0
 11
0.850394
 21
2.807087
 31
0.0
  0
LINE
  8
0
  6
CONTINUOUS
 62
     7
  5
37C
 10
0.653543
 20
2.807087
 30
0.0
 11
0.653543
 21
2.799213
 31
0.0
  0
ARC
  8
0
  6
CONTINUOUS
 62
     7
  5
37D
 10
-0.232283
 20
2.807087
 30
0.0
 40
0.019685
 50
0.0
 51
90.0
  0
LINE
  8
0
  6
CONTINUOUS
 62
     7
  5
37E
 10
-0.232283
 20
2.826772
 30
0.0
 11
-0.389764
 21
2.826772
 31
0.0
  0
ARC
  8
0
  6
CONTINUOUS
 62
     7
  5
37F
 10
-0.389764
 20
2.807087
 30
0.0
 40
0.019685
 50
90.0
 51
180.0
  0
LINE
  8
0
  6
CONTINUOUS
 62
     7
  5
380
 10
-0.212598
 20
2.385827
 30
0.0
 11
-0.212598
 21
2.807087
 31
0.0
  0
LINE
  8
0
  6
CONTINUOUS
 62
     7
  5
381
 10
-0.409449
 20
2.807087
 30
0.0
 11
-0.409449
 21
2.799213
 31
0.0
  0
ARC
  8
0
  6
CONTINUOUS
 62
     7
  5
382
 10
0.389764
 20
2.807087
 30
0.0
 40
0.019685
 50
0.0
 51
90.0
  0
LINE
  8
0
  6
CONTINUOUS
 62
     7
  5
383
 10
0.389764
 20
2.826772
 30
0.0
 11
0.232283
 21
2.826772
 31
0.0
  0
ARC
  8
0
  6
CONTINUOUS
 62
     7
  5
384
 10
0.232283
 20
2.807087
 30
0.0
 40
0.019685
 50
90.0
 51
180.0
  0
LINE
  8
0
  6
CONTINUOUS
 62
     7
  5
385
 10
0.409449
 20
2.799213
 30
0.0
 11
0.409449
 21
2.807087
 31
0.0
  0
LINE
  8
0
  6
CONTINUOUS
 62
     7
  5
386
 10
0.212598
 20
2.807087
 30
0.0
 11
0.212598
 21
2.385827
 31
0.0
  0
ARC
  8
0
  6
CONTINUOUS
 62
     7
  5
387
 10
-0.673228
 20
2.807087
 30
0.0
 40
0.019685
 50
0.0
 51
90.0
  0
LINE
  8
0
  6
CONTINUOUS
 62
     7
  5
388
 10
-0.673228
 20
2.826772
 30
0.0
 11
-0.830709
 21
2.826772
 31
0.0
  0
ARC
  8
0
  6
CONTINUOUS
 62
     7
  5
389
 10
-0.830709
 20
2.807087
 30
0.0
 40
0.019685
 50
90.0
 51
180.0
  0
LINE
  8
0
  6
CONTINUOUS
 62
     7
  5
38A
 10
-0.653543
 20
2.799213
 30
0.0
 11
-0.653543
 21
2.807087
 31
0.0
  0
LINE
  8
0
  6
CONTINUOUS
 62
     7
  5
38B
 10
-0.850394
 20
2.807087
 30
0.0
 11
-0.850394
 21
2.385827
 31
0.0
  0
ARC
  8
0
  6
CONTINUOUS
 62
     7
  5
38C
 10
0.641732
 20
2.799213
 30
0.0
 40
0.011811
 50
270.0
 51
360.0
  0
LINE
  8
0
  6
CONTINUOUS
 62
     7
  5
38D
 10
0.641732
 20
2.787402
 30
0.0
 11
0.42126
 21
2.787402
 31
0.0
  0
ARC
  8
0
  6
CONTINUOUS
 62
     7
  5
38E
 10
0.42126
 20
2.799213
 30
0.0
 40
0.011811
 50
180.0
 51
270.0
  0
ARC
  8
0
  6
CONTINUOUS
 62
     7
  5
38F
 10
-0.42126
 20
2.799213
 30
0.0
 40
0.011811
 50
270.0
 51
360.0
  0
LINE
  8
0
  6
CONTINUOUS
 62
     7
  5
390
 10
-0.42126
 20
2.787402
 30
0.0
 11
-0.641732
 21
2.787402
 31
0.0
  0
ARC
  8
0
  6
CONTINUOUS
 62
     7
  5
391
 10
-0.641732
 20
2.799213
 30
0.0
 40
0.011811
 50
180.0
 51
270.0
  0
ARC
  8
0
  6
CONTINUOUS
 62
     7
  5
392
 10
1.23622
 20
2.385827
 30
0.0
 40
0.03937
 50
270.0
 51
360.0
  0
LINE
  8
0
  6
CONTINUOUS
 62
     7
  5
393
 10
1.23622
 20
2.346457
 30
0.0
 11
0.889764
 21
2.346457
 31
0.0
  0
ARC
  8
0
  6
CONTINUOUS
 62
     7
  5
394
 10
0.889764
 20
2.385827
 30
0.0
 40
0.03937
 50
180.0
 51
270.0
  0
LINE
  8
0
  6
CONTINUOUS
 62
     7
  5
395
 10
-1.275591
 20
3.141732
 30
0.0
 11
1.275591
 21
3.141732
 31
0.0
  0
LINE
  8
0
  6
CONTINUOUS
 62
     7
  5
396
 10
-1.275591
 20
2.385827
 30
0.0
 11
-1.275591
 21
3.141732
 31
0.0
  0
ARC
  8
0
  6
CONTINUOUS
 62
     7
  5
397
 10
-1.23622
 20
2.385827
 30
0.0
 40
0.03937
 50
180.0
 51
270.0
  0
LINE
  8
0
  6
CONTINUOUS
 62
     7
  5
398
 10
-0.889764
 20
2.346457
 30
0.0
 11
-1.23622
 21
2.346457
 31
0.0
  0
ARC
  8
0
  6
CONTINUOUS
 62
     7
  5
399
 10
-0.889764
 20
2.385827
 30
0.0
 40
0.03937
 50
270.0
 51
360.0
  0
ARC
  8
0
  6
CONTINUOUS
 62
     7
  5
39A
 10
-0.173228
 20
2.385827
 30
0.0
 40
0.03937
 50
180.0
 51
270.0
  0
LINE
  8
0
  6
CONTINUOUS
 62
     7
  5
39B
 10
0.173228
 20
2.346457
 30
0.0
 11
-0.173228
 21
2.346457
 31
0.0
  0
ARC
  8
0
  6
CONTINUOUS
 62
     7
  5
39C
 10
0.173228
 20
2.385827
 30
0.0
 40
0.03937
 50
270.0
 51
360.0
  0
LINE
  8
0
  6
CONTINUOUS
 62
     7
  5
39D
 10
1.275591
 20
3.141732
 30
0.0
 11
1.275591
 21
2.385827
 31
0.0
  0
LINE
  8
0
  6
CONTINUOUS
 62
     7
  5
39E
 10
-1.275591
 20
3.098425
 30
0.0
 11
-1.291339
 21
3.098425
 31
0.0
  0
LINE
  8
0
  6
CONTINUOUS
 62
     7
  5
39F
 10
-1.291339
 20
3.098425
 30
0.0
 11
-1.291339
 21
3.141732
 31
0.0
  0
LINE
  8
0
  6
CONTINUOUS
 62
     7
  5
3A0
 10
-1.291339
 20
3.141732
 30
0.0
 11
-2.22815
 21
3.141732
 31
0.0
  0
LINE
  8
0
  6
CONTINUOUS
 62
     7
  5
3A1
 10
-2.22815
 20
2.768717
 30
0.0
 11
-1.275591
 21
2.768717
 31
0.0
  0
LINE
  8
0
  6
CONTINUOUS
 62
     7
  5
3A2
 10
-0.850394
 20
2.768717
 30
0.0
 11
-0.212598
 21
2.768717
 31
0.0
  0
LINE
  8
0
  6
CONTINUOUS
 62
     7
  5
3A3
 10
1.275591
 20
2.768717
 30
0.0
 11
2.22815
 21
2.768717
 31
0.0
  0
LINE
  8
0
  6
CONTINUOUS
 62
     7
  5
3A4
 10
2.22815
 20
3.141732
 30
0.0
 11
1.291339
 21
3.141732
 31
0.0
  0
LINE
  8
0
  6
CONTINUOUS
 62
     7
  5
3A5
 10
1.291339
 20
3.141732
 30
0.0
 11
1.291339
 21
3.098425
 31
0.0
  0
LINE
  8
0
  6
CONTINUOUS
 62
     7
  5
3A6
 10
1.291339
 20
3.098425
 30
0.0
 11
1.275591
 21
3.098425
 31
0.0
  0
LINE
  8
0
  6
CONTINUOUS
 62
     7
  5
3A7
 10
1.53937
 20
3.323622
 30
0.0
 11
1.53937
 21
3.484252
 31
0.0
  0
LINE
  8
0
  6
CONTINUOUS
 62
     7
  5
3A8
 10
1.53937
 20
3.484252
 30
0.0
 11
1.375984
 21
3.484252
 31
0.0
  0
LINE
  8
0
  6
CONTINUOUS
 62
     7
  5
3A9
 10
1.375984
 20
3.484252
 30
0.0
 11
-1.375984
 21
3.484252
 31
0.0
  0
LINE
  8
0
  6
CONTINUOUS
 62
     7
  5
3AA
 10
-1.375984
 20
3.484252
 30
0.0
 11
-1.53937
 21
3.484252
 31
0.0
  0
LINE
  8
0
  6
CONTINUOUS
 62
     7
  5
3AB
 10
-1.53937
 20
3.323622
 30
0.0
 11
-1.53937
 21
3.484252
 31
0.0
  0
LINE
  8
0
  6
CONTINUOUS
 62
     7
  5
3AC
 10
1.275591
 20
3.141732
 30
0.0
 11
1.291339
 21
3.141732
 31
0.0
  0
LINE
  8
0
  6
CONTINUOUS
 62
     7
  5
3AD
 10
-1.291339
 20
3.141732
 30
0.0
 11
-1.275591
 21
3.141732
 31
0.0
  0
LINE
  8
0
  6
CONTINUOUS
 62
     7
  5
3AE
 10
0.212598
 20
2.768717
 30
0.0
 11
0.850394
 21
2.768717
 31
0.0
  0
LINE
  8
0
  6
CONTINUOUS
 62
     7
  5
3AF
 10
2.22815
 20
3.323622
 30
0.0
 11
-2.22815
 21
3.323622
 31
0.0
  0
LINE
  8
0
  6
CONTINUOUS
 62
     7
  5
3B0
 10
-2.22815
 20
3.323622
 30
0.0
 11
-2.239961
 21
3.323622
 31
0.0
  0
LINE
  8
0
  6
CONTINUOUS
 62
     7
  5
3B1
 10
2.239961
 20
3.323622
 30
0.0
 11
2.22815
 21
3.323622
 31
0.0
  0
LINE
  8
0
  6
CONTINUOUS
 62
     7
  5
3B2
 10
2.239961
 20
3.141732
 30
0.0
 11
2.239961
 21
3.323622
 31
0.0
  0
LINE
  8
0
  6
CONTINUOUS
 62
     7
  5
3B3
 10
-2.22815
 20
3.141732
 30
0.0
 11
-2.239961
 21
3.141732
 31
0.0
  0
LINE
  8
0
  6
CONTINUOUS
 62
     7
  5
3B4
 10
-2.239961
 20
2.768717
 30
0.0
 11
-2.22815
 21
2.768717
 31
0.0
  0
LINE
  8
0
  6
CONTINUOUS
 62
     7
  5
3B5
 10
2.239961
 20
2.768717
 30
0.0
 11
2.239961
 21
3.141732
 31
0.0
  0
LINE
  8
0
  6
CONTINUOUS
 62
     7
  5
3B6
 10
2.239961
 20
3.141732
 30
0.0
 11
2.22815
 21
3.141732
 31
0.0
  0
LINE
  8
0
  6
CONTINUOUS
 62
     7
  5
3B7
 10
2.22815
 20
2.768717
 30
0.0
 11
2.239961
 21
2.768717
 31
0.0
  0
LINE
  8
0
  6
CONTINUOUS
 62
     7
  5
3B8
 10
2.241142
 20
3.149213
 30
0.0
 11
2.239961
 21
3.149213
 31
0.0
  0
LINE
  8
0
  6
CONTINUOUS
 62
     7
  5
3B9
 10
-2.239961
 20
3.149213
 30
0.0
 11
-2.241142
 21
3.149213
 31
0.0
  0
LINE
  8
0
  6
CONTINUOUS
 62
     7
  5
3BA
 10
-1.164173
 20
-0.894094
 30
0.0
 11
-1.515354
 21
-0.894094
 31
0.0
  0
LINE
  8
0
  6
CONTINUOUS
 62
     7
  5
3BB
 10
0.249803
 20
-0.894094
 30
0.0
 11
-1.08622
 21
-0.894094
 31
0.0
  0
LINE
  8
0
  6
CONTINUOUS
 62
     7
  5
3BC
 10
1.515354
 20
-0.894094
 30
0.0
 11
0.499803
 21
-0.894094
 31
0.0
  0
ARC
  8
0
  6
CONTINUOUS
 62
     7
  5
3BD
 10
1.515354
 20
-0.815354
 30
0.0
 40
0.07874
 50
270.0
 51
360.0
  0
LINE
  8
0
  6
CONTINUOUS
 62
     7
  5
3BE
 10
1.594094
 20
-0.059055
 30
0.0
 11
1.594094
 21
-0.815354
 31
0.0
  0
ARC
  8
0
  6
CONTINUOUS
 62
     7
  5
3BF
 10
-1.515354
 20
-0.815354
 30
0.0
 40
0.07874
 50
180.0
 51
270.0
  0
LINE
  8
0
  6
CONTINUOUS
 62
     7
  5
3C0
 10
2.241142
 20
-0.596457
 30
0.0
 11
1.608331
 21
-0.6774
 31
0.0
  0
LINE
  8
0
  6
CONTINUOUS
 62
     7
  5
3C1
 10
1.608331
 20
-0.6774
 30
0.0
 11
1.594094
 21
-0.6774
 31
0.0
  0
LINE
  8
0
  6
CONTINUOUS
 62
     7
  5
3C2
 10
-1.594094
 20
-0.6774
 30
0.0
 11
-1.608331
 21
-0.6774
 31
0.0
  0
LINE
  8
0
  6
CONTINUOUS
 62
     7
  5
3C3
 10
-1.608331
 20
-0.6774
 30
0.0
 11
-2.241142
 21
-0.596457
 31
0.0
  0
LINE
  8
0
  6
CONTINUOUS
 62
     7
  5
3C4
 10
1.594094
 20
0.0
 30
0.0
 11
1.594094
 21
-0.059055
 31
0.0
  0
LINE
  8
0
  6
CONTINUOUS
 62
     7
  5
3C5
 10
1.594094
 20
2.768721
 30
0.0
 11
1.594094
 21
2.767819
 31
0.0
  0
LINE
  8
0
  6
CONTINUOUS
 62
     7
  5
3C6
 10
-1.594094
 20
-0.586838
 30
0.0
 11
-1.608331
 21
-0.586838
 31
0.0
  0
LINE
  8
0
  6
CONTINUOUS
 62
     7
  5
3C7
 10
-1.608331
 20
-0.586838
 30
0.0
 11
-1.608331
 21
-0.6774
 31
0.0
  0
LINE
  8
0
  6
CONTINUOUS
 62
     7
  5
3C8
 10
-1.594094
 20
-0.505895
 30
0.0
 11
-2.241142
 21
-0.505895
 31
0.0
  0
LINE
  8
0
  6
CONTINUOUS
 62
     7
  5
3C9
 10
-2.241142
 20
-0.505895
 30
0.0
 11
-1.608331
 21
-0.586838
 31
0.0
  0
LINE
  8
0
  6
CONTINUOUS
 62
     7
  5
3CA
 10
-2.241142
 20
2.976239
 30
0.0
 11
-2.241142
 21
-0.505895
 31
0.0
  0
LINE
  8
0
  6
CONTINUOUS
 62
     7
  5
3CB
 10
-2.241142
 20
2.988034
 30
0.0
 11
-2.241142
 21
2.976239
 31
0.0
  0
LINE
  8
0
  6
CONTINUOUS
 62
     7
  5
3CC
 10
-2.239961
 20
3.071361
 30
0.0
 11
-2.241142
 21
3.071361
 31
0.0
  0
LINE
  8
0
  6
CONTINUOUS
 62
     7
  5
3CD
 10
-2.241142
 20
3.071361
 30
0.0
 11
-2.241142
 21
2.988034
 31
0.0
  0
LINE
  8
0
  6
CONTINUOUS
 62
     7
  5
3CE
 10
-2.239961
 20
3.073855
 30
0.0
 11
-2.241142
 21
3.073855
 31
0.0
  0
LINE
  8
0
  6
CONTINUOUS
 62
     7
  5
3CF
 10
-2.241142
 20
3.073855
 30
0.0
 11
-2.241142
 21
3.071361
 31
0.0
  0
LINE
  8
0
  6
CONTINUOUS
 62
     7
  5
3D0
 10
-2.241142
 20
-0.596457
 30
0.0
 11
-2.241142
 21
-0.505895
 31
0.0
  0
LINE
  8
0
  6
CONTINUOUS
 62
     7
  5
3D1
 10
-2.241142
 20
3.149213
 30
0.0
 11
-2.241142
 21
3.073855
 31
0.0
  0
LINE
  8
0
  6
CONTINUOUS
 62
     7
  5
3D2
 10
-2.241142
 20
3.666535
 30
0.0
 11
-2.241142
 21
3.149213
 31
0.0
  0
LINE
  8
0
  6
CONTINUOUS
 62
     7
  5
3D3
 10
1.608331
 20
-0.586838
 30
0.0
 11
1.594094
 21
-0.586838
 31
0.0
  0
LINE
  8
0
  6
CONTINUOUS
 62
     7
  5
3D4
 10
1.608331
 20
-0.586838
 30
0.0
 11
2.241142
 21
-0.505895
 31
0.0
  0
LINE
  8
0
  6
CONTINUOUS
 62
     7
  5
3D5
 10
2.241142
 20
-0.505895
 30
0.0
 11
1.594094
 21
-0.505895
 31
0.0
  0
LINE
  8
0
  6
CONTINUOUS
 62
     7
  5
3D6
 10
2.241142
 20
-0.505895
 30
0.0
 11
2.241142
 21
-0.596457
 31
0.0
  0
LINE
  8
0
  6
CONTINUOUS
 62
     7
  5
3D7
 10
1.608331
 20
-0.6774
 30
0.0
 11
1.608331
 21
-0.586838
 31
0.0
  0
LINE
  8
0
  6
CONTINUOUS
 62
     7
  5
3D8
 10
-0.25
 20
3.666535
 30
0.0
 11
-2.241142
 21
3.666535
 31
0.0
  0
LINE
  8
0
  6
CONTINUOUS
 62
     7
  5
3D9
 10
2.241142
 20
3.666535
 30
0.0
 11
0.25
 21
3.666535
 31
0.0
  0
LINE
  8
0
  6
CONTINUOUS
 62
     7
  5
3DA
 10
2.241142
 20
3.666535
 30
0.0
 11
2.241142
 21
3.149213
 31
0.0
  0
LINE
  8
0
  6
CONTINUOUS
 62
     7
  5
3DB
 10
2.241142
 20
3.073855
 30
0.0
 11
2.239961
 21
3.073855
 31
0.0
  0
LINE
  8
0
  6
CONTINUOUS
 62
     7
  5
3DC
 10
2.241142
 20
3.149213
 30
0.0
 11
2.241142
 21
3.073855
 31
0.0
  0
LINE
  8
0
  6
CONTINUOUS
 62
     7
  5
3DD
 10
2.241142
 20
3.071361
 30
0.0
 11
2.239961
 21
3.071361
 31
0.0
  0
LINE
  8
0
  6
CONTINUOUS
 62
     7
  5
3DE
 10
2.241142
 20
3.073855
 30
0.0
 11
2.241142
 21
3.071361
 31
0.0
  0
LINE
  8
0
  6
CONTINUOUS
 62
     7
  5
3DF
 10
2.241142
 20
3.071361
 30
0.0
 11
2.241142
 21
2.988034
 31
0.0
  0
LINE
  8
0
  6
CONTINUOUS
 62
     7
  5
3E0
 10
2.241142
 20
2.988034
 30
0.0
 11
2.241142
 21
2.976239
 31
0.0
  0
LINE
  8
0
  6
CONTINUOUS
 62
     7
  5
3E1
 10
2.241142
 20
2.976239
 30
0.0
 11
2.241142
 21
-0.505895
 31
0.0
  0
LINE
  8
0
  6
CONTINUOUS
 62
     7
  5
3E2
 10
0.805118
 20
0.0
 30
0.0
 11
0.805906
 21
0.0
 31
0.0
  0
LINE
  8
0
  6
CONTINUOUS
 62
     7
  5
3E3
 10
-0.045798
 20
-0.837205
 30
0.0
 11
0.174306
 21
-0.837205
 31
0.0
  0
LINE
  8
0
  6
CONTINUOUS
 62
     7
  5
3E4
 10
0.174306
 20
-0.837205
 30
0.0
 11
0.723818
 21
-0.837205
 31
0.0
  0
LINE
  8
0
  6
CONTINUOUS
 62
     7
  5
3E5
 10
0.174306
 20
-0.759252
 30
0.0
 11
-0.045798
 21
-0.759252
 31
0.0
  0
LINE
  8
0
  6
CONTINUOUS
 62
     7
  5
3E6
 10
0.723818
 20
-0.759252
 30
0.0
 11
0.174306
 21
-0.759252
 31
0.0
  0
LINE
  8
0
  6
CONTINUOUS
 62
     7
  5
3E7
 10
0.723818
 20
-0.837205
 30
0.0
 11
0.723818
 21
-0.759252
 31
0.0
  0
LINE
  8
0
  6
CONTINUOUS
 62
     7
  5
3E8
 10
-0.045798
 20
-0.837205
 30
0.0
 11
-0.051564
 21
-0.837047
 31
0.0
  0
LINE
  8
0
  6
CONTINUOUS
 62
     7
  5
3E9
 10
-0.051564
 20
-0.837047
 30
0.0
 11
-0.057319
 21
-0.836573
 31
0.0
  0
LINE
  8
0
  6
CONTINUOUS
 62
     7
  5
3EA
 10
-0.057319
 20
-0.836573
 30
0.0
 11
-0.06305
 21
-0.835785
 31
0.0
  0
LINE
  8
0
  6
CONTINUOUS
 62
     7
  5
3EB
 10
-0.06305
 20
-0.835785
 30
0.0
 11
-0.068746
 21
-0.834683
 31
0.0
  0
LINE
  8
0
  6
CONTINUOUS
 62
     7
  5
3EC
 10
-0.068746
 20
-0.834683
 30
0.0
 11
-0.074396
 21
-0.833271
 31
0.0
  0
LINE
  8
0
  6
CONTINUOUS
 62
     7
  5
3ED
 10
-0.074396
 20
-0.833271
 30
0.0
 11
-0.079989
 21
-0.831551
 31
0.0
  0
LINE
  8
0
  6
CONTINUOUS
 62
     7
  5
3EE
 10
-0.079989
 20
-0.831551
 30
0.0
 11
-0.085512
 21
-0.829526
 31
0.0
  0
LINE
  8
0
  6
CONTINUOUS
 62
     7
  5
3EF
 10
-0.085512
 20
-0.829526
 30
0.0
 11
-0.090956
 21
-0.827201
 31
0.0
  0
LINE
  8
0
  6
CONTINUOUS
 62
     7
  5
3F0
 10
-0.090956
 20
-0.827201
 30
0.0
 11
-0.096309
 21
-0.824579
 31
0.0
  0
LINE
  8
0
  6
CONTINUOUS
 62
     7
  5
3F1
 10
-0.096309
 20
-0.824579
 30
0.0
 11
-0.10156
 21
-0.821668
 31
0.0
  0
LINE
  8
0
  6
CONTINUOUS
 62
     7
  5
3F2
 10
-0.10156
 20
-0.821668
 30
0.0
 11
-0.106698
 21
-0.818471
 31
0.0
  0
LINE
  8
0
  6
CONTINUOUS
 62
     7
  5
3F3
 10
-0.106698
 20
-0.818471
 30
0.0
 11
-0.111714
 21
-0.814997
 31
0.0
  0
LINE
  8
0
  6
CONTINUOUS
 62
     7
  5
3F4
 10
-0.111714
 20
-0.814997
 30
0.0
 11
-0.116598
 21
-0.811251
 31
0.0
  0
LINE
  8
0
  6
CONTINUOUS
 62
     7
  5
3F5
 10
-0.116598
 20
-0.811251
 30
0.0
 11
-0.121339
 21
-0.807241
 31
0.0
  0
LINE
  8
0
  6
CONTINUOUS
 62
     7
  5
3F6
 10
-0.121339
 20
-0.807241
 30
0.0
 11
-0.125927
 21
-0.802976
 31
0.0
  0
LINE
  8
0
  6
CONTINUOUS
 62
     7
  5
3F7
 10
-0.125927
 20
-0.802976
 30
0.0
 11
-0.130354
 21
-0.798464
 31
0.0
  0
LINE
  8
0
  6
CONTINUOUS
 62
     7
  5
3F8
 10
-0.130354
 20
-0.798464
 30
0.0
 11
-0.134611
 21
-0.793714
 31
0.0
  0
LINE
  8
0
  6
CONTINUOUS
 62
     7
  5
3F9
 10
-0.134611
 20
-0.793714
 30
0.0
 11
-0.13869
 21
-0.788736
 31
0.0
  0
LINE
  8
0
  6
CONTINUOUS
 62
     7
  5
3FA
 10
-0.13869
 20
-0.788736
 30
0.0
 11
-0.142581
 21
-0.783539
 31
0.0
  0
LINE
  8
0
  6
CONTINUOUS
 62
     7
  5
3FB
 10
-0.142581
 20
-0.783539
 30
0.0
 11
-0.146277
 21
-0.778134
 31
0.0
  0
LINE
  8
0
  6
CONTINUOUS
 62
     7
  5
3FC
 10
-0.146277
 20
-0.778134
 30
0.0
 11
-0.14977
 21
-0.772532
 31
0.0
  0
LINE
  8
0
  6
CONTINUOUS
 62
     7
  5
3FD
 10
-0.14977
 20
-0.772532
 30
0.0
 11
-0.153055
 21
-0.766745
 31
0.0
  0
LINE
  8
0
  6
CONTINUOUS
 62
     7
  5
3FE
 10
-0.153055
 20
-0.766745
 30
0.0
 11
-0.156123
 21
-0.760784
 31
0.0
  0
LINE
  8
0
  6
CONTINUOUS
 62
     7
  5
3FF
 10
-0.156123
 20
-0.760784
 30
0.0
 11
-0.15897
 21
-0.75466
 31
0.0
  0
LINE
  8
0
  6
CONTINUOUS
 62
     7
  5
400
 10
-0.15897
 20
-0.75466
 30
0.0
 11
-0.161588
 21
-0.748387
 31
0.0
  0
LINE
  8
0
  6
CONTINUOUS
 62
     7
  5
401
 10
-0.161588
 20
-0.748387
 30
0.0
 11
-0.163973
 21
-0.741977
 31
0.0
  0
LINE
  8
0
  6
CONTINUOUS
 62
     7
  5
402
 10
-0.163973
 20
-0.741977
 30
0.0
 11
-0.16612
 21
-0.735442
 31
0.0
  0
LINE
  8
0
  6
CONTINUOUS
 62
     7
  5
403
 10
-0.16612
 20
-0.735442
 30
0.0
 11
-0.168025
 21
-0.728797
 31
0.0
  0
LINE
  8
0
  6
CONTINUOUS
 62
     7
  5
404
 10
-0.168025
 20
-0.728797
 30
0.0
 11
-0.169684
 21
-0.722053
 31
0.0
  0
LINE
  8
0
  6
CONTINUOUS
 62
     7
  5
405
 10
-0.169684
 20
-0.722053
 30
0.0
 11
-0.171093
 21
-0.715226
 31
0.0
  0
LINE
  8
0
  6
CONTINUOUS
 62
     7
  5
406
 10
-0.171093
 20
-0.715226
 30
0.0
 11
-0.17225
 21
-0.708329
 31
0.0
  0
LINE
  8
0
  6
CONTINUOUS
 62
     7
  5
407
 10
-0.17225
 20
-0.708329
 30
0.0
 11
-0.173152
 21
-0.701375
 31
0.0
  0
LINE
  8
0
  6
CONTINUOUS
 62
     7
  5
408
 10
-0.173152
 20
-0.701375
 30
0.0
 11
-0.173798
 21
-0.694378
 31
0.0
  0
LINE
  8
0
  6
CONTINUOUS
 62
     7
  5
409
 10
-0.173798
 20
-0.694378
 30
0.0
 11
-0.174186
 21
-0.687354
 31
0.0
  0
LINE
  8
0
  6
CONTINUOUS
 62
     7
  5
40A
 10
-0.174186
 20
-0.687354
 30
0.0
 11
-0.174315
 21
-0.680315
 31
0.0
  0
LINE
  8
0
  6
CONTINUOUS
 62
     7
  5
40B
 10
-0.11046
 20
-0.680315
 30
0.0
 11
-0.110395
 21
-0.683856
 31
0.0
  0
LINE
  8
0
  6
CONTINUOUS
 62
     7
  5
40C
 10
-0.110395
 20
-0.683856
 30
0.0
 11
-0.110199
 21
-0.687391
 31
0.0
  0
LINE
  8
0
  6
CONTINUOUS
 62
     7
  5
40D
 10
-0.110199
 20
-0.687391
 30
0.0
 11
-0.109875
 21
-0.690911
 31
0.0
  0
LINE
  8
0
  6
CONTINUOUS
 62
     7
  5
40E
 10
-0.109875
 20
-0.690911
 30
0.0
 11
-0.109421
 21
-0.69441
 31
0.0
  0
LINE
  8
0
  6
CONTINUOUS
 62
     7
  5
40F
 10
-0.109421
 20
-0.69441
 30
0.0
 11
-0.108839
 21
-0.69788
 31
0.0
  0
LINE
  8
0
  6
CONTINUOUS
 62
     7
  5
410
 10
-0.108839
 20
-0.69788
 30
0.0
 11
-0.10813
 21
-0.701315
 31
0.0
  0
LINE
  8
0
  6
CONTINUOUS
 62
     7
  5
411
 10
-0.10813
 20
-0.701315
 30
0.0
 11
-0.107295
 21
-0.704708
 31
0.0
  0
LINE
  8
0
  6
CONTINUOUS
 62
     7
  5
412
 10
-0.107295
 20
-0.704708
 30
0.0
 11
-0.106337
 21
-0.708051
 31
0.0
  0
LINE
  8
0
  6
CONTINUOUS
 62
     7
  5
413
 10
-0.106337
 20
-0.708051
 30
0.0
 11
-0.105256
 21
-0.711339
 31
0.0
  0
LINE
  8
0
  6
CONTINUOUS
 62
     7
  5
414
 10
-0.105256
 20
-0.711339
 30
0.0
 11
-0.104056
 21
-0.714564
 31
0.0
  0
LINE
  8
0
  6
CONTINUOUS
 62
     7
  5
415
 10
-0.104056
 20
-0.714564
 30
0.0
 11
-0.102739
 21
-0.717721
 31
0.0
  0
LINE
  8
0
  6
CONTINUOUS
 62
     7
  5
416
 10
-0.102739
 20
-0.717721
 30
0.0
 11
-0.101307
 21
-0.720802
 31
0.0
  0
LINE
  8
0
  6
CONTINUOUS
 62
     7
  5
417
 10
-0.101307
 20
-0.720802
 30
0.0
 11
-0.099763
 21
-0.723801
 31
0.0
  0
LINE
  8
0
  6
CONTINUOUS
 62
     7
  5
418
 10
-0.099763
 20
-0.723801
 30
0.0
 11
-0.098111
 21
-0.726713
 31
0.0
  0
LINE
  8
0
  6
CONTINUOUS
 62
     7
  5
419
 10
-0.098111
 20
-0.726713
 30
0.0
 11
-0.096353
 21
-0.729531
 31
0.0
  0
LINE
  8
0
  6
CONTINUOUS
 62
     7
  5
41A
 10
-0.096353
 20
-0.729531
 30
0.0
 11
-0.094493
 21
-0.732251
 31
0.0
  0
LINE
  8
0
  6
CONTINUOUS
 62
     7
  5
41B
 10
-0.094493
 20
-0.732251
 30
0.0
 11
-0.092535
 21
-0.734865
 31
0.0
  0
LINE
  8
0
  6
CONTINUOUS
 62
     7
  5
41C
 10
-0.092535
 20
-0.734865
 30
0.0
 11
-0.090483
 21
-0.73737
 31
0.0
  0
LINE
  8
0
  6
CONTINUOUS
 62
     7
  5
41D
 10
-0.090483
 20
-0.73737
 30
0.0
 11
-0.088342
 21
-0.73976
 31
0.0
  0
LINE
  8
0
  6
CONTINUOUS
 62
     7
  5
41E
 10
-0.088342
 20
-0.73976
 30
0.0
 11
-0.086114
 21
-0.74203
 31
0.0
  0
LINE
  8
0
  6
CONTINUOUS
 62
     7
  5
41F
 10
-0.086114
 20
-0.74203
 30
0.0
 11
-0.083805
 21
-0.744176
 31
0.0
  0
LINE
  8
0
  6
CONTINUOUS
 62
     7
  5
420
 10
-0.083805
 20
-0.744176
 30
0.0
 11
-0.08142
 21
-0.746194
 31
0.0
  0
LINE
  8
0
  6
CONTINUOUS
 62
     7
  5
421
 10
-0.08142
 20
-0.746194
 30
0.0
 11
-0.078963
 21
-0.748078
 31
0.0
  0
LINE
  8
0
  6
CONTINUOUS
 62
     7
  5
422
 10
-0.078963
 20
-0.748078
 30
0.0
 11
-0.076439
 21
-0.749827
 31
0.0
  0
LINE
  8
0
  6
CONTINUOUS
 62
     7
  5
423
 10
-0.076439
 20
-0.749827
 30
0.0
 11
-0.073854
 21
-0.751435
 31
0.0
  0
LINE
  8
0
  6
CONTINUOUS
 62
     7
  5
424
 10
-0.073854
 20
-0.751435
 30
0.0
 11
-0.071212
 21
-0.7529
 31
0.0
  0
LINE
  8
0
  6
CONTINUOUS
 62
     7
  5
425
 10
-0.071212
 20
-0.7529
 30
0.0
 11
-0.068519
 21
-0.754219
 31
0.0
  0
LINE
  8
0
  6
CONTINUOUS
 62
     7
  5
426
 10
-0.068519
 20
-0.754219
 30
0.0
 11
-0.06578
 21
-0.755389
 31
0.0
  0
LINE
  8
0
  6
CONTINUOUS
 62
     7
  5
427
 10
-0.06578
 20
-0.755389
 30
0.0
 11
-0.063001
 21
-0.756407
 31
0.0
  0
LINE
  8
0
  6
CONTINUOUS
 62
     7
  5
428
 10
-0.063001
 20
-0.756407
 30
0.0
 11
-0.060187
 21
-0.757273
 31
0.0
  0
LINE
  8
0
  6
CONTINUOUS
 62
     7
  5
429
 10
-0.060187
 20
-0.757273
 30
0.0
 11
-0.057344
 21
-0.757983
 31
0.0
  0
LINE
  8
0
  6
CONTINUOUS
 62
     7
  5
42A
 10
-0.057344
 20
-0.757983
 30
0.0
 11
-0.054478
 21
-0.758538
 31
0.0
  0
LINE
  8
0
  6
CONTINUOUS
 62
     7
  5
42B
 10
-0.054478
 20
-0.758538
 30
0.0
 11
-0.051595
 21
-0.758934
 31
0.0
  0
LINE
  8
0
  6
CONTINUOUS
 62
     7
  5
42C
 10
-0.051595
 20
-0.758934
 30
0.0
 11
-0.048699
 21
-0.759172
 31
0.0
  0
LINE
  8
0
  6
CONTINUOUS
 62
     7
  5
42D
 10
-0.048699
 20
-0.759172
 30
0.0
 11
-0.045798
 21
-0.759252
 31
0.0
  0
LINE
  8
0
  6
CONTINUOUS
 62
     7
  5
42E
 10
-0.174315
 20
-0.15689
 30
0.0
 11
-0.174315
 21
-0.680315
 31
0.0
  0
LINE
  8
0
  6
CONTINUOUS
 62
     7
  5
42F
 10
0.26801
 20
-0.229535
 30
0.0
 11
0.26801
 21
-0.15689
 31
0.0
  0
LINE
  8
0
  6
CONTINUOUS
 62
     7
  5
430
 10
-0.11046
 20
-0.680315
 30
0.0
 11
-0.11046
 21
-0.15689
 31
0.0
  0
LINE
  8
0
  6
CONTINUOUS
 62
     7
  5
431
 10
0.26801
 20
-0.15689
 30
0.0
 11
0.267881
 21
-0.149851
 31
0.0
  0
LINE
  8
0
  6
CONTINUOUS
 62
     7
  5
432
 10
0.267881
 20
-0.149851
 30
0.0
 11
0.267493
 21
-0.142826
 31
0.0
  0
LINE
  8
0
  6
CONTINUOUS
 62
     7
  5
433
 10
0.267493
 20
-0.142826
 30
0.0
 11
0.266847
 21
-0.13583
 31
0.0
  0
LINE
  8
0
  6
CONTINUOUS
 62
     7
  5
434
 10
0.266847
 20
-0.13583
 30
0.0
 11
0.265945
 21
-0.128876
 31
0.0
  0
LINE
  8
0
  6
CONTINUOUS
 62
     7
  5
435
 10
0.265945
 20
-0.128876
 30
0.0
 11
0.264788
 21
-0.121979
 31
0.0
  0
LINE
  8
0
  6
CONTINUOUS
 62
     7
  5
436
 10
0.264788
 20
-0.121979
 30
0.0
 11
0.263379
 21
-0.115151
 31
0.0
  0
LINE
  8
0
  6
CONTINUOUS
 62
     7
  5
437
 10
0.263379
 20
-0.115151
 30
0.0
 11
0.26172
 21
-0.108408
 31
0.0
  0
LINE
  8
0
  6
CONTINUOUS
 62
     7
  5
438
 10
0.26172
 20
-0.108408
 30
0.0
 11
0.259815
 21
-0.101763
 31
0.0
  0
LINE
  8
0
  6
CONTINUOUS
 62
     7
  5
439
 10
0.259815
 20
-0.101763
 30
0.0
 11
0.257668
 21
-0.095228
 31
0.0
  0
LINE
  8
0
  6
CONTINUOUS
 62
     7
  5
43A
 10
0.257668
 20
-0.095228
 30
0.0
 11
0.255283
 21
-0.088818
 31
0.0
  0
LINE
  8
0
  6
CONTINUOUS
 62
     7
  5
43B
 10
0.255283
 20
-0.088818
 30
0.0
 11
0.252665
 21
-0.082545
 31
0.0
  0
LINE
  8
0
  6
CONTINUOUS
 62
     7
  5
43C
 10
0.252665
 20
-0.082545
 30
0.0
 11
0.249819
 21
-0.076421
 31
0.0
  0
LINE
  8
0
  6
CONTINUOUS
 62
     7
  5
43D
 10
0.249819
 20
-0.076421
 30
0.0
 11
0.24675
 21
-0.07046
 31
0.0
  0
LINE
  8
0
  6
CONTINUOUS
 62
     7
  5
43E
 10
0.24675
 20
-0.07046
 30
0.0
 11
0.243466
 21
-0.064672
 31
0.0
  0
LINE
  8
0
  6
CONTINUOUS
 62
     7
  5
43F
 10
0.243466
 20
-0.064672
 30
0.0
 11
0.239972
 21
-0.059071
 31
0.0
  0
LINE
  8
0
  6
CONTINUOUS
 62
     7
  5
440
 10
0.239972
 20
-0.059071
 30
0.0
 11
0.236276
 21
-0.053666
 31
0.0
  0
LINE
  8
0
  6
CONTINUOUS
 62
     7
  5
441
 10
0.236276
 20
-0.053666
 30
0.0
 11
0.232385
 21
-0.048469
 31
0.0
  0
LINE
  8
0
  6
CONTINUOUS
 62
     7
  5
442
 10
0.232385
 20
-0.048469
 30
0.0
 11
0.228307
 21
-0.043491
 31
0.0
  0
LINE
  8
0
  6
CONTINUOUS
 62
     7
  5
443
 10
0.228307
 20
-0.043491
 30
0.0
 11
0.22405
 21
-0.038741
 31
0.0
  0
LINE
  8
0
  6
CONTINUOUS
 62
     7
  5
444
 10
0.22405
 20
-0.038741
 30
0.0
 11
0.219623
 21
-0.034228
 31
0.0
  0
LINE
  8
0
  6
CONTINUOUS
 62
     7
  5
445
 10
0.219623
 20
-0.034228
 30
0.0
 11
0.215034
 21
-0.029963
 31
0.0
  0
LINE
  8
0
  6
CONTINUOUS
 62
     7
  5
446
 10
0.215034
 20
-0.029963
 30
0.0
 11
0.210293
 21
-0.025954
 31
0.0
  0
LINE
  8
0
  6
CONTINUOUS
 62
     7
  5
447
 10
0.210293
 20
-0.025954
 30
0.0
 11
0.20541
 21
-0.022208
 31
0.0
  0
LINE
  8
0
  6
CONTINUOUS
 62
     7
  5
448
 10
0.20541
 20
-0.022208
 30
0.0
 11
0.200394
 21
-0.018733
 31
0.0
  0
LINE
  8
0
  6
CONTINUOUS
 62
     7
  5
449
 10
0.200394
 20
-0.018733
 30
0.0
 11
0.195255
 21
-0.015537
 31
0.0
  0
LINE
  8
0
  6
CONTINUOUS
 62
     7
  5
44A
 10
0.195255
 20
-0.015537
 30
0.0
 11
0.190004
 21
-0.012625
 31
0.0
  0
LINE
  8
0
  6
CONTINUOUS
 62
     7
  5
44B
 10
0.190004
 20
-0.012625
 30
0.0
 11
0.184651
 21
-0.010004
 31
0.0
  0
LINE
  8
0
  6
CONTINUOUS
 62
     7
  5
44C
 10
0.184651
 20
-0.010004
 30
0.0
 11
0.179208
 21
-0.007679
 31
0.0
  0
LINE
  8
0
  6
CONTINUOUS
 62
     7
  5
44D
 10
0.179208
 20
-0.007679
 30
0.0
 11
0.173684
 21
-0.005654
 31
0.0
  0
LINE
  8
0
  6
CONTINUOUS
 62
     7
  5
44E
 10
0.173684
 20
-0.005654
 30
0.0
 11
0.168091
 21
-0.003934
 31
0.0
  0
LINE
  8
0
  6
CONTINUOUS
 62
     7
  5
44F
 10
0.168091
 20
-0.003934
 30
0.0
 11
0.162441
 21
-0.002521
 31
0.0
  0
LINE
  8
0
  6
CONTINUOUS
 62
     7
  5
450
 10
0.162441
 20
-0.002521
 30
0.0
 11
0.156745
 21
-0.00142
 31
0.0
  0
LINE
  8
0
  6
CONTINUOUS
 62
     7
  5
451
 10
0.156745
 20
-0.00142
 30
0.0
 11
0.151014
 21
-0.000632
 31
0.0
  0
LINE
  8
0
  6
CONTINUOUS
 62
     7
  5
452
 10
0.151014
 20
-0.000632
 30
0.0
 11
0.14526
 21
-0.000158
 31
0.0
  0
LINE
  8
0
  6
CONTINUOUS
 62
     7
  5
453
 10
0.14526
 20
-0.000158
 30
0.0
 11
0.139494
 21
0.0
 31
0.0
  0
LINE
  8
0
  6
CONTINUOUS
 62
     7
  5
454
 10
-0.238976
 20
0.0
 30
0.0
 11
0.139494
 21
0.0
 31
0.0
  0
LINE
  8
0
  6
CONTINUOUS
 62
     7
  5
455
 10
-0.11046
 20
-0.15689
 30
0.0
 11
-0.110589
 21
-0.149851
 31
0.0
  0
LINE
  8
0
  6
CONTINUOUS
 62
     7
  5
456
 10
-0.110589
 20
-0.149851
 30
0.0
 11
-0.110977
 21
-0.142826
 31
0.0
  0
LINE
  8
0
  6
CONTINUOUS
 62
     7
  5
457
 10
-0.110977
 20
-0.142826
 30
0.0
 11
-0.111623
 21
-0.13583
 31
0.0
  0
LINE
  8
0
  6
CONTINUOUS
 62
     7
  5
458
 10
-0.111623
 20
-0.13583
 30
0.0
 11
-0.112525
 21
-0.128876
 31
0.0
  0
LINE
  8
0
  6
CONTINUOUS
 62
     7
  5
459
 10
-0.112525
 20
-0.128876
 30
0.0
 11
-0.113682
 21
-0.121979
 31
0.0
  0
LINE
  8
0
  6
CONTINUOUS
 62
     7
  5
45A
 10
-0.113682
 20
-0.121979
 30
0.0
 11
-0.115091
 21
-0.115151
 31
0.0
  0
LINE
  8
0
  6
CONTINUOUS
 62
     7
  5
45B
 10
-0.115091
 20
-0.115151
 30
0.0
 11
-0.11675
 21
-0.108408
 31
0.0
  0
LINE
  8
0
  6
CONTINUOUS
 62
     7
  5
45C
 10
-0.11675
 20
-0.108408
 30
0.0
 11
-0.118655
 21
-0.101763
 31
0.0
  0
LINE
  8
0
  6
CONTINUOUS
 62
     7
  5
45D
 10
-0.118655
 20
-0.101763
 30
0.0
 11
-0.120802
 21
-0.095228
 31
0.0
  0
LINE
  8
0
  6
CONTINUOUS
 62
     7
  5
45E
 10
-0.120802
 20
-0.095228
 30
0.0
 11
-0.123187
 21
-0.088818
 31
0.0
  0
LINE
  8
0
  6
CONTINUOUS
 62
     7
  5
45F
 10
-0.123187
 20
-0.088818
 30
0.0
 11
-0.125805
 21
-0.082545
 31
0.0
  0
LINE
  8
0
  6
CONTINUOUS
 62
     7
  5
460
 10
-0.125805
 20
-0.082545
 30
0.0
 11
-0.128651
 21
-0.076421
 31
0.0
  0
LINE
  8
0
  6
CONTINUOUS
 62
     7
  5
461
 10
-0.128651
 20
-0.076421
 30
0.0
 11
-0.13172
 21
-0.07046
 31
0.0
  0
LINE
  8
0
  6
CONTINUOUS
 62
     7
  5
462
 10
-0.13172
 20
-0.07046
 30
0.0
 11
-0.135004
 21
-0.064672
 31
0.0
  0
LINE
  8
0
  6
CONTINUOUS
 62
     7
  5
463
 10
-0.135004
 20
-0.064672
 30
0.0
 11
-0.138498
 21
-0.059071
 31
0.0
  0
LINE
  8
0
  6
CONTINUOUS
 62
     7
  5
464
 10
-0.138498
 20
-0.059071
 30
0.0
 11
-0.142194
 21
-0.053666
 31
0.0
  0
LINE
  8
0
  6
CONTINUOUS
 62
     7
  5
465
 10
-0.142194
 20
-0.053666
 30
0.0
 11
-0.146085
 21
-0.048469
 31
0.0
  0
LINE
  8
0
  6
CONTINUOUS
 62
     7
  5
466
 10
-0.146085
 20
-0.048469
 30
0.0
 11
-0.150163
 21
-0.043491
 31
0.0
  0
LINE
  8
0
  6
CONTINUOUS
 62
     7
  5
467
 10
-0.150163
 20
-0.043491
 30
0.0
 11
-0.15442
 21
-0.038741
 31
0.0
  0
LINE
  8
0
  6
CONTINUOUS
 62
     7
  5
468
 10
-0.15442
 20
-0.038741
 30
0.0
 11
-0.158848
 21
-0.034228
 31
0.0
  0
LINE
  8
0
  6
CONTINUOUS
 62
     7
  5
469
 10
-0.158848
 20
-0.034228
 30
0.0
 11
-0.163436
 21
-0.029963
 31
0.0
  0
LINE
  8
0
  6
CONTINUOUS
 62
     7
  5
46A
 10
-0.163436
 20
-0.029963
 30
0.0
 11
-0.168177
 21
-0.025954
 31
0.0
  0
LINE
  8
0
  6
CONTINUOUS
 62
     7
  5
46B
 10
-0.168177
 20
-0.025954
 30
0.0
 11
-0.17306
 21
-0.022208
 31
0.0
  0
LINE
  8
0
  6
CONTINUOUS
 62
     7
  5
46C
 10
-0.17306
 20
-0.022208
 30
0.0
 11
-0.178076
 21
-0.018733
 31
0.0
  0
LINE
  8
0
  6
CONTINUOUS
 62
     7
  5
46D
 10
-0.178076
 20
-0.018733
 30
0.0
 11
-0.183215
 21
-0.015537
 31
0.0
  0
LINE
  8
0
  6
CONTINUOUS
 62
     7
  5
46E
 10
-0.183215
 20
-0.015537
 30
0.0
 11
-0.188466
 21
-0.012625
 31
0.0
  0
LINE
  8
0
  6
CONTINUOUS
 62
     7
  5
46F
 10
-0.188466
 20
-0.012625
 30
0.0
 11
-0.193819
 21
-0.010004
 31
0.0
  0
LINE
  8
0
  6
CONTINUOUS
 62
     7
  5
470
 10
-0.193819
 20
-0.010004
 30
0.0
 11
-0.199263
 21
-0.007679
 31
0.0
  0
LINE
  8
0
  6
CONTINUOUS
 62
     7
  5
471
 10
-0.199263
 20
-0.007679
 30
0.0
 11
-0.204786
 21
-0.005654
 31
0.0
  0
LINE
  8
0
  6
CONTINUOUS
 62
     7
  5
472
 10
-0.204786
 20
-0.005654
 30
0.0
 11
-0.210379
 21
-0.003934
 31
0.0
  0
LINE
  8
0
  6
CONTINUOUS
 62
     7
  5
473
 10
-0.210379
 20
-0.003934
 30
0.0
 11
-0.216029
 21
-0.002521
 31
0.0
  0
LINE
  8
0
  6
CONTINUOUS
 62
     7
  5
474
 10
-0.216029
 20
-0.002521
 30
0.0
 11
-0.221725
 21
-0.00142
 31
0.0
  0
LINE
  8
0
  6
CONTINUOUS
 62
     7
  5
475
 10
-0.221725
 20
-0.00142
 30
0.0
 11
-0.227456
 21
-0.000632
 31
0.0
  0
LINE
  8
0
  6
CONTINUOUS
 62
     7
  5
476
 10
-0.227456
 20
-0.000632
 30
0.0
 11
-0.233211
 21
-0.000158
 31
0.0
  0
LINE
  8
0
  6
CONTINUOUS
 62
     7
  5
477
 10
-0.233211
 20
-0.000158
 30
0.0
 11
-0.238976
 21
0.0
 31
0.0
  0
LINE
  8
0
  6
CONTINUOUS
 62
     7
  5
478
 10
-0.238976
 20
-0.077953
 30
0.0
 11
-0.236075
 21
-0.078032
 31
0.0
  0
LINE
  8
0
  6
CONTINUOUS
 62
     7
  5
479
 10
-0.236075
 20
-0.078032
 30
0.0
 11
-0.23318
 21
-0.078271
 31
0.0
  0
LINE
  8
0
  6
CONTINUOUS
 62
     7
  5
47A
 10
-0.23318
 20
-0.078271
 30
0.0
 11
-0.230297
 21
-0.078667
 31
0.0
  0
LINE
  8
0
  6
CONTINUOUS
 62
     7
  5
47B
 10
-0.230297
 20
-0.078667
 30
0.0
 11
-0.227431
 21
-0.079221
 31
0.0
  0
LINE
  8
0
  6
CONTINUOUS
 62
     7
  5
47C
 10
-0.227431
 20
-0.079221
 30
0.0
 11
-0.224588
 21
-0.079932
 31
0.0
  0
LINE
  8
0
  6
CONTINUOUS
 62
     7
  5
47D
 10
-0.224588
 20
-0.079932
 30
0.0
 11
-0.221774
 21
-0.080797
 31
0.0
  0
LINE
  8
0
  6
CONTINUOUS
 62
     7
  5
47E
 10
-0.221774
 20
-0.080797
 30
0.0
 11
-0.218995
 21
-0.081816
 31
0.0
  0
LINE
  8
0
  6
CONTINUOUS
 62
     7
  5
47F
 10
-0.218995
 20
-0.081816
 30
0.0
 11
-0.216256
 21
-0.082986
 31
0.0
  0
LINE
  8
0
  6
CONTINUOUS
 62
     7
  5
480
 10
-0.216256
 20
-0.082986
 30
0.0
 11
-0.213563
 21
-0.084305
 31
0.0
  0
LINE
  8
0
  6
CONTINUOUS
 62
     7
  5
481
 10
-0.213563
 20
-0.084305
 30
0.0
 11
-0.210921
 21
-0.08577
 31
0.0
  0
LINE
  8
0
  6
CONTINUOUS
 62
     7
  5
482
 10
-0.210921
 20
-0.08577
 30
0.0
 11
-0.208335
 21
-0.087378
 31
0.0
  0
LINE
  8
0
  6
CONTINUOUS
 62
     7
  5
483
 10
-0.208335
 20
-0.087378
 30
0.0
 11
-0.205812
 21
-0.089126
 31
0.0
  0
LINE
  8
0
  6
CONTINUOUS
 62
     7
  5
484
 10
-0.205812
 20
-0.089126
 30
0.0
 11
-0.203355
 21
-0.091011
 31
0.0
  0
LINE
  8
0
  6
CONTINUOUS
 62
     7
  5
485
 10
-0.203355
 20
-0.091011
 30
0.0
 11
-0.200969
 21
-0.093028
 31
0.0
  0
LINE
  8
0
  6
CONTINUOUS
 62
     7
  5
486
 10
-0.200969
 20
-0.093028
 30
0.0
 11
-0.198661
 21
-0.095174
 31
0.0
  0
LINE
  8
0
  6
CONTINUOUS
 62
     7
  5
487
 10
-0.198661
 20
-0.095174
 30
0.0
 11
-0.196433
 21
-0.097445
 31
0.0
  0
LINE
  8
0
  6
CONTINUOUS
 62
     7
  5
488
 10
-0.196433
 20
-0.097445
 30
0.0
 11
-0.194291
 21
-0.099834
 31
0.0
  0
LINE
  8
0
  6
CONTINUOUS
 62
     7
  5
489
 10
-0.194291
 20
-0.099834
 30
0.0
 11
-0.192239
 21
-0.102339
 31
0.0
  0
LINE
  8
0
  6
CONTINUOUS
 62
     7
  5
48A
 10
-0.192239
 20
-0.102339
 30
0.0
 11
-0.190282
 21
-0.104954
 31
0.0
  0
LINE
  8
0
  6
CONTINUOUS
 62
     7
  5
48B
 10
-0.190282
 20
-0.104954
 30
0.0
 11
-0.188422
 21
-0.107673
 31
0.0
  0
LINE
  8
0
  6
CONTINUOUS
 62
     7
  5
48C
 10
-0.188422
 20
-0.107673
 30
0.0
 11
-0.186664
 21
-0.110492
 31
0.0
  0
LINE
  8
0
  6
CONTINUOUS
 62
     7
  5
48D
 10
-0.186664
 20
-0.110492
 30
0.0
 11
-0.185012
 21
-0.113404
 31
0.0
  0
LINE
  8
0
  6
CONTINUOUS
 62
     7
  5
48E
 10
-0.185012
 20
-0.113404
 30
0.0
 11
-0.183468
 21
-0.116403
 31
0.0
  0
LINE
  8
0
  6
CONTINUOUS
 62
     7
  5
48F
 10
-0.183468
 20
-0.116403
 30
0.0
 11
-0.182036
 21
-0.119484
 31
0.0
  0
LINE
  8
0
  6
CONTINUOUS
 62
     7
  5
490
 10
-0.182036
 20
-0.119484
 30
0.0
 11
-0.180718
 21
-0.12264
 31
0.0
  0
LINE
  8
0
  6
CONTINUOUS
 62
     7
  5
491
 10
-0.180718
 20
-0.12264
 30
0.0
 11
-0.179518
 21
-0.125866
 31
0.0
  0
LINE
  8
0
  6
CONTINUOUS
 62
     7
  5
492
 10
-0.179518
 20
-0.125866
 30
0.0
 11
-0.178438
 21
-0.129153
 31
0.0
  0
LINE
  8
0
  6
CONTINUOUS
 62
     7
  5
493
 10
-0.178438
 20
-0.129153
 30
0.0
 11
-0.17748
 21
-0.132497
 31
0.0
  0
LINE
  8
0
  6
CONTINUOUS
 62
     7
  5
494
 10
-0.17748
 20
-0.132497
 30
0.0
 11
-0.176645
 21
-0.13589
 31
0.0
  0
LINE
  8
0
  6
CONTINUOUS
 62
     7
  5
495
 10
-0.176645
 20
-0.13589
 30
0.0
 11
-0.175936
 21
-0.139325
 31
0.0
  0
LINE
  8
0
  6
CONTINUOUS
 62
     7
  5
496
 10
-0.175936
 20
-0.139325
 30
0.0
 11
-0.175354
 21
-0.142795
 31
0.0
  0
LINE
  8
0
  6
CONTINUOUS
 62
     7
  5
497
 10
-0.175354
 20
-0.142795
 30
0.0
 11
-0.1749
 21
-0.146294
 31
0.0
  0
LINE
  8
0
  6
CONTINUOUS
 62
     7
  5
498
 10
-0.1749
 20
-0.146294
 30
0.0
 11
-0.174575
 21
-0.149814
 31
0.0
  0
LINE
  8
0
  6
CONTINUOUS
 62
     7
  5
499
 10
-0.174575
 20
-0.149814
 30
0.0
 11
-0.17438
 21
-0.153348
 31
0.0
  0
LINE
  8
0
  6
CONTINUOUS
 62
     7
  5
49A
 10
-0.17438
 20
-0.153348
 30
0.0
 11
-0.174315
 21
-0.15689
 31
0.0
  0
LINE
  8
0
  6
CONTINUOUS
 62
     7
  5
49B
 10
0.615803
 20
-0.366535
 30
0.0
 11
0.133803
 21
-0.366535
 31
0.0
  0
LINE
  8
0
  6
CONTINUOUS
 62
     7
  5
49C
 10
0.615803
 20
-0.229535
 30
0.0
 11
0.133803
 21
-0.229535
 31
0.0
  0
LINE
  8
0
  6
CONTINUOUS
 62
     7
  5
49D
 10
0.283297
 20
-1.116535
 30
0.0
 11
0.46631
 21
-1.116535
 31
0.0
  0
LINE
  8
0
  6
CONTINUOUS
 62
     7
  5
49E
 10
0.249803
 20
-0.991535
 30
0.0
 11
0.499803
 21
-0.991535
 31
0.0
  0
LINE
  8
0
  6
CONTINUOUS
 62
     7
  5
49F
 10
0.392892
 20
-0.077953
 30
0.0
 11
0.685827
 21
-0.077953
 31
0.0
  0
LINE
  8
0
  6
CONTINUOUS
 62
     7
  5
4A0
 10
0.257874
 20
0.0
 30
0.0
 11
0.685827
 21
0.0
 31
0.0
  0
LINE
  8
0
  6
CONTINUOUS
 62
     7
  5
4A1
 10
0.685827
 20
-0.077953
 30
0.0
 11
0.805906
 21
-0.077953
 31
0.0
  0
LINE
  8
0
  6
CONTINUOUS
 62
     7
  5
4A2
 10
0.805906
 20
0.0
 30
0.0
 11
0.805906
 21
-0.077953
 31
0.0
  0
LINE
  8
0
  6
CONTINUOUS
 62
     7
  5
4A3
 10
0.685827
 20
0.0
 30
0.0
 11
0.800917
 21
0.0
 31
0.0
  0
LINE
  8
0
  6
CONTINUOUS
 62
     7
  5
4A4
 10
-0.976213
 20
0.0
 30
0.0
 11
-1.008268
 21
0.0
 31
0.0
  0
LINE
  8
0
  6
CONTINUOUS
 62
     7
  5
4A5
 10
-0.976213
 20
0.0
 30
0.0
 11
-0.238976
 21
0.0
 31
0.0
  0
LINE
  8
0
  6
CONTINUOUS
 62
     7
  5
4A6
 10
0.139494
 20
0.0
 30
0.0
 11
0.170079
 21
0.0
 31
0.0
  0
LINE
  8
0
  6
CONTINUOUS
 62
     7
  5
4A7
 10
0.257874
 20
0.0
 30
0.0
 11
0.170079
 21
0.0
 31
0.0
  0
LINE
  8
0
  6
CONTINUOUS
 62
     7
  5
4A8
 10
-1.164173
 20
-0.155906
 30
0.0
 11
-1.164173
 21
-1.51063
 31
0.0
  0
LINE
  8
0
  6
CONTINUOUS
 62
     7
  5
4A9
 10
0.335827
 20
-1.116535
 30
0.0
 11
0.335827
 21
-1.51063
 31
0.0
  0
LINE
  8
0
  6
CONTINUOUS
 62
     7
  5
4AA
 10
0.335827
 20
-0.155906
 30
0.0
 11
0.335827
 21
-0.229535
 31
0.0
  0
LINE
  8
0
  6
CONTINUOUS
 62
     7
  5
4AB
 10
0.335827
 20
-1.51063
 30
0.0
 11
0.41378
 21
-1.51063
 31
0.0
  0
LINE
  8
0
  6
CONTINUOUS
 62
     7
  5
4AC
 10
0.41378
 20
-0.229535
 30
0.0
 11
0.41378
 21
-0.155906
 31
0.0
  0
LINE
  8
0
  6
CONTINUOUS
 62
     7
  5
4AD
 10
0.41378
 20
-1.51063
 30
0.0
 11
0.41378
 21
-1.116535
 31
0.0
  0
LINE
  8
0
  6
CONTINUOUS
 62
     7
  5
4AE
 10
-1.164173
 20
-1.51063
 30
0.0
 11
-1.08622
 21
-1.51063
 31
0.0
  0
LINE
  8
0
  6
CONTINUOUS
 62
     7
  5
4AF
 10
-1.08622
 20
-1.51063
 30
0.0
 11
-1.08622
 21
-0.155906
 31
0.0
  0
LINE
  8
0
  6
CONTINUOUS
 62
     7
  5
4B0
 10
0.250555
 20
-0.077953
 30
0.0
 11
0.257874
 21
-0.077953
 31
0.0
  0
LINE
  8
0
  6
CONTINUOUS
 62
     7
  5
4B1
 10
-0.238976
 20
-0.077953
 30
0.0
 11
-0.976213
 21
-0.077953
 31
0.0
  0
LINE
  8
0
  6
CONTINUOUS
 62
     7
  5
4B2
 10
-1.008268
 20
-0.077953
 30
0.0
 11
-0.976213
 21
-0.077953
 31
0.0
  0
LINE
  8
0
  6
CONTINUOUS
 62
     7
  5
4B3
 10
0.170079
 20
0.0
 30
0.0
 11
0.170079
 21
-0.004511
 31
0.0
  0
ARC
  8
0
  6
CONTINUOUS
 62
     7
  5
4B4
 10
0.257874
 20
-0.155906
 30
0.0
 40
0.077953
 50
0.0
 51
90.0
  0
ARC
  8
0
  6
CONTINUOUS
 62
     7
  5
4B5
 10
0.257874
 20
-0.155906
 30
0.0
 40
0.155906
 50
0.0
 51
90.0
  0
LINE
  8
0
  6
CONTINUOUS
 62
     7
  5
4B6
 10
-0.976213
 20
0.0
 30
0.0
 11
-0.976213
 21
-0.077953
 31
0.0
  0
ARC
  8
0
  6
CONTINUOUS
 62
     7
  5
4B7
 10
-1.008268
 20
-0.155906
 30
0.0
 40
0.155906
 50
90.0
 51
180.0
  0
ARC
  8
0
  6
CONTINUOUS
 62
     7
  5
4B8
 10
-1.008268
 20
-0.155906
 30
0.0
 40
0.077953
 50
90.0
 51
180.0
  0
LINE
  8
0
  6
CONTINUOUS
 62
     7
  5
4B9
 10
0.25
 20
3.953686
 30
0.0
 11
-0.25
 21
3.953686
 31
0.0
  0
LINE
  8
0
  6
CONTINUOUS
 62
     7
  5
4BA
 10
0.249803
 20
-0.366535
 30
0.0
 11
0.249803
 21
-0.759252
 31
0.0
  0
LINE
  8
0
  6
CONTINUOUS
 62
     7
  5
4BB
 10
0.499803
 20
-0.759252
 30
0.0
 11
0.499803
 21
-0.366535
 31
0.0
  0
LINE
  8
0
  6
CONTINUOUS
 62
     7
  5
4BC
 10
0.615803
 20
-0.366535
 30
0.0
 11
0.615803
 21
-0.229535
 31
0.0
  0
LINE
  8
0
  6
CONTINUOUS
 62
     7
  5
4BD
 10
0.133803
 20
-0.229535
 30
0.0
 11
0.133803
 21
-0.366535
 31
0.0
  0
LINE
  8
0
  6
CONTINUOUS
 62
     7
  5
4BE
 10
0.249803
 20
-0.991535
 30
0.0
 11
0.283297
 21
-1.116535
 31
0.0
  0
LINE
  8
0
  6
CONTINUOUS
 62
     7
  5
4BF
 10
0.46631
 20
-1.116535
 30
0.0
 11
0.499803
 21
-0.991535
 31
0.0
  0
LINE
  8
0
  6
CONTINUOUS
 62
     7
  5
4C0
 10
0.249803
 20
-0.837205
 30
0.0
 11
0.249803
 21
-0.991535
 31
0.0
  0
LINE
  8
0
  6
CONTINUOUS
 62
     7
  5
4C1
 10
0.499803
 20
-0.991535
 30
0.0
 11
0.499803
 21
-0.837205
 31
0.0
  0
LINE
  8
0
  6
CONTINUOUS
 62
     3
  5
4C2
 10
-0.531496
 20
2.885717
 30
0.0
 11
-0.531496
 21
-0.118
 31
0.0
  0
LINE
  8
0
  6
CONTINUOUS
 62
     3
  5
4C3
 10
0.0
 20
4.145559
 30
0.0
 11
0.0
 21
1.783575
 31
0.0
  0
ENDSEC
  0
EOF
