999
DXF file: C:\2D\Gen2D\CAD\LC1D40A6BBE_3D-CAD\drw0001_1.dxf
999
Pro/ENGINEER 2019471 by Parametric Technology Corporation
  0
SECTION
  2
HEADER
  9
$ACADVER
  1
AC1024
  9
$DWGCODEPAGE
  3
ANSI_1252
  9
$EXTMAX
 10
151.7980526402
 20
214.6858173054
 30
0.0
  9
$EXTMIN
 10
0.0
 20
0.0
 30
0.0
  9
$LIMMIN
 10
0.0
 20
0.0
  9
$LIMMAX
 10
151.7980526402
 20
214.6858173054
  9
$VIEWCTR
 10
75.8990263201
 20
107.3429086527
  9
$VIEWSIZE
 40
214.6858173054
  9
$CLAYER
  8
0
  9
$LTSCALE
 40
13.9943347577
  9
$CELTYPE
  6
BYLAYER
  9
$DIMSCALE
 40
1.0
  9
$DIMASZ
 40
1.8071196743
  9
$DIMEXO
 40
1.0
  9
$DIMDLI
 40
9.6688131053
  9
$DIMEXE
 40
1.0
  9
$DIMCEN
 40
2.2899820513
  9
$DIMLFAC
 40
1.0
  9
$DIMBLK
  1
_FILLED
  9
$DIMALT
 70
0
  9
$DIMALTF
 40
0.0393700787
  9
$DIMTXT
 40
2.529967544
  9
$DIMTOL
 70
1
  9
$DIMLIM
 70
0
  9
$DIMTFAC
 40
1.0
  9
$DIMTP
 40
0.01
  9
$DIMTM
 40
0.01
  9
$DIMGAP
 40
0.625
  9
$DIMDSEP
 70
46
  9
$AUNITS
 70
0
  9
$PDMODE
 70
3
  9
$PDSIZE
 40
0.3125
  9
$HANDSEED
  5
57C
  9
$TILEMODE
 70
1
  9
$MEASUREMENT
 70
1
  9
$INSUNITS
 70
4
  0
ENDSEC
  0
SECTION
  2
CLASSES
  0
CLASS
  1
ACDBDICTIONARYWDFLT
  2
AcDbDictionaryWithDefault
  3
AutoCAD 2000
 90
0
 91
1
280
0
281
0
  0
CLASS
  1
ACDBPLACEHOLDER
  2
AcDbPlaceHolder
  3
AutoCAD 2000
 90
0
 91
1
280
0
281
0
  0
CLASS
  1
LAYOUT
  2
AcDbLayout
  3
AutoCAD 2000
 90
0
 91
0
280
0
281
0
  0
ENDSEC
  0
SECTION
  2
TABLES
  0
TABLE
  2
VPORT
  5
8
100
AcDbSymbolTable
 70
2
  0
VPORT
  5
1F4
100
AcDbSymbolTableRecord
100
AcDbViewportTableRecord
  2
*ACTIVE
 70
0
 10
0.0
 20
0.0
 11
1.0
 21
1.0
 12
75.8990263201
 22
107.3429086527
 13
0.0
 23
0.0
 14
1.0
 24
1.0
 15
0.0
 25
0.0
 16
0.0
 26
0.0
 36
1.0
 17
0.0
 27
0.0
 37
0.0
 40
214.6858173054
 41
0.7070707071
 42
50.0
 43
0.0
 44
0.0
 50
0.0
 51
0.0
 71
0
 72
100
 73
1
 74
1
 75
0
 76
0
 77
0
 78
0
  0
ENDTAB
  0
TABLE
  2
LTYPE
  5
5
100
AcDbSymbolTable
 70
6
  0
LTYPE
  5
14
100
AcDbSymbolTableRecord
100
AcDbLinetypeTableRecord
  2
BYBLOCK
 70
0
  3

 72
65
 73
0
 40
0.0
  0
LTYPE
  5
15
100
AcDbSymbolTableRecord
100
AcDbLinetypeTableRecord
  2
BYLAYER
 70
0
  3

 72
65
 73
0
 40
0.0
  0
LTYPE
  5
16
100
AcDbSymbolTableRecord
100
AcDbLinetypeTableRecord
  2
CONTINUOUS
 70
64
  3
Solid line
 72
65
 73
0
 40
0.0
  0
LTYPE
  5
1F5
100
AcDbSymbolTableRecord
100
AcDbLinetypeTableRecord
  2
CENTER
 70
64
  3
____ _ ____ _ ____ _ ____ _ ____ _ ____ _ ____
 72
65
 73
4
 40
0.6
 49
0.375
 74
0
 49
-0.075
 74
0
 49
0.075
 74
0
 49
-0.075
 74
0
  0
LTYPE
  5
1F6
100
AcDbSymbolTableRecord
100
AcDbLinetypeTableRecord
  2
HIDDEN
 70
64
  3
- - - - - - - - - - - - - - - - - - - -
 72
65
 73
2
 40
0.2
 49
0.1
 74
0
 49
-0.1
 74
0
  0
LTYPE
  5
1F7
100
AcDbSymbolTableRecord
100
AcDbLinetypeTableRecord
  2
PHANTOM
 70
64
  3
_____ _ _ _____ _ _ _____ _ _ _____
 72
65
 73
6
 40
0.8
 49
0.45
 74
0
 49
-0.05
 74
0
 49
0.1
 74
0
 49
-0.05
 74
0
 49
0.1
 74
0
 49
-0.05
 74
0
  0
LTYPE
  5
1F8
100
AcDbSymbolTableRecord
100
AcDbLinetypeTableRecord
  2
DOT
 70
64
  3
. . . . . . . . . . . . . . . . . . . .
 72
65
 73
2
 40
0.2
 49
0.1
 74
0
 49
-0.1
 74
0
  0
LTYPE
  5
1F9
100
AcDbSymbolTableRecord
100
AcDbLinetypeTableRecord
  2
DASHED
 70
64
  3
- - - - - - - - - - - - - - - - - - - -
 72
65
 73
2
 40
0.2
 49
0.1
 74
0
 49
-0.1
 74
0
  0
ENDTAB
  0
TABLE
  2
LAYER
  5
2
100
AcDbSymbolTable
 70
36
  0
LAYER
  5
10
100
AcDbSymbolTableRecord
100
AcDbLayerTableRecord
  2
0
 70
0
 62
7
  6
CONTINUOUS
370
-3
390
F
  0
LAYER
  5
1FA
100
AcDbSymbolTableRecord
100
AcDbLayerTableRecord
  2
DEFAULT_1
 70
0
 62
7
  6
CENTER
370
-3
390
F
  0
LAYER
  5
1FB
100
AcDbSymbolTableRecord
100
AcDbLayerTableRecord
  2
DEFAULT_2
 70
0
 62
8
  6
HIDDEN
370
-3
390
F
  0
LAYER
  5
1FC
100
AcDbSymbolTableRecord
100
AcDbLayerTableRecord
  2
DEFAULT_3
 70
0
 62
7
  6
PHANTOM
370
-3
390
F
  0
LAYER
  5
1FD
100
AcDbSymbolTableRecord
100
AcDbLayerTableRecord
  2
00_COMPONENTS
 70
0
 62
7
  6
CONTINUOUS
370
-3
390
F
  0
LAYER
  5
1FE
100
AcDbSymbolTableRecord
100
AcDbLayerTableRecord
  2
00_COMPONENTS_1
 70
0
 62
7
  6
CONTINUOUS
370
-3
390
F
  0
LAYER
  5
1FF
100
AcDbSymbolTableRecord
100
AcDbLayerTableRecord
  2
00_COMPONENTS_2
 70
0
 62
7
  6
CONTINUOUS
370
-3
390
F
  0
LAYER
  5
200
100
AcDbSymbolTableRecord
100
AcDbLayerTableRecord
  2
00_COMPONENTS_3
 70
0
 62
7
  6
CONTINUOUS
370
-3
390
F
  0
LAYER
  5
201
100
AcDbSymbolTableRecord
100
AcDbLayerTableRecord
  2
01_1_DEFAULT_DATUMS
 70
0
 62
7
  6
CONTINUOUS
370
-3
390
F
  0
LAYER
  5
202
100
AcDbSymbolTableRecord
100
AcDbLayerTableRecord
  2
01_PLANES
 70
0
 62
7
  6
CONTINUOUS
370
-3
390
F
  0
LAYER
  5
203
100
AcDbSymbolTableRecord
100
AcDbLayerTableRecord
  2
02_COORD_SYS
 70
0
 62
7
  6
CONTINUOUS
370
-3
390
F
  0
LAYER
  5
204
100
AcDbSymbolTableRecord
100
AcDbLayerTableRecord
  2
03_AXES
 70
0
 62
7
  6
CONTINUOUS
370
-3
390
F
  0
LAYER
  5
205
100
AcDbSymbolTableRecord
100
AcDbLayerTableRecord
  2
04_POINTS
 70
0
 62
7
  6
CONTINUOUS
370
-3
390
F
  0
LAYER
  5
206
100
AcDbSymbolTableRecord
100
AcDbLayerTableRecord
  2
05_CURVES
 70
0
 62
7
  6
CONTINUOUS
370
-3
390
F
  0
LAYER
  5
207
100
AcDbSymbolTableRecord
100
AcDbLayerTableRecord
  2
06_SURFS
 70
0
 62
7
  6
CONTINUOUS
370
-3
390
F
  0
LAYER
  5
208
100
AcDbSymbolTableRecord
100
AcDbLayerTableRecord
  2
07_COSMETICS
 70
0
 62
7
  6
CONTINUOUS
370
-3
390
F
  0
LAYER
  5
209
100
AcDbSymbolTableRecord
100
AcDbLayerTableRecord
  2
10_NOTES
 70
0
 62
7
  6
CONTINUOUS
370
-3
390
F
  0
LAYER
  5
20A
100
AcDbSymbolTableRecord
100
AcDbLayerTableRecord
  2
11_NOTES_PUB
 70
0
 62
7
  6
CONTINUOUS
370
-3
390
F
  0
LAYER
  5
20B
100
AcDbSymbolTableRecord
100
AcDbLayerTableRecord
  2
13_REF_GTOL
 70
0
 62
7
  6
CONTINUOUS
370
-3
390
F
  0
LAYER
  5
20C
100
AcDbSymbolTableRecord
100
AcDbLayerTableRecord
  2
16_MISC
 70
0
 62
7
  6
CONTINUOUS
370
-3
390
F
  0
LAYER
  5
20D
100
AcDbSymbolTableRecord
100
AcDbLayerTableRecord
  2
17_NO_PRINT
 70
0
 62
7
  6
CONTINUOUS
370
-3
390
F
  0
LAYER
  5
20E
100
AcDbSymbolTableRecord
100
AcDbLayerTableRecord
  2
18_DATUM_CAMS_JOINTS
 70
0
 62
7
  6
CONTINUOUS
370
-3
390
F
  0
LAYER
  5
20F
100
AcDbSymbolTableRecord
100
AcDbLayerTableRecord
  2
19_DATUM_FUNCTIONAL
 70
0
 62
7
  6
CONTINUOUS
370
-3
390
F
  0
LAYER
  5
210
100
AcDbSymbolTableRecord
100
AcDbLayerTableRecord
  2
20_DATUM_KINEMATIC_SCHEME
 70
0
 62
7
  6
CONTINUOUS
370
-3
390
F
  0
ENDTAB
  0
TABLE
  2
STYLE
  5
3
100
AcDbSymbolTable
 70
1
  0
STYLE
  5
11
100
AcDbSymbolTableRecord
100
AcDbTextStyleTableRecord
  2
STANDARD
 70
0
 40
0.0
 41
0.8
 50
0.0
 71
0
 42
0.2
  3
txt
  4

  0
STYLE
  5
211
100
AcDbSymbolTableRecord
100
AcDbTextStyleTableRecord
  2
TEXTSTYLE_1
 70
0
 40
0.0
 41
0.8
 50
0.0
 71
0
 42
0.2
  3
gdt
  4

  0
ENDTAB
  0
TABLE
  2
VIEW
  5
6
100
AcDbSymbolTable
 70
0
  0
ENDTAB
  0
TABLE
  2
UCS
  5
7
100
AcDbSymbolTable
 70
0
  0
ENDTAB
  0
TABLE
  2
APPID
  5
9
100
AcDbSymbolTable
 70
1
  0
APPID
  5
212
100
AcDbSymbolTableRecord
100
AcDbRegAppTableRecord
  2
ACAD
 70
0
  0
ENDTAB
  0
TABLE
  2
BLOCK_RECORD
  5
1
100
AcDbSymbolTable
 70
0
  0
BLOCK_RECORD
  5
213
100
AcDbSymbolTableRecord
100
AcDbBlockTableRecord
  2
*Model_Space
  0
BLOCK_RECORD
  5
214
100
AcDbSymbolTableRecord
100
AcDbBlockTableRecord
  2
*Paper_Space
  0
BLOCK_RECORD
  5
215
100
AcDbSymbolTableRecord
100
AcDbBlockTableRecord
  2
_FILLED
  0
ENDTAB
  0
TABLE
  2
DIMSTYLE
  5
A
100
AcDbSymbolTable
 70
1
100
AcDbDimStyleTable
 71
0
  0
DIMSTYLE
105
216
100
AcDbSymbolTableRecord
100
AcDbDimStyleTableRecord
  2
STANDARD
 70
0
  3

  4

 40
1.0
 41
1.8071196743
 42
1.0
 43
0.38
 44
1.0
 45
0.0
 46
0.0
 47
0.01
 48
0.01
140
2.529967544
141
0.09
142
0.0
143
25.4
144
1.0
145
0.0
146
1.0
147
0.625
 71
1
 72
0
 73
0
 74
0
 75
0
 76
0
 77
1
 78
8
 79
2
170
0
171
1
172
0
173
0
174
0
175
0
176
0
177
0
178
0
270
2
179
2
271
2
272
2
273
2
274
2
275
0
280
0
281
0
282
0
283
1
284
8
285
0
286
0
287
3
288
0
340
11
278
46
341
215
342
215
343
215
344
215
  0
ENDTAB
  0
ENDSEC
  0
SECTION
  2
BLOCKS
  0
BLOCK
  5
20
100
AcDbEntity
  8
0
100
AcDbBlockBegin
  2
*Model_Space
 70
0
 10
0.0
 20
0.0
 30
0.0
  3
*Model_Space
  1

  0
ENDBLK
  5
21
100
AcDbEntity
  8
0
100
AcDbBlockEnd
  0
BLOCK
  5
1C
100
AcDbEntity
  8
0
100
AcDbBlockBegin
  2
*Paper_Space
 70
0
 10
0.0
 20
0.0
 30
0.0
  3
*Paper_Space
  1

  0
ENDBLK
  5
1D
100
AcDbEntity
  8
0
100
AcDbBlockEnd
  0
BLOCK
  5
217
100
AcDbEntity
  8
0
100
AcDbBlockBegin
  2
_FILLED
 70
64
 10
0.0
 20
0.0
  3
_FILLED
  1

  0
SOLID
  5
218
100
AcDbEntity
  8
0
  6
BYBLOCK
 62
0
100
AcDbTrace
 10
0.0
 20
0.0
 11
-1.0
 21
0.25
 12
-1.0
 22
-0.25
 13
-1.0
 23
-0.25
  0
ENDBLK
  5
219
100
AcDbEntity
  8
0
  6
BYBLOCK
 62
0
100
AcDbBlockEnd
  0
ENDSEC
  0
SECTION
  2
ENTITIES
  0
LINE
  5
21A
100
AcDbEntity
  8
00_COMPONENTS_2
100
AcDbLine
 62
7
  6
CONTINUOUS
 10
87.7906546327
 20
48.231853014
 11
87.046008544
 21
48.1653327005
  0
LINE
  5
21B
100
AcDbEntity
  8
00_COMPONENTS_2
100
AcDbLine
 62
7
  6
CONTINUOUS
 10
37.900001263
 20
59.4054371947
 11
58.7156753894
 21
49.0539517443
  0
LINE
  5
21C
100
AcDbEntity
  8
00_COMPONENTS_2
100
AcDbLine
 62
7
  6
CONTINUOUS
 10
19.9083768492
 20
71.3922404929
 11
37.900001263
 21
59.4054371947
  0
LINE
  5
21D
100
AcDbEntity
  8
00_COMPONENTS_2
100
AcDbLine
 62
7
  6
CONTINUOUS
 10
17.6103205843
 20
78.1489137187
 11
17.6103205843
 21
95.703715687
  0
LINE
  5
21E
100
AcDbEntity
  8
00_COMPONENTS_2
100
AcDbLine
 62
7
  6
CONTINUOUS
 10
18.3527484074
 20
97.397523671
 11
18.3527484074
 21
103.3993957154
  0
LINE
  5
21F
100
AcDbEntity
  8
00_COMPONENTS_2
100
AcDbLine
 62
7
  6
CONTINUOUS
 10
19.9083768492
 20
71.3922404929
 11
19.9083768492
 21
73.8996845997
  0
LINE
  5
220
100
AcDbEntity
  8
00_COMPONENTS_2
100
AcDbLine
 62
7
  6
CONTINUOUS
 10
19.9083768492
 20
104.2975328539
 11
19.9083768492
 21
113.5237652167
  0
LINE
  5
221
100
AcDbEntity
  8
00_COMPONENTS_2
100
AcDbLine
 62
7
  6
CONTINUOUS
 10
70.289521718
 20
170.9437845492
 11
50.2077727411
 21
159.3496505793
  0
LINE
  5
222
100
AcDbEntity
  8
00_COMPONENTS_2
100
AcDbLine
 62
7
  6
CONTINUOUS
 10
71.7037411683
 20
170.1273030402
 11
62.9356535868
 21
165.0650755322
  0
LINE
  5
223
100
AcDbEntity
  8
00_COMPONENTS_2
100
AcDbLine
 62
7
  6
CONTINUOUS
 10
52.0462580265
 20
158.2882246175
 11
63.3599194219
 21
164.8201310795
  0
LINE
  5
224
100
AcDbEntity
  8
00_COMPONENTS_2
100
AcDbLine
 62
7
  6
CONTINUOUS
 10
72.9765386735
 20
169.3924696821
 11
63.3599194219
 21
163.8403197133
  0
LINE
  5
225
100
AcDbEntity
  8
00_COMPONENTS_2
100
AcDbLine
 62
7
  6
CONTINUOUS
 10
73.7190038849
 20
168.9638168898
 11
64.9509163035
 21
163.9015893818
  0
LINE
  5
226
100
AcDbEntity
  8
00_COMPONENTS_2
100
AcDbLine
 62
7
  6
CONTINUOUS
 10
73.7190038849
 20
168.3514252621
 11
75.8049540224
 21
169.5557419467
  0
LINE
  5
227
100
AcDbEntity
  8
00_COMPONENTS_2
100
AcDbLine
 62
7
  6
CONTINUOUS
 10
50.592810152
 20
55.9632470214
 11
48.7584718878
 21
57.0222787535
  0
LINE
  5
228
100
AcDbEntity
  8
00_COMPONENTS_2
100
AcDbLine
 62
7
  6
CONTINUOUS
 10
47.9099402176
 20
57.5121676589
 11
46.0756019535
 21
58.571199391
  0
LINE
  5
229
100
AcDbEntity
  8
00_COMPONENTS_2
100
AcDbLine
 62
7
  6
CONTINUOUS
 10
43.0974470654
 20
60.2905990193
 11
41.2631088013
 21
61.3496307514
  0
LINE
  5
22A
100
AcDbEntity
  8
00_COMPONENTS_2
100
AcDbLine
 62
7
  6
CONTINUOUS
 10
40.4145771311
 20
61.8395196568
 11
38.5802388669
 21
62.8985513889
  0
LINE
  5
22B
100
AcDbEntity
  8
00_COMPONENTS_2
100
AcDbLine
 62
7
  6
CONTINUOUS
 10
35.6020839789
 20
64.6179510172
 11
33.7677457147
 21
65.6769827493
  0
LINE
  5
22C
100
AcDbEntity
  8
00_COMPONENTS_2
100
AcDbLine
 62
7
  6
CONTINUOUS
 10
32.9192140445
 20
66.1668716547
 11
31.0848757804
 21
67.2259033868
  0
LINE
  5
22D
100
AcDbEntity
  8
00_COMPONENTS_2
100
AcDbLine
 62
7
  6
CONTINUOUS
 10
46.2482644528
 20
58.5941042172
 11
20.2266265674
 21
73.6173639836
  0
LINE
  5
22E
100
AcDbEntity
  8
00_COMPONENTS_2
100
AcDbLine
 62
7
  6
CONTINUOUS
 10
48.0862736754
 20
58.3901416036
 11
51.4413347566
 21
56.453140006
  0
LINE
  5
22F
100
AcDbEntity
  8
00_COMPONENTS_2
100
AcDbLine
 62
7
  6
CONTINUOUS
 10
77.5022081318
 20
44.7947649821
 11
75.0977882377
 21
46.1829260508
  0
LINE
  5
230
100
AcDbEntity
  8
00_COMPONENTS_2
100
AcDbLine
 62
7
  6
CONTINUOUS
 10
24.1134756372
 20
100.0092741647
 11
24.1134756372
 21
100.07351354
  0
LINE
  5
231
100
AcDbEntity
  8
00_COMPONENTS_2
100
AcDbLine
 62
7
  6
CONTINUOUS
 10
24.2902515965
 20
100.1113352032
 11
24.2902515965
 21
100.1755745785
  0
LINE
  5
232
100
AcDbEntity
  8
00_COMPONENTS_2
100
AcDbLine
 62
7
  6
CONTINUOUS
 10
73.7190038849
 20
167.494112539
 11
64.9509163035
 21
162.431885031
  0
LINE
  5
233
100
AcDbEntity
  8
00_COMPONENTS_2
100
AcDbLine
 62
7
  6
CONTINUOUS
 10
64.349878925
 20
159.8803236002
 11
66.11764735
 21
160.900960248
  0
LINE
  5
234
100
AcDbEntity
  8
00_COMPONENTS_2
100
AcDbLine
 62
7
  6
CONTINUOUS
 10
62.3348420919
 20
158.6348865688
 11
61.4863174873
 21
158.1449935841
  0
LINE
  5
235
100
AcDbEntity
  8
00_COMPONENTS_2
100
AcDbLine
 62
7
  6
CONTINUOUS
 10
58.0566547738
 20
154.522907975
 11
61.4507531925
 21
156.4824799135
  0
LINE
  5
236
100
AcDbEntity
  8
00_COMPONENTS_2
100
AcDbLine
 62
7
  6
CONTINUOUS
 10
60.4668935978
 20
155.2903421702
 11
59.3355274583
 21
154.637151524
  0
LINE
  5
237
100
AcDbEntity
  8
00_COMPONENTS_2
100
AcDbLine
 62
7
  6
CONTINUOUS
 10
80.7530975206
 20
166.6989945943
 11
97.7958645183
 21
176.5385819737
  0
LINE
  5
238
100
AcDbEntity
  8
00_COMPONENTS_2
100
AcDbLine
 62
7
  6
CONTINUOUS
 10
61.4466935742
 20
155.377869121
 11
60.3153274347
 21
154.7246784748
  0
LINE
  5
239
100
AcDbEntity
  8
00_COMPONENTS_2
100
AcDbLine
 62
7
  6
CONTINUOUS
 10
61.5900584387
 20
154.8385520415
 11
64.9841568573
 21
156.7981239801
  0
LINE
  5
23A
100
AcDbEntity
  8
00_COMPONENTS_2
100
AcDbLine
 62
7
  6
CONTINUOUS
 10
99.0686620236
 20
176.0122255034
 11
94.2603559306
 21
173.2361652571
  0
LINE
  5
23B
100
AcDbEntity
  8
00_COMPONENTS_2
100
AcDbLine
 62
7
  6
CONTINUOUS
 10
63.2894875374
 20
56.1853133492
 11
63.9283547809
 21
55.9073711871
  0
LINE
  5
23C
100
AcDbEntity
  8
00_COMPONENTS_2
100
AcDbLine
 62
7
  6
CONTINUOUS
 10
89.8059173493
 20
38.671178754
 11
88.391697899
 21
39.4876602631
  0
LINE
  5
23D
100
AcDbEntity
  8
00_COMPONENTS_2
100
AcDbLine
 62
7
  6
CONTINUOUS
 10
51.8572094325
 20
60.5810841081
 11
57.2791373047
 21
57.4508034079
  0
LINE
  5
23E
100
AcDbEntity
  8
00_COMPONENTS_2
100
AcDbLine
 62
7
  6
CONTINUOUS
 10
65.5103892456
 20
53.7496191623
 11
66.0760770257
 21
53.4230265587
  0
LINE
  5
23F
100
AcDbEntity
  8
00_COMPONENTS_2
100
AcDbLine
 62
7
  6
CONTINUOUS
 10
65.4904816645
 20
53.763108857
 11
66.0561694446
 21
53.4365162534
  0
LINE
  5
240
100
AcDbEntity
  8
00_COMPONENTS_2
100
AcDbLine
 62
7
  6
CONTINUOUS
 10
87.7906546327
 20
41.3043692552
 11
88.391697899
 21
40.9573646139
  0
LINE
  5
241
100
AcDbEntity
  8
00_COMPONENTS_2
100
AcDbLine
 62
7
  6
CONTINUOUS
 10
63.4976085967
 20
57.3669906487
 11
64.0632963768
 21
57.0403980451
  0
LINE
  5
242
100
AcDbEntity
  8
00_COMPONENTS_2
100
AcDbLine
 62
7
  6
CONTINUOUS
 10
65.4904816645
 20
53.763108857
 11
65.5104428797
 21
53.7497120768
  0
LINE
  5
243
100
AcDbEntity
  8
00_COMPONENTS_2
100
AcDbLine
 62
7
  6
CONTINUOUS
 10
66.0761306598
 20
53.4231194732
 11
66.0561694446
 21
53.4365162534
  0
LINE
  5
244
100
AcDbEntity
  8
00_COMPONENTS_2
100
AcDbLine
 62
7
  6
CONTINUOUS
 10
31.0481232811
 20
119.955262427
 11
31.0481232811
 21
132.2844489257
  0
LINE
  5
245
100
AcDbEntity
  8
00_COMPONENTS_2
100
AcDbLine
 62
7
  6
CONTINUOUS
 10
32.9159038273
 20
95.5683792667
 11
32.9159038273
 21
97.6898101073
  0
LINE
  5
246
100
AcDbEntity
  8
00_COMPONENTS_2
100
AcDbLine
 62
7
  6
CONTINUOUS
 10
32.9159038273
 20
98.6615449283
 11
32.9159038273
 21
100.7829757689
  0
LINE
  5
247
100
AcDbEntity
  8
00_COMPONENTS_2
100
AcDbLine
 62
7
  6
CONTINUOUS
 10
32.9192140445
 20
64.0487539521
 11
32.9192140445
 21
66.1668716547
  0
LINE
  5
248
100
AcDbEntity
  8
00_COMPONENTS_2
100
AcDbLine
 62
7
  6
CONTINUOUS
 10
33.7642521442
 20
95.0771207739
 11
33.7644284319
 21
101.2728687536
  0
LINE
  5
249
100
AcDbEntity
  8
00_COMPONENTS_2
100
AcDbLine
 62
7
  6
CONTINUOUS
 10
33.7677386492
 20
65.79957614
 11
33.7677457147
 21
63.5588650467
  0
LINE
  5
24A
100
AcDbEntity
  8
00_COMPONENTS_2
100
AcDbLine
 62
7
  6
CONTINUOUS
 10
34.0140687353
 20
131.5383184211
 11
34.0140687353
 21
132.7732947862
  0
LINE
  5
24B
100
AcDbEntity
  8
00_COMPONENTS_2
100
AcDbLine
 62
7
  6
CONTINUOUS
 10
93.1289959935
 20
171.5920732378
 11
82.703507295
 21
165.5729504605
  0
LINE
  5
24C
100
AcDbEntity
  8
00_COMPONENTS_2
100
AcDbLine
 62
7
  6
CONTINUOUS
 10
62.3347045274
 20
153.3281245398
 11
85.2448688531
 21
166.5552351253
  0
LINE
  5
24D
100
AcDbEntity
  8
00_COMPONENTS
100
AcDbLine
 62
7
  6
CONTINUOUS
 10
98.1847842879
 20
174.0119704742
 11
100.0362379052
 21
175.0809171171
  0
LINE
  5
24E
100
AcDbEntity
  8
00_COMPONENTS_2
100
AcDbLine
 62
7
  6
CONTINUOUS
 10
86.6085471069
 20
165.7679329295
 11
93.1289960394
 21
169.5324935981
  0
LINE
  5
24F
100
AcDbEntity
  8
00_COMPONENTS_2
100
AcDbLine
 62
7
  6
CONTINUOUS
 10
76.0878944745
 20
158.4516003987
 11
64.7742330791
 21
151.9196939367
  0
LINE
  5
250
100
AcDbEntity
  8
00_COMPONENTS_2
100
AcDbLine
 62
7
  6
CONTINUOUS
 10
31.0481232811
 20
132.2844489257
 11
50.6320385762
 21
143.5911602011
  0
LINE
  5
251
100
AcDbEntity
  8
00_COMPONENTS_2
100
AcDbLine
 62
7
  6
CONTINUOUS
 10
76.4414493371
 20
158.2474800214
 11
88.0379522674
 21
164.9426841449
  0
LINE
  5
252
100
AcDbEntity
  8
00_COMPONENTS_2
100
AcDbLine
 62
7
  6
CONTINUOUS
 10
33.0806916702
 20
132.2344125031
 11
34.0140687353
 21
132.7732947862
  0
LINE
  5
253
100
AcDbEntity
  8
00_COMPONENTS_2
100
AcDbLine
 62
7
  6
CONTINUOUS
 10
35.0757630483
 20
133.3768966043
 11
51.6997742611
 21
142.9747166618
  0
LINE
  5
254
100
AcDbEntity
  8
00_COMPONENTS_2
100
AcDbLine
 62
7
  6
CONTINUOUS
 10
59.9253902527
 20
147.4869711335
 11
52.0462580265
 21
142.9379791755
  0
LINE
  5
255
100
AcDbEntity
  8
00_COMPONENTS_2
100
AcDbLine
 62
7
  6
CONTINUOUS
 10
88.0379522674
 20
162.4931768935
 11
76.4414493371
 21
155.79797277
  0
LINE
  5
256
100
AcDbEntity
  8
00_COMPONENTS_2
100
AcDbLine
 62
7
  6
CONTINUOUS
 10
40.5206721462
 20
64.9627278879
 11
40.8706705794
 21
64.9280608925
  0
LINE
  5
257
100
AcDbEntity
  8
00_COMPONENTS_2
100
AcDbLine
 62
7
  6
CONTINUOUS
 10
40.5206721463
 20
66.1058312718
 11
40.1706737132
 21
66.1404982671
  0
LINE
  5
258
100
AcDbEntity
  8
00_COMPONENTS_2
100
AcDbLine
 62
7
  6
CONTINUOUS
 10
36.3820703928
 20
99.2801231319
 11
36.3820705814
 21
98.3638484773
  0
LINE
  5
259
100
AcDbEntity
  8
00_COMPONENTS_2
100
AcDbLine
 62
7
  6
CONTINUOUS
 10
36.3820705842
 20
95.8631199607
 11
36.3820706062
 21
94.9468456298
  0
LINE
  5
25A
100
AcDbEntity
  8
00_COMPONENTS_2
100
AcDbLine
 62
7
  6
CONTINUOUS
 10
36.3820705826
 20
93.2759228555
 11
36.3820705826
 21
93.1945175645
  0
LINE
  5
25B
100
AcDbEntity
  8
00_COMPONENTS_2
100
AcDbLine
 62
7
  6
CONTINUOUS
 10
36.3820703821
 20
63.4298522131
 11
36.3820705646
 21
64.2902250509
  0
LINE
  5
25C
100
AcDbEntity
  8
00_COMPONENTS_2
100
AcDbLine
 62
7
  6
CONTINUOUS
 10
39.0335259245
 20
96.9312129762
 11
39.0335259259
 21
96.2853525683
  0
LINE
  5
25D
100
AcDbEntity
  8
00_COMPONENTS_2
100
AcDbLine
 62
7
  6
CONTINUOUS
 10
39.0335259284
 20
95.1294180604
 11
39.0335259293
 21
94.6822696046
  0
LINE
  5
25E
100
AcDbEntity
  8
00_COMPONENTS_2
100
AcDbLine
 62
7
  6
CONTINUOUS
 10
39.0335259216
 20
91.6637337417
 11
39.0335259216
 21
91.7451390327
  0
LINE
  5
25F
100
AcDbEntity
  8
00_COMPONENTS_2
100
AcDbLine
 62
7
  6
CONTINUOUS
 10
39.7427445827
 20
108.1962015918
 11
39.7427445827
 21
107.5224424074
  0
LINE
  5
260
100
AcDbEntity
  8
00_COMPONENTS_2
100
AcDbLine
 62
7
  6
CONTINUOUS
 10
39.9548757339
 20
108.318674838
 11
39.9548757339
 21
110.5232313642
  0
LINE
  5
261
100
AcDbEntity
  8
00_COMPONENTS_2
100
AcDbLine
 62
7
  6
CONTINUOUS
 10
40.4145771311
 20
59.7214019542
 11
40.4145771311
 21
61.8395196568
  0
LINE
  5
262
100
AcDbEntity
  8
00_COMPONENTS_2
100
AcDbLine
 62
7
  6
CONTINUOUS
 10
40.4193205788
 20
91.2346337635
 11
40.4193205788
 21
93.358004433
  0
LINE
  5
263
100
AcDbEntity
  8
00_COMPONENTS_2
100
AcDbLine
 62
7
  6
CONTINUOUS
 10
40.4193205788
 20
94.3293472459
 11
40.4193205788
 21
96.4527179154
  0
LINE
  5
264
100
AcDbEntity
  8
00_COMPONENTS_2
100
AcDbLine
 62
7
  6
CONTINUOUS
 10
41.2605256201
 20
95.9665945605
 11
41.2605256201
 21
93.843688276
  0
LINE
  5
265
100
AcDbEntity
  8
00_COMPONENTS_2
100
AcDbLine
 62
7
  6
CONTINUOUS
 10
41.2605256201
 20
92.872345463
 11
41.2605256201
 21
90.7494391785
  0
LINE
  5
266
100
AcDbEntity
  8
00_COMPONENTS_2
100
AcDbLine
 62
7
  6
CONTINUOUS
 10
41.2631017292
 20
61.4722241459
 11
41.2631088013
 21
59.2315130488
  0
LINE
  5
267
100
AcDbEntity
  8
00_COMPONENTS_2
100
AcDbLine
 62
7
  6
CONTINUOUS
 10
41.2678451747
 20
92.8723454629
 11
41.2678451834
 21
93.8478974176
  0
LINE
  5
268
100
AcDbEntity
  8
00_COMPONENTS_2
100
AcDbLine
 62
7
  6
CONTINUOUS
 10
41.2678451835
 20
95.9665945605
 11
41.2678451836
 21
96.9426108991
  0
LINE
  5
269
100
AcDbEntity
  8
00_COMPONENTS_2
100
AcDbLine
 62
7
  6
CONTINUOUS
 10
103.9477591651
 20
168.7611010638
 11
108.7560652581
 21
171.5371613101
  0
LINE
  5
26A
100
AcDbEntity
  8
00_COMPONENTS_2
100
AcDbLine
 62
7
  6
CONTINUOUS
 10
101.932537549
 20
167.4828089309
 11
100.5889898399
 21
166.7071705336
  0
LINE
  5
26B
100
AcDbEntity
  8
00_COMPONENTS_2
100
AcDbLine
 62
7
  6
CONTINUOUS
 10
76.7242991151
 20
152.7361103961
 11
78.49206754
 21
153.7567470439
  0
LINE
  5
26C
100
AcDbEntity
  8
00_COMPONENTS_2
100
AcDbLine
 62
7
  6
CONTINUOUS
 10
75.0628171446
 20
151.2865529874
 11
74.2142925399
 21
150.7966600028
  0
LINE
  5
26D
100
AcDbEntity
  8
00_COMPONENTS_2
100
AcDbLine
 62
7
  6
CONTINUOUS
 10
109.7106633871
 20
171.0517266065
 11
102.2860730963
 21
166.7651629908
  0
LINE
  5
26E
100
AcDbEntity
  8
00_COMPONENTS_2
100
AcDbLine
 62
7
  6
CONTINUOUS
 10
101.6850440884
 20
166.1481168212
 11
91.8209455491
 21
160.4531108688
  0
LINE
  5
26F
100
AcDbEntity
  8
00_COMPONENTS_2
100
AcDbLine
 62
7
  6
CONTINUOUS
 10
40.3084654367
 20
130.3558628166
 11
56.0132181219
 21
139.4229518838
  0
LINE
  5
270
100
AcDbEntity
  8
00_COMPONENTS_2
100
AcDbLine
 62
7
  6
CONTINUOUS
 10
70.7846298265
 20
147.1745743936
 11
74.1787282451
 21
149.1341463322
  0
LINE
  5
271
100
AcDbEntity
  8
00_COMPONENTS_2
100
AcDbLine
 62
7
  6
CONTINUOUS
 10
93.2351499278
 20
159.7143341277
 11
103.0992543017
 21
165.4093369918
  0
LINE
  5
272
100
AcDbEntity
  8
00_COMPONENTS_2
100
AcDbLine
 62
7
  6
CONTINUOUS
 10
73.1958133809
 20
147.9420929829
 11
72.0644472413
 21
147.2889023367
  0
LINE
  5
273
100
AcDbEntity
  8
00_COMPONENTS_2
100
AcDbLine
 62
7
  6
CONTINUOUS
 10
74.1756133572
 20
148.0296199338
 11
73.0442472177
 21
147.3764292876
  0
LINE
  5
274
100
AcDbEntity
  8
00_COMPONENTS_2
100
AcDbLine
 62
7
  6
CONTINUOUS
 10
74.3180334913
 20
147.4902184601
 11
77.7121319099
 21
149.4497903987
  0
LINE
  5
275
100
AcDbEntity
  8
00_COMPONENTS_2
100
AcDbLine
 62
7
  6
CONTINUOUS
 10
103.9210529999
 20
165.9146622221
 11
93.004285473
 21
159.6259279462
  0
LINE
  5
276
100
AcDbEntity
  8
00_COMPONENTS_2
100
AcDbLine
 62
7
  6
CONTINUOUS
 10
20.2266265674
 20
97.2142838386
 11
46.2482644528
 21
82.1910240723
  0
LINE
  5
277
100
AcDbEntity
  8
00_COMPONENTS_2
100
AcDbLine
 62
7
  6
CONTINUOUS
 10
41.9578503687
 20
124.5803707201
 11
41.9578503687
 21
122.7456163734
  0
LINE
  5
278
100
AcDbEntity
  8
00_COMPONENTS_2
100
AcDbLine
 62
7
  6
CONTINUOUS
 10
42.0581889678
 20
112.1866411467
 11
42.0581889678
 21
114.636148398
  0
LINE
  5
279
100
AcDbEntity
  8
00_COMPONENTS_2
100
AcDbLine
 62
7
  6
CONTINUOUS
 10
43.9807002664
 20
121.4640374117
 11
43.9807002664
 21
123.2987917584
  0
LINE
  5
27A
100
AcDbEntity
  8
00_COMPONENTS_2
100
AcDbLine
 62
7
  6
CONTINUOUS
 10
45.5056367344
 20
124.7939195599
 11
45.5056367344
 21
126.6286739066
  0
LINE
  5
27B
100
AcDbEntity
  8
00_COMPONENTS_2
100
AcDbLine
 62
7
  6
CONTINUOUS
 10
47.2381076693
 20
103.8261101864
 11
47.2381076693
 21
103.1950904095
  0
LINE
  5
27C
100
AcDbEntity
  8
00_COMPONENTS_2
100
AcDbLine
 62
7
  6
CONTINUOUS
 10
47.4502388204
 20
103.9485834325
 11
47.4502388204
 21
106.1958793663
  0
LINE
  5
27D
100
AcDbEntity
  8
00_COMPONENTS_2
100
AcDbLine
 62
7
  6
CONTINUOUS
 10
86.1995635441
 20
152.613757609
 11
97.7960664744
 21
159.3089617325
  0
LINE
  5
27E
100
AcDbEntity
  8
00_COMPONENTS_2
100
AcDbLine
 62
7
  6
CONTINUOUS
 10
97.9222996414
 20
159.2360826284
 11
98.4677214745
 21
159.5509798338
  0
LINE
  5
27F
100
AcDbEntity
  8
00_COMPONENTS_2
100
AcDbLine
 62
7
  6
CONTINUOUS
 10
86.3763409754
 20
152.5116974204
 11
75.06267958
 21
145.9797909585
  0
LINE
  5
280
100
AcDbEntity
  8
00_COMPONENTS_2
100
AcDbLine
 62
7
  6
CONTINUOUS
 10
43.4893390523
 20
127.3028686756
 11
41.5801586918
 21
126.2006094602
  0
LINE
  5
281
100
AcDbEntity
  8
00_COMPONENTS_2
100
AcDbLine
 62
7
  6
CONTINUOUS
 10
31.0481232811
 20
119.955262427
 11
19.9083768492
 21
113.5237652167
  0
LINE
  5
282
100
AcDbEntity
  8
00_COMPONENTS_2
100
AcDbLine
 62
7
  6
CONTINUOUS
 10
99.7405416959
 20
158.8161333608
 11
103.0992544518
 21
160.7552733009
  0
LINE
  5
283
100
AcDbEntity
  8
00_COMPONENTS_2
100
AcDbLine
 62
7
  6
CONTINUOUS
 10
108.5245564195
 20
163.2573934613
 11
109.7106633871
 21
163.9421885507
  0
LINE
  5
284
100
AcDbEntity
  8
00_COMPONENTS_2
100
AcDbLine
 62
7
  6
CONTINUOUS
 10
45.5056367344
 20
126.6286739066
 11
41.9578503687
 21
124.5803707201
  0
LINE
  5
285
100
AcDbEntity
  8
00_COMPONENTS_2
100
AcDbLine
 62
7
  6
CONTINUOUS
 10
88.8158695272
 20
151.1032668173
 11
77.5022081318
 21
144.5713603554
  0
LINE
  5
286
100
AcDbEntity
  8
00_COMPONENTS_2
100
AcDbLine
 62
7
  6
CONTINUOUS
 10
88.9926469585
 20
151.0012066287
 11
100.5891498888
 21
157.6964107522
  0
LINE
  5
287
100
AcDbEntity
  8
00_COMPONENTS_2
100
AcDbLine
 62
7
  6
CONTINUOUS
 10
41.9578503687
 20
122.7456163734
 11
45.5056367344
 21
124.7939195599
  0
LINE
  5
288
100
AcDbEntity
  8
00_COMPONENTS_2
100
AcDbLine
 62
7
  6
CONTINUOUS
 10
45.4020807526
 20
124.5650265891
 11
41.8599683832
 21
122.5199992663
  0
LINE
  5
289
100
AcDbEntity
  8
00_COMPONENTS_2
100
AcDbLine
 62
7
  6
CONTINUOUS
 10
72.6533653053
 20
140.1386375521
 11
64.7742330791
 21
135.5896455941
  0
LINE
  5
28A
100
AcDbEntity
  8
00_COMPONENTS_2
100
AcDbLine
 62
7
  6
CONTINUOUS
 10
47.6269659099
 20
125.4039516431
 11
43.9807002664
 21
123.2987917584
  0
LINE
  5
28B
100
AcDbEntity
  8
00_COMPONENTS_2
100
AcDbLine
 62
7
  6
CONTINUOUS
 10
47.9479789401
 20
86.9324645385
 11
48.2901988219
 21
86.7626125509
  0
LINE
  5
28C
100
AcDbEntity
  8
00_COMPONENTS_2
100
AcDbLine
 62
7
  6
CONTINUOUS
 10
47.9538122299
 20
86.9363726244
 11
48.2938205454
 21
86.7650507377
  0
LINE
  5
28D
100
AcDbEntity
  8
00_COMPONENTS_2
100
AcDbLine
 62
7
  6
CONTINUOUS
 10
18.3527484074
 20
103.3993957154
 11
24.1134756372
 21
100.07351354
  0
LINE
  5
28E
100
AcDbEntity
  8
00_COMPONENTS_2
100
AcDbLine
 62
7
  6
CONTINUOUS
 10
24.2902515965
 20
100.1755745785
 11
57.2791373047
 21
81.1298634061
  0
LINE
  5
28F
100
AcDbEntity
  8
00_COMPONENTS_2
100
AcDbLine
 62
7
  6
CONTINUOUS
 10
39.0335259216
 20
91.7451390327
 11
36.3820705826
 21
93.2759228555
  0
LINE
  5
290
100
AcDbEntity
  8
00_COMPONENTS_2
100
AcDbLine
 62
7
  6
CONTINUOUS
 10
50.592810152
 20
87.4802403226
 11
48.7584718878
 21
88.5392720547
  0
LINE
  5
291
100
AcDbEntity
  8
00_COMPONENTS_2
100
AcDbLine
 62
7
  6
CONTINUOUS
 10
47.9099402176
 20
89.0291609601
 11
46.0756019535
 21
90.0881926922
  0
LINE
  5
292
100
AcDbEntity
  8
00_COMPONENTS_2
100
AcDbLine
 62
7
  6
CONTINUOUS
 10
35.6027374296
 20
96.1386010967
 11
33.7642521442
 21
97.2000270585
  0
LINE
  5
293
100
AcDbEntity
  8
00_COMPONENTS_2
100
AcDbLine
 62
7
  6
CONTINUOUS
 10
32.9159038273
 20
97.6898101073
 11
31.0842223296
 21
98.7473079892
  0
LINE
  5
294
100
AcDbEntity
  8
00_COMPONENTS_2
100
AcDbLine
 62
7
  6
CONTINUOUS
 10
43.0981321233
 20
91.8114268549
 11
41.2605256201
 21
92.872345463
  0
LINE
  5
295
100
AcDbEntity
  8
00_COMPONENTS_2
100
AcDbLine
 62
7
  6
CONTINUOUS
 10
40.4193205788
 20
93.358004433
 11
38.5795538091
 21
94.4201702433
  0
LINE
  5
296
100
AcDbEntity
  8
00_COMPONENTS_2
100
AcDbLine
 62
7
  6
CONTINUOUS
 10
38.5795538091
 20
95.3915130563
 11
40.4193205788
 21
94.3293472459
  0
LINE
  5
297
100
AcDbEntity
  8
00_COMPONENTS_2
100
AcDbLine
 62
7
  6
CONTINUOUS
 10
41.2605256201
 20
93.843688276
 11
43.0981321233
 21
92.7827696679
  0
LINE
  5
298
100
AcDbEntity
  8
00_COMPONENTS_2
100
AcDbLine
 62
7
  6
CONTINUOUS
 10
31.0842223296
 20
99.7190428103
 11
32.9159038273
 21
98.6615449283
  0
LINE
  5
299
100
AcDbEntity
  8
00_COMPONENTS_2
100
AcDbLine
 62
7
  6
CONTINUOUS
 10
33.7642521442
 20
98.1717618795
 11
35.6027374296
 21
97.1103359178
  0
LINE
  5
29A
100
AcDbEntity
  8
00_COMPONENTS_2
100
AcDbLine
 62
7
  6
CONTINUOUS
 10
46.0756019535
 20
91.0679955927
 11
51.4413347566
 21
87.9701333072
  0
LINE
  5
29B
100
AcDbEntity
  8
00_COMPONENTS_2
100
AcDbLine
 62
7
  6
CONTINUOUS
 10
36.4334180276
 20
96.6387960904
 11
35.606220107
 21
97.1163682284
  0
LINE
  5
29C
100
AcDbEntity
  8
00_COMPONENTS_2
100
AcDbLine
 62
7
  6
CONTINUOUS
 10
33.7644284319
 20
98.1797030919
 11
32.9193865046
 21
98.6675772389
  0
LINE
  5
29D
100
AcDbEntity
  8
00_COMPONENTS_2
100
AcDbLine
 62
7
  6
CONTINUOUS
 10
43.946656728
 20
92.3013198395
 11
43.1017845432
 21
92.7890959878
  0
LINE
  5
29E
100
AcDbEntity
  8
00_COMPONENTS_2
100
AcDbLine
 62
7
  6
CONTINUOUS
 10
41.2678451834
 20
93.8478974176
 11
40.4229729987
 21
94.3356735659
  0
LINE
  5
29F
100
AcDbEntity
  8
00_COMPONENTS_2
100
AcDbLine
 62
7
  6
CONTINUOUS
 10
47.9099402176
 20
55.3940499563
 11
47.9099402176
 21
57.5121676589
  0
LINE
  5
2A0
100
AcDbEntity
  8
00_COMPONENTS_2
100
AcDbLine
 62
7
  6
CONTINUOUS
 10
47.9099402176
 20
86.9110432575
 11
47.9099402176
 21
89.0291609601
  0
LINE
  5
2A1
100
AcDbEntity
  8
00_COMPONENTS_2
100
AcDbLine
 62
7
  6
CONTINUOUS
 10
47.9099402176
 20
90.0089638607
 11
47.9099402176
 21
92.1270815632
  0
LINE
  5
2A2
100
AcDbEntity
  8
00_COMPONENTS_2
100
AcDbLine
 62
7
  6
CONTINUOUS
 10
48.2938205454
 20
86.9928502265
 11
48.2938205454
 21
86.3174210977
  0
LINE
  5
2A3
100
AcDbEntity
  8
00_COMPONENTS_2
100
AcDbLine
 62
7
  6
CONTINUOUS
 10
48.7584648223
 20
92.6169745479
 11
48.7584718878
 21
86.4211543521
  0
LINE
  5
2A4
100
AcDbEntity
  8
00_COMPONENTS_2
100
AcDbLine
 62
7
  6
CONTINUOUS
 10
48.7584718878
 20
58.7920378316
 11
48.7584718878
 21
54.9041610509
  0
LINE
  5
2A5
100
AcDbEntity
  8
00_COMPONENTS_2
100
AcDbLine
 62
7
  6
CONTINUOUS
 10
48.7626157416
 20
121.7244113699
 11
48.7626157416
 21
124.2598583154
  0
LINE
  5
2A6
100
AcDbEntity
  8
00_COMPONENTS_2
100
AcDbLine
 62
7
  6
CONTINUOUS
 10
48.8645704358
 20
77.6594743372
 11
48.8645704358
 21
60.1046723689
  0
LINE
  5
2A7
100
AcDbEntity
  8
00_COMPONENTS_2
100
AcDbLine
 62
7
  6
CONTINUOUS
 10
49.3627453691
 20
107.7491275147
 11
49.3627453691
 21
110.1986347661
  0
LINE
  5
2A8
100
AcDbEntity
  8
00_COMPONENTS_2
100
AcDbLine
 62
7
  6
CONTINUOUS
 10
50.0405820818
 20
85.3089506691
 11
50.0405820818
 21
85.9986471709
  0
LINE
  5
2A9
100
AcDbEntity
  8
00_COMPONENTS_2
100
AcDbLine
 62
7
  6
CONTINUOUS
 10
50.2077727411
 20
151.7153529791
 11
50.2077727411
 21
159.3496505793
  0
LINE
  5
2AA
100
AcDbEntity
  8
00_COMPONENTS_2
100
AcDbLine
 62
7
  6
CONTINUOUS
 10
50.6051594853
 20
85.6349076393
 11
50.6051594853
 21
86.0828771817
  0
LINE
  5
2AB
100
AcDbEntity
  8
00_COMPONENTS_2
100
AcDbLine
 62
7
  6
CONTINUOUS
 10
50.6320385762
 20
143.5911602011
 11
50.6320385762
 21
148.6847109593
  0
LINE
  5
2AC
100
AcDbEntity
  8
00_COMPONENTS_2
100
AcDbLine
 62
7
  6
CONTINUOUS
 10
51.6997742611
 20
141.9132635195
 11
51.6997742611
 21
142.9747166618
  0
LINE
  5
2AD
100
AcDbEntity
  8
00_COMPONENTS_2
100
AcDbLine
 62
7
  6
CONTINUOUS
 10
52.0462580265
 20
142.9379791755
 11
52.0462580265
 21
158.2882246175
  0
LINE
  5
2AE
100
AcDbEntity
  8
00_COMPONENTS_2
100
AcDbLine
 62
7
  6
CONTINUOUS
 10
53.4607453777
 20
80.3130613373
 11
53.4607453777
 21
62.758259369
  0
LINE
  5
2AF
100
AcDbEntity
  8
00_COMPONENTS_2
100
AcDbLine
 62
7
  6
CONTINUOUS
 10
100.5891498888
 20
155.2469035008
 11
88.9926469585
 21
148.5516993773
  0
LINE
  5
2B0
100
AcDbEntity
  8
00_COMPONENTS_2
100
AcDbLine
 62
7
  6
CONTINUOUS
 10
46.6059490381
 20
123.0147136461
 11
48.7626157416
 21
124.2598583154
  0
LINE
  5
2B1
100
AcDbEntity
  8
00_COMPONENTS_2
100
AcDbLine
 62
7
  6
CONTINUOUS
 10
89.0987193052
 20
145.591897192
 11
90.8664877301
 21
146.6125338398
  0
LINE
  5
2B2
100
AcDbEntity
  8
00_COMPONENTS_2
100
AcDbLine
 62
7
  6
CONTINUOUS
 10
87.7907921972
 20
143.938219406
 11
86.9422675926
 21
143.4483264214
  0
LINE
  5
2B3
100
AcDbEntity
  8
00_COMPONENTS_2
100
AcDbLine
 62
7
  6
CONTINUOUS
 10
18.3527484074
 20
103.3993957154
 11
19.9083768492
 21
104.2975328539
  0
LINE
  5
2B4
100
AcDbEntity
  8
00_COMPONENTS_2
100
AcDbLine
 62
7
  6
CONTINUOUS
 10
114.6958537941
 20
158.7141886176
 11
104.8317610947
 21
153.0191790134
  0
LINE
  5
2B5
100
AcDbEntity
  8
00_COMPONENTS_2
100
AcDbLine
 62
7
  6
CONTINUOUS
 10
83.5126048791
 20
139.8262408122
 11
86.9067032977
 21
141.7858127508
  0
LINE
  5
2B6
100
AcDbEntity
  8
00_COMPONENTS_2
100
AcDbLine
 62
7
  6
CONTINUOUS
 10
35.9153408163
 20
111.906082842
 11
41.3908650407
 21
115.0673593566
  0
LINE
  5
2B7
100
AcDbEntity
  8
00_COMPONENTS_2
100
AcDbLine
 62
7
  6
CONTINUOUS
 10
85.9247331639
 20
140.5938437957
 11
84.7933670244
 21
139.9406531495
  0
LINE
  5
2B8
100
AcDbEntity
  8
00_COMPONENTS_2
100
AcDbLine
 62
7
  6
CONTINUOUS
 10
116.1100640029
 20
157.8200160974
 11
106.2459654635
 21
152.125010145
  0
LINE
  5
2B9
100
AcDbEntity
  8
00_COMPONENTS_2
100
AcDbLine
 62
7
  6
CONTINUOUS
 10
86.9045331403
 20
140.6813707466
 11
85.7731670008
 21
140.0281801004
  0
LINE
  5
2BA
100
AcDbEntity
  8
00_COMPONENTS_2
100
AcDbLine
 62
7
  6
CONTINUOUS
 10
117.2060882969
 20
158.1512830704
 11
124.6306785877
 21
162.4378466861
  0
LINE
  5
2BB
100
AcDbEntity
  8
00_COMPONENTS_2
100
AcDbLine
 62
7
  6
CONTINUOUS
 10
42.0581889678
 20
114.636148398
 11
36.6224505414
 21
111.4978420875
  0
LINE
  5
2BC
100
AcDbEntity
  8
00_COMPONENTS_2
100
AcDbLine
 62
7
  6
CONTINUOUS
 10
87.046008544
 20
48.1653327005
 11
85.7731670008
 21
49.7487550447
  0
LINE
  5
2BD
100
AcDbEntity
  8
00_COMPONENTS_2
100
AcDbLine
 62
7
  6
CONTINUOUS
 10
84.7933670244
 20
50.9676319612
 11
84.3469923579
 21
51.522924664
  0
LINE
  5
2BE
100
AcDbEntity
  8
00_COMPONENTS_2
100
AcDbLine
 62
7
  6
CONTINUOUS
 10
86.545895979
 20
50.8480924227
 11
85.9247331639
 21
51.6208226074
  0
LINE
  5
2BF
100
AcDbEntity
  8
00_COMPONENTS_2
100
AcDbLine
 62
7
  6
CONTINUOUS
 10
54.233791281
 20
117.3793008178
 11
54.233791281
 21
115.5445464711
  0
LINE
  5
2C0
100
AcDbEntity
  8
00_COMPONENTS_2
100
AcDbLine
 62
7
  6
CONTINUOUS
 10
54.233791281
 20
51.2827605667
 11
54.233791281
 21
50.5894030966
  0
LINE
  5
2C1
100
AcDbEntity
  8
00_COMPONENTS_2
100
AcDbLine
 62
7
  6
CONTINUOUS
 10
54.7334707558
 20
99.5823227168
 11
54.7334707558
 21
98.8677384116
  0
LINE
  5
2C2
100
AcDbEntity
  8
00_COMPONENTS_2
100
AcDbLine
 62
7
  6
CONTINUOUS
 10
54.945601907
 20
99.704795963
 11
54.945601907
 21
101.8685273684
  0
LINE
  5
2C3
100
AcDbEntity
  8
00_COMPONENTS_2
100
AcDbLine
 62
7
  6
CONTINUOUS
 10
56.4535997342
 20
49.4215375312
 11
56.4535997342
 21
50.1788657437
  0
LINE
  5
2C4
100
AcDbEntity
  8
00_COMPONENTS_2
100
AcDbLine
 62
7
  6
CONTINUOUS
 10
56.4535997342
 20
114.3766809057
 11
56.4535997342
 21
116.2114352524
  0
LINE
  5
2C5
100
AcDbEntity
  8
00_COMPONENTS_2
100
AcDbLine
 62
7
  6
CONTINUOUS
 10
56.5366199851
 20
97.2960183055
 11
56.5366199851
 21
97.1328302033
  0
LINE
  5
2C6
100
AcDbEntity
  8
00_COMPONENTS_2
100
AcDbLine
 62
7
  6
CONTINUOUS
 10
57.0887009394
 20
103.5549073547
 11
57.0887009394
 21
106.004414606
  0
LINE
  5
2C7
100
AcDbEntity
  8
00_COMPONENTS_2
100
AcDbLine
 62
7
  6
CONTINUOUS
 10
57.2791373047
 20
81.1298634061
 11
57.2791373047
 21
57.4508034079
  0
LINE
  5
2C8
100
AcDbEntity
  8
00_COMPONENTS_2
100
AcDbLine
 62
7
  6
CONTINUOUS
 10
57.8800569245
 20
117.6497063558
 11
57.8800569245
 21
119.4844607025
  0
LINE
  5
2C9
100
AcDbEntity
  8
00_COMPONENTS_2
100
AcDbLine
 62
7
  6
CONTINUOUS
 10
58.0566547738
 20
149.8116890281
 11
58.0566547738
 21
154.522907975
  0
LINE
  5
2CA
100
AcDbEntity
  8
00_COMPONENTS_2
100
AcDbLine
 62
7
  6
CONTINUOUS
 10
58.7156753894
 20
91.1854764681
 11
58.7156753894
 21
81.9592441053
  0
LINE
  5
2CB
100
AcDbEntity
  8
00_COMPONENTS_2
100
AcDbLine
 62
7
  6
CONTINUOUS
 10
58.7156753894
 20
58.2801841071
 11
58.7156753894
 21
49.0539517442
  0
LINE
  5
2CC
100
AcDbEntity
  8
00_COMPONENTS_2
100
AcDbLine
 62
7
  6
CONTINUOUS
 10
87.046008544
 20
140.1418848788
 11
90.4401069626
 21
142.1014568174
  0
LINE
  5
2CD
100
AcDbEntity
  8
00_COMPONENTS_2
100
AcDbLine
 62
7
  6
CONTINUOUS
 10
118.5495651041
 20
157.8891806304
 11
117.2061182705
 21
157.1134839981
  0
LINE
  5
2CE
100
AcDbEntity
  8
00_COMPONENTS_2
100
AcDbLine
 62
7
  6
CONTINUOUS
 10
125.5852767166
 20
161.8210313525
 11
120.7769706236
 21
159.0449711062
  0
LINE
  5
2CF
100
AcDbEntity
  8
00_COMPONENTS_2
100
AcDbLine
 62
7
  6
CONTINUOUS
 10
106.4581841592
 20
150.0622699555
 11
97.6900965778
 21
145.0000424475
  0
LINE
  5
2D0
100
AcDbEntity
  8
00_COMPONENTS_2
100
AcDbLine
 62
7
  6
CONTINUOUS
 10
55.8337129931
 20
120.1774507702
 11
53.6770462896
 21
118.9323061009
  0
LINE
  5
2D1
100
AcDbEntity
  8
00_COMPONENTS_2
100
AcDbLine
 62
7
  6
CONTINUOUS
 10
42.0581889678
 20
112.1866411467
 11
32.1973719425
 21
106.493529766
  0
LINE
  5
2D2
100
AcDbEntity
  8
00_COMPONENTS_2
100
AcDbLine
 62
7
  6
CONTINUOUS
 10
107.2006493706
 20
149.6336171633
 11
98.4325617892
 21
144.5713896553
  0
LINE
  5
2D3
100
AcDbEntity
  8
00_COMPONENTS_2
100
AcDbLine
 62
7
  6
CONTINUOUS
 10
108.811746634
 20
150.4996924527
 11
116.110064072
 21
154.7133530547
  0
LINE
  5
2D4
100
AcDbEntity
  8
00_COMPONENTS_2
100
AcDbLine
 62
7
  6
CONTINUOUS
 10
95.8162616941
 20
142.9383636498
 11
96.5233655313
 21
143.3466078037
  0
LINE
  5
2D5
100
AcDbEntity
  8
00_COMPONENTS_2
100
AcDbLine
 62
7
  6
CONTINUOUS
 10
32.5258788836
 20
106.2341236354
 11
39.9548757339
 21
110.5232313642
  0
LINE
  5
2D6
100
AcDbEntity
  8
00_COMPONENTS_2
100
AcDbLine
 62
7
  6
CONTINUOUS
 10
22.7960338322
 20
99.9490496327
 11
18.3766348496
 21
97.397523671
  0
LINE
  5
2D7
100
AcDbEntity
  8
00_COMPONENTS_2
100
AcDbLine
 62
7
  6
CONTINUOUS
 10
36.7021980827
 20
107.9306865614
 11
33.1178496053
 21
105.8612743558
  0
LINE
  5
2D8
100
AcDbEntity
  8
00_COMPONENTS
100
AcDbLine
 62
7
  6
CONTINUOUS
 10
124.7013989809
 20
158.7029421797
 11
126.5528525982
 21
159.7718888226
  0
LINE
  5
2D9
100
AcDbEntity
  8
00_COMPONENTS_2
100
AcDbLine
 62
7
  6
CONTINUOUS
 10
117.206118338
 20
154.0805601448
 11
118.5495651716
 21
154.8562531834
  0
LINE
  5
2DA
100
AcDbEntity
  8
00_COMPONENTS_2
100
AcDbLine
 62
7
  6
CONTINUOUS
 10
88.391697899
 20
137.3046498352
 11
110.0290647195
 21
149.7968894279
  0
LINE
  5
2DB
100
AcDbEntity
  8
00_COMPONENTS_2
100
AcDbLine
 62
7
  6
CONTINUOUS
 10
24.2902515965
 20
100.1755745785
 11
24.1134756372
 21
100.07351354
  0
LINE
  5
2DC
100
AcDbEntity
  8
00_COMPONENTS_2
100
AcDbLine
 62
7
  6
CONTINUOUS
 10
24.1156932561
 20
100.0092741647
 11
24.2924692154
 21
100.1113352032
  0
LINE
  5
2DD
100
AcDbEntity
  8
00_COMPONENTS_2
100
AcDbLine
 62
7
  6
CONTINUOUS
 10
57.8800569245
 20
119.4844607025
 11
54.233791281
 21
117.3793008178
  0
LINE
  5
2DE
100
AcDbEntity
  8
00_COMPONENTS_2
100
AcDbLine
 62
7
  6
CONTINUOUS
 10
24.8228015093
 20
99.8678708388
 11
20.2266265674
 21
97.2142838386
  0
LINE
  5
2DF
100
AcDbEntity
  8
00_COMPONENTS_2
100
AcDbLine
 62
7
  6
CONTINUOUS
 10
87.7906546327
 20
136.1819501257
 11
88.391697899
 21
136.528960546
  0
LINE
  5
2E0
100
AcDbEntity
  8
00_COMPONENTS_2
100
AcDbLine
 62
7
  6
CONTINUOUS
 10
39.7427445827
 20
108.1962015918
 11
39.9548757339
 21
108.318674838
  0
LINE
  5
2E1
100
AcDbEntity
  8
00_COMPONENTS_2
100
AcDbLine
 62
7
  6
CONTINUOUS
 10
109.8876663262
 20
148.0823022961
 11
89.8059173493
 21
136.4881683262
  0
LINE
  5
2E2
100
AcDbEntity
  8
00_COMPONENTS_2
100
AcDbLine
 62
7
  6
CONTINUOUS
 10
39.2831426915
 20
107.2570927158
 11
39.9902465287
 21
107.6653368696
  0
LINE
  5
2E3
100
AcDbEntity
  8
00_COMPONENTS_2
100
AcDbLine
 62
7
  6
CONTINUOUS
 10
54.233791281
 20
115.5445464711
 11
57.8800569245
 21
117.6497063558
  0
LINE
  5
2E4
100
AcDbEntity
  8
00_COMPONENTS_2
100
AcDbLine
 62
7
  6
CONTINUOUS
 10
57.7765009427
 20
117.420813385
 11
54.1262937548
 21
115.3133778622
  0
LINE
  5
2E5
100
AcDbEntity
  8
00_COMPONENTS_2
100
AcDbLine
 62
7
  6
CONTINUOUS
 10
60.0013860999
 20
118.259738439
 11
56.4535997342
 21
116.2114352524
  0
LINE
  5
2E6
100
AcDbEntity
  8
00_COMPONENTS_2
100
AcDbLine
 62
7
  6
CONTINUOUS
 10
85.381340358
 20
132.7903039707
 11
77.5022081318
 21
128.2413120128
  0
LINE
  5
2E7
100
AcDbEntity
  8
00_COMPONENTS_2
100
AcDbLine
 62
7
  6
CONTINUOUS
 10
55.1577934094
 20
93.6220303035
 11
58.9482808461
 21
91.9729611358
  0
LWPOLYLINE
  5
2E8
100
AcDbEntity
  8
00_COMPONENTS_2
100
AcDbPolyline
 62
7
  6
CONTINUOUS
 90
3
 70
0
 10
58.7156753894
 20
91.1854764681
 10
37.900001263
 20
101.5369619185
 10
19.9083768492
 20
113.5237652168
  0
LINE
  5
2E9
100
AcDbEntity
  8
00_COMPONENTS_2
100
AcDbLine
 62
7
  6
CONTINUOUS
 10
32.1973733328
 20
106.4935305687
 11
31.4902844761
 21
106.9017833715
  0
LINE
  5
2EA
100
AcDbEntity
  8
00_COMPONENTS_2
100
AcDbLine
 62
7
  6
CONTINUOUS
 10
47.1880875557
 20
97.8388196729
 11
46.4809897813
 21
98.2470673271
  0
LINE
  5
2EB
100
AcDbEntity
  8
00_COMPONENTS_2
100
AcDbLine
 62
7
  6
CONTINUOUS
 10
39.6927364199
 20
102.1661785705
 11
38.9856266947
 21
102.574419325
  0
LINE
  5
2EC
100
AcDbEntity
  8
00_COMPONENTS_2
100
AcDbLine
 62
7
  6
CONTINUOUS
 10
54.635428207
 20
94.3002303825
 11
55.3424918731
 21
93.8919630359
  0
LINE
  5
2ED
100
AcDbEntity
  8
00_COMPONENTS_2
100
AcDbLine
 62
7
  6
CONTINUOUS
 10
63.4976085636
 20
89.700486537
 11
64.0632963437
 21
89.3738939334
  0
LINE
  5
2EE
100
AcDbEntity
  8
00_COMPONENTS_2
100
AcDbLine
 62
7
  6
CONTINUOUS
 10
36.7021980827
 20
107.9306865614
 11
37.8689291854
 21
107.257089284
  0
LINE
  5
2EF
100
AcDbEntity
  8
00_COMPONENTS_2
100
AcDbLine
 62
7
  6
CONTINUOUS
 10
44.1975611692
 20
103.6033345635
 11
45.3642921976
 21
102.9297373289
  0
LINE
  5
2F0
100
AcDbEntity
  8
00_COMPONENTS_2
100
AcDbLine
 62
7
  6
CONTINUOUS
 10
51.6929242558
 20
99.2759825655
 11
52.8596552891
 21
98.6023853282
  0
LINE
  5
2F1
100
AcDbEntity
  8
00_COMPONENTS_2
100
AcDbLine
 62
7
  6
CONTINUOUS
 10
62.5824160838
 20
93.417926923
 11
62.0167283037
 21
93.7445195266
  0
LINE
  5
2F2
100
AcDbEntity
  8
00_COMPONENTS_2
100
AcDbLine
 62
7
  6
CONTINUOUS
 10
39.9902465287
 20
107.6653368696
 11
42.0781502996
 21
106.4599123358
  0
LINE
  5
2F3
100
AcDbEntity
  8
00_COMPONENTS_2
100
AcDbLine
 62
7
  6
CONTINUOUS
 10
47.4856096153
 20
103.3379848717
 11
49.5735133861
 21
102.1325603379
  0
LINE
  5
2F4
100
AcDbEntity
  8
00_COMPONENTS_2
100
AcDbLine
 62
7
  6
CONTINUOUS
 10
54.9809727018
 20
99.0106328738
 11
57.1944848978
 21
97.7326899225
  0
LINE
  5
2F5
100
AcDbEntity
  8
00_COMPONENTS_2
100
AcDbLine
 62
7
  6
CONTINUOUS
 10
47.2381076693
 20
103.8261101864
 11
49.8171662206
 21
102.3371237228
  0
LINE
  5
2F6
100
AcDbEntity
  8
00_COMPONENTS_2
100
AcDbLine
 62
7
  6
CONTINUOUS
 10
39.7427445827
 20
108.1962015918
 11
42.3519670257
 21
106.6898003913
  0
LINE
  5
2F7
100
AcDbEntity
  8
00_COMPONENTS_2
100
AcDbLine
 62
7
  6
CONTINUOUS
 10
54.7334707558
 20
99.5823227168
 11
57.4293965989
 21
98.0258644174
  0
LINE
  5
2F8
100
AcDbEntity
  8
00_COMPONENTS_2
100
AcDbLine
 62
7
  6
CONTINUOUS
 10
47.4502388204
 20
103.9485834325
 11
49.9900389474
 21
102.4822623181
  0
LINE
  5
2F9
100
AcDbEntity
  8
00_COMPONENTS_2
100
AcDbLine
 62
7
  6
CONTINUOUS
 10
39.9548757339
 20
108.318674838
 11
42.5248397524
 21
106.8349389866
  0
LINE
  5
2FA
100
AcDbEntity
  8
00_COMPONENTS_2
100
AcDbLine
 62
7
  6
CONTINUOUS
 10
57.5354594584
 20
98.2095748349
 11
54.945601907
 21
99.704795963
  0
LINE
  5
2FB
100
AcDbEntity
  8
00_COMPONENTS_2
100
AcDbLine
 62
7
  6
CONTINUOUS
 10
61.1044808039
 20
115.0894829604
 11
61.1044808039
 21
117.1329919169
  0
LINE
  5
2FC
100
AcDbEntity
  8
00_COMPONENTS_2
100
AcDbLine
 62
7
  6
CONTINUOUS
 10
62.3347045274
 20
153.3281245398
 11
62.3347045274
 21
136.9980761972
  0
LINE
  5
2FD
100
AcDbEntity
  8
00_COMPONENTS_2
100
AcDbLine
 62
7
  6
CONTINUOUS
 10
63.2894875374
 20
56.1853133492
 11
63.2894875374
 21
58.6803644547
  0
LINE
  5
2FE
100
AcDbEntity
  8
00_COMPONENTS_2
100
AcDbLine
 62
7
  6
CONTINUOUS
 10
63.2894875374
 20
88.1467968744
 11
63.2894875374
 21
98.316838073
  0
LINE
  5
2FF
100
AcDbEntity
  8
00_COMPONENTS_2
100
AcDbLine
 62
7
  6
CONTINUOUS
 10
63.3599194219
 20
158.8983329524
 11
63.3599194219
 21
164.8201310795
  0
LINE
  5
300
100
AcDbEntity
  8
00_COMPONENTS_2
100
AcDbLine
 62
7
  6
CONTINUOUS
 10
64.2084510921
 20
164.3302421741
 11
64.2084510921
 21
162.8605378232
  0
LINE
  5
301
100
AcDbEntity
  8
00_COMPONENTS_2
100
AcDbLine
 62
7
  6
CONTINUOUS
 10
64.349878925
 20
158.8568774547
 11
64.349878925
 21
159.8803236002
  0
LINE
  5
302
100
AcDbEntity
  8
00_COMPONENTS_2
100
AcDbLine
 62
7
  6
CONTINUOUS
 10
64.7742330791
 20
135.5896455941
 11
64.7742330791
 21
151.9196939367
  0
LINE
  5
303
100
AcDbEntity
  8
00_COMPONENTS_2
100
AcDbLine
 62
7
  6
CONTINUOUS
 10
64.9509163035
 20
162.431885031
 11
64.9509163035
 21
163.9015893818
  0
LINE
  5
304
100
AcDbEntity
  8
00_COMPONENTS_2
100
AcDbLine
 62
7
  6
CONTINUOUS
 10
65.2382551359
 20
99.6052505158
 11
65.2382551359
 21
102.0547577672
  0
LINE
  5
305
100
AcDbEntity
  8
00_COMPONENTS_2
100
AcDbLine
 62
7
  6
CONTINUOUS
 10
40.1706737132
 20
66.1404982671
 11
40.0256953387
 21
65.8200479312
  0
LINE
  5
306
100
AcDbEntity
  8
00_COMPONENTS_2
100
AcDbLine
 62
7
  6
CONTINUOUS
 10
40.8706705794
 20
64.9280608925
 11
41.0156489539
 21
65.2485110516
  0
LINE
  5
307
100
AcDbEntity
  8
00_COMPONENTS_2
100
AcDbLine
 62
7
  6
CONTINUOUS
 10
43.4107039033
 20
107.5787308438
 11
48.655635644
 21
110.6068755206
  0
LINE
  5
308
100
AcDbEntity
  8
00_COMPONENTS_2
100
AcDbLine
 62
7
  6
CONTINUOUS
 10
32.6255051133
 20
101.2670726528
 11
31.7184871545
 21
100.743408716
  0
LINE
  5
309
100
AcDbEntity
  8
00_COMPONENTS_2
100
AcDbLine
 62
7
  6
CONTINUOUS
 10
109.8876663262
 20
145.4694409457
 11
110.0290647195
 21
145.5510768589
  0
LINE
  5
30A
100
AcDbEntity
  8
00_COMPONENTS_2
100
AcDbLine
 62
7
  6
CONTINUOUS
 10
59.1953004435
 20
116.0307327014
 11
61.1044808039
 21
117.1329919169
  0
LINE
  5
30B
100
AcDbEntity
  8
00_COMPONENTS_2
100
AcDbLine
 62
7
  6
CONTINUOUS
 10
33.7644284319
 20
101.2728687536
 11
32.9159038273
 21
100.7829757689
  0
LINE
  5
30C
100
AcDbEntity
  8
00_COMPONENTS_2
100
AcDbLine
 62
7
  6
CONTINUOUS
 10
49.3627453691
 20
110.1986347661
 11
44.1178136284
 21
107.1704900893
  0
LINE
  5
30D
100
AcDbEntity
  8
00_COMPONENTS_2
100
AcDbLine
 62
7
  6
CONTINUOUS
 10
33.7642521442
 20
100.2946681641
 11
34.610168564
 21
100.7830553214
  0
LINE
  5
30E
100
AcDbEntity
  8
00_COMPONENTS_2
100
AcDbLine
 62
7
  6
CONTINUOUS
 10
31.9327469343
 20
99.2372009739
 11
31.0842223296
 21
98.7473079892
  0
LINE
  5
30F
100
AcDbEntity
  8
00_COMPONENTS_2
100
AcDbLine
 62
7
  6
CONTINUOUS
 10
39.4757770321
 20
103.3064746348
 11
38.366024492
 21
102.6657625316
  0
LINE
  5
310
100
AcDbEntity
  8
00_COMPONENTS_2
100
AcDbLine
 62
7
  6
CONTINUOUS
 10
33.7644284319
 20
99.151437913
 11
32.9159038273
 21
98.6615449283
  0
LINE
  5
311
100
AcDbEntity
  8
00_COMPONENTS_2
100
AcDbLine
 62
7
  6
CONTINUOUS
 10
49.3627453691
 20
107.7491275147
 11
39.6927350295
 21
102.1661777678
  0
LINE
  5
312
100
AcDbEntity
  8
00_COMPONENTS_2
100
AcDbLine
 62
7
  6
CONTINUOUS
 10
109.8876663262
 20
142.3667853762
 11
112.716081675
 21
143.9997619917
  0
LINE
  5
313
100
AcDbEntity
  8
00_COMPONENTS_2
100
AcDbLine
 62
7
  6
CONTINUOUS
 10
39.8509549148
 20
101.8084569471
 11
47.4502388204
 21
106.1958793663
  0
LINE
  5
314
100
AcDbEntity
  8
00_COMPONENTS_2
100
AcDbLine
 62
7
  6
CONTINUOUS
 10
33.7644284319
 20
98.1797030919
 11
32.9159038273
 21
97.6898101073
  0
LINE
  5
315
100
AcDbEntity
  8
00_COMPONENTS_2
100
AcDbLine
 62
7
  6
CONTINUOUS
 10
112.716081675
 20
143.4056314172
 11
115.1533356876
 21
144.812772278
  0
LINE
  5
316
100
AcDbEntity
  8
00_COMPONENTS_2
100
AcDbLine
 62
7
  6
CONTINUOUS
 10
127.353106687
 20
151.8332207169
 11
116.1455108781
 21
145.3625508844
  0
LINE
  5
317
100
AcDbEntity
  8
00_COMPONENTS_2
100
AcDbLine
 62
7
  6
CONTINUOUS
 10
44.1975611692
 20
103.6033345635
 11
40.478002327
 21
101.4558590833
  0
LINE
  5
318
100
AcDbEntity
  8
00_COMPONENTS
100
AcDbLine
 62
7
  6
CONTINUOUS
 10
134.1636833021
 20
155.3778730728
 11
133.1030275463
 21
154.765506842
  0
LINE
  5
319
100
AcDbEntity
  8
00_COMPONENTS_2
100
AcDbLine
 62
7
  6
CONTINUOUS
 10
34.6127767489
 20
97.6899200431
 11
33.7642521442
 21
97.2000270585
  0
LINE
  5
31A
100
AcDbEntity
  8
00_COMPONENTS_2
100
AcDbLine
 62
7
  6
CONTINUOUS
 10
130.4643738581
 20
152.3342386256
 11
135.2726799511
 21
155.1102988719
  0
LINE
  5
31B
100
AcDbEntity
  8
00_COMPONENTS_2
100
AcDbLine
 62
7
  6
CONTINUOUS
 10
89.8059173493
 20
128.853870726
 11
112.716081675
 21
142.0809813114
  0
LINE
  5
31C
100
AcDbEntity
  8
00_COMPONENTS_2
100
AcDbLine
 62
7
  6
CONTINUOUS
 10
32.9159038273
 20
95.5683792667
 11
33.7644284319
 21
96.0582722513
  0
LINE
  5
31D
100
AcDbEntity
  8
00_COMPONENTS_2
100
AcDbLine
 62
7
  6
CONTINUOUS
 10
36.4155749347
 20
97.5796250689
 11
35.6027374296
 21
97.1103359178
  0
LINE
  5
31E
100
AcDbEntity
  8
00_COMPONENTS_2
100
AcDbLine
 62
7
  6
CONTINUOUS
 10
47.2381076693
 20
103.8261101864
 11
47.4502388204
 21
103.9485834325
  0
LINE
  5
31F
100
AcDbEntity
  8
00_COMPONENTS_2
100
AcDbLine
 62
7
  6
CONTINUOUS
 10
67.0799749741
 20
96.6677689053
 11
63.2894875374
 21
98.316838073
  0
LINE
  5
320
100
AcDbEntity
  8
00_COMPONENTS_2
100
AcDbLine
 62
7
  6
CONTINUOUS
 10
35.9153408163
 20
111.906082842
 11
36.6224505414
 21
111.4978420875
  0
LINE
  5
321
100
AcDbEntity
  8
00_COMPONENTS_2
100
AcDbLine
 62
7
  6
CONTINUOUS
 10
43.4107039033
 20
107.5787308438
 11
44.1178136284
 21
107.1704900893
  0
LINE
  5
322
100
AcDbEntity
  8
00_COMPONENTS_2
100
AcDbLine
 62
7
  6
CONTINUOUS
 10
50.9060669898
 20
103.2513788459
 11
51.613176715
 21
102.8431380914
  0
LINE
  5
323
100
AcDbEntity
  8
00_COMPONENTS_2
100
AcDbLine
 62
7
  6
CONTINUOUS
 10
65.4904816645
 20
95.605526405
 11
66.0561694446
 21
95.2789338014
  0
LINE
  5
324
100
AcDbEntity
  8
00_COMPONENTS_2
100
AcDbLine
 62
7
  6
CONTINUOUS
 10
59.0868191993
 20
99.3197340808
 11
59.7939289244
 21
98.9114933262
  0
LINE
  5
325
100
AcDbEntity
  8
00_COMPONENTS_2
100
AcDbLine
 62
7
  6
CONTINUOUS
 10
39.9548757339
 20
110.5232313642
 11
44.2328529137
 21
108.053395963
  0
LINE
  5
326
100
AcDbEntity
  8
00_COMPONENTS_2
100
AcDbLine
 62
7
  6
CONTINUOUS
 10
47.4502388204
 20
106.1958793663
 11
51.7282160003
 21
103.7260439651
  0
LINE
  5
327
100
AcDbEntity
  8
00_COMPONENTS_2
100
AcDbLine
 62
7
  6
CONTINUOUS
 10
54.945601907
 20
101.8685273684
 11
59.2235790867
 21
99.3986919672
  0
LINE
  5
328
100
AcDbEntity
  8
00_COMPONENTS_2
100
AcDbLine
 62
7
  6
CONTINUOUS
 10
65.7603850038
 20
95.9059078285
 11
66.3260727839
 21
95.5793152248
  0
LINE
  5
329
100
AcDbEntity
  8
00_COMPONENTS_2
100
AcDbLine
 62
7
  6
CONTINUOUS
 10
69.7977362192
 20
109.912855578
 11
69.7977362192
 21
97.5836690793
  0
LINE
  5
32A
100
AcDbEntity
  8
00_COMPONENTS_2
100
AcDbLine
 62
7
  6
CONTINUOUS
 10
69.7977362192
 20
55.4521443554
 11
69.7977362192
 21
43.1229578568
  0
LINE
  5
32B
100
AcDbEntity
  8
00_COMPONENTS_2
100
AcDbLine
 62
7
  6
CONTINUOUS
 10
70.7846298265
 20
142.4633554468
 11
70.7846298265
 21
147.1745743936
  0
LINE
  5
32C
100
AcDbEntity
  8
00_COMPONENTS_2
100
AcDbLine
 62
7
  6
CONTINUOUS
 10
71.7037411683
 20
168.6575986894
 11
71.7037411683
 21
170.1273030402
  0
LINE
  5
32D
100
AcDbEntity
  8
00_COMPONENTS_2
100
AcDbLine
 62
7
  6
CONTINUOUS
 10
46.7785057781
 20
102.9297407179
 11
47.4856096153
 21
103.3379848717
  0
LINE
  5
32E
100
AcDbEntity
  8
00_COMPONENTS_2
100
AcDbLine
 62
7
  6
CONTINUOUS
 10
35.6027374296
 20
96.1386010967
 11
36.4155749347
 21
96.6078902478
  0
LINE
  5
32F
100
AcDbEntity
  8
00_COMPONENTS_2
100
AcDbLine
 62
7
  6
CONTINUOUS
 10
136.5454774564
 20
154.166988626
 11
112.5218269128
 21
140.2970103104
  0
LINE
  5
330
100
AcDbEntity
  8
00_COMPONENTS_2
100
AcDbLine
 62
7
  6
CONTINUOUS
 10
35.7889590907
 20
95.587940457
 11
34.9684726047
 21
95.114235191
  0
LINE
  5
331
100
AcDbEntity
  8
00_COMPONENTS_2
100
AcDbLine
 62
7
  6
CONTINUOUS
 10
112.29181584
 20
139.5402281971
 11
89.3816515142
 21
126.3131176117
  0
LINE
  5
332
100
AcDbEntity
  8
00_COMPONENTS_2
100
AcDbLine
 62
7
  6
CONTINUOUS
 10
50.9060669898
 20
103.2513788459
 11
56.3418054162
 21
106.3896851565
  0
LINE
  5
333
100
AcDbEntity
  8
00_COMPONENTS_2
100
AcDbLine
 62
7
  6
CONTINUOUS
 10
40.0405905273
 20
96.8933725956
 11
39.2138502411
 21
96.4160567181
  0
LINE
  5
334
100
AcDbEntity
  8
00_COMPONENTS_2
100
AcDbLine
 62
7
  6
CONTINUOUS
 10
41.2701554588
 20
96.9439447293
 11
40.4193205788
 21
96.4527179154
  0
LINE
  5
335
100
AcDbEntity
  8
00_COMPONENTS_2
100
AcDbLine
 62
7
  6
CONTINUOUS
 10
57.0887009394
 20
106.004414606
 11
51.613176715
 21
102.8431380914
  0
LINE
  5
336
100
AcDbEntity
  8
00_COMPONENTS_2
100
AcDbLine
 62
7
  6
CONTINUOUS
 10
39.3967757816
 20
94.8919907528
 11
38.5795538091
 21
94.4201702433
  0
LINE
  5
337
100
AcDbEntity
  8
00_COMPONENTS_2
100
AcDbLine
 62
7
  6
CONTINUOUS
 10
41.2605256201
 20
95.9665945605
 11
42.1090502247
 21
96.4564875452
  0
LINE
  5
338
100
AcDbEntity
  8
00_COMPONENTS_2
100
AcDbLine
 62
7
  6
CONTINUOUS
 10
46.9711401186
 20
98.9791226369
 11
46.0316746339
 21
98.4367252241
  0
LINE
  5
339
100
AcDbEntity
  8
00_COMPONENTS_2
100
AcDbLine
 62
7
  6
CONTINUOUS
 10
41.2678451835
 20
94.8192402306
 11
40.4193205788
 21
94.3293472459
  0
LINE
  5
33A
100
AcDbEntity
  8
00_COMPONENTS_2
100
AcDbLine
 62
7
  6
CONTINUOUS
 10
70.5797511209
 20
111.6625658063
 11
69.6463740558
 21
111.1236835232
  0
LINE
  5
33B
100
AcDbEntity
  8
00_COMPONENTS_2
100
AcDbLine
 62
7
  6
CONTINUOUS
 10
71.6899046164
 20
112.2381903352
 11
88.3139158293
 21
121.8360103927
  0
LINE
  5
33C
100
AcDbEntity
  8
00_COMPONENTS_2
100
AcDbLine
 62
7
  6
CONTINUOUS
 10
57.0887009394
 20
103.5549073547
 11
47.188086137
 21
97.8388188538
  0
LINE
  5
33D
100
AcDbEntity
  8
00_COMPONENTS_2
100
AcDbLine
 62
7
  6
CONTINUOUS
 10
47.6008279219
 20
97.6280454432
 11
54.945601907
 21
101.8685273684
  0
LINE
  5
33E
100
AcDbEntity
  8
00_COMPONENTS_2
100
AcDbLine
 62
7
  6
CONTINUOUS
 10
41.2678451834
 20
93.8478974176
 11
40.4193205788
 21
93.358004433
  0
LINE
  5
33F
100
AcDbEntity
  8
00_COMPONENTS_2
100
AcDbLine
 62
7
  6
CONTINUOUS
 10
69.7977362192
 20
109.912855578
 11
89.3816515142
 21
121.2195668534
  0
LINE
  5
340
100
AcDbEntity
  8
00_COMPONENTS_2
100
AcDbLine
 62
7
  6
CONTINUOUS
 10
51.6929242558
 20
99.2759825655
 11
48.2630309157
 21
97.2957445428
  0
LINE
  5
341
100
AcDbEntity
  8
00_COMPONENTS_2
100
AcDbLine
 62
7
  6
CONTINUOUS
 10
73.7190038849
 20
167.494112539
 11
73.7190038849
 21
168.9638168898
  0
LINE
  5
342
100
AcDbEntity
  8
00_COMPONENTS_2
100
AcDbLine
 62
7
  6
CONTINUOUS
 10
75.06267958
 20
145.9797909585
 11
75.06267958
 21
129.6497426159
  0
LINE
  5
343
100
AcDbEntity
  8
00_COMPONENTS_2
100
AcDbLine
 62
7
  6
CONTINUOUS
 10
76.0878944745
 20
151.549999371
 11
76.0878944745
 21
158.4516003987
  0
LINE
  5
344
100
AcDbEntity
  8
00_COMPONENTS_2
100
AcDbLine
 62
7
  6
CONTINUOUS
 10
76.4414493371
 20
155.79797277
 11
76.4414493371
 21
158.2474800214
  0
LINE
  5
345
100
AcDbEntity
  8
00_COMPONENTS_2
100
AcDbLine
 62
7
  6
CONTINUOUS
 10
76.7242991151
 20
151.5632011519
 11
76.7242991151
 21
152.7361103961
  0
LINE
  5
346
100
AcDbEntity
  8
00_COMPONENTS_2
100
AcDbLine
 62
7
  6
CONTINUOUS
 10
77.5022081318
 20
47.5711102376
 11
77.5022081318
 21
44.7947649821
  0
LINE
  5
347
100
AcDbEntity
  8
00_COMPONENTS_2
100
AcDbLine
 62
7
  6
CONTINUOUS
 10
77.5022081318
 20
128.2413120128
 11
77.5022081318
 21
144.5713603554
  0
LINE
  5
348
100
AcDbEntity
  8
00_COMPONENTS_2
100
AcDbLine
 62
7
  6
CONTINUOUS
 10
42.1090502247
 20
93.3622384477
 11
41.2605256201
 21
92.872345463
  0
LINE
  5
349
100
AcDbEntity
  8
00_COMPONENTS_2
100
AcDbLine
 62
7
  6
CONTINUOUS
 10
54.7334707558
 20
99.5823227168
 11
54.945601907
 21
99.704795963
  0
LINE
  5
34A
100
AcDbEntity
  8
00_COMPONENTS_2
100
AcDbLine
 62
7
  6
CONTINUOUS
 10
43.946656728
 20
93.2726626525
 11
43.0981321233
 21
92.7827696679
  0
LINE
  5
34B
100
AcDbEntity
  8
00_COMPONENTS_2
100
AcDbLine
 62
7
  6
CONTINUOUS
 10
40.4193205788
 20
91.2346337635
 11
41.2687692031
 21
91.7250602364
  0
LINE
  5
34C
100
AcDbEntity
  8
00_COMPONENTS_2
100
AcDbLine
 62
7
  6
CONTINUOUS
 10
54.2738688646
 20
98.6023887199
 11
54.9809727018
 21
99.0106328738
  0
LINE
  5
34D
100
AcDbEntity
  8
00_COMPONENTS_2
100
AcDbLine
 62
7
  6
CONTINUOUS
 10
43.0981321233
 20
91.8114268549
 11
43.946656728
 21
92.3013198395
  0
LINE
  5
34E
100
AcDbEntity
  8
00_COMPONENTS_2
100
AcDbLine
 62
7
  6
CONTINUOUS
 10
43.3866932993
 20
91.3196921011
 11
42.4638356912
 21
90.7868831931
  0
LINE
  5
34F
100
AcDbEntity
  8
00_COMPONENTS_2
100
AcDbLine
 62
7
  6
CONTINUOUS
 10
47.3938390136
 20
93.5253111895
 11
47.0714706372
 21
93.3391928316
  0
LINE
  5
350
100
AcDbEntity
  8
00_COMPONENTS_2
100
AcDbLine
 62
7
  6
CONTINUOUS
 10
59.0868191993
 20
99.3197340808
 11
64.4511932318
 21
102.4168383853
  0
LINE
  5
351
100
AcDbEntity
  8
00_COMPONENTS_2
100
AcDbLine
 62
7
  6
CONTINUOUS
 10
47.8772399207
 20
92.7630611627
 11
46.7092133277
 21
92.0887047201
  0
LINE
  5
352
100
AcDbEntity
  8
00_COMPONENTS_2
100
AcDbLine
 62
7
  6
CONTINUOUS
 10
56.9769175805
 20
97.5502227233
 11
56.5366199851
 21
97.2960183055
  0
LINE
  5
353
100
AcDbEntity
  8
00_COMPONENTS_2
100
AcDbLine
 62
7
  6
CONTINUOUS
 10
48.7584648223
 20
92.6169745479
 11
47.9099402176
 21
92.1270815632
  0
LINE
  5
354
100
AcDbEntity
  8
00_COMPONENTS_2
100
AcDbLine
 62
7
  6
CONTINUOUS
 10
65.2382551359
 20
102.0547577672
 11
59.7939289244
 21
98.9114933262
  0
LINE
  5
355
100
AcDbEntity
  8
00_COMPONENTS_2
100
AcDbLine
 62
7
  6
CONTINUOUS
 10
48.7584718878
 20
91.6371926578
 11
49.6069964925
 21
92.1270856425
  0
LINE
  5
356
100
AcDbEntity
  8
00_COMPONENTS_2
100
AcDbLine
 62
7
  6
CONTINUOUS
 10
46.9241265582
 20
90.5780856768
 11
46.0756019535
 21
90.0881926922
  0
LINE
  5
357
100
AcDbEntity
  8
00_COMPONENTS_2
100
AcDbLine
 62
7
  6
CONTINUOUS
 10
55.1275254434
 20
95.0334097281
 11
54.1237708502
 21
94.4538952027
  0
LINE
  5
358
100
AcDbEntity
  8
00_COMPONENTS_2
100
AcDbLine
 62
7
  6
CONTINUOUS
 10
48.7584648223
 20
90.4988568453
 11
47.9099402176
 21
90.0089638607
  0
LINE
  5
359
100
AcDbEntity
  8
00_COMPONENTS_2
100
AcDbLine
 62
7
  6
CONTINUOUS
 10
34.0140687353
 20
132.7732947862
 11
43.4893390523
 21
127.3028686756
  0
LINE
  5
35A
100
AcDbEntity
  8
00_COMPONENTS_2
100
AcDbLine
 62
7
  6
CONTINUOUS
 10
61.1044808039
 20
117.1329919169
 11
70.5797511209
 21
111.6625658063
  0
LINE
  5
35B
100
AcDbEntity
  8
00_COMPONENTS_2
100
AcDbLine
 62
7
  6
CONTINUOUS
 10
48.7626157416
 20
124.2598583154
 11
55.8337129931
 21
120.1774507702
  0
LINE
  5
35C
100
AcDbEntity
  8
00_COMPONENTS_2
100
AcDbLine
 62
7
  6
CONTINUOUS
 10
60.0013860999
 20
118.259738439
 11
57.8800569245
 21
119.4844607025
  0
LINE
  5
35D
100
AcDbEntity
  8
00_COMPONENTS_2
100
AcDbLine
 62
7
  6
CONTINUOUS
 10
47.6269659099
 20
125.4039516431
 11
45.5056367344
 21
126.6286739066
  0
LINE
  5
35E
100
AcDbEntity
  8
00_COMPONENTS_2
100
AcDbLine
 62
7
  6
CONTINUOUS
 10
59.3355274583
 20
154.637151524
 11
62.3347045274
 21
146.9072429683
  0
LINE
  5
35F
100
AcDbEntity
  8
00_COMPONENTS_2
100
AcDbLine
 62
7
  6
CONTINUOUS
 10
83.5126048791
 20
135.1150218654
 11
83.5126048791
 21
139.8262408122
  0
LINE
  5
360
100
AcDbEntity
  8
00_COMPONENTS_2
100
AcDbLine
 62
7
  6
CONTINUOUS
 10
65.2382551359
 20
99.6052505158
 11
55.3424918731
 21
93.8919630359
  0
LINE
  5
361
100
AcDbEntity
  8
00_COMPONENTS_2
100
AcDbLine
 62
7
  6
CONTINUOUS
 10
55.1577934094
 20
93.6220303035
 11
63.2894875374
 21
98.316838073
  0
LINE
  5
362
100
AcDbEntity
  8
00_COMPONENTS_2
100
AcDbLine
 62
7
  6
CONTINUOUS
 10
48.7584648223
 20
89.5190539447
 11
47.9099402176
 21
89.0291609601
  0
LINE
  5
363
100
AcDbEntity
  8
00_COMPONENTS_2
100
AcDbLine
 62
7
  6
CONTINUOUS
 10
49.6069964925
 20
89.0291650393
 11
48.7584718878
 21
88.5392720547
  0
LINE
  5
364
100
AcDbEntity
  8
00_COMPONENTS_2
100
AcDbLine
 62
7
  6
CONTINUOUS
 10
51.4413347566
 20
88.9499362078
 11
50.592810152
 21
88.4600432231
  0
LINE
  5
365
100
AcDbEntity
  8
00_COMPONENTS_2
100
AcDbLine
 62
7
  6
CONTINUOUS
 10
47.9099402176
 20
86.9110432575
 11
48.7584648223
 21
87.4009362422
  0
LINE
  5
366
100
AcDbEntity
  8
00_COMPONENTS_2
100
AcDbLine
 62
7
  6
CONTINUOUS
 10
50.592810152
 20
87.4802403226
 11
51.4413347566
 21
87.9701333072
  0
LINE
  5
367
100
AcDbEntity
  8
00_COMPONENTS_2
100
AcDbLine
 62
7
  6
CONTINUOUS
 10
67.0799749741
 20
96.6677689053
 11
65.7603850038
 21
95.9059078285
  0
LINE
  5
368
100
AcDbEntity
  8
00_COMPONENTS_2
100
AcDbLine
 62
7
  6
CONTINUOUS
 10
62.0167283037
 20
93.7445195266
 11
58.9482808461
 21
91.9729611358
  0
LINE
  5
369
100
AcDbEntity
  8
00_COMPONENTS_2
100
AcDbLine
 62
7
  6
CONTINUOUS
 10
51.2636316392
 20
87.2126413634
 11
49.9591987778
 21
86.4595311952
  0
LINE
  5
36A
100
AcDbEntity
  8
00_COMPONENTS_2
100
AcDbLine
 62
7
  6
CONTINUOUS
 10
69.7977362192
 20
97.5836690793
 11
66.3260727839
 21
95.5793152248
  0
LINE
  5
36B
100
AcDbEntity
  8
00_COMPONENTS_2
100
AcDbLine
 62
7
  6
CONTINUOUS
 10
62.5824160838
 20
93.417926923
 11
58.7156753894
 21
91.1854764681
  0
LINE
  5
36C
100
AcDbEntity
  8
00_COMPONENTS_2
100
AcDbLine
 62
7
  6
CONTINUOUS
 10
51.902954755
 20
86.5404125284
 11
51.2232802938
 21
86.1480046377
  0
LINE
  5
36D
100
AcDbEntity
  8
00_COMPONENTS_2
100
AcDbLine
 62
7
  6
CONTINUOUS
 10
50.0405820818
 20
85.3089506691
 11
50.6051594853
 21
85.6349076393
  0
LINE
  5
36E
100
AcDbEntity
  8
00_COMPONENTS_2
100
AcDbLine
 62
7
  6
CONTINUOUS
 10
46.2482644528
 20
82.1910240723
 11
50.8444393947
 21
84.8446110724
  0
LINE
  5
36F
100
AcDbEntity
  8
00_COMPONENTS_2
100
AcDbLine
 62
7
  6
CONTINUOUS
 10
35.0757630483
 20
133.3768966043
 11
71.6899046164
 21
112.2381903352
  0
LINE
  5
370
100
AcDbEntity
  8
00_COMPONENTS_2
100
AcDbLine
 62
7
  6
CONTINUOUS
 10
62.3347045274
 20
149.5200507032
 11
60.3153274347
 21
154.7246784748
  0
LINE
  5
371
100
AcDbEntity
  8
00_COMPONENTS_2
100
AcDbLine
 62
7
  6
CONTINUOUS
 10
60.6184639431
 20
154.8996933749
 11
60.4668935978
 21
155.2903421701
  0
LINE
  5
372
100
AcDbEntity
  8
00_COMPONENTS_2
100
AcDbLine
 62
7
  6
CONTINUOUS
 10
86.1995635441
 20
152.4096355321
 11
86.1995635441
 21
152.613757609
  0
LINE
  5
373
100
AcDbEntity
  8
00_COMPONENTS_2
100
AcDbLine
 62
7
  6
CONTINUOUS
 10
87.7906546327
 20
136.1819501257
 11
87.7906546327
 21
122.3014090345
  0
LINE
  5
374
100
AcDbEntity
  8
00_COMPONENTS_2
100
AcDbLine
 62
7
  6
CONTINUOUS
 10
87.7906546327
 20
41.3043692552
 11
87.7906546327
 21
53.5111121374
  0
LINE
  5
375
100
AcDbEntity
  8
00_COMPONENTS_2
100
AcDbLine
 62
7
  6
CONTINUOUS
 10
88.0379522674
 20
162.4931768935
 11
88.0379522674
 21
164.9426841449
  0
LINE
  5
376
100
AcDbEntity
  8
00_COMPONENTS_2
100
AcDbLine
 62
7
  6
CONTINUOUS
 10
88.391697899
 20
137.3046498352
 11
88.391697899
 21
135.8349454844
  0
LINE
  5
377
100
AcDbEntity
  8
00_COMPONENTS_2
100
AcDbLine
 62
7
  6
CONTINUOUS
 10
88.391697899
 20
40.9573646139
 11
88.391697899
 21
39.4876602631
  0
LINE
  5
378
100
AcDbEntity
  8
00_COMPONENTS_2
100
AcDbLine
 62
7
  6
CONTINUOUS
 10
88.8158695272
 20
144.2016657896
 11
88.8158695272
 21
151.1032668173
  0
LINE
  5
379
100
AcDbEntity
  8
00_COMPONENTS_2
100
AcDbLine
 62
7
  6
CONTINUOUS
 10
88.9926469585
 20
148.5516993773
 11
88.9926469585
 21
151.0012066287
  0
LINE
  5
37A
100
AcDbEntity
  8
00_COMPONENTS_2
100
AcDbLine
 62
7
  6
CONTINUOUS
 10
89.0987193052
 20
144.2075333157
 11
89.0987193052
 21
145.591897192
  0
LINE
  5
37B
100
AcDbEntity
  8
00_COMPONENTS_2
100
AcDbLine
 62
7
  6
CONTINUOUS
 10
89.3816515142
 20
49.336118374
 11
89.3816515142
 21
54.4296691322
  0
LINE
  5
37C
100
AcDbEntity
  8
00_COMPONENTS_2
100
AcDbLine
 62
7
  6
CONTINUOUS
 10
89.3816515142
 20
121.2195668534
 11
89.3816515142
 21
126.3131176117
  0
LINE
  5
37D
100
AcDbEntity
  8
00_COMPONENTS_2
100
AcDbLine
 62
7
  6
CONTINUOUS
 10
89.8059173493
 20
136.4881683262
 11
89.8059173493
 21
128.853870726
  0
LINE
  5
37E
100
AcDbEntity
  8
00_COMPONENTS_2
100
AcDbLine
 62
7
  6
CONTINUOUS
 10
89.8059173493
 20
46.3054763542
 11
89.8059173493
 21
38.671178754
  0
LINE
  5
37F
100
AcDbEntity
  8
00_COMPONENTS_2
100
AcDbLine
 62
7
  6
CONTINUOUS
 10
132.5149855843
 20
127.0163036787
 11
131.7371713633
 21
126.5672351095
  0
LINE
  5
380
100
AcDbEntity
  8
00_COMPONENTS_2
100
AcDbLine
 62
7
  6
CONTINUOUS
 10
53.4607453777
 20
80.3130613373
 11
48.8645704358
 21
77.6594743372
  0
LINE
  5
381
100
AcDbEntity
  8
00_COMPONENTS_2
100
AcDbLine
 62
7
  6
CONTINUOUS
 10
31.1910427561
 20
67.287198553
 11
31.0848757804
 21
67.2259033868
  0
LINE
  5
382
100
AcDbEntity
  8
00_COMPONENTS_2
100
AcDbLine
 62
7
  6
CONTINUOUS
 10
133.6643382188
 20
126.0468739364
 11
133.1513790378
 21
125.750718583
  0
LINE
  5
383
100
AcDbEntity
  8
00_COMPONENTS_2
100
AcDbLine
 62
7
  6
CONTINUOUS
 10
54.1262952654
 20
115.3133753655
 11
54.0087027227
 21
115.2885355158
  0
LINE
  5
384
100
AcDbEntity
  8
00_COMPONENTS_2
100
AcDbLine
 62
7
  6
CONTINUOUS
 10
61.5943483605
 20
145.41077746
 11
58.0566547738
 21
149.8116890281
  0
LINE
  5
385
100
AcDbEntity
  8
00_COMPONENTS_2
100
AcDbLine
 62
7
  6
CONTINUOUS
 10
72.0644472413
 20
147.2889023367
 11
75.06267958
 21
139.5614286756
  0
LINE
  5
386
100
AcDbEntity
  8
00_COMPONENTS_2
100
AcDbLine
 62
7
  6
CONTINUOUS
 10
75.06267958
 20
142.1742364104
 11
73.0442472177
 21
147.3764292876
  0
LINE
  5
387
100
AcDbEntity
  8
00_COMPONENTS_2
100
AcDbLine
 62
7
  6
CONTINUOUS
 10
73.3473837262
 20
147.5514441876
 11
73.1958133809
 21
147.9420929829
  0
LINE
  5
388
100
AcDbEntity
  8
00_COMPONENTS_2
100
AcDbLine
 62
7
  6
CONTINUOUS
 10
93.1289960394
 20
169.5324935981
 11
93.1289959935
 21
171.5920732378
  0
LINE
  5
389
100
AcDbEntity
  8
00_COMPONENTS_2
100
AcDbLine
 62
7
  6
CONTINUOUS
 10
58.7156753894
 20
81.9592441053
 11
57.2791373047
 21
81.1298634061
  0
LINE
  5
38A
100
AcDbEntity
  8
00_COMPONENTS_2
100
AcDbLine
 62
7
  6
CONTINUOUS
 10
33.0253810203
 20
66.2281668209
 11
32.9192140445
 21
66.1668716547
  0
LINE
  5
38B
100
AcDbEntity
  8
00_COMPONENTS_2
100
AcDbLine
 62
7
  6
CONTINUOUS
 10
33.8739126904
 20
65.7382779154
 11
33.7677457147
 21
65.6769827493
  0
LINE
  5
38C
100
AcDbEntity
  8
00_COMPONENTS_2
100
AcDbLine
 62
7
  6
CONTINUOUS
 10
32.9192140445
 20
64.0487539521
 11
33.7677386492
 21
64.5386469368
  0
LINE
  5
38D
100
AcDbEntity
  8
00_COMPONENTS_2
100
AcDbLine
 62
7
  6
CONTINUOUS
 10
35.6020839789
 20
64.6179510172
 11
35.7082509546
 21
64.6792461834
  0
LINE
  5
38E
100
AcDbEntity
  8
00_COMPONENTS_2
100
AcDbLine
 62
7
  6
CONTINUOUS
 10
34.9684726047
 20
63.5972418898
 11
35.7889590907
 21
64.0709471558
  0
LINE
  5
38F
100
AcDbEntity
  8
00_COMPONENTS_2
100
AcDbLine
 62
7
  6
CONTINUOUS
 10
134.3605265994
 20
95.8263071939
 11
136.5454774564
 21
94.7317578937
  0
LINE
  5
390
100
AcDbEntity
  8
00_COMPONENTS_2
100
AcDbLine
 62
7
  6
CONTINUOUS
 10
133.2927998052
 20
94.8052755628
 11
132.4442752006
 21
95.295160389
  0
LINE
  5
391
100
AcDbEntity
  8
00_COMPONENTS_2
100
AcDbLine
 62
7
  6
CONTINUOUS
 10
51.6997742611
 20
141.9132635195
 11
87.3946573016
 21
121.3052794023
  0
LINE
  5
392
100
AcDbEntity
  8
00_COMPONENTS_2
100
AcDbLine
 62
7
  6
CONTINUOUS
 10
133.2927998052
 20
95.2098585216
 11
132.4442752006
 21
95.6997433478
  0
LINE
  5
393
100
AcDbEntity
  8
00_COMPONENTS_2
100
AcDbLine
 62
7
  6
CONTINUOUS
 10
89.3816515142
 20
121.2195668534
 11
88.3139158293
 21
121.8360103927
  0
LINE
  5
394
100
AcDbEntity
  8
00_COMPONENTS_2
100
AcDbLine
 62
7
  6
CONTINUOUS
 10
51.6997742611
 20
142.9747166618
 11
50.6320385762
 21
143.5911602011
  0
LINE
  5
395
100
AcDbEntity
  8
00_COMPONENTS_2
100
AcDbLine
 62
7
  6
CONTINUOUS
 10
87.7906546327
 20
122.3014090345
 11
77.5022081318
 21
128.2413120128
  0
LINE
  5
396
100
AcDbEntity
  8
00_COMPONENTS_2
100
AcDbLine
 62
7
  6
CONTINUOUS
 10
75.06267958
 20
129.6497426159
 11
64.7742330791
 21
135.5896455941
  0
LINE
  5
397
100
AcDbEntity
  8
00_COMPONENTS_2
100
AcDbLine
 62
7
  6
CONTINUOUS
 10
62.3347045274
 20
136.9980761972
 11
52.0462580265
 21
142.9379791755
  0
LINE
  5
398
100
AcDbEntity
  8
00_COMPONENTS_2
100
AcDbLine
 62
7
  6
CONTINUOUS
 10
134.3605265994
 20
95.8263071939
 11
132.4442752006
 21
96.9326304265
  0
LINE
  5
399
100
AcDbEntity
  8
00_COMPONENTS_2
100
AcDbLine
 62
7
  6
CONTINUOUS
 10
136.5454774564
 20
94.7317578937
 11
132.4442752006
 21
97.0995345538
  0
LINE
  5
39A
100
AcDbEntity
  8
00_COMPONENTS_2
100
AcDbLine
 62
7
  6
CONTINUOUS
 10
74.3223234131
 20
138.0624438786
 11
70.7846298265
 21
142.4633554468
  0
LINE
  5
39B
100
AcDbEntity
  8
00_COMPONENTS_2
100
AcDbLine
 62
7
  6
CONTINUOUS
 10
61.5900584387
 20
154.8385520415
 11
62.6553911272
 21
153.5132719294
  0
LINE
  5
39C
100
AcDbEntity
  8
00_COMPONENTS_2
100
AcDbLine
 62
7
  6
CONTINUOUS
 10
84.7933670244
 20
139.9406531495
 11
87.7906546327
 21
132.2156143829
  0
LINE
  5
39D
100
AcDbEntity
  8
00_COMPONENTS_2
100
AcDbLine
 62
7
  6
CONTINUOUS
 10
97.6900965778
 20
145.0000424475
 11
97.6900965778
 21
143.5303380967
  0
LINE
  5
39E
100
AcDbEntity
  8
00_COMPONENTS
100
AcDbLine
 62
7
  6
CONTINUOUS
 10
98.1847842879
 20
174.0119704742
 11
98.1847842879
 21
171.5149145527
  0
LINE
  5
39F
100
AcDbEntity
  8
00_COMPONENTS_2
100
AcDbLine
 62
7
  6
CONTINUOUS
 10
98.4325617892
 20
143.1016853044
 11
98.4325617892
 21
144.5713896553
  0
LINE
  5
3A0
100
AcDbEntity
  8
00_COMPONENTS_2
100
AcDbLine
 62
7
  6
CONTINUOUS
 10
99.0686620236
 20
176.0122255034
 11
99.0686620236
 21
174.522290256
  0
LINE
  5
3A1
100
AcDbEntity
  8
00_COMPONENTS_2
100
AcDbLine
 62
7
  6
CONTINUOUS
 10
100.5889898665
 20
165.5153133985
 11
100.5889898399
 21
166.7071705335
  0
LINE
  5
3A2
100
AcDbEntity
  8
00_COMPONENTS_2
100
AcDbLine
 62
7
  6
CONTINUOUS
 10
100.5891498888
 20
155.2469035008
 11
100.5891498888
 21
157.6964107522
  0
LINE
  5
3A3
100
AcDbEntity
  8
00_COMPONENTS
100
AcDbLine
 62
7
  6
CONTINUOUS
 10
101.0485786747
 20
170.1824403296
 11
101.0485786747
 21
172.3724759595
  0
LINE
  5
3A4
100
AcDbEntity
  8
00_COMPONENTS
100
AcDbLine
 62
7
  6
CONTINUOUS
 10
102.1092344305
 20
169.6624479806
 11
102.1092344305
 21
171.7601199267
  0
LINE
  5
3A5
100
AcDbEntity
  8
00_COMPONENTS_2
100
AcDbLine
 62
7
  6
CONTINUOUS
 10
38.6864058427
 20
62.959846555
 11
38.5802388669
 21
62.8985513889
  0
LINE
  5
3A6
100
AcDbEntity
  8
00_COMPONENTS_2
100
AcDbLine
 62
7
  6
CONTINUOUS
 10
40.5207441068
 20
61.900814823
 11
40.4145771311
 21
61.8395196568
  0
LINE
  5
3A7
100
AcDbEntity
  8
00_COMPONENTS_2
100
AcDbLine
 62
7
  6
CONTINUOUS
 10
41.369275777
 20
61.4109259175
 11
41.2631088013
 21
61.3496307514
  0
LINE
  5
3A8
100
AcDbEntity
  8
00_COMPONENTS_2
100
AcDbLine
 62
7
  6
CONTINUOUS
 10
41.2640007033
 20
60.2118139622
 11
40.4145771311
 21
59.7214019542
  0
LINE
  5
3A9
100
AcDbEntity
  8
00_COMPONENTS_2
100
AcDbLine
 62
7
  6
CONTINUOUS
 10
43.0974470654
 20
60.2905990193
 11
43.2036140411
 21
60.3518941854
  0
LINE
  5
3AA
100
AcDbEntity
  8
00_COMPONENTS_2
100
AcDbLine
 62
7
  6
CONTINUOUS
 10
42.4638356912
 20
59.2698898919
 11
43.3866932993
 21
59.8026987999
  0
LINE
  5
3AB
100
AcDbEntity
  8
00_COMPONENTS_2
100
AcDbLine
 62
7
  6
CONTINUOUS
 10
41.859974496
 20
122.5199878234
 11
41.7485507088
 21
122.5018586677
  0
LINE
  5
3AC
100
AcDbEntity
  8
00_COMPONENTS_2
100
AcDbLine
 62
7
  6
CONTINUOUS
 10
87.7906546327
 20
130.7802473858
 11
87.0502984658
 21
130.7141102972
  0
LINE
  5
3AD
100
AcDbEntity
  8
00_COMPONENTS_2
100
AcDbLine
 62
7
  6
CONTINUOUS
 10
132.4442752006
 20
97.9896434552
 11
131.7371713633
 21
98.3978808104
  0
LINE
  5
3AE
100
AcDbEntity
  8
00_COMPONENTS_2
100
AcDbLine
 62
7
  6
CONTINUOUS
 10
66.0494895459
 20
155.472843868
 11
64.9841568573
 21
156.7981239801
  0
LINE
  5
3AF
100
AcDbEntity
  8
00_COMPONENTS_2
100
AcDbLine
 62
7
  6
CONTINUOUS
 10
87.0502984658
 20
130.7141102972
 11
83.5126048791
 21
135.1150218654
  0
LINE
  5
3B0
100
AcDbEntity
  8
00_COMPONENTS_2
100
AcDbLine
 62
7
  6
CONTINUOUS
 10
74.3180334913
 20
147.4902184602
 11
75.3833661799
 21
146.164938348
  0
LINE
  5
3B1
100
AcDbEntity
  8
00_COMPONENTS_2
100
AcDbLine
 62
7
  6
CONTINUOUS
 10
87.7906546327
 20
134.8284221176
 11
85.7731670008
 21
140.0281801004
  0
LINE
  5
3B2
100
AcDbEntity
  8
00_COMPONENTS_2
100
AcDbLine
 62
7
  6
CONTINUOUS
 10
86.0763035092
 20
140.2031950004
 11
85.9247331639
 21
140.5938437957
  0
LINE
  5
3B3
100
AcDbEntity
  8
00_COMPONENTS_2
100
AcDbLine
 62
7
  6
CONTINUOUS
 10
103.0992544053
 20
160.7552732739
 11
103.0992543017
 21
165.4093369918
  0
LINE
  5
3B4
100
AcDbEntity
  8
00_COMPONENTS
100
AcDbLine
 62
7
  6
CONTINUOUS
 10
104.5134163279
 20
170.3720962623
 11
104.5134163279
 21
169.0876814296
  0
LINE
  5
3B5
100
AcDbEntity
  8
00_COMPONENTS_2
100
AcDbLine
 62
7
  6
CONTINUOUS
 10
107.2006493706
 20
148.1639128124
 11
107.2006493706
 21
149.6336171633
  0
LINE
  5
3B6
100
AcDbEntity
  8
00_COMPONENTS_2
100
AcDbLine
 62
7
  6
CONTINUOUS
 10
136.5454774564
 20
129.2616451141
 11
133.6643382188
 21
126.0468739364
  0
LINE
  5
3B7
100
AcDbEntity
  8
00_COMPONENTS_2
100
AcDbLine
 62
7
  6
CONTINUOUS
 10
46.1817689292
 20
58.6324945571
 11
46.0756019535
 21
58.571199391
  0
LINE
  5
3B8
100
AcDbEntity
  8
00_COMPONENTS_2
100
AcDbLine
 62
7
  6
CONTINUOUS
 10
48.8645704358
 20
60.1046723689
 11
53.4607453777
 21
62.758259369
  0
LINE
  5
3B9
100
AcDbEntity
  8
00_COMPONENTS_2
100
AcDbLine
 62
7
  6
CONTINUOUS
 10
52.6944311125
 20
61.064451385
 11
48.0982561706
 21
58.4108643849
  0
LINE
  5
3BA
100
AcDbEntity
  8
00_COMPONENTS_2
100
AcDbLine
 62
7
  6
CONTINUOUS
 10
48.7584648223
 20
58.0020606435
 11
47.9099402176
 21
57.5121676589
  0
LINE
  5
3BB
100
AcDbEntity
  8
00_COMPONENTS_2
100
AcDbLine
 62
7
  6
CONTINUOUS
 10
49.6069964925
 20
57.5121717381
 11
48.7584718878
 21
57.0222787535
  0
LINE
  5
3BC
100
AcDbEntity
  8
00_COMPONENTS_2
100
AcDbLine
 62
7
  6
CONTINUOUS
 10
51.4413347566
 20
57.4329429066
 11
50.592810152
 21
56.9430499219
  0
LINE
  5
3BD
100
AcDbEntity
  8
00_COMPONENTS_2
100
AcDbLine
 62
7
  6
CONTINUOUS
 10
47.9099402176
 20
55.3940499563
 11
48.7584648223
 21
55.883942941
  0
LINE
  5
3BE
100
AcDbEntity
  8
00_COMPONENTS_2
100
AcDbLine
 62
7
  6
CONTINUOUS
 10
75.06267958
 20
138.1285809672
 11
74.3223234131
 21
138.0624438786
  0
LINE
  5
3BF
100
AcDbEntity
  8
00_COMPONENTS_2
100
AcDbLine
 62
7
  6
CONTINUOUS
 10
88.391697899
 20
135.8349454844
 11
87.7906546327
 21
136.1819501257
  0
LINE
  5
3C0
100
AcDbEntity
  8
00_COMPONENTS_2
100
AcDbLine
 62
7
  6
CONTINUOUS
 10
78.7774645985
 20
148.1245102866
 11
77.7121319099
 21
149.4497903987
  0
LINE
  5
3C1
100
AcDbEntity
  8
00_COMPONENTS_2
100
AcDbLine
 62
7
  6
CONTINUOUS
 10
87.046008544
 20
140.1418848788
 11
89.0303384009
 21
137.6733668999
  0
LINE
  5
3C2
100
AcDbEntity
  8
00_COMPONENTS_2
100
AcDbLine
 62
7
  6
CONTINUOUS
 10
109.7106633871
 20
163.9421885507
 11
109.7106633871
 21
171.0517266065
  0
LINE
  5
3C3
100
AcDbEntity
  8
00_COMPONENTS_2
100
AcDbLine
 62
7
  6
CONTINUOUS
 10
109.8876663262
 20
148.0823022961
 11
109.8876663262
 21
142.3667853762
  0
LINE
  5
3C4
100
AcDbEntity
  8
00_COMPONENTS_2
100
AcDbLine
 62
7
  6
CONTINUOUS
 10
109.8876663262
 20
55.9808296439
 11
109.8876663262
 21
50.265312724
  0
LINE
  5
3C5
100
AcDbEntity
  8
00_COMPONENTS_2
100
AcDbLine
 62
7
  6
CONTINUOUS
 10
110.0290647195
 20
149.7968894279
 11
110.0290647195
 21
145.5510768589
  0
LINE
  5
3C6
100
AcDbEntity
  8
00_COMPONENTS_2
100
AcDbLine
 62
7
  6
CONTINUOUS
 10
110.0290647195
 20
54.9193085575
 11
110.0290647195
 21
56.062465557
  0
LINE
  5
3C7
100
AcDbEntity
  8
00_COMPONENTS_2
100
AcDbLine
 62
7
  6
CONTINUOUS
 10
112.716081675
 20
143.9997619917
 11
112.716081675
 21
142.0809813114
  0
LINE
  5
3C8
100
AcDbEntity
  8
00_COMPONENTS_2
100
AcDbLine
 62
7
  6
CONTINUOUS
 10
112.716081675
 20
57.6138062594
 11
112.716081675
 21
59.5325869396
  0
LINE
  5
3C9
100
AcDbEntity
  8
00_COMPONENTS_2
100
AcDbLine
 62
7
  6
CONTINUOUS
 10
50.592810152
 20
55.9632470214
 11
51.4413347566
 21
56.453140006
  0
LINE
  5
3CA
100
AcDbEntity
  8
00_COMPONENTS_2
100
AcDbLine
 62
7
  6
CONTINUOUS
 10
49.9591987778
 20
54.942537894
 11
51.2636316392
 21
55.6956480622
  0
LINE
  5
3CB
100
AcDbEntity
  8
00_COMPONENTS_2
100
AcDbLine
 62
7
  6
CONTINUOUS
 10
51.2232802938
 20
54.6310113365
 11
51.902954755
 21
55.0234192272
  0
LINE
  5
3CC
100
AcDbEntity
  8
00_COMPONENTS_2
100
AcDbLine
 62
7
  6
CONTINUOUS
 10
58.7156753894
 20
58.2801841071
 11
57.2791373047
 21
57.4508034079
  0
LINE
  5
3CD
100
AcDbEntity
  8
00_COMPONENTS_2
100
AcDbLine
 62
7
  6
CONTINUOUS
 10
131.7371713633
 20
97.5813993014
 11
132.4442752006
 21
97.9896434552
  0
LINE
  5
3CE
100
AcDbEntity
  8
00_COMPONENTS_2
100
AcDbLine
 62
7
  6
CONTINUOUS
 10
83.5126048791
 20
139.8262408122
 11
84.7933670244
 21
139.9406531495
  0
LINE
  5
3CF
100
AcDbEntity
  8
00_COMPONENTS_2
100
AcDbLine
 62
7
  6
CONTINUOUS
 10
85.7731670008
 20
140.0281801004
 11
87.046008544
 21
140.1418848788
  0
LINE
  5
3D0
100
AcDbEntity
  8
00_COMPONENTS_2
100
AcDbLine
 62
7
  6
CONTINUOUS
 10
85.9247331639
 20
140.5938437957
 11
86.9045331403
 21
140.6813707466
  0
LINE
  5
3D1
100
AcDbEntity
  8
00_COMPONENTS_2
100
AcDbLine
 62
7
  6
CONTINUOUS
 10
90.4401069626
 20
142.1014568174
 11
86.9067032977
 21
141.7858127508
  0
LINE
  5
3D2
100
AcDbEntity
  8
00_COMPONENTS_2
100
AcDbLine
 62
7
  6
CONTINUOUS
 10
50.2077727411
 20
159.3496505793
 11
52.0462580265
 21
158.2882246175
  0
LINE
  5
3D3
100
AcDbEntity
  8
00_COMPONENTS_2
100
AcDbLine
 62
7
  6
CONTINUOUS
 10
88.391697899
 20
137.3046498352
 11
89.8059173493
 21
136.4881683262
  0
LINE
  5
3D4
100
AcDbEntity
  8
00_COMPONENTS_2
100
AcDbLine
 62
7
  6
CONTINUOUS
 10
77.5022081318
 20
144.5713603554
 11
75.06267958
 21
145.9797909585
  0
LINE
  5
3D5
100
AcDbEntity
  8
00_COMPONENTS_2
100
AcDbLine
 62
7
  6
CONTINUOUS
 10
64.7742330791
 20
151.9196939367
 11
62.3347045274
 21
153.3281245398
  0
LINE
  5
3D6
100
AcDbEntity
  8
00_COMPONENTS_2
100
AcDbLine
 62
7
  6
CONTINUOUS
 10
92.4244368195
 20
139.6329388385
 11
90.4401069626
 21
142.1014568174
  0
LINE
  5
3D7
100
AcDbEntity
  8
00_COMPONENTS_2
100
AcDbLine
 62
7
  6
CONTINUOUS
 10
95.8162616941
 20
142.9383636498
 11
96.3996047647
 21
141.9279894221
  0
LINE
  5
3D8
100
AcDbEntity
  8
00_COMPONENTS_2
100
AcDbLine
 62
7
  6
CONTINUOUS
 10
97.1067086019
 20
142.336233576
 11
96.5233655313
 21
143.3466078037
  0
LINE
  5
3D9
100
AcDbEntity
  8
00_COMPONENTS_2
100
AcDbLine
 62
7
  6
CONTINUOUS
 10
116.110064072
 20
154.7133530546
 11
116.1100640029
 21
157.8200160974
  0
LINE
  5
3DA
100
AcDbEntity
  8
00_COMPONENTS_2
100
AcDbLine
 62
7
  6
CONTINUOUS
 10
117.206118338
 20
154.0805601448
 11
117.2061182705
 21
157.1134839981
  0
LINE
  5
3DB
100
AcDbEntity
  8
00_COMPONENTS_2
100
AcDbLine
 62
7
  6
CONTINUOUS
 10
118.5495651716
 20
154.8562531834
 11
118.5495651041
 21
157.8891806303
  0
LINE
  5
3DC
100
AcDbEntity
  8
00_COMPONENTS_2
100
AcDbLine
 62
7
  6
CONTINUOUS
 10
85.7551375189
 20
52.3359127988
 11
84.7933670244
 21
50.9676319612
  0
LINE
  5
3DD
100
AcDbEntity
  8
00_COMPONENTS_2
100
AcDbLine
 62
7
  6
CONTINUOUS
 10
85.9247331639
 20
51.6208226074
 11
86.8865036584
 21
52.989103445
  0
LINE
  5
3DE
100
AcDbEntity
  8
00_COMPONENTS_2
100
AcDbLine
 62
7
  6
CONTINUOUS
 10
85.7731670008
 20
49.7487550447
 11
87.7906546327
 21
52.6189716739
  0
LINE
  5
3DF
100
AcDbEntity
  8
00_COMPONENTS_2
100
AcDbLine
 62
7
  6
CONTINUOUS
 10
61.7537352599
 20
55.298651651
 11
63.2894875374
 21
56.1853133492
  0
LINE
  5
3E0
100
AcDbEntity
  8
00_COMPONENTS_2
100
AcDbLine
 62
7
  6
CONTINUOUS
 10
54.8789912507
 20
50.9619072492
 11
54.233791281
 21
50.5894030966
  0
LINE
  5
3E1
100
AcDbEntity
  8
00_COMPONENTS_2
100
AcDbLine
 62
7
  6
CONTINUOUS
 10
133.2927998052
 20
95.2098585216
 11
134.3605265994
 21
95.8263071939
  0
LINE
  5
3E2
100
AcDbEntity
  8
00_COMPONENTS_2
100
AcDbLine
 62
7
  6
CONTINUOUS
 10
132.4442752006
 20
94.3153825782
 11
133.2927998052
 21
94.8052755628
  0
LINE
  5
3E3
100
AcDbEntity
  8
00_COMPONENTS_2
100
AcDbLine
 62
7
  6
CONTINUOUS
 10
64.6236840856
 20
54.6693978972
 11
62.1756169449
 21
53.2560141113
  0
LINE
  5
3E4
100
AcDbEntity
  8
00_COMPONENTS_2
100
AcDbLine
 62
7
  6
CONTINUOUS
 10
69.7977362192
 20
55.4521443554
 11
66.3260727839
 21
53.447790501
  0
LINE
  5
3E5
100
AcDbEntity
  8
00_COMPONENTS_2
100
AcDbLine
 62
7
  6
CONTINUOUS
 10
62.5824160838
 20
51.2864021991
 11
58.7156753894
 21
49.0539517442
  0
LINE
  5
3E6
100
AcDbEntity
  8
00_COMPONENTS_2
100
AcDbLine
 62
7
  6
CONTINUOUS
 10
62.3347045274
 20
145.4769145486
 11
61.5943483605
 21
145.41077746
  0
LINE
  5
3E7
100
AcDbEntity
  8
00_COMPONENTS_2
100
AcDbLine
 62
7
  6
CONTINUOUS
 10
70.7846298265
 20
147.1745743936
 11
72.0644472413
 21
147.2889023367
  0
LINE
  5
3E8
100
AcDbEntity
  8
00_COMPONENTS_2
100
AcDbLine
 62
7
  6
CONTINUOUS
 10
73.0442472177
 20
147.3764292876
 11
74.3180334913
 21
147.4902184602
  0
LINE
  5
3E9
100
AcDbEntity
  8
00_COMPONENTS_2
100
AcDbLine
 62
7
  6
CONTINUOUS
 10
73.1958133809
 20
147.9420929829
 11
74.1756133573
 21
148.0296199338
  0
LINE
  5
3EA
100
AcDbEntity
  8
00_COMPONENTS_2
100
AcDbLine
 62
7
  6
CONTINUOUS
 10
77.7121319099
 20
149.4497903987
 11
74.1787282451
 21
149.1341463322
  0
LINE
  5
3EB
100
AcDbEntity
  8
00_COMPONENTS_2
100
AcDbLine
 62
7
  6
CONTINUOUS
 10
65.4105435128
 20
160.4927160942
 11
70.0774182108
 21
157.7983556855
  0
LINE
  5
3EC
100
AcDbEntity
  8
00_COMPONENTS_2
100
AcDbLine
 62
7
  6
CONTINUOUS
 10
77.7849637028
 20
153.3485028901
 11
82.8053932635
 21
150.4500221042
  0
LINE
  5
3ED
100
AcDbEntity
  8
00_COMPONENTS_2
100
AcDbLine
 62
7
  6
CONTINUOUS
 10
90.1593838929
 20
146.2042896859
 11
95.8162616941
 21
142.9383636498
  0
LINE
  5
3EE
100
AcDbEntity
  8
00_COMPONENTS_2
100
AcDbLine
 62
7
  6
CONTINUOUS
 10
66.11764735
 20
160.900960248
 11
70.784522048
 21
158.2065998394
  0
LINE
  5
3EF
100
AcDbEntity
  8
00_COMPONENTS_2
100
AcDbLine
 62
7
  6
CONTINUOUS
 10
78.49206754
 20
153.7567470439
 11
83.5124971007
 21
150.858266258
  0
LINE
  5
3F0
100
AcDbEntity
  8
00_COMPONENTS_2
100
AcDbLine
 62
7
  6
CONTINUOUS
 10
90.8664877301
 20
146.6125338398
 11
96.5233655313
 21
143.3466078037
  0
LINE
  5
3F1
100
AcDbEntity
  8
00_COMPONENTS_2
100
AcDbLine
 62
7
  6
CONTINUOUS
 10
97.6900965778
 20
143.5303380967
 11
88.9926469585
 21
148.5516993773
  0
LINE
  5
3F2
100
AcDbEntity
  8
00_COMPONENTS_2
100
AcDbLine
 62
7
  6
CONTINUOUS
 10
84.2549751423
 20
151.2869335964
 11
76.4414493371
 21
155.79797277
  0
LINE
  5
3F3
100
AcDbEntity
  8
00_COMPONENTS_2
100
AcDbLine
 62
7
  6
CONTINUOUS
 10
71.5270000896
 20
158.6352671778
 11
64.9509163035
 21
162.431885031
  0
LINE
  5
3F4
100
AcDbEntity
  8
00_COMPONENTS_2
100
AcDbLine
 62
7
  6
CONTINUOUS
 10
64.2084510921
 20
162.8605378232
 11
63.3599194219
 21
163.3504267286
  0
LINE
  5
3F5
100
AcDbEntity
  8
00_COMPONENTS_2
100
AcDbLine
 62
7
  6
CONTINUOUS
 10
98.4325617892
 20
144.5713896553
 11
97.6900965778
 21
145.0000424475
  0
LINE
  5
3F6
100
AcDbEntity
  8
00_COMPONENTS_2
100
AcDbLine
 62
7
  6
CONTINUOUS
 10
64.9509163035
 20
163.9015893818
 11
64.2084510921
 21
164.3302421741
  0
LINE
  5
3F7
100
AcDbEntity
  8
00_COMPONENTS_2
100
AcDbLine
 62
7
  6
CONTINUOUS
 10
63.3599194219
 20
164.8201310795
 11
62.9356535868
 21
165.0650755322
  0
LINE
  5
3F8
100
AcDbEntity
  8
00_COMPONENTS
100
AcDbLine
 62
7
  6
CONTINUOUS
 10
124.7013989809
 20
158.7029421797
 11
124.7013989809
 21
156.4180370302
  0
LINE
  5
3F9
100
AcDbEntity
  8
00_COMPONENTS_2
100
AcDbLine
 62
7
  6
CONTINUOUS
 10
125.5852767166
 20
161.8210313525
 11
125.5852767166
 21
159.2132619615
  0
LINE
  5
3FA
100
AcDbEntity
  8
00_COMPONENTS_2
100
AcDbLine
 62
7
  6
CONTINUOUS
 10
58.0566547738
 20
154.522907975
 11
59.3355274583
 21
154.637151524
  0
LINE
  5
3FB
100
AcDbEntity
  8
00_COMPONENTS_2
100
AcDbLine
 62
7
  6
CONTINUOUS
 10
60.3153274347
 20
154.7246784748
 11
61.5900584387
 21
154.8385520415
  0
LINE
  5
3FC
100
AcDbEntity
  8
00_COMPONENTS_2
100
AcDbLine
 62
7
  6
CONTINUOUS
 10
60.4668935978
 20
155.2903421701
 11
61.4466935742
 21
155.377869121
  0
LINE
  5
3FD
100
AcDbEntity
  8
00_COMPONENTS_2
100
AcDbLine
 62
7
  6
CONTINUOUS
 10
88.9926469585
 20
151.0012066287
 11
88.8158695272
 21
151.1032668173
  0
LINE
  5
3FE
100
AcDbEntity
  8
00_COMPONENTS_2
100
AcDbLine
 62
7
  6
CONTINUOUS
 10
86.3763409754
 20
152.5116974204
 11
86.1995635441
 21
152.613757609
  0
LINE
  5
3FF
100
AcDbEntity
  8
00_COMPONENTS_2
100
AcDbLine
 62
7
  6
CONTINUOUS
 10
76.4414493371
 20
158.2474800214
 11
76.0878944745
 21
158.4516003987
  0
LINE
  5
400
100
AcDbEntity
  8
00_COMPONENTS_2
100
AcDbLine
 62
7
  6
CONTINUOUS
 10
133.1513790378
 20
125.750718583
 11
131.7371532566
 21
126.567203747
  0
LINE
  5
401
100
AcDbEntity
  8
00_COMPONENTS_2
100
AcDbLine
 62
7
  6
CONTINUOUS
 10
112.716081675
 20
143.9997619917
 11
110.0290647195
 21
145.5510768589
  0
LINE
  5
402
100
AcDbEntity
  8
00_COMPONENTS
100
AcDbLine
 62
7
  6
CONTINUOUS
 10
127.5651933677
 20
154.4250536735
 11
127.5651933677
 21
157.063447665
  0
LINE
  5
403
100
AcDbEntity
  8
00_COMPONENTS
100
AcDbLine
 62
7
  6
CONTINUOUS
 10
128.6258491235
 20
153.6601357864
 11
128.6258491235
 21
156.4510916322
  0
LINE
  5
404
100
AcDbEntity
  8
00_COMPONENTS
100
AcDbLine
 62
7
  6
CONTINUOUS
 10
131.0300310209
 20
155.0630679678
 11
131.0300310209
 21
152.6608189914
  0
LINE
  5
405
100
AcDbEntity
  8
00_COMPONENTS_2
100
AcDbLine
 62
7
  6
CONTINUOUS
 10
131.7371713633
 20
126.5672351095
 11
131.7371713633
 21
97.5813993014
  0
LINE
  5
406
100
AcDbEntity
  8
00_COMPONENTS_2
100
AcDbLine
 62
7
  6
CONTINUOUS
 10
132.4442752006
 20
97.9896434552
 11
132.4442752006
 21
94.3153825782
  0
LINE
  5
407
100
AcDbEntity
  8
00_COMPONENTS_2
100
AcDbLine
 62
7
  6
CONTINUOUS
 10
89.3816515142
 20
54.4296691322
 11
69.7977362192
 21
43.1229578568
  0
LINE
  5
408
100
AcDbEntity
  8
00_COMPONENTS_2
100
AcDbLine
 62
7
  6
CONTINUOUS
 10
85.9247331639
 20
51.6208226074
 11
84.7933670244
 21
50.9676319612
  0
LINE
  5
409
100
AcDbEntity
  8
00_COMPONENTS_2
100
AcDbLine
 62
7
  6
CONTINUOUS
 10
85.8713238479
 20
49.6266473512
 11
77.5022081318
 21
44.7947649821
  0
LINE
  5
40A
100
AcDbEntity
  8
00_COMPONENTS_2
100
AcDbLine
 62
7
  6
CONTINUOUS
 10
64.9841568573
 20
156.7981239801
 11
61.4507531925
 21
156.4824799135
  0
LINE
  5
40B
100
AcDbEntity
  8
00_COMPONENTS_2
100
AcDbLine
 62
7
  6
CONTINUOUS
 10
109.8876663262
 20
148.0823022961
 11
108.4734468759
 21
148.8987838051
  0
LINE
  5
40C
100
AcDbEntity
  8
00_COMPONENTS_2
100
AcDbLine
 62
7
  6
CONTINUOUS
 10
107.2006493706
 20
149.6336171633
 11
106.4581841592
 21
150.0622699555
  0
LINE
  5
40D
100
AcDbEntity
  8
00_COMPONENTS_2
100
AcDbLine
 62
7
  6
CONTINUOUS
 10
73.7190038849
 20
168.9638168898
 11
72.9765386735
 21
169.3924696821
  0
LINE
  5
40E
100
AcDbEntity
  8
00_COMPONENTS_2
100
AcDbLine
 62
7
  6
CONTINUOUS
 10
71.7037411683
 20
170.1273030402
 11
70.289521718
 21
170.9437845492
  0
LINE
  5
40F
100
AcDbEntity
  8
00_COMPONENTS_2
100
AcDbLine
 62
7
  6
CONTINUOUS
 10
110.0290647195
 20
149.7968894279
 11
100.5891498888
 21
155.2469035008
  0
LINE
  5
410
100
AcDbEntity
  8
00_COMPONENTS_2
100
AcDbLine
 62
7
  6
CONTINUOUS
 10
95.6747006413
 20
158.0841979086
 11
88.0379522674
 21
162.4931768935
  0
LINE
  5
411
100
AcDbEntity
  8
00_COMPONENTS_2
100
AcDbLine
 62
7
  6
CONTINUOUS
 10
83.1235030199
 20
165.3304713013
 11
75.8049540224
 21
169.5557419467
  0
LINE
  5
412
100
AcDbEntity
  8
00_COMPONENTS_2
100
AcDbLine
 62
7
  6
CONTINUOUS
 10
104.8317610947
 20
153.0191790134
 11
100.5891498888
 21
155.468596322
  0
LINE
  5
413
100
AcDbEntity
  8
00_COMPONENTS_2
100
AcDbLine
 62
7
  6
CONTINUOUS
 10
95.866695001
 20
158.1950452422
 11
93.2351499278
 21
159.7143341277
  0
LINE
  5
414
100
AcDbEntity
  8
00_COMPONENTS_2
100
AcDbLine
 62
7
  6
CONTINUOUS
 10
100.5891498888
 20
157.6964107522
 11
97.7960664744
 21
159.3089617325
  0
LINE
  5
415
100
AcDbEntity
  8
00_COMPONENTS_2
100
AcDbLine
 62
7
  6
CONTINUOUS
 10
88.0379522674
 20
164.9426841449
 11
85.2448688531
 21
166.5552351253
  0
LINE
  5
416
100
AcDbEntity
  8
00_COMPONENTS_2
100
AcDbLine
 62
7
  6
CONTINUOUS
 10
110.0290647195
 20
148.4660245196
 11
110.1120203603
 21
148.4090680169
  0
LINE
  5
417
100
AcDbEntity
  8
00_COMPONENTS_2
100
AcDbLine
 62
7
  6
CONTINUOUS
 10
110.031287836
 20
148.4804336769
 11
110.1141967204
 21
148.4231191526
  0
LINE
  5
418
100
AcDbEntity
  8
00_COMPONENTS_2
100
AcDbLine
 62
7
  6
CONTINUOUS
 10
133.2927998052
 20
94.8052755628
 11
133.2927998052
 21
95.2098585216
  0
LINE
  5
419
100
AcDbEntity
  8
00_COMPONENTS_2
100
AcDbLine
 62
7
  6
CONTINUOUS
 10
136.5454774564
 20
154.166988626
 11
136.5454774564
 21
129.2616451141
  0
LINE
  5
41A
100
AcDbEntity
  8
00_COMPONENTS_2
100
AcDbLine
 62
7
  6
CONTINUOUS
 10
136.5454774564
 20
94.7317578937
 11
136.5454774564
 21
74.3110324413
  0
LINE
  5
41B
100
AcDbEntity
  8
00_COMPONENTS_2
100
AcDbLine
 62
7
  6
CONTINUOUS
 10
89.3816515142
 20
49.336118374
 11
112.29181584
 21
62.5632289594
  0
LINE
  5
41C
100
AcDbEntity
  8
00_COMPONENTS_2
100
AcDbLine
 62
7
  6
CONTINUOUS
 10
112.6658943109
 20
60.5242309802
 11
136.5454774564
 21
74.3110324413
  0
LINE
  5
41D
100
AcDbEntity
  8
00_COMPONENTS_2
100
AcDbLine
 62
7
  6
CONTINUOUS
 10
112.716081675
 20
59.5325869396
 11
89.8059173493
 21
46.3054763542
  0
LINE
  5
41E
100
AcDbEntity
  8
00_COMPONENTS_2
100
AcDbLine
 62
7
  6
CONTINUOUS
 10
109.8876663262
 20
55.9808296439
 11
112.716081675
 21
57.6138062594
  0
LINE
  5
41F
100
AcDbEntity
  8
00_COMPONENTS_2
100
AcDbLine
 62
7
  6
CONTINUOUS
 10
107.3065525659
 20
154.4479937688
 11
98.4677214745
 21
159.5509798338
  0
LINE
  5
420
100
AcDbEntity
  8
00_COMPONENTS_2
100
AcDbLine
 62
7
  6
CONTINUOUS
 10
103.0992544518
 20
160.7552733009
 11
110.6652613467
 21
156.3871360039
  0
LINE
  5
421
100
AcDbEntity
  8
00_COMPONENTS_2
100
AcDbLine
 62
7
  6
CONTINUOUS
 10
116.110064072
 20
154.7133530547
 11
117.206118338
 21
154.0805601448
  0
LINE
  5
422
100
AcDbEntity
  8
00_COMPONENTS_2
100
AcDbLine
 62
7
  6
CONTINUOUS
 10
133.1513790378
 20
125.750718583
 11
132.5149855843
 21
127.0163036787
  0
LINE
  5
423
100
AcDbEntity
  8
00_COMPONENTS_2
100
AcDbLine
 62
7
  6
CONTINUOUS
 10
109.8876663262
 20
54.8376726443
 11
110.0290647195
 21
54.9193085575
  0
LINE
  5
424
100
AcDbEntity
  8
00_COMPONENTS_2
100
AcDbLine
 62
7
  6
CONTINUOUS
 10
109.8876663262
 20
50.265312724
 11
89.8059173493
 21
38.671178754
  0
LINE
  5
425
100
AcDbEntity
  8
00_COMPONENTS_2
100
AcDbLine
 62
7
  6
CONTINUOUS
 10
93.1289960394
 20
169.5324935981
 11
100.3380538519
 21
165.3704362877
  0
LINE
  5
426
100
AcDbEntity
  8
00_COMPONENTS_2
100
AcDbLine
 62
7
  6
CONTINUOUS
 10
118.5495651716
 20
154.8562531834
 11
125.5694329218
 21
150.8034223354
  0
LINE
  5
427
100
AcDbEntity
  8
00_COMPONENTS_2
100
AcDbLine
 62
7
  6
CONTINUOUS
 10
103.0992543017
 20
165.4093369918
 11
114.6958537941
 21
158.7141886176
  0
LINE
  5
428
100
AcDbEntity
  8
00_COMPONENTS_2
100
AcDbLine
 62
7
  6
CONTINUOUS
 10
115.5711147694
 20
159.1891531371
 11
103.9210466239
 21
165.9151709541
  0
LINE
  5
429
100
AcDbEntity
  8
00_COMPONENTS_2
100
AcDbLine
 62
7
  6
CONTINUOUS
 10
109.7106633871
 20
163.9421885507
 11
118.4735500009
 21
158.8830480584
  0
LINE
  5
42A
100
AcDbEntity
  8
00_COMPONENTS
100
AcDbLine
 62
7
  6
CONTINUOUS
 10
101.0485786747
 20
172.3724759595
 11
104.5134163279
 21
170.3720962623
  0
LINE
  5
42B
100
AcDbEntity
  8
00_COMPONENTS
100
AcDbLine
 62
7
  6
CONTINUOUS
 10
127.5651933677
 20
157.063447665
 11
131.0300310209
 21
155.0630679678
  0
LINE
  5
42C
100
AcDbEntity
  8
00_COMPONENTS
100
AcDbLine
 62
7
  6
CONTINUOUS
 10
133.1030275463
 20
154.765506842
 11
133.4961403046
 21
154.0846193513
  0
LINE
  5
42D
100
AcDbEntity
  8
00_COMPONENTS
100
AcDbLine
 62
7
  6
CONTINUOUS
 10
134.5567960604
 20
154.6969855821
 11
134.1636833021
 21
155.3778730728
  0
ARC
  5
42E
100
AcDbEntity
  8
00_COMPONENTS_2
100
AcDbCircle
 62
7
  6
CONTINUOUS
 10
7.0106560807
 20
-19.282493497
 40
216.4809294085
100
AcDbArc
 50
53.2470416912
 51
53.6663443758
  0
ARC
  5
42F
100
AcDbEntity
  8
00_COMPONENTS_2
100
AcDbCircle
 62
7
  6
CONTINUOUS
 10
1.28821246
 20
-11.9000152369
 40
194.7314532043
100
AcDbArc
 50
56.7285758479
 51
57.3852829484
  0
ARC
  5
430
100
AcDbEntity
  8
00_COMPONENTS_2
100
AcDbCircle
 62
7
  6
CONTINUOUS
 10
19.8357546311
 20
-0.7923653797
 40
193.9744267116
100
AcDbArc
 50
56.9635479085
 51
57.2992567331
  0
ARC
  5
431
100
AcDbEntity
  8
00_COMPONENTS_2
100
AcDbCircle
 62
7
  6
CONTINUOUS
 10
11.8601376273
 20
-5.1079500831
 40
193.4258755002
100
AcDbArc
 50
57.0004596971
 51
57.3867377941
  0
ARC
  5
432
100
AcDbEntity
  8
00_COMPONENTS_2
100
AcDbCircle
 62
7
  6
CONTINUOUS
 10
15.45034445
 20
-0.3394532909
 40
188.3442192322
100
AcDbArc
 50
57.2983361758
 51
57.8874591933
  0
ARC
  5
433
100
AcDbEntity
  8
00_COMPONENTS_2
100
AcDbCircle
 62
7
  6
CONTINUOUS
 10
3.163616395
 20
-6.1749345272
 40
187.9866613181
100
AcDbArc
 50
53.4351488613
 51
55.3246035858
  0
ARC
  5
434
100
AcDbEntity
  8
00_COMPONENTS_2
100
AcDbCircle
 62
7
  6
CONTINUOUS
 10
27.3240012199
 20
21.7133385575
 40
162.4529774076
100
AcDbArc
 50
62.7587028856
 51
63.1926543343
  0
ARC
  5
435
100
AcDbEntity
  8
00_COMPONENTS_2
100
AcDbCircle
 62
7
  6
CONTINUOUS
 10
17.5860549244
 20
16.2632198675
 40
162.1775066186
100
AcDbArc
 50
62.7587261533
 51
63.5005640054
  0
ARC
  5
436
100
AcDbEntity
  8
00_COMPONENTS_2
100
AcDbCircle
 62
7
  6
CONTINUOUS
 10
29.6936601728
 20
25.1350291992
 40
159.1500964872
100
AcDbArc
 50
62.1992236166
 51
62.8626274959
  0
ARC
  5
437
100
AcDbEntity
  8
00_COMPONENTS_2
100
AcDbCircle
 62
7
  6
CONTINUOUS
 10
32.9922522832
 20
100.4148725107
 40
1.1713755482
100
AcDbArc
 50
112.0019840171
 51
119.9940524022
  0
ARC
  5
438
100
AcDbEntity
  8
00_COMPONENTS_2
100
AcDbCircle
 62
7
  6
CONTINUOUS
 10
35.6721911384
 20
26.637793416
 40
162.2870280474
100
AcDbArc
 50
62.8565872132
 51
63.2346842121
  0
ARC
  5
439
100
AcDbEntity
  8
00_COMPONENTS_2
100
AcDbCircle
 62
7
  6
CONTINUOUS
 10
44.0510357388
 20
44.7746155172
 40
142.3033712773
100
AcDbArc
 50
67.2555216611
 51
67.8100837812
  0
ARC
  5
43A
100
AcDbEntity
  8
00_COMPONENTS_2
100
AcDbCircle
 62
7
  6
CONTINUOUS
 10
52.1905750563
 20
59.6733765113
 40
5.7274678178
100
AcDbArc
 50
225.9435995921
 51
226.5843764817
  0
ARC
  5
43B
100
AcDbEntity
  8
00_COMPONENTS_2
100
AcDbCircle
 62
7
  6
CONTINUOUS
 10
37.1483568942
 20
68.2882733593
 40
5.6411739847
100
AcDbArc
 50
226.1905416804
 51
227.7469130354
  0
ARC
  5
43C
100
AcDbEntity
  8
00_COMPONENTS_2
100
AcDbCircle
 62
7
  6
CONTINUOUS
 10
44.5131338972
 20
63.8483125863
 40
5.4311147171
100
AcDbArc
 50
227.0590108265
 51
228.4700056395
  0
ARC
  5
43D
100
AcDbEntity
  8
00_COMPONENTS_2
100
AcDbCircle
 62
7
  6
CONTINUOUS
 10
43.8925748066
 20
63.4050091645
 40
4.3368559674
100
AcDbArc
 50
230.425616126
 51
230.997147783
  0
ARC
  5
43E
100
AcDbEntity
  8
00_COMPONENTS_2
100
AcDbCircle
 62
7
  6
CONTINUOUS
 10
36.3823512791
 20
67.7139656072
 40
4.3132041395
100
AcDbArc
 50
230.491718862
 51
231.0863425745
  0
ARC
  5
43F
100
AcDbEntity
  8
00_COMPONENTS_2
100
AcDbCircle
 62
7
  6
CONTINUOUS
 10
51.2959010523
 20
58.5383453303
 40
4.2802070558
100
AcDbArc
 50
235.3306260111
 51
238.0955021411
  0
ARC
  5
440
100
AcDbEntity
  8
00_COMPONENTS_2
100
AcDbCircle
 62
7
  6
CONTINUOUS
 10
43.8094944632
 20
63.4228890258
 40
4.2583061554
100
AcDbArc
 50
231.6433853282
 51
232.0514762527
  0
ARC
  5
441
100
AcDbEntity
  8
00_COMPONENTS_2
100
AcDbCircle
 62
7
  6
CONTINUOUS
 10
36.4811871055
 20
67.6270067404
 40
4.2503595749
100
AcDbArc
 50
229.0196719844
 51
229.2957573856
  0
ARC
  5
442
100
AcDbEntity
  8
00_COMPONENTS_2
100
AcDbCircle
 62
7
  6
CONTINUOUS
 10
43.8181110543
 20
63.3125354891
 40
4.2181288957
100
AcDbArc
 50
230.9926344111
 51
232.5188839246
  0
ARC
  5
443
100
AcDbEntity
  8
00_COMPONENTS_2
100
AcDbCircle
 62
7
  6
CONTINUOUS
 10
36.3139225945
 20
67.6287861339
 40
4.2039431794
100
AcDbArc
 50
231.0827792341
 51
232.4917298049
  0
ARC
  5
444
100
AcDbEntity
  8
00_COMPONENTS_2
100
AcDbCircle
 62
7
  6
CONTINUOUS
 10
42.7329088091
 20
63.5207439636
 40
4.1990226539
100
AcDbArc
 50
188.5212129375
 51
192.4928892844
  0
ARC
  5
445
100
AcDbEntity
  8
00_COMPONENTS_2
100
AcDbCircle
 62
7
  6
CONTINUOUS
 10
36.4442400602
 20
67.5839397416
 40
4.1936159013
100
AcDbArc
 50
229.2947012746
 51
230.0375684207
  0
ARC
  5
446
100
AcDbEntity
  8
00_COMPONENTS_2
100
AcDbCircle
 62
7
  6
CONTINUOUS
 10
43.7665375884
 20
63.3676128422
 40
4.1883009027
100
AcDbArc
 50
232.0498614342
 51
233.0333171339
  0
ARC
  5
447
100
AcDbEntity
  8
00_COMPONENTS_2
100
AcDbCircle
 62
7
  6
CONTINUOUS
 10
51.1779084391
 20
58.3499662117
 40
4.0579266947
100
AcDbArc
 50
238.1040894726
 51
239.1019635735
  0
ARC
  5
448
100
AcDbEntity
  8
00_COMPONENTS_2
100
AcDbCircle
 62
7
  6
CONTINUOUS
 10
49.9558757065
 20
59.1482688632
 40
3.9229496013
100
AcDbArc
 50
188.458957462
 51
188.8658523019
  0
ARC
  5
449
100
AcDbEntity
  8
00_COMPONENTS_2
100
AcDbCircle
 62
7
  6
CONTINUOUS
 10
48.2491955307
 20
56.9183149836
 40
3.2316423039
100
AcDbArc
 50
0.0340445064
 51
2.9905335445
  0
ARC
  5
44A
100
AcDbEntity
  8
00_COMPONENTS_2
100
AcDbCircle
 62
7
  6
CONTINUOUS
 10
38.4237236604
 20
64.3379132456
 40
2.9629970353
100
AcDbArc
 50
34.9415839535
 51
40.7977185212
  0
ARC
  5
44B
100
AcDbEntity
  8
00_COMPONENTS_2
100
AcDbCircle
 62
7
  6
CONTINUOUS
 10
48.5343502938
 20
56.9196117093
 40
2.9464870363
100
AcDbArc
 50
356.868243954
 51
0.0121238454
  0
ARC
  5
44C
100
AcDbEntity
  8
00_COMPONENTS_2
100
AcDbCircle
 62
7
  6
CONTINUOUS
 10
38.6754059527
 20
64.4017075814
 40
2.7089721475
100
AcDbArc
 50
15.1596478574
 51
19.9078500553
  0
ARC
  5
44D
100
AcDbEntity
  8
00_COMPONENTS_2
100
AcDbCircle
 62
7
  6
CONTINUOUS
 10
48.8088938902
 20
56.9057273717
 40
2.6715951674
100
AcDbArc
 50
353.4880362534
 51
356.8438953458
  0
ARC
  5
44E
100
AcDbEntity
  8
00_COMPONENTS_2
100
AcDbCircle
 62
7
  6
CONTINUOUS
 10
49.0661529105
 20
56.877530341
 40
2.4127983668
100
AcDbArc
 50
349.8694673189
 51
353.4604709434
  0
ARC
  5
44F
100
AcDbEntity
  8
00_COMPONENTS_2
100
AcDbCircle
 62
7
  6
CONTINUOUS
 10
50.7494267768
 20
57.1621019841
 40
1.7952467539
100
AcDbArc
 50
271.7668039955
 51
277.3334625711
  0
ARC
  5
450
100
AcDbEntity
  8
00_COMPONENTS_2
100
AcDbCircle
 62
7
  6
CONTINUOUS
 10
50.7634575665
 20
57.0395790151
 40
1.6719359587
100
AcDbArc
 50
277.3925181855
 51
280.0836395289
  0
ARC
  5
451
100
AcDbEntity
  8
00_COMPONENTS_2
100
AcDbCircle
 62
7
  6
CONTINUOUS
 10
42.813924458
 20
61.0187210824
 40
1.6087427293
100
AcDbArc
 50
270.0069188771
 51
275.7941070708
  0
ARC
  5
452
100
AcDbEntity
  8
00_COMPONENTS_2
100
AcDbCircle
 62
7
  6
CONTINUOUS
 10
42.8135888708
 20
60.5407102648
 40
1.1756887501
100
AcDbArc
 50
300.0321538992
 51
308.6383395972
  0
ARC
  5
453
100
AcDbEntity
  8
00_COMPONENTS_2
100
AcDbCircle
 62
7
  6
CONTINUOUS
 10
52.0352574592
 20
91.6833572382
 40
5.8441316904
100
AcDbArc
 50
193.5312737884
 51
194.9218457103
  0
ARC
  5
454
100
AcDbEntity
  8
00_COMPONENTS_2
100
AcDbCircle
 62
7
  6
CONTINUOUS
 10
36.9712643683
 20
100.3093060353
 40
5.7442525341
100
AcDbArc
 50
193.2031901498
 51
194.6871084896
  0
ARC
  5
455
100
AcDbEntity
  8
00_COMPONENTS_2
100
AcDbCircle
 62
7
  6
CONTINUOUS
 10
52.1663569275
 20
91.1644093922
 40
5.6919630975
100
AcDbArc
 50
225.9957553632
 51
227.1288730851
  0
ARC
  5
456
100
AcDbEntity
  8
00_COMPONENTS_2
100
AcDbCircle
 62
7
  6
CONTINUOUS
 10
37.1525763635
 20
99.8097826872
 40
5.6473542819
100
AcDbArc
 50
226.1500723596
 51
227.7041578693
  0
ARC
  5
457
100
AcDbEntity
  8
00_COMPONENTS_2
100
AcDbCircle
 62
7
  6
CONTINUOUS
 10
36.7325494301
 20
100.2534948173
 40
5.4991001795
100
AcDbArc
 50
191.447534456
 51
193.2051467481
  0
ARC
  5
458
100
AcDbEntity
  8
00_COMPONENTS_2
100
AcDbCircle
 62
7
  6
CONTINUOUS
 10
44.5078016925
 20
95.359425684
 40
5.4231770838
100
AcDbArc
 50
227.121255281
 51
228.5321694066
  0
ARC
  5
459
100
AcDbEntity
  8
00_COMPONENTS_2
100
AcDbCircle
 62
7
  6
CONTINUOUS
 10
39.750507848
 20
92.5493137355
 40
4.3815296019
100
AcDbArc
 50
9.2810626729
 51
9.9500712514
  0
ARC
  5
45A
100
AcDbEntity
  8
00_COMPONENTS_2
100
AcDbCircle
 62
7
  6
CONTINUOUS
 10
39.3963236543
 20
93.2015105788
 40
4.3606673343
100
AcDbArc
 50
50.2865186241
 51
50.6931217886
  0
ARC
  5
45B
100
AcDbEntity
  8
00_COMPONENTS_2
100
AcDbCircle
 62
7
  6
CONTINUOUS
 10
36.016613286
 20
99.9130338279
 40
4.339407297
100
AcDbArc
 50
188.9217125683
 51
189.4603613217
  0
ARC
  5
45C
100
AcDbEntity
  8
00_COMPONENTS_2
100
AcDbCircle
 62
7
  6
CONTINUOUS
 10
36.3862691713
 20
99.2357558547
 40
4.3193977034
100
AcDbArc
 50
230.4348917909
 51
231.0284163851
  0
ARC
  5
45D
100
AcDbEntity
  8
00_COMPONENTS_2
100
AcDbCircle
 62
7
  6
CONTINUOUS
 10
43.4565447163
 20
95.5865716999
 40
4.282592239
100
AcDbArc
 50
189.2242629638
 51
189.6233127818
  0
ARC
  5
45E
100
AcDbEntity
  8
00_COMPONENTS_2
100
AcDbCircle
 62
7
  6
CONTINUOUS
 10
43.8122138777
 20
94.9397924643
 40
4.2598160711
100
AcDbArc
 50
231.7120980391
 51
232.1236223103
  0
ARC
  5
45F
100
AcDbEntity
  8
00_COMPONENTS_2
100
AcDbCircle
 62
7
  6
CONTINUOUS
 10
35.9110090259
 20
99.8967223437
 40
4.2325510707
100
AcDbArc
 50
187.5535052653
 51
188.9252792538
  0
ARC
  5
460
100
AcDbEntity
  8
00_COMPONENTS_2
100
AcDbCircle
 62
7
  6
CONTINUOUS
 10
36.3180697046
 20
99.1510396753
 40
4.2106414178
100
AcDbArc
 50
231.0248956077
 51
232.4278628802
  0
ARC
  5
461
100
AcDbEntity
  8
00_COMPONENTS_2
100
AcDbCircle
 62
7
  6
CONTINUOUS
 10
42.729710395
 20
95.0370844804
 40
4.1957577223
100
AcDbArc
 50
188.4550151003
 51
192.4862107833
  0
ARC
  5
462
100
AcDbEntity
  8
00_COMPONENTS_2
100
AcDbCircle
 62
7
  6
CONTINUOUS
 10
43.7723893374
 20
94.8884649488
 40
4.1948506828
100
AcDbArc
 50
232.1225564227
 51
232.9432577628
  0
ARC
  5
463
100
AcDbEntity
  8
00_COMPONENTS_2
100
AcDbCircle
 62
7
  6
CONTINUOUS
 10
43.355349791
 20
95.5704846484
 40
4.1801271913
100
AcDbArc
 50
187.6940318983
 51
189.2289567391
  0
ARC
  5
464
100
AcDbEntity
  8
00_COMPONENTS_2
100
AcDbCircle
 62
7
  6
CONTINUOUS
 10
39.7899448063
 20
93.3412098671
 40
3.9150110381
100
AcDbArc
 50
53.8506153207
 51
54.1743436217
  0
ARC
  5
465
100
AcDbEntity
  8
00_COMPONENTS_2
100
AcDbCircle
 62
7
  6
CONTINUOUS
 10
43.1957076796
 20
95.4600315345
 40
3.8411656949
100
AcDbArc
 50
188.0504299431
 51
188.504228121
  0
ARC
  5
466
100
AcDbEntity
  8
00_COMPONENTS_2
100
AcDbCircle
 62
7
  6
CONTINUOUS
 10
40.8371803971
 20
92.8156676958
 40
3.2525337212
100
AcDbArc
 50
1.8337279601
 51
6.6439235112
  0
ARC
  5
467
100
AcDbEntity
  8
00_COMPONENTS_2
100
AcDbCircle
 62
7
  6
CONTINUOUS
 10
48.2491955307
 20
88.4353082848
 40
3.2316423039
100
AcDbArc
 50
0.0340445064
 51
2.9905335445
  0
ARC
  5
468
100
AcDbEntity
  8
00_COMPONENTS_2
100
AcDbCircle
 62
7
  6
CONTINUOUS
 10
40.7553069616
 20
92.7626937756
 40
3.230167767
100
AcDbArc
 50
0.0334659596
 51
2.9650907632
  0
ARC
  5
469
100
AcDbEntity
  8
00_COMPONENTS_2
100
AcDbCircle
 62
7
  6
CONTINUOUS
 10
41.0379674975
 20
92.7639677474
 40
2.9475067438
100
AcDbArc
 50
356.8961316028
 51
0.0119108983
  0
ARC
  5
46A
100
AcDbEntity
  8
00_COMPONENTS_2
100
AcDbCircle
 62
7
  6
CONTINUOUS
 10
48.5343502938
 20
88.4366050105
 40
2.9464870363
100
AcDbArc
 50
356.868243954
 51
0.0121238454
  0
ARC
  5
46B
100
AcDbEntity
  8
00_COMPONENTS_2
100
AcDbCircle
 62
7
  6
CONTINUOUS
 10
41.3102202988
 20
92.7503230113
 40
2.6749147548
100
AcDbArc
 50
353.5483317075
 51
356.8722113325
  0
ARC
  5
46C
100
AcDbEntity
  8
00_COMPONENTS_2
100
AcDbCircle
 62
7
  6
CONTINUOUS
 10
48.8088938902
 20
88.4227206729
 40
2.6715951674
100
AcDbArc
 50
353.4880362534
 51
356.8438953458
  0
ARC
  5
46D
100
AcDbEntity
  8
00_COMPONENTS_2
100
AcDbCircle
 62
7
  6
CONTINUOUS
 10
41.5870684754
 20
92.8042696352
 40
2.5018635799
100
AcDbArc
 50
352.5613615318
 51
356.0721031933
  0
ARC
  5
46E
100
AcDbEntity
  8
00_COMPONENTS_2
100
AcDbCircle
 62
7
  6
CONTINUOUS
 10
41.5655428385
 20
92.7225997956
 40
2.4180943233
100
AcDbArc
 50
349.9667403807
 51
353.5212799327
  0
ARC
  5
46F
100
AcDbEntity
  8
00_COMPONENTS_2
100
AcDbCircle
 62
7
  6
CONTINUOUS
 10
49.0661529104
 20
88.3945236422
 40
2.4127983668
100
AcDbArc
 50
349.8694673189
 51
353.4604709434
  0
ARC
  5
470
100
AcDbEntity
  8
00_COMPONENTS_2
100
AcDbCircle
 62
7
  6
CONTINUOUS
 10
48.6556529667
 20
91.3598956807
 40
1.964348568
100
AcDbArc
 50
160.2739843861
 51
163.3103120053
  0
ARC
  5
471
100
AcDbEntity
  8
00_COMPONENTS_2
100
AcDbCircle
 62
7
  6
CONTINUOUS
 10
48.5673982299
 20
91.6833981203
 40
1.542603254
100
AcDbArc
 50
143.6789193492
 51
149.9719551608
  0
ARC
  5
472
100
AcDbEntity
  8
00_COMPONENTS_2
100
AcDbCircle
 62
7
  6
CONTINUOUS
 10
48.5076047621
 20
91.6718772633
 40
1.2601252406
100
AcDbArc
 50
114.4223096577
 51
120.0144068664
  0
ARC
  5
473
100
AcDbEntity
  8
00_COMPONENTS_2
100
AcDbCircle
 62
7
  6
CONTINUOUS
 10
42.8084950675
 20
92.0653501784
 40
1.1847945292
100
AcDbArc
 50
300.0603289752
 51
309.8851960559
  0
ARC
  5
474
100
AcDbEntity
  8
00_COMPONENTS_2
100
AcDbCircle
 62
7
  6
CONTINUOUS
 10
42.8155866
 20
92.0549611709
 40
1.1722510003
100
AcDbArc
 50
292.27467476
 51
300.0146910148
  0
ARC
  5
475
100
AcDbEntity
  8
00_COMPONENTS_2
100
AcDbCircle
 62
7
  6
CONTINUOUS
 10
47.9838012215
 20
91.7595883476
 40
1.1722509737
100
AcDbArc
 50
112.2746789197
 51
120.0146912996
  0
ARC
  5
476
100
AcDbEntity
  8
00_COMPONENTS_2
100
AcDbCircle
 62
7
  6
CONTINUOUS
 10
68.9748460938
 20
57.1092877329
 40
4.6921875896
100
AcDbArc
 50
223.9477142218
 51
224.235431584
  0
ARC
  5
477
100
AcDbEntity
  8
00_COMPONENTS_2
100
AcDbCircle
 62
7
  6
CONTINUOUS
 10
68.8458379657
 20
56.9770516562
 40
4.507509445
100
AcDbArc
 50
224.1750880755
 51
231.764619437
  0
ARC
  5
478
100
AcDbEntity
  8
00_COMPONENTS_2
100
AcDbCircle
 62
7
  6
CONTINUOUS
 10
101.7754389445
 20
59.4661297511
 40
10.9425510871
100
AcDbArc
 50
4.495345805
 51
5.450440782
  0
ARC
  5
479
100
AcDbEntity
  8
00_COMPONENTS_2
100
AcDbCircle
 62
7
  6
CONTINUOUS
 10
102.7242567111
 20
59.5278096716
 40
9.991826106
100
AcDbArc
 50
0.0273941221
 51
4.5691823618
  0
ARC
  5
47A
100
AcDbEntity
  8
00_COMPONENTS_2
100
AcDbCircle
 62
7
  6
CONTINUOUS
 10
153.7301941168
 20
293.0377213129
 40
212.7132906597
100
AcDbArc
 50
245.41674212
 51
246.7602037117
  0
ARC
  5
47B
100
AcDbEntity
  8
00_COMPONENTS_2
100
AcDbCircle
 62
7
  6
CONTINUOUS
 10
151.988039351
 20
291.6609706535
 40
208.5090909924
100
AcDbArc
 50
245.1766067326
 51
245.4146704484
  0
ARC
  5
47C
100
AcDbEntity
  8
00_COMPONENTS_2
100
AcDbCircle
 62
7
  6
CONTINUOUS
 10
147.3664321509
 20
279.5323667981
 40
197.7830502972
100
AcDbArc
 50
242.8418427279
 51
244.4660759322
  0
ARC
  5
47D
100
AcDbEntity
  8
00_COMPONENTS_2
100
AcDbCircle
 62
7
  6
CONTINUOUS
 10
145.2271258576
 20
277.7884714705
 40
193.0754881902
100
AcDbArc
 50
242.5892959834
 51
242.8386901154
  0
ARC
  5
47E
100
AcDbEntity
  8
00_COMPONENTS_2
100
AcDbCircle
 62
7
  6
CONTINUOUS
 10
129.5837985198
 20
251.6874012778
 40
183.8666540144
100
AcDbArc
 50
240.937501214
 51
241.2401794764
  0
ARC
  5
47F
100
AcDbEntity
  8
00_COMPONENTS_2
100
AcDbCircle
 62
7
  6
CONTINUOUS
 10
140.2433084474
 20
266.0225584095
 40
182.5096043298
100
AcDbArc
 50
240.1355686551
 51
241.8446738353
  0
ARC
  5
480
100
AcDbEntity
  8
00_COMPONENTS_2
100
AcDbCircle
 62
7
  6
CONTINUOUS
 10
137.9575224125
 20
264.4692706254
 40
177.9001506683
100
AcDbArc
 50
239.8690780151
 51
240.1320445115
  0
ARC
  5
481
100
AcDbEntity
  8
00_COMPONENTS_2
100
AcDbCircle
 62
7
  6
CONTINUOUS
 10
123.6502904601
 20
241.401938311
 40
171.9918072611
100
AcDbArc
 50
238.4313710481
 51
239.5093638683
  0
ARC
  5
482
100
AcDbEntity
  8
00_COMPONENTS_2
100
AcDbCircle
 62
7
  6
CONTINUOUS
 10
122.0080350199
 20
238.7226198019
 40
168.8492384915
100
AcDbArc
 50
238.0979441848
 51
238.4301999147
  0
ARC
  5
483
100
AcDbEntity
  8
00_COMPONENTS_2
100
AcDbCircle
 62
7
  6
CONTINUOUS
 10
132.6715420333
 20
253.189279898
 40
167.6082452883
100
AcDbArc
 50
237.27374545
 51
239.083641797
  0
ARC
  5
484
100
AcDbEntity
  8
00_COMPONENTS_2
100
AcDbCircle
 62
7
  6
CONTINUOUS
 10
130.2678407993
 20
251.8776589689
 40
163.1446441046
100
AcDbArc
 50
236.9907726092
 51
237.2698057526
  0
ARC
  5
485
100
AcDbEntity
  8
00_COMPONENTS_2
100
AcDbCircle
 62
7
  6
CONTINUOUS
 10
90.5792702067
 20
137.6186054657
 40
4.8574235505
100
AcDbArc
 50
39.8223176278
 51
41.5256032321
  0
ARC
  5
486
100
AcDbEntity
  8
00_COMPONENTS_2
100
AcDbCircle
 62
7
  6
CONTINUOUS
 10
90.7003236892
 20
137.7261029187
 40
4.6955297731
100
AcDbArc
 50
41.5228452427
 51
43.5476474913
  0
SPLINE
  5
487
100
AcDbEntity
  8
00_COMPONENTS_2
100
AcDbSpline
 62
7
  6
CONTINUOUS
 70
0
 71
3
 72
14
 73
10
 74
0
 42
0.0000001
 43
0.0000001
 44
0.0000000001
 40
0.0
 40
0.0
 40
0.0
 40
0.0
 40
0.2810057702
 40
0.4121293216
 40
0.5375164278
 40
0.6579127377
 40
0.7743006345
 40
0.8878765164
 40
1.0
 40
1.0
 40
1.0
 40
1.0
 10
60.0827122183
 20
155.6927325911
 30
0.0
 10
60.1174933328
 20
155.9646679335
 30
0.0
 10
60.1995306958
 20
156.3612313041
 30
0.0
 10
60.3811735106
 20
156.8539680228
 30
0.0
 10
60.544858523
 20
157.1841298843
 30
0.0
 10
60.7380939659
 20
157.4809710745
 30
0.0
 10
60.9597919017
 20
157.7424262684
 30
0.0
 10
61.2084178831
 20
157.9665529875
 30
0.0
 10
61.3915888698
 20
158.0902919297
 30
0.0
 10
61.4863201651
 20
158.1449889552
 30
0.0
  0
SPLINE
  5
488
100
AcDbEntity
  8
00_COMPONENTS_2
100
AcDbSpline
 62
7
  6
CONTINUOUS
 70
0
 71
3
 72
17
 73
13
 74
0
 42
0.0000001
 43
0.0000001
 44
0.0000000001
 40
0.0
 40
0.0
 40
0.0
 40
0.0
 40
0.1567849326
 40
0.3057842767
 40
0.4453654678
 40
0.574507496
 40
0.6930098934
 40
0.8017315036
 40
0.8531228228
 40
0.9029795582
 40
0.9517651953
 40
1.0
 40
1.0
 40
1.0
 40
1.0
 10
67.9061740415
 20
156.5678243453
 30
0.0
 10
67.6828715977
 20
156.815546089
 30
0.0
 10
67.2245021009
 20
157.2788088352
 30
0.0
 10
66.4908749994
 20
157.8810905397
 30
0.0
 10
65.7415923811
 20
158.3629573861
 30
0.0
 10
64.9928819426
 20
158.7132992879
 30
0.0
 10
64.2608918246
 20
158.9236719234
 30
0.0
 10
63.665920871
 20
158.9776672578
 30
0.0
 10
63.2198057543
 20
158.9417218669
 30
0.0
 10
62.9062033914
 20
158.878127166
 30
0.0
 10
62.6095029767
 20
158.7776379851
 30
0.0
 10
62.4237015847
 20
158.6861868189
 30
0.0
 10
62.3348448655
 20
158.6348817713
 30
0.0
  0
SPLINE
  5
489
100
AcDbEntity
  8
00_COMPONENTS_2
100
AcDbSpline
 62
7
  6
CONTINUOUS
 70
0
 71
3
 72
17
 73
13
 74
0
 42
0.0000001
 43
0.0000001
 44
0.0000000001
 40
0.0
 40
0.0
 40
0.0
 40
0.0
 40
0.0482348655
 40
0.0970205503
 40
0.1468773364
 40
0.1982687065
 40
0.3069905133
 40
0.4254932068
 40
0.554635441
 40
0.6942165413
 40
0.8432155136
 40
1.0
 40
1.0
 40
1.0
 40
1.0
 10
61.4863201651
 20
158.1449889552
 30
0.0
 10
61.5751772123
 20
158.1962942409
 30
0.0
 10
61.7609795246
 20
158.2877453101
 30
0.0
 10
62.0576809667
 20
158.3882350985
 30
0.0
 10
62.3712846436
 20
158.4518293349
 30
0.0
 10
62.817401605
 20
158.4877744382
 30
0.0
 10
63.4123752394
 20
158.4337775199
 30
0.0
 10
64.1443682733
 20
158.2234023147
 30
0.0
 10
64.8930806833
 20
157.8730573244
 30
0.0
 10
65.6423637541
 20
157.3911878214
 30
0.0
 10
66.375990136
 20
156.7889043125
 30
0.0
 10
66.8343588194
 20
156.3256407775
 30
0.0
 10
67.0576608437
 20
156.077918735
 30
0.0
  0
SPLINE
  5
48A
100
AcDbEntity
  8
00_COMPONENTS_2
100
AcDbSpline
 62
7
  6
CONTINUOUS
 70
0
 71
3
 72
14
 73
10
 74
0
 42
0.0000001
 43
0.0000001
 44
0.0000000001
 40
0.0
 40
0.0
 40
0.0
 40
0.0
 40
0.2810057702
 40
0.4121293216
 40
0.5375164278
 40
0.6579127377
 40
0.7743006345
 40
0.8878765164
 40
1.0
 40
1.0
 40
1.0
 40
1.0
 10
72.810687271
 20
148.3443990097
 30
0.0
 10
72.8454683855
 20
148.6163343521
 30
0.0
 10
72.9275057484
 20
149.0128977228
 30
0.0
 10
73.1091485632
 20
149.5056344414
 30
0.0
 10
73.2728335757
 20
149.835796303
 30
0.0
 10
73.4660690185
 20
150.1326374931
 30
0.0
 10
73.6877669543
 20
150.394092687
 30
0.0
 10
73.9363929357
 20
150.6182194062
 30
0.0
 10
74.1195639225
 20
150.7419583484
 30
0.0
 10
74.2142952178
 20
150.7966553738
 30
0.0
  0
SPLINE
  5
48B
100
AcDbEntity
  8
00_COMPONENTS_2
100
AcDbSpline
 62
7
  6
CONTINUOUS
 70
0
 71
3
 72
17
 73
13
 74
0
 42
0.0000001
 43
0.0000001
 44
0.0000000001
 40
0.0
 40
0.0
 40
0.0
 40
0.0
 40
0.156670176
 40
0.3054469055
 40
0.4447882243
 40
0.5737555962
 40
0.6922145717
 40
0.8010616245
 40
0.8525775001
 40
0.9025940724
 40
0.9515655602
 40
1.0
 40
1.0
 40
1.0
 40
1.0
 10
80.5526457829
 20
149.3088818012
 30
0.0
 10
80.33098323
 20
149.5492312436
 30
0.0
 10
79.8767968601
 20
149.9982135005
 30
0.0
 10
79.1517575194
 20
150.5806347592
 30
0.0
 10
78.4129662144
 20
151.0450651598
 30
0.0
 10
77.6759545845
 20
151.3810823305
 30
0.0
 10
76.9561664406
 20
151.5807762487
 30
0.0
 10
76.3717067392
 20
151.6291458624
 30
0.0
 10
75.9334272975
 20
151.59114399
 30
0.0
 10
75.6251106695
 20
151.5271327134
 30
0.0
 10
75.3332561408
 20
151.4273393006
 30
0.0
 10
75.1503554092
 20
151.3370903726
 30
0.0
 10
75.0628199182
 20
151.2865481899
 30
0.0
  0
SPLINE
  5
48C
100
AcDbEntity
  8
00_COMPONENTS_2
100
AcDbSpline
 62
7
  6
CONTINUOUS
 70
0
 71
3
 72
17
 73
13
 74
0
 42
0.0000001
 43
0.0000001
 44
0.0000000001
 40
0.0
 40
0.0
 40
0.0
 40
0.0
 40
0.0482348655
 40
0.0970205503
 40
0.1468773364
 40
0.1982687065
 40
0.3069905133
 40
0.4254932068
 40
0.554635441
 40
0.6942165413
 40
0.8432155136
 40
1.0
 40
1.0
 40
1.0
 40
1.0
 10
74.2142952178
 20
150.7966553738
 30
0.0
 10
74.3031522649
 20
150.8479606595
 30
0.0
 10
74.4889545773
 20
150.9394117287
 30
0.0
 10
74.7856560194
 20
151.0399015171
 30
0.0
 10
75.0992596962
 20
151.1034957536
 30
0.0
 10
75.5453766577
 20
151.1394408568
 30
0.0
 10
76.1403502921
 20
151.0854439385
 30
0.0
 10
76.872343326
 20
150.8750687333
 30
0.0
 10
77.6210557359
 20
150.524723743
 30
0.0
 10
78.3703388067
 20
150.04285424
 30
0.0
 10
79.1039651887
 20
149.4405707311
 30
0.0
 10
79.5623338721
 20
148.9773071962
 30
0.0
 10
79.7856358964
 20
148.7295851537
 30
0.0
  0
SPLINE
  5
48D
100
AcDbEntity
  8
00_COMPONENTS_2
100
AcDbSpline
 62
7
  6
CONTINUOUS
 70
0
 71
3
 72
14
 73
10
 74
0
 42
0.0000001
 43
0.0000001
 44
0.0000000001
 40
0.0
 40
0.0
 40
0.0
 40
0.0
 40
0.2810057702
 40
0.4121293216
 40
0.5375164278
 40
0.6579127377
 40
0.7743006345
 40
0.8878765164
 40
1.0
 40
1.0
 40
1.0
 40
1.0
 10
85.5386623236
 20
140.9960654283
 30
0.0
 10
85.5734434381
 20
141.2680007708
 30
0.0
 10
85.6554808011
 20
141.6645641414
 30
0.0
 10
85.8371236158
 20
142.15730086
 30
0.0
 10
86.0008086283
 20
142.4874627216
 30
0.0
 10
86.1940440711
 20
142.7843039118
 30
0.0
 10
86.415742007
 20
143.0457591057
 30
0.0
 10
86.6643679884
 20
143.2698858248
 30
0.0
 10
86.8475389751
 20
143.393624767
 30
0.0
 10
86.9422702704
 20
143.4483217924
 30
0.0
  0
SPLINE
  5
48E
100
AcDbEntity
  8
00_COMPONENTS_2
100
AcDbSpline
 62
7
  6
CONTINUOUS
 70
0
 71
3
 72
9
 73
5
 74
0
 42
0.0000001
 43
0.0000001
 44
0.0000000001
 40
0.0
 40
0.0
 40
0.0
 40
0.0
 40
0.2528223693
 40
1.0
 40
1.0
 40
1.0
 40
1.0
 10
94.278583301
 20
140.7078528851
 30
0.0
 10
94.2129572786
 20
140.8031170063
 30
0.0
 10
93.9479004904
 20
141.1761030412
 30
0.0
 10
93.6609785555
 20
141.5336282449
 30
0.0
 10
93.4346574204
 20
141.7898670511
 30
0.0
  0
SPLINE
  5
48F
100
AcDbEntity
  8
00_COMPONENTS_2
100
AcDbSpline
 62
7
  6
CONTINUOUS
 70
0
 71
3
 72
18
 73
14
 74
0
 42
0.0000001
 43
0.0000001
 44
0.0000000001
 40
0.0
 40
0.0
 40
0.0
 40
0.0
 40
0.1568530243
 40
0.306025885
 40
0.4458037839
 40
0.5750903211
 40
0.6357309358
 40
0.6937372643
 40
0.802341265
 40
0.853618669
 40
0.9033298528
 40
0.9519465511
 40
1.0
 40
1.0
 40
1.0
 40
1.0
 10
93.4346574204
 20
141.7898670511
 30
0.0
 10
93.2099869445
 20
142.0442369955
 30
0.0
 10
92.7480400599
 20
142.520393572
 30
0.0
 10
92.0068786561
 20
143.1406688745
 30
0.0
 10
91.2483877928
 20
143.6383074942
 30
0.0
 10
90.6023875391
 20
143.9475862815
 30
0.0
 10
90.0933395771
 20
144.1189227119
 30
0.0
 10
89.6150791014
 20
144.2347267496
 30
0.0
 10
89.1417959685
 20
144.2810383733
 30
0.0
 10
88.6886665603
 20
144.2470069277
 30
0.0
 10
88.3703012859
 20
144.1838218707
 30
0.0
 10
88.0692448943
 20
144.0827297231
 30
0.0
 10
87.8808369232
 20
143.9902039989
 30
0.0
 10
87.7907949708
 20
143.9382146086
 30
0.0
  0
SPLINE
  5
490
100
AcDbEntity
  8
00_COMPONENTS_2
100
AcDbSpline
 62
7
  6
CONTINUOUS
 70
0
 71
3
 72
20
 73
16
 74
0
 42
0.0000001
 43
0.0000001
 44
0.0000000001
 40
0.0
 40
0.0
 40
0.0
 40
0.0
 40
0.0461165544
 40
0.092959656
 40
0.1412010614
 40
0.1914134887
 40
0.2440466796
 40
0.2994204027
 40
0.3577266291
 40
0.419043659
 40
0.4833499356
 40
0.5505357302
 40
0.6926828184
 40
0.8434402009
 40
1.0
 40
1.0
 40
1.0
 40
1.0
 10
86.9422702704
 20
143.4483217924
 30
0.0
 10
87.0469643233
 20
143.5087712274
 30
0.0
 10
87.267913085
 20
143.6142752296
 30
0.0
 10
87.6236896103
 20
143.7211476318
 30
0.0
 10
88.0018473257
 20
143.776469673
 30
0.0
 10
88.3990165702
 20
143.7800234545
 30
0.0
 10
88.8119793642
 20
143.7320783893
 30
0.0
 10
89.2374556854
 20
143.6332106724
 30
0.0
 10
89.6721431929
 20
143.4843925594
 30
0.0
 10
90.1126690716
 20
143.2869008785
 30
0.0
 10
90.5556171665
 20
143.0423336353
 30
0.0
 10
91.1560090787
 20
142.6487516825
 30
0.0
 10
91.8886107921
 20
142.0487496419
 30
0.0
 10
92.7055329132
 20
141.1964660716
 30
0.0
 10
93.1972011216
 20
140.5559777929
 30
0.0
 10
93.4300317901
 20
140.217998815
 30
0.0
  0
SPLINE
  5
491
100
AcDbEntity
  8
00_COMPONENTS
100
AcDbSpline
 62
7
  6
CONTINUOUS
 70
0
 71
3
 72
13
 73
9
 74
0
 42
0.0000001
 43
0.0000001
 44
0.0000000001
 40
0.0
 40
0.0
 40
0.0
 40
0.0
 40
0.2817740609
 40
0.4155933996
 40
0.5440492453
 40
0.6668178821
 40
0.7837327457
 40
1.0
 40
1.0
 40
1.0
 40
1.0
 10
107.507505912
 20
170.8281188308
 30
0.0
 10
106.9279648701
 20
171.4091671113
 30
0.0
 10
106.0229962435
 20
172.2193100191
 30
0.0
 10
104.7411182725
 20
173.1524221933
 30
0.0
 10
103.7886203727
 20
173.746279917
 30
0.0
 10
102.8359242825
 20
174.2413025503
 30
0.0
 10
101.6087806395
 20
174.750602813
 30
0.0
 10
100.6605723154
 20
174.9975635131
 30
0.0
 10
100.0362379052
 20
175.0809171171
 30
0.0
  0
SPLINE
  5
492
100
AcDbEntity
  8
00_COMPONENTS
100
AcDbSpline
 62
7
  6
CONTINUOUS
 70
0
 71
3
 72
13
 73
9
 74
0
 42
0.0000001
 43
0.0000001
 44
0.0000000001
 40
0.0
 40
0.0
 40
0.0
 40
0.0
 40
0.2162672543
 40
0.3331821179
 40
0.4559507547
 40
0.5844066004
 40
0.7182259391
 40
1.0
 40
1.0
 40
1.0
 40
1.0
 10
98.9755821493
 20
174.4685508863
 30
0.0
 10
99.5999165595
 20
174.3851972823
 30
0.0
 10
100.5481248837
 20
174.1382365822
 30
0.0
 10
101.7752685266
 20
173.6289363195
 30
0.0
 10
102.7279646168
 20
173.1339136862
 30
0.0
 10
103.6804625167
 20
172.5400559625
 30
0.0
 10
104.9623404877
 20
171.6069437883
 30
0.0
 10
105.8673091143
 20
170.7968008804
 30
0.0
 10
106.4468501562
 20
170.2157526
 30
0.0
  0
SPLINE
  5
493
100
AcDbEntity
  8
00_COMPONENTS
100
AcDbSpline
 62
7
  6
CONTINUOUS
 70
0
 71
3
 72
14
 73
10
 74
0
 42
0.0000001
 43
0.0000001
 44
0.0000000001
 40
0.0
 40
0.0
 40
0.0
 40
0.0
 40
0.1432556663
 40
0.2821659155
 40
0.4161042775
 40
0.5446303509
 40
0.6673974672
 40
0.7842209484
 40
1.0
 40
1.0
 40
1.0
 40
1.0
 10
134.1636833021
 20
155.3778730728
 30
0.0
 10
133.8650990939
 20
155.6827772551
 30
0.0
 10
133.2591992009
 20
156.2662704919
 30
0.0
 10
132.3135475243
 20
157.0689576748
 30
0.0
 10
131.3512885984
 20
157.780364768
 30
0.0
 10
130.3806417267
 20
158.3944930706
 30
0.0
 10
129.4090845355
 20
158.9063109426
 30
0.0
 10
128.1578745969
 20
159.4322029694
 30
0.0
 10
127.1899983383
 20
159.6868248042
 30
0.0
 10
126.5528525982
 20
159.7718888226
 30
0.0
  0
SPLINE
  5
494
100
AcDbEntity
  8
00_COMPONENTS
100
AcDbSpline
 62
7
  6
CONTINUOUS
 70
0
 71
3
 72
14
 73
10
 74
0
 42
0.0000001
 43
0.0000001
 44
0.0000000001
 40
0.0
 40
0.0
 40
0.0
 40
0.0
 40
0.2157790516
 40
0.3326025328
 40
0.4553696491
 40
0.5838957225
 40
0.7178340845
 40
0.8567443337
 40
1.0
 40
1.0
 40
1.0
 40
1.0
 10
125.4921968424
 20
159.1595225918
 30
0.0
 10
126.1293425825
 20
159.0744585734
 30
0.0
 10
127.0972188411
 20
158.8198367386
 30
0.0
 10
128.3484287797
 20
158.2939447118
 30
0.0
 10
129.3199859709
 20
157.7821268398
 30
0.0
 10
130.2906328426
 20
157.1679985372
 30
0.0
 10
131.2528917685
 20
156.456591444
 30
0.0
 10
132.1985434451
 20
155.6539042611
 30
0.0
 10
132.8044433381
 20
155.0704110243
 30
0.0
 10
133.1030275463
 20
154.765506842
 30
0.0
  0
SPLINE
  5
495
100
AcDbEntity
  8
00_COMPONENTS_2
100
AcDbSpline
 62
7
  6
CONTINUOUS
 70
0
 71
3
 72
11
 73
7
 74
0
 42
0.0000001
 43
0.0000001
 44
0.0000000001
 40
0.0
 40
0.0
 40
0.0
 40
0.0
 40
0.2282320039
 40
0.466200739
 40
0.7219751005
 40
1.0
 40
1.0
 40
1.0
 40
1.0
 10
34.9684411955
 20
63.5972962927
 30
0.0
 10
34.886857532
 20
63.5501942255
 30
0.0
 10
34.7066729117
 20
63.4757279214
 30
0.0
 10
34.4088551547
 20
63.4340962533
 30
0.0
 10
34.0892309688
 20
63.4607803102
 30
0.0
 10
33.8757042074
 20
63.5199532776
 30
0.0
 10
33.7677457147
 20
63.5588650467
 30
0.0
  0
SPLINE
  5
496
100
AcDbEntity
  8
00_COMPONENTS_2
100
AcDbSpline
 62
7
  6
CONTINUOUS
 70
0
 71
3
 72
11
 73
7
 74
0
 42
0.0000001
 43
0.0000001
 44
0.0000000001
 40
0.0
 40
0.0
 40
0.0
 40
0.0
 40
0.2282320039
 40
0.466200739
 40
0.7219751005
 40
1.0
 40
1.0
 40
1.0
 40
1.0
 10
42.4638042821
 20
59.2699442948
 30
0.0
 10
42.3822206186
 20
59.2228422276
 30
0.0
 10
42.2020359983
 20
59.1483759235
 30
0.0
 10
41.9042182412
 20
59.1067442553
 30
0.0
 10
41.5845940553
 20
59.1334283123
 30
0.0
 10
41.3710672939
 20
59.1926012797
 30
0.0
 10
41.2631088013
 20
59.2315130488
 30
0.0
  0
SPLINE
  5
497
100
AcDbEntity
  8
00_COMPONENTS_2
100
AcDbSpline
 62
7
  6
CONTINUOUS
 70
0
 71
3
 72
9
 73
5
 74
0
 42
0.0000001
 43
0.0000001
 44
0.0000000001
 40
0.0
 40
0.0
 40
0.0
 40
0.0
 40
0.2322623617
 40
1.0
 40
1.0
 40
1.0
 40
1.0
 10
112.29181584
 20
139.5402281971
 30
0.0
 10
112.3635432174
 20
139.7270127628
 30
0.0
 10
112.6265492708
 20
140.5488222155
 30
0.0
 10
112.716081675
 20
141.4196110854
 30
0.0
 10
112.716081675
 20
142.0809813114
 30
0.0
  0
SPLINE
  5
498
100
AcDbEntity
  8
00_COMPONENTS_2
100
AcDbSpline
 62
7
  6
CONTINUOUS
 70
0
 71
3
 72
10
 73
6
 74
0
 42
0.0000001
 43
0.0000001
 44
0.0000000001
 40
0.0
 40
0.0
 40
0.0
 40
0.0
 40
0.2334028124
 40
0.474261658
 40
1.0
 40
1.0
 40
1.0
 40
1.0
 10
43.6793298195
 20
59.0425194596
 30
0.0
 10
43.5919547092
 20
58.9920359351
 30
0.0
 10
43.4020067392
 20
58.9094919173
 30
0.0
 10
42.9750529558
 20
58.8263539287
 30
0.0
 10
42.6365839842
 20
58.8651186988
 30
0.0
 10
42.4164733001
 20
58.9218375997
 30
0.0
  0
SPLINE
  5
499
100
AcDbEntity
  8
00_COMPONENTS_2
100
AcDbSpline
 62
7
  6
CONTINUOUS
 70
0
 71
3
 72
9
 73
5
 74
0
 42
0.0000001
 43
0.0000001
 44
0.0000000001
 40
0.0
 40
0.0
 40
0.0
 40
0.0
 40
0.2413885009
 40
1.0
 40
1.0
 40
1.0
 40
1.0
 10
42.4164733001
 20
58.9218375997
 30
0.0
 10
42.3783103315
 20
58.9316715686
 30
0.0
 10
42.2212028482
 20
58.9762234408
 30
0.0
 10
42.0683929273
 20
59.0354356043
 30
0.0
 10
41.9556385642
 20
59.086679405
 30
0.0
  0
SPLINE
  5
49A
100
AcDbEntity
  8
00_COMPONENTS_2
100
AcDbSpline
 62
7
  6
CONTINUOUS
 70
0
 71
3
 72
9
 73
5
 74
0
 42
0.0000001
 43
0.0000001
 44
0.0000000001
 40
0.0
 40
0.0
 40
0.0
 40
0.0
 40
0.2455620131
 40
1.0
 40
1.0
 40
1.0
 40
1.0
 10
41.2558728249
 20
59.50379879
 30
0.0
 10
41.2267343177
 20
59.5253197677
 30
0.0
 10
41.1091028526
 20
59.6143472373
 30
0.0
 10
40.9955585439
 20
59.7087505498
 30
0.0
 10
40.912239471
 20
59.782532661
 30
0.0
  0
SPLINE
  5
49B
100
AcDbEntity
  8
00_COMPONENTS_2
100
AcDbSpline
 62
7
  6
CONTINUOUS
 70
0
 71
3
 72
11
 73
7
 74
0
 42
0.0000001
 43
0.0000001
 44
0.0000000001
 40
0.0
 40
0.0
 40
0.0
 40
0.0
 40
0.2282320039
 40
0.466200739
 40
0.7219751005
 40
1.0
 40
1.0
 40
1.0
 40
1.0
 10
49.9591673687
 20
86.4595855981
 30
0.0
 10
49.8775837051
 20
86.4124835309
 30
0.0
 10
49.6973990848
 20
86.3380172267
 30
0.0
 10
49.3995813278
 20
86.2963855586
 30
0.0
 10
49.0799571419
 20
86.3230696156
 30
0.0
 10
48.8664303805
 20
86.382242583
 30
0.0
 10
48.7584718878
 20
86.4211543521
 30
0.0
  0
SPLINE
  5
49C
100
AcDbEntity
  8
00_COMPONENTS_2
100
AcDbSpline
 62
7
  6
CONTINUOUS
 70
0
 71
3
 72
9
 73
5
 74
0
 42
0.0000001
 43
0.0000001
 44
0.0000000001
 40
0.0
 40
0.0
 40
0.0
 40
0.0
 40
0.4849811886
 40
1.0
 40
1.0
 40
1.0
 40
1.0
 10
50.8973354859
 20
86.7125603215
 30
0.0
 10
51.0048344093
 20
86.7746874469
 30
0.0
 10
51.2067430292
 20
86.9398554034
 30
0.0
 10
51.3491763677
 20
87.1569878129
 30
0.0
 10
51.4078425801
 20
87.275067379
 30
0.0
  0
SPLINE
  5
49D
100
AcDbEntity
  8
00_COMPONENTS_2
100
AcDbSpline
 62
7
  6
CONTINUOUS
 70
0
 71
3
 72
9
 73
5
 74
0
 42
0.0000001
 43
0.0000001
 44
0.0000000001
 40
0.0
 40
0.0
 40
0.0
 40
0.0
 40
0.2288766439
 40
1.0
 40
1.0
 40
1.0
 40
1.0
 10
51.4078425801
 20
87.275067379
 30
0.0
 10
51.444066491
 20
87.3479765292
 30
0.0
 10
51.5786053796
 20
87.6783932539
 30
0.0
 10
51.6222595035
 20
88.0404655247
 30
0.0
 10
51.6222595035
 20
88.3147560938
 30
0.0
  0
SPLINE
  5
49E
100
AcDbEntity
  8
00_COMPONENTS_2
100
AcDbSpline
 62
7
  6
CONTINUOUS
 70
0
 71
3
 72
11
 73
7
 74
0
 42
0.0000001
 43
0.0000001
 44
0.0000000001
 40
0.0
 40
0.0
 40
0.0
 40
0.0
 40
0.2282320039
 40
0.466200739
 40
0.7219751005
 40
1.0
 40
1.0
 40
1.0
 40
1.0
 10
49.9591673687
 20
54.9425922969
 30
0.0
 10
49.8775837051
 20
54.8954902297
 30
0.0
 10
49.6973990848
 20
54.8210239255
 30
0.0
 10
49.3995813278
 20
54.7793922574
 30
0.0
 10
49.0799571419
 20
54.8060763144
 30
0.0
 10
48.8664303805
 20
54.8652492818
 30
0.0
 10
48.7584718878
 20
54.9041610509
 30
0.0
  0
SPLINE
  5
49F
100
AcDbEntity
  8
00_COMPONENTS_2
100
AcDbSpline
 62
7
  6
CONTINUOUS
 70
0
 71
3
 72
9
 73
5
 74
0
 42
0.0000001
 43
0.0000001
 44
0.0000000001
 40
0.0
 40
0.0
 40
0.0
 40
0.0
 40
0.4849811886
 40
1.0
 40
1.0
 40
1.0
 40
1.0
 10
50.8973354859
 20
55.1955670203
 30
0.0
 10
51.0048344093
 20
55.2576941457
 30
0.0
 10
51.2067430292
 20
55.4228621022
 30
0.0
 10
51.3491763677
 20
55.6399945117
 30
0.0
 10
51.4078425801
 20
55.7580740778
 30
0.0
  0
SPLINE
  5
4A0
100
AcDbEntity
  8
00_COMPONENTS_2
100
AcDbSpline
 62
7
  6
CONTINUOUS
 70
0
 71
3
 72
9
 73
5
 74
0
 42
0.0000001
 43
0.0000001
 44
0.0000000001
 40
0.0
 40
0.0
 40
0.0
 40
0.0
 40
0.2288766439
 40
1.0
 40
1.0
 40
1.0
 40
1.0
 10
51.4078425801
 20
55.7580740778
 30
0.0
 10
51.444066491
 20
55.830983228
 30
0.0
 10
51.5786053796
 20
56.1613999527
 30
0.0
 10
51.6222595035
 20
56.5234722235
 30
0.0
 10
51.6222595035
 20
56.7977627926
 30
0.0
  0
SPLINE
  5
4A1
100
AcDbEntity
  8
00_COMPONENTS_2
100
AcDbSpline
 62
7
  6
CONTINUOUS
 70
0
 71
3
 72
10
 73
6
 74
0
 42
0.0000001
 43
0.0000001
 44
0.0000000001
 40
0.0
 40
0.0
 40
0.0
 40
0.0
 40
0.2327240062
 40
0.4732336647
 40
1.0
 40
1.0
 40
1.0
 40
1.0
 10
51.2232639158
 20
54.6310396362
 30
0.0
 10
51.1316105133
 20
54.5780909917
 30
0.0
 10
50.9318849402
 20
54.4919644878
 30
0.0
 10
50.4819315422
 20
54.4079949229
 30
0.0
 10
50.1258521297
 20
54.4537432101
 30
0.0
 10
49.8947305955
 20
54.5168646401
 30
0.0
  0
SPLINE
  5
4A2
100
AcDbEntity
  8
00_COMPONENTS_2
100
AcDbSpline
 62
7
  6
CONTINUOUS
 70
0
 71
3
 72
9
 73
5
 74
0
 42
0.0000001
 43
0.0000001
 44
0.0000000001
 40
0.0
 40
0.0
 40
0.0
 40
0.0
 40
0.2360505248
 40
1.0
 40
1.0
 40
1.0
 40
1.0
 10
49.8947305955
 20
54.5168646401
 30
0.0
 10
49.8282563798
 20
54.5350193636
 30
0.0
 10
49.5497825287
 20
54.6233560497
 30
0.0
 10
49.2854849139
 20
54.7534172606
 30
0.0
 10
49.0941150145
 20
54.8679303097
 30
0.0
  0
SPLINE
  5
4A3
100
AcDbEntity
  8
00_COMPONENTS_2
100
AcDbSpline
 62
7
  6
CONTINUOUS
 70
0
 71
3
 72
9
 73
5
 74
0
 42
0.0000001
 43
0.0000001
 44
0.0000000001
 40
0.0
 40
0.0
 40
0.0
 40
0.0
 40
0.2441863866
 40
1.0
 40
1.0
 40
1.0
 40
1.0
 10
48.7552088848
 20
55.0935235978
 30
0.0
 10
48.7122982567
 20
55.124985411
 30
0.0
 10
48.538745453
 20
55.2567817561
 30
0.0
 10
48.3738020445
 20
55.3998274868
 30
0.0
 10
48.2541688493
 20
55.5130166978
 30
0.0
  0
SPLINE
  5
4A4
100
AcDbEntity
  8
00_COMPONENTS_2
100
AcDbSpline
 62
7
  6
CONTINUOUS
 70
0
 71
3
 72
9
 73
5
 74
0
 42
0.0000001
 43
0.0000001
 44
0.0000000001
 40
0.0
 40
0.0
 40
0.0
 40
0.0
 40
0.5174452767
 40
1.0
 40
1.0
 40
1.0
 40
1.0
 10
50.6320385762
 20
148.6847109593
 30
0.0
 10
50.4960503527
 20
149.1958586914
 30
0.0
 10
50.2873572586
 20
150.1991729753
 30
0.0
 10
50.2077727411
 20
151.2220898201
 30
0.0
 10
50.2077727411
 20
151.7153529791
 30
0.0
  0
SPLINE
  5
4A5
100
AcDbEntity
  8
00_COMPONENTS_2
100
AcDbSpline
 62
7
  6
CONTINUOUS
 70
0
 71
3
 72
11
 73
7
 74
0
 42
0.0000001
 43
0.0000001
 44
0.0000000001
 40
0.0
 40
0.0
 40
0.0
 40
0.0
 40
0.2177843137
 40
0.4509117637
 40
0.7102976701
 40
1.0
 40
1.0
 40
1.0
 40
1.0
 10
48.0982469394
 20
58.4108803739
 30
0.0
 10
47.9761992429
 20
58.340416578
 30
0.0
 10
47.6957756859
 20
58.2386485725
 30
0.0
 10
47.2299969363
 20
58.2268551444
 30
0.0
 10
46.7335859496
 20
58.3467295481
 30
0.0
 10
46.4106161018
 20
58.5003725694
 30
0.0
 10
46.2482644528
 20
58.5941042172
 30
0.0
  0
SPLINE
  5
4A6
100
AcDbEntity
  8
00_COMPONENTS_2
100
AcDbSpline
 62
7
  6
CONTINUOUS
 70
0
 71
3
 72
11
 73
7
 74
0
 42
0.0000001
 43
0.0000001
 44
0.0000000001
 40
0.0
 40
0.0
 40
0.0
 40
0.0
 40
0.2177833598
 40
0.4509104088
 40
0.7102966711
 40
1.0
 40
1.0
 40
1.0
 40
1.0
 10
52.6944218812
 20
61.064467374
 30
0.0
 10
52.8164722729
 20
61.1349328018
 30
0.0
 10
53.0448235393
 20
61.3269072558
 30
0.0
 10
53.2879305263
 20
61.7243982492
 30
0.0
 10
53.4323217801
 20
62.2142549284
 30
0.0
 10
53.4607453777
 20
62.5707872348
 30
0.0
 10
53.4607453777
 20
62.758259369
 30
0.0
  0
SPLINE
  5
4A7
100
AcDbEntity
  8
00_COMPONENTS_2
100
AcDbSpline
 62
7
  6
CONTINUOUS
 70
0
 71
3
 72
11
 73
7
 74
0
 42
0.0000001
 43
0.0000001
 44
0.0000000001
 40
0.0
 40
0.0
 40
0.0
 40
0.0
 40
0.22814457
 40
0.466069926
 40
0.7218729924
 40
1.0
 40
1.0
 40
1.0
 40
1.0
 10
34.968440874
 20
95.1142901509
 30
0.0
 10
34.8866449208
 20
95.067065519
 30
0.0
 10
34.7059348056
 20
94.9924560381
 30
0.0
 10
34.4072182841
 20
94.9509923427
 30
0.0
 10
34.0866336521
 20
94.978197402
 30
0.0
 10
33.8725088338
 20
95.0379014345
 30
0.0
 10
33.7642521442
 20
95.0771207739
 30
0.0
  0
SPLINE
  5
4A8
100
AcDbEntity
  8
00_COMPONENTS_2
100
AcDbSpline
 62
7
  6
CONTINUOUS
 70
0
 71
3
 72
11
 73
7
 74
0
 42
0.0000001
 43
0.0000001
 44
0.0000000001
 40
0.0
 40
0.0
 40
0.0
 40
0.0
 40
0.2281672612
 40
0.4661039797
 40
0.72189985
 40
1.0
 40
1.0
 40
1.0
 40
1.0
 10
42.4638039944
 20
90.7869380932
 30
0.0
 10
42.3820634632
 20
90.739745296
 30
0.0
 10
42.2014902867
 20
90.6651731504
 30
0.0
 10
41.9030079182
 20
90.6236654104
 30
0.0
 10
41.5826735593
 20
90.6507348
 30
0.0
 10
41.3687045188
 20
90.7103001086
 30
0.0
 10
41.2605256201
 20
90.7494391785
 30
0.0
  0
SPLINE
  5
4A9
100
AcDbEntity
  8
00_COMPONENTS_2
100
AcDbSpline
 62
7
  6
CONTINUOUS
 70
0
 71
3
 72
9
 73
5
 74
0
 42
0.0000001
 43
0.0000001
 44
0.0000000001
 40
0.0
 40
0.0
 40
0.0
 40
0.0
 40
0.5506821941
 40
1.0
 40
1.0
 40
1.0
 40
1.0
 10
66.3260727839
 20
53.447790501
 30
0.0
 10
66.2847283844
 20
53.4239204432
 30
0.0
 10
66.2020907574
 20
53.3895574785
 30
0.0
 10
66.1098340751
 20
53.4035899966
 30
0.0
 10
66.0760843831
 20
53.4230392689
 30
0.0
  0
SPLINE
  5
4AA
100
AcDbEntity
  8
00_COMPONENTS_2
100
AcDbSpline
 62
7
  6
CONTINUOUS
 70
0
 71
3
 72
11
 73
7
 74
0
 42
0.0000001
 43
0.0000001
 44
0.0000000001
 40
0.0
 40
0.0
 40
0.0
 40
0.0
 40
0.2184806181
 40
0.4543213534
 40
0.7142758891
 40
1.0
 40
1.0
 40
1.0
 40
1.0
 10
43.5682462085
 20
91.1562207705
 30
0.0
 10
43.6596492529
 20
91.2325588941
 30
0.0
 10
43.826339233
 20
91.4208415138
 30
0.0
 10
44.0014846967
 20
91.7724692635
 30
0.0
 10
44.1058199678
 20
92.188219795
 30
0.0
 10
44.1268963893
 20
92.4863668567
 30
0.0
 10
44.1268963893
 20
92.6421079099
 30
0.0
  0
SPLINE
  5
4AB
100
AcDbEntity
  8
00_COMPONENTS_2
100
AcDbSpline
 62
7
  6
CONTINUOUS
 70
0
 71
3
 72
10
 73
6
 74
0
 42
0.0000001
 43
0.0000001
 44
0.0000000001
 40
0.0
 40
0.0
 40
0.0
 40
0.0
 40
0.2334027829
 40
0.4742616132
 40
1.0
 40
1.0
 40
1.0
 40
1.0
 10
43.6793298195
 20
90.5595127608
 30
0.0
 10
43.591954615
 20
90.5090291819
 30
0.0
 10
43.40200642
 20
90.4264850945
 30
0.0
 10
42.9750520881
 20
90.3433471532
 30
0.0
 10
42.6365827071
 20
90.3821121782
 30
0.0
 10
42.4164717757
 20
90.4388312937
 30
0.0
  0
SPLINE
  5
4AC
100
AcDbEntity
  8
00_COMPONENTS_2
100
AcDbSpline
 62
7
  6
CONTINUOUS
 70
0
 71
3
 72
9
 73
5
 74
0
 42
0.0000001
 43
0.0000001
 44
0.0000000001
 40
0.0
 40
0.0
 40
0.0
 40
0.0
 40
0.2413731709
 40
1.0
 40
1.0
 40
1.0
 40
1.0
 10
42.4164717757
 20
90.4388312937
 30
0.0
 10
42.3782369172
 20
90.4486838137
 30
0.0
 10
42.2208253535
 20
90.4933297711
 30
0.0
 10
42.0677286179
 20
90.5526907762
 30
0.0
 10
41.9547675215
 20
90.6040687265
 30
0.0
  0
SPLINE
  5
4AD
100
AcDbEntity
  8
00_COMPONENTS_2
100
AcDbSpline
 62
7
  6
CONTINUOUS
 70
0
 71
3
 72
9
 73
5
 74
0
 42
0.0000001
 43
0.0000001
 44
0.0000000001
 40
0.0
 40
0.0
 40
0.0
 40
0.0
 40
0.2456517371
 40
1.0
 40
1.0
 40
1.0
 40
1.0
 10
41.253167353
 20
91.0227918009
 30
0.0
 10
41.2246362536
 20
91.0438961264
 30
0.0
 10
41.1094786907
 20
91.131136782
 30
0.0
 10
40.9982416803
 20
91.2235300004
 30
0.0
 10
40.9165768995
 20
91.2956892053
 30
0.0
  0
SPLINE
  5
4AE
100
AcDbEntity
  8
00_COMPONENTS_2
100
AcDbSpline
 62
7
  6
CONTINUOUS
 70
0
 71
3
 72
9
 73
5
 74
0
 42
0.0000001
 43
0.0000001
 44
0.0000000001
 40
0.0
 40
0.0
 40
0.0
 40
0.0
 40
0.2530475149
 40
1.0
 40
1.0
 40
1.0
 40
1.0
 10
130.4643738581
 20
152.3342386256
 30
0.0
 10
129.6635332451
 20
152.923225311
 30
0.0
 10
126.4826514653
 20
155.2288046994
 30
0.0
 10
123.2369856746
 20
157.4452098056
 30
0.0
 10
120.7769706236
 20
159.0449711062
 30
0.0
  0
SPLINE
  5
4AF
100
AcDbEntity
  8
00_COMPONENTS_2
100
AcDbSpline
 62
7
  6
CONTINUOUS
 70
0
 71
3
 72
10
 73
6
 74
0
 42
0.0000001
 43
0.0000001
 44
0.0000000001
 40
0.0
 40
0.0
 40
0.0
 40
0.0
 40
0.2354258639
 40
0.4774357023
 40
1.0
 40
1.0
 40
1.0
 40
1.0
 10
51.2232770293
 20
86.1480103796
 30
0.0
 10
51.1406666448
 20
86.1003096767
 30
0.0
 10
50.9624416504
 20
86.0208847569
 30
0.0
 10
50.5646786822
 20
85.933247238
 30
0.0
 10
50.2478625757
 20
85.955421118
 30
0.0
 10
50.0405820818
 20
85.9986471709
 30
0.0
  0
SPLINE
  5
4B0
100
AcDbEntity
  8
00_COMPONENTS_2
100
AcDbSpline
 62
7
  6
CONTINUOUS
 70
0
 71
3
 72
13
 73
9
 74
0
 42
0.0000001
 43
0.0000001
 44
0.0000000001
 40
0.0
 40
0.0
 40
0.0
 40
0.0
 40
0.0873599559
 40
0.1843661804
 40
0.3032827338
 40
0.4395397134
 40
0.7227831708
 40
1.0
 40
1.0
 40
1.0
 40
1.0
 10
57.1764899993
 20
112.5017295876
 30
0.0
 10
57.2181401816
 20
112.5257798344
 30
0.0
 10
57.2991232135
 20
112.5928952263
 30
0.0
 10
57.3620988052
 20
112.7553445628
 30
0.0
 10
57.3422234532
 20
112.9531632999
 30
0.0
 10
57.2330319983
 20
113.2305351291
 30
0.0
 10
57.0098363935
 20
113.5473940031
 30
0.0
 10
56.7975961069
 20
113.7716931468
 30
0.0
 10
56.6873054512
 20
113.8771853391
 30
0.0
  0
SPLINE
  5
4B1
100
AcDbEntity
  8
00_COMPONENTS_2
100
AcDbSpline
 62
7
  6
CONTINUOUS
 70
0
 71
3
 72
9
 73
5
 74
0
 42
0.0000001
 43
0.0000001
 44
0.0000000001
 40
0.0
 40
0.0
 40
0.0
 40
0.0
 40
0.4784366601
 40
1.0
 40
1.0
 40
1.0
 40
1.0
 10
41.3126567244
 20
122.4561655191
 30
0.0
 10
41.3739807286
 20
122.4915703188
 30
0.0
 10
41.5242587246
 20
122.5250702239
 30
0.0
 10
41.6722499093
 20
122.5135641942
 30
0.0
 10
41.7485507088
 20
122.5018586677
 30
0.0
  0
SPLINE
  5
4B2
100
AcDbEntity
  8
00_COMPONENTS_2
100
AcDbSpline
 62
7
  6
CONTINUOUS
 70
0
 71
3
 72
9
 73
5
 74
0
 42
0.0000001
 43
0.0000001
 44
0.0000000001
 40
0.0
 40
0.0
 40
0.0
 40
0.0
 40
0.2537359567
 40
1.0
 40
1.0
 40
1.0
 40
1.0
 10
103.9477591651
 20
168.7611010638
 30
0.0
 10
103.1418189029
 20
169.1675922859
 30
0.0
 10
99.9521601391
 20
170.7429265121
 30
0.0
 10
96.7087065225
 20
172.2097827633
 30
0.0
 10
94.2603559306
 20
173.236165257
 30
0.0
  0
SPLINE
  5
4B3
100
AcDbEntity
  8
00_COMPONENTS_2
100
AcDbSpline
 62
7
  6
CONTINUOUS
 70
0
 71
3
 72
9
 73
5
 74
0
 42
0.0000001
 43
0.0000001
 44
0.0000000001
 40
0.0
 40
0.0
 40
0.0
 40
0.0
 40
0.2419563662
 40
1.0
 40
1.0
 40
1.0
 40
1.0
 10
112.6685158019
 20
60.5055049832
 30
0.0
 10
112.6524860109
 20
60.6735693492
 30
0.0
 10
112.5703728091
 20
61.3666236633
 30
0.0
 10
112.4278049222
 20
62.0520779993
 30
0.0
 10
112.29181584
 20
62.5632289594
 30
0.0
  0
SPLINE
  5
4B4
100
AcDbEntity
  8
00_COMPONENTS_2
100
AcDbSpline
 62
7
  6
CONTINUOUS
 70
0
 71
3
 72
9
 73
5
 74
0
 42
0.0000001
 43
0.0000001
 44
0.0000000001
 40
0.0
 40
0.0
 40
0.0
 40
0.0
 40
0.2519089717
 40
1.0
 40
1.0
 40
1.0
 40
1.0
 10
116.1455108781
 20
145.3625508844
 30
0.0
 10
115.6384440368
 20
145.7310182607
 30
0.0
 10
113.6190982477
 20
147.1848197228
 30
0.0
 10
111.5738715646
 20
148.6027045064
 30
0.0
 10
110.0294835071
 20
149.641808175
 30
0.0
  0
SPLINE
  5
4B5
100
AcDbEntity
  8
00_COMPONENTS_2
100
AcDbSpline
 62
7
  6
CONTINUOUS
 70
0
 71
3
 72
9
 73
5
 74
0
 42
0.0000001
 43
0.0000001
 44
0.0000000001
 40
0.0
 40
0.0
 40
0.0
 40
0.0
 40
0.2468331676
 40
1.0
 40
1.0
 40
1.0
 40
1.0
 10
45.1238407301
 20
55.8024473376
 30
0.0
 10
45.8603261187
 20
55.3513378351
 30
0.0
 10
48.857952696
 20
53.5464948323
 30
0.0
 10
51.9097279704
 20
51.8318067689
 30
0.0
 10
54.233791281
 20
50.5894030966
 30
0.0
  0
SPLINE
  5
4B6
100
AcDbEntity
  8
00_COMPONENTS_2
100
AcDbSpline
 62
7
  6
CONTINUOUS
 70
0
 71
3
 72
9
 73
5
 74
0
 42
0.0000001
 43
0.0000001
 44
0.0000000001
 40
0.0
 40
0.0
 40
0.0
 40
0.0
 40
0.2461771109
 40
1.0
 40
1.0
 40
1.0
 40
1.0
 10
56.4535997342
 20
49.4215375312
 30
0.0
 10
57.5290098758
 20
48.8647316964
 30
0.0
 10
61.9187230289
 20
46.644167837
 30
0.0
 10
66.3905380317
 20
44.5865461081
 30
0.0
 10
69.7977362192
 20
43.1229578568
 30
0.0
  0
SPLINE
  5
4B7
100
AcDbEntity
  8
00_COMPONENTS_2
100
AcDbSpline
 62
7
  6
CONTINUOUS
 70
0
 71
3
 72
9
 73
5
 74
0
 42
0.0000001
 43
0.0000001
 44
0.0000000001
 40
0.0
 40
0.0
 40
0.0
 40
0.0
 40
0.2559610909
 40
1.0
 40
1.0
 40
1.0
 40
1.0
 10
46.3533451077
 20
90.3159702243
 30
0.0
 10
46.3402475394
 20
90.3704116834
 30
0.0
 10
46.2921923452
 20
90.5838356408
 30
0.0
 10
46.2568949491
 20
90.8001919791
 30
0.0
 10
46.23890535
 20
90.9619629603
 30
0.0
  0
SPLINE
  5
4B8
100
AcDbEntity
  8
00_COMPONENTS_2
100
AcDbSpline
 62
7
  6
CONTINUOUS
 70
0
 71
3
 72
9
 73
5
 74
0
 42
0.0000001
 43
0.0000001
 44
0.0000000001
 40
0.0
 40
0.0
 40
0.0
 40
0.0
 40
0.2632833317
 40
1.0
 40
1.0
 40
1.0
 40
1.0
 10
46.2115773372
 20
91.4385442295
 30
0.0
 10
46.2115773372
 20
91.5108859465
 30
0.0
 10
46.2192856716
 20
91.7854985146
 30
0.0
 10
46.258781618
 20
92.0599846855
 30
0.0
 10
46.3109201697
 20
92.2555806742
 30
0.0
  0
SPLINE
  5
4B9
100
AcDbEntity
  8
00_COMPONENTS_2
100
AcDbSpline
 62
7
  6
CONTINUOUS
 70
0
 71
3
 72
10
 73
6
 74
0
 42
0.0000001
 43
0.0000001
 44
0.0000000001
 40
0.0
 40
0.0
 40
0.0
 40
0.0
 40
0.5264867721
 40
0.7670755187
 40
1.0
 40
1.0
 40
1.0
 40
1.0
 10
46.3109201697
 20
92.2555806742
 30
0.0
 10
46.3721401436
 20
92.485245307
 30
0.0
 10
46.5108300014
 20
92.8133381361
 30
0.0
 10
46.8070937731
 20
93.1577194048
 30
0.0
 10
46.9804151034
 20
93.2865966926
 30
0.0
 10
47.0714777198
 20
93.33918058
 30
0.0
  0
SPLINE
  5
4BA
100
AcDbEntity
  8
00_COMPONENTS_2
100
AcDbSpline
 62
7
  6
CONTINUOUS
 70
0
 71
3
 72
9
 73
5
 74
0
 42
0.0000001
 43
0.0000001
 44
0.0000000001
 40
0.0
 40
0.0
 40
0.0
 40
0.0
 40
0.2406244727
 40
1.0
 40
1.0
 40
1.0
 40
1.0
 10
51.6222595035
 20
56.7977627926
 30
0.0
 10
51.6222595035
 20
56.8494465335
 30
0.0
 10
51.6171387341
 20
57.0642253979
 30
0.0
 10
51.5927396271
 20
57.2783830427
 30
0.0
 10
51.565410108
 20
57.439183426
 30
0.0
  0
SPLINE
  5
4BB
100
AcDbEntity
  8
00_COMPONENTS_2
100
AcDbSpline
 62
7
  6
CONTINUOUS
 70
0
 71
3
 72
9
 73
5
 74
0
 42
0.0000001
 43
0.0000001
 44
0.0000000001
 40
0.0
 40
0.0
 40
0.0
 40
0.0
 40
0.4881976746
 40
1.0
 40
1.0
 40
1.0
 40
1.0
 10
51.565410108
 20
57.439183426
 30
0.0
 10
51.4937615712
 20
57.8607463572
 30
0.0
 10
51.2235291216
 20
58.7044820885
 30
0.0
 10
50.7776989077
 20
59.4671802792
 30
0.0
 10
50.5093803548
 20
59.8262946519
 30
0.0
  0
SPLINE
  5
4BC
100
AcDbEntity
  8
00_COMPONENTS_2
100
AcDbSpline
 62
7
  6
CONTINUOUS
 70
0
 71
3
 72
9
 73
5
 74
0
 42
0.0000001
 43
0.0000001
 44
0.0000000001
 40
0.0
 40
0.0
 40
0.0
 40
0.0
 40
0.2406244727
 40
1.0
 40
1.0
 40
1.0
 40
1.0
 10
51.6222595035
 20
88.3147560938
 30
0.0
 10
51.6222595035
 20
88.3664398347
 30
0.0
 10
51.6171387341
 20
88.5812186991
 30
0.0
 10
51.5927396271
 20
88.7953763439
 30
0.0
 10
51.565410108
 20
88.9561767272
 30
0.0
  0
SPLINE
  5
4BD
100
AcDbEntity
  8
00_COMPONENTS_2
100
AcDbSpline
 62
7
  6
CONTINUOUS
 70
0
 71
3
 72
11
 73
7
 74
0
 42
0.0000001
 43
0.0000001
 44
0.0000000001
 40
0.0
 40
0.0
 40
0.0
 40
0.0
 40
0.2432549873
 40
0.49995386
 40
0.7567125112
 40
1.0
 40
1.0
 40
1.0
 40
1.0
 10
51.565410108
 20
88.9561767272
 30
0.0
 10
51.5131746959
 20
89.2635174547
 30
0.0
 10
51.3390914172
 20
89.8847160903
 30
0.0
 10
50.9218069914
 20
90.7645846925
 30
0.0
 10
50.3692475103
 20
91.5665183646
 30
0.0
 10
49.9186966955
 20
92.0283707641
 30
0.0
 10
49.6789573369
 20
92.2277143698
 30
0.0
  0
SPLINE
  5
4BE
100
AcDbEntity
  8
00_COMPONENTS_2
100
AcDbSpline
 62
7
  6
CONTINUOUS
 70
0
 71
3
 72
9
 73
5
 74
0
 42
0.0000001
 43
0.0000001
 44
0.0000000001
 40
0.0
 40
0.0
 40
0.0
 40
0.0
 40
0.2924827622
 40
1.0
 40
1.0
 40
1.0
 40
1.0
 10
49.6789573369
 20
92.2277143698
 30
0.0
 10
49.5294425164
 20
92.3520361481
 30
0.0
 10
48.9978776388
 20
92.740448234
 30
0.0
 10
48.3053392131
 20
92.9906236464
 30
0.0
 10
47.8395984059
 20
92.9247650883
 30
0.0
  0
SPLINE
  5
4BF
100
AcDbEntity
  8
00_COMPONENTS_2
100
AcDbSpline
 62
7
  6
CONTINUOUS
 70
0
 71
3
 72
9
 73
5
 74
0
 42
0.0000001
 43
0.0000001
 44
0.0000000001
 40
0.0
 40
0.0
 40
0.0
 40
0.0
 40
0.2545969463
 40
1.0
 40
1.0
 40
1.0
 40
1.0
 10
47.8395984059
 20
92.9247650883
 30
0.0
 10
47.8134514054
 20
92.9210677448
 30
0.0
 10
47.7112049122
 20
92.9035630589
 30
0.0
 10
47.6110067383
 20
92.8736703753
 30
0.0
 10
47.5394627268
 20
92.844362816
 30
0.0
  0
SPLINE
  5
4C0
100
AcDbEntity
  8
00_COMPONENTS_2
100
AcDbSpline
 62
7
  6
CONTINUOUS
 70
0
 71
3
 72
9
 73
5
 74
0
 42
0.0000001
 43
0.0000001
 44
0.0000000001
 40
0.0
 40
0.0
 40
0.0
 40
0.0
 40
0.2406467909
 40
1.0
 40
1.0
 40
1.0
 40
1.0
 10
36.4155749347
 20
96.6078902478
 30
0.0
 10
36.4220535192
 20
96.6446364997
 30
0.0
 10
36.4452401185
 20
96.7979852863
 30
0.0
 10
36.4540534972
 20
96.9533748117
 30
0.0
 10
36.4540534972
 20
97.0711147458
 30
0.0
  0
SPLINE
  5
4C1
100
AcDbEntity
  8
00_COMPONENTS_2
100
AcDbSpline
 62
7
  6
CONTINUOUS
 70
0
 71
3
 72
9
 73
5
 74
0
 42
0.0000001
 43
0.0000001
 44
0.0000000001
 40
0.0
 40
0.0
 40
0.0
 40
0.0
 40
0.2421571171
 40
1.0
 40
1.0
 40
1.0
 40
1.0
 10
36.4540534972
 20
97.0711147458
 30
0.0
 10
36.4540534972
 20
97.112299184
 30
0.0
 10
36.4506552905
 20
97.2823653178
 30
0.0
 10
36.4341955653
 20
97.452088456
 30
0.0
 10
36.4155749347
 20
97.5796250689
 30
0.0
  0
SPLINE
  5
4C2
100
AcDbEntity
  8
00_COMPONENTS_2
100
AcDbSpline
 62
7
  6
CONTINUOUS
 70
0
 71
3
 72
9
 73
5
 74
0
 42
0.0000001
 43
0.0000001
 44
0.0000000001
 40
0.0
 40
0.0
 40
0.0
 40
0.0
 40
0.2479333263
 40
1.0
 40
1.0
 40
1.0
 40
1.0
 10
39.8509549148
 20
101.8084569471
 30
0.0
 10
40.3562888192
 20
101.5199636656
 30
0.0
 10
42.4001702207
 20
100.3663732214
 30
0.0
 10
44.4664668449
 20
99.2525402373
 30
0.0
 10
46.0316746339
 20
98.4367252241
 30
0.0
  0
SPLINE
  5
4C3
100
AcDbEntity
  8
00_COMPONENTS_2
100
AcDbSpline
 62
7
  6
CONTINUOUS
 70
0
 71
3
 72
9
 73
5
 74
0
 42
0.0000001
 43
0.0000001
 44
0.0000000001
 40
0.0
 40
0.0
 40
0.0
 40
0.0
 40
0.2480579173
 40
1.0
 40
1.0
 40
1.0
 40
1.0
 10
47.6008279219
 20
97.6280454432
 30
0.0
 10
48.1352839228
 20
97.3557073387
 30
0.0
 10
50.2949492343
 20
96.2678664264
 30
0.0
 10
52.4746985648
 20
95.2199390712
 30
0.0
 10
54.1237708502
 20
94.4538952027
 30
0.0
  0
SPLINE
  5
4C4
100
AcDbEntity
  8
00_COMPONENTS_2
100
AcDbSpline
 62
7
  6
CONTINUOUS
 70
0
 71
3
 72
9
 73
5
 74
0
 42
0.0000001
 43
0.0000001
 44
0.0000000001
 40
0.0
 40
0.0
 40
0.0
 40
0.0
 40
0.2478149419
 40
1.0
 40
1.0
 40
1.0
 40
1.0
 10
32.5258788836
 20
106.2341236354
 30
0.0
 10
33.0021834689
 20
105.9295276836
 30
0.0
 10
34.9305785889
 20
104.7103972916
 30
0.0
 10
36.8840669045
 20
103.5310045532
 30
0.0
 10
38.366024492
 20
102.6657625316
 30
0.0
  0
SPLINE
  5
4C5
100
AcDbEntity
  8
00_COMPONENTS_2
100
AcDbSpline
 62
7
  6
CONTINUOUS
 70
0
 71
3
 72
11
 73
7
 74
0
 42
0.0000001
 43
0.0000001
 44
0.0000000001
 40
0.0
 40
0.0
 40
0.0
 40
0.0
 40
0.2277017266
 40
0.4750430199
 40
0.7352115908
 40
1.0
 40
1.0
 40
1.0
 40
1.0
 10
59.0868191993
 20
99.3197340808
 30
0.0
 10
58.6402472811
 20
99.0619072026
 30
0.0
 10
57.7604674799
 20
98.4317005068
 30
0.0
 10
56.571542155
 20
97.2583428028
 30
0.0
 10
55.5029794873
 20
95.8676302893
 30
0.0
 10
54.902542688
 20
94.8370931168
 30
0.0
 10
54.635428207
 20
94.3002303825
 30
0.0
  0
SPLINE
  5
4C6
100
AcDbEntity
  8
00_COMPONENTS_2
100
AcDbSpline
 62
7
  6
CONTINUOUS
 70
0
 71
3
 72
9
 73
5
 74
0
 42
0.0000001
 43
0.0000001
 44
0.0000000001
 40
0.0
 40
0.0
 40
0.0
 40
0.0
 40
0.5177815814
 40
1.0
 40
1.0
 40
1.0
 40
1.0
 10
44.1938237458
 20
120.9526902084
 30
0.0
 10
44.1286815359
 20
121.0246263147
 30
0.0
 10
44.0284369498
 20
121.1868763886
 30
0.0
 10
43.9806974703
 20
121.3736567877
 30
0.0
 10
43.9806974703
 20
121.4640391542
 30
0.0
  0
SPLINE
  5
4C7
100
AcDbEntity
  8
00_COMPONENTS_2
100
AcDbSpline
 62
7
  6
CONTINUOUS
 70
0
 71
3
 72
9
 73
5
 74
0
 42
0.0000001
 43
0.0000001
 44
0.0000000001
 40
0.0
 40
0.0
 40
0.0
 40
0.0
 40
0.5196534892
 40
1.0
 40
1.0
 40
1.0
 40
1.0
 10
54.0087027227
 20
115.2885355158
 30
0.0
 10
53.9235232411
 20
115.2962569722
 30
0.0
 10
53.7585990348
 20
115.2996099237
 30
0.0
 10
53.5936812812
 20
115.2581139005
 30
0.0
 10
53.5252120097
 20
115.2185875976
 30
0.0
  0
SPLINE
  5
4C8
100
AcDbEntity
  8
00_COMPONENTS_2
100
AcDbSpline
 62
7
  6
CONTINUOUS
 70
0
 71
3
 72
9
 73
5
 74
0
 42
0.0000001
 43
0.0000001
 44
0.0000000001
 40
0.0
 40
0.0
 40
0.0
 40
0.0
 40
0.5203966505
 40
1.0
 40
1.0
 40
1.0
 40
1.0
 10
56.6873054512
 20
113.8771853391
 30
0.0
 10
56.6169084395
 20
113.9445195573
 30
0.0
 10
56.5063668682
 20
114.1003716265
 30
0.0
 10
56.4535973164
 20
114.2869036252
 30
0.0
 10
56.4535973164
 20
114.3766821565
 30
0.0
  0
SPLINE
  5
4C9
100
AcDbEntity
  8
00_COMPONENTS_2
100
AcDbSpline
 62
7
  6
CONTINUOUS
 70
0
 71
3
 72
11
 73
7
 74
0
 42
0.0000001
 43
0.0000001
 44
0.0000000001
 40
0.0
 40
0.0
 40
0.0
 40
0.0
 40
0.227735232
 40
0.4751374593
 40
0.7353243131
 40
1.0
 40
1.0
 40
1.0
 40
1.0
 10
35.9155547441
 20
111.9062063526
 30
0.0
 10
35.4707114419
 20
111.64958619
 30
0.0
 10
34.5955572431
 20
111.0201811759
 30
0.0
 10
33.4129433476
 20
109.8502579373
 30
0.0
 10
32.3508204254
 20
108.4638868899
 30
0.0
 10
31.7555034917
 20
107.4364850176
 30
0.0
 10
31.4902780986
 20
106.9017929825
 30
0.0
  0
SPLINE
  5
4CA
100
AcDbEntity
  8
00_COMPONENTS_2
100
AcDbSpline
 62
7
  6
CONTINUOUS
 70
0
 71
3
 72
9
 73
5
 74
0
 42
0.0000001
 43
0.0000001
 44
0.0000000001
 40
0.0
 40
0.0
 40
0.0
 40
0.0
 40
0.247497226
 40
1.0
 40
1.0
 40
1.0
 40
1.0
 10
46.6059490381
 20
123.0147136461
 30
0.0
 10
47.1812762916
 20
122.6643097189
 30
0.0
 10
49.5142866522
 20
121.2623973716
 30
0.0
 10
51.8803575076
 20
119.9155877263
 30
0.0
 10
53.6770462896
 20
118.9323061009
 30
0.0
  0
SPLINE
  5
4CB
100
AcDbEntity
  8
00_COMPONENTS_2
100
AcDbSpline
 62
7
  6
CONTINUOUS
 70
0
 71
3
 72
9
 73
5
 74
0
 42
0.0000001
 43
0.0000001
 44
0.0000000001
 40
0.0
 40
0.0
 40
0.0
 40
0.0
 40
0.2469979091
 40
1.0
 40
1.0
 40
1.0
 40
1.0
 10
59.1953004435
 20
116.0307327014
 30
0.0
 10
60.0438547289
 20
115.6021118912
 30
0.0
 10
63.4920303003
 20
113.8920257875
 30
0.0
 10
66.9896584354
 20
112.2819019603
 30
0.0
 10
69.6463740558
 20
111.1236835232
 30
0.0
  0
SPLINE
  5
4CC
100
AcDbEntity
  8
00_COMPONENTS_2
100
AcDbSpline
 62
7
  6
CONTINUOUS
 70
0
 71
3
 72
9
 73
5
 74
0
 42
0.0000001
 43
0.0000001
 44
0.0000000001
 40
0.0
 40
0.0
 40
0.0
 40
0.0
 40
0.2463368582
 40
1.0
 40
1.0
 40
1.0
 40
1.0
 10
33.0806916702
 20
132.2344125031
 30
0.0
 10
33.7606997906
 20
131.7145033033
 30
0.0
 10
36.5402983756
 20
129.6290269795
 30
0.0
 10
39.3942953902
 20
127.6430184077
 30
0.0
 10
41.5801586918
 20
126.2006094602
 30
0.0
  0
SPLINE
  5
4CD
100
AcDbEntity
  8
00_COMPONENTS_2
100
AcDbSpline
 62
7
  6
CONTINUOUS
 70
0
 71
3
 72
14
 73
10
 74
0
 42
0.0000001
 43
0.0000001
 44
0.0000000001
 40
0.0
 40
0.0
 40
0.0
 40
0.0
 40
0.2769680715
 40
0.4197595956
 40
0.5635603035
 40
0.7023442726
 40
0.82295239
 40
0.9181694248
 40
1.0
 40
1.0
 40
1.0
 40
1.0
 10
44.1938237458
 20
120.9526902084
 30
0.0
 10
44.2949219633
 20
120.8410481238
 30
0.0
 10
44.440572105
 20
120.6644072337
 30
0.0
 10
44.6099637524
 20
120.408682249
 30
0.0
 10
44.7182656249
 20
120.2035871448
 30
0.0
 10
44.7909296674
 20
119.995661519
 30
0.0
 10
44.8095147328
 20
119.7999310655
 30
0.0
 10
44.7542036148
 20
119.6408391361
 30
0.0
 10
44.6788261367
 20
119.574811819
 30
0.0
 10
44.6403000414
 20
119.5525423362
 30
0.0
  0
SPLINE
  5
4CE
100
AcDbEntity
  8
00_COMPONENTS_2
100
AcDbSpline
 62
7
  6
CONTINUOUS
 70
0
 71
3
 72
11
 73
7
 74
0
 42
0.0000001
 43
0.0000001
 44
0.0000000001
 40
0.0
 40
0.0
 40
0.0
 40
0.0
 40
0.2277355232
 40
0.4751379
 40
0.7353245922
 40
1.0
 40
1.0
 40
1.0
 40
1.0
 10
50.90624894
 20
103.2514838943
 30
0.0
 10
50.4614056926
 20
102.9948637634
 30
0.0
 10
49.5862563341
 20
102.3654523291
 30
0.0
 10
48.4036475613
 20
101.1955269673
 30
0.0
 10
47.3415293864
 20
99.8091563763
 30
0.0
 10
46.7462123229
 20
98.7817576477
 30
0.0
 10
46.4809883909
 20
98.2470665244
 30
0.0
  0
SPLINE
  5
4CF
100
AcDbEntity
  8
00_COMPONENTS_2
100
AcDbSpline
 62
7
  6
CONTINUOUS
 70
0
 71
3
 72
11
 73
7
 74
0
 42
0.0000001
 43
0.0000001
 44
0.0000000001
 40
0.0
 40
0.0
 40
0.0
 40
0.0
 40
0.2277355232
 40
0.4751379
 40
0.7353245922
 40
1.0
 40
1.0
 40
1.0
 40
1.0
 10
43.4108858535
 20
107.5788358922
 30
0.0
 10
42.966042606
 20
107.3222157613
 30
0.0
 10
42.0908932414
 20
106.6928043301
 30
0.0
 10
40.9082844985
 20
105.5228789534
 30
0.0
 10
39.8461662061
 20
104.1365084208
 30
0.0
 10
39.2508494414
 20
103.1091095439
 30
0.0
 10
38.9856253044
 20
102.5744185223
 30
0.0
  0
SPLINE
  5
4D0
100
AcDbEntity
  8
00_COMPONENTS_2
100
AcDbSpline
 62
7
  6
CONTINUOUS
 70
0
 71
3
 72
9
 73
5
 74
0
 42
0.0000001
 43
0.0000001
 44
0.0000000001
 40
0.0
 40
0.0
 40
0.0
 40
0.0
 40
0.4746973559
 40
1.0
 40
1.0
 40
1.0
 40
1.0
 10
65.7603850038
 20
95.9059078285
 30
0.0
 10
65.7045189964
 20
95.8736537666
 30
0.0
 10
65.6001923221
 20
95.7826026202
 30
0.0
 10
65.5231609178
 20
95.668992423
 30
0.0
 10
65.4904816645
 20
95.6055264051
 30
0.0
  0
SPLINE
  5
4D1
100
AcDbEntity
  8
00_COMPONENTS_2
100
AcDbSpline
 62
7
  6
CONTINUOUS
 70
0
 71
3
 72
9
 73
5
 74
0
 42
0.0000001
 43
0.0000001
 44
0.0000000001
 40
0.0
 40
0.0
 40
0.0
 40
0.0
 40
0.5139951291
 40
1.0
 40
1.0
 40
1.0
 40
1.0
 10
65.4904816645
 20
95.6055264051
 30
0.0
 10
65.0001548336
 20
94.6532680687
 30
0.0
 10
64.1767946149
 20
92.7301013499
 30
0.0
 10
63.6565288249
 20
90.700694763
 30
0.0
 10
63.4976085636
 20
89.700486537
 30
0.0
  0
SPLINE
  5
4D2
100
AcDbEntity
  8
00_COMPONENTS_2
100
AcDbSpline
 62
7
  6
CONTINUOUS
 70
0
 71
3
 72
9
 73
5
 74
0
 42
0.0000001
 43
0.0000001
 44
0.0000000001
 40
0.0
 40
0.0
 40
0.0
 40
0.0
 40
0.5111026263
 40
1.0
 40
1.0
 40
1.0
 40
1.0
 10
63.4976085636
 20
89.700486537
 30
0.0
 10
63.041909137
 20
86.8324172839
 30
0.0
 10
62.3481288286
 20
81.1871603181
 30
0.0
 10
62.0976858005
 20
75.5033751794
 30
0.0
 10
62.0976858005
 20
72.7254977182
 30
0.0
  0
SPLINE
  5
4D3
100
AcDbEntity
  8
00_COMPONENTS_2
100
AcDbSpline
 62
7
  6
CONTINUOUS
 70
0
 71
3
 72
9
 73
5
 74
0
 42
0.0000001
 43
0.0000001
 44
0.0000000001
 40
0.0
 40
0.0
 40
0.0
 40
0.0
 40
0.5135323958
 40
1.0
 40
1.0
 40
1.0
 40
1.0
 10
62.0976858005
 20
72.7254977182
 30
0.0
 10
62.0976858005
 20
70.0825353115
 30
0.0
 10
62.3134027513
 20
64.9328174744
 30
0.0
 10
63.0193955622
 20
59.8245658785
 30
0.0
 10
63.4976085636
 20
57.3669908187
 30
0.0
  0
SPLINE
  5
4D4
100
AcDbEntity
  8
00_COMPONENTS_2
100
AcDbSpline
 62
7
  6
CONTINUOUS
 70
0
 71
3
 72
11
 73
7
 74
0
 42
0.0000001
 43
0.0000001
 44
0.0000000001
 40
0.0
 40
0.0
 40
0.0
 40
0.0
 40
0.2748122386
 40
0.5307460729
 40
0.770859667
 40
1.0
 40
1.0
 40
1.0
 40
1.0
 10
63.4976085636
 20
57.3669908187
 30
0.0
 10
63.5711185871
 20
56.9892169326
 30
0.0
 10
63.7608119889
 20
56.267463635
 30
0.0
 10
64.1955835999
 20
55.2739120024
 30
0.0
 10
64.7656003413
 20
54.4262974618
 30
0.0
 10
65.238359329
 20
53.9616288084
 30
0.0
 10
65.4904816645
 20
53.763108857
 30
0.0
  0
SPLINE
  5
4D5
100
AcDbEntity
  8
00_COMPONENTS_2
100
AcDbSpline
 62
7
  6
CONTINUOUS
 70
0
 71
3
 72
9
 73
5
 74
0
 42
0.0000001
 43
0.0000001
 44
0.0000000001
 40
0.0
 40
0.0
 40
0.0
 40
0.0
 40
0.5135446101
 40
1.0
 40
1.0
 40
1.0
 40
1.0
 10
62.5824160838
 20
93.417926923
 30
0.0
 10
61.8346674175
 20
89.6317768725
 30
0.0
 10
60.6926699658
 20
82.1925544377
 30
0.0
 10
60.2721516268
 20
74.6740478634
 30
0.0
 10
60.2721516268
 20
71.0183407168
 30
0.0
  0
SPLINE
  5
4D6
100
AcDbEntity
  8
00_COMPONENTS_2
100
AcDbSpline
 62
7
  6
CONTINUOUS
 70
0
 71
3
 72
9
 73
5
 74
0
 42
0.0000001
 43
0.0000001
 44
0.0000000001
 40
0.0
 40
0.0
 40
0.0
 40
0.0
 40
0.5173751888
 40
1.0
 40
1.0
 40
1.0
 40
1.0
 10
60.2721516268
 20
71.0183407168
 30
0.0
 10
60.2721516268
 20
67.5854867728
 30
0.0
 10
60.6203893483
 20
60.943646895
 30
0.0
 10
61.7887110726
 20
54.3887614396
 30
0.0
 10
62.5824160838
 20
51.2864021991
 30
0.0
  0
SPLINE
  5
4D7
100
AcDbEntity
  8
00_COMPONENTS_2
100
AcDbSpline
 62
7
  6
CONTINUOUS
 70
0
 71
3
 72
11
 73
7
 74
0
 42
0.0000001
 43
0.0000001
 44
0.0000000001
 40
0.0
 40
0.0
 40
0.0
 40
0.0
 40
0.23725318
 40
0.5000006919
 40
0.7627478289
 40
1.0
 40
1.0
 40
1.0
 40
1.0
 10
45.3642921976
 20
102.9297373289
 30
0.0
 10
45.4646870174
 20
102.871775661
 30
0.0
 10
45.6981389317
 20
102.7871825566
 30
0.0
 10
46.0714003011
 20
102.7467400124
 30
0.0
 10
46.4446609801
 20
102.7871843348
 30
0.0
 10
46.678111802
 20
102.8717785747
 30
0.0
 10
46.7785057781
 20
102.9297407179
 30
0.0
  0
SPLINE
  5
4D8
100
AcDbEntity
  8
00_COMPONENTS_2
100
AcDbSpline
 62
7
  6
CONTINUOUS
 70
0
 71
3
 72
11
 73
7
 74
0
 42
0.0000001
 43
0.0000001
 44
0.0000000001
 40
0.0
 40
0.0
 40
0.0
 40
0.0
 40
0.2425393928
 40
0.499999207
 40
0.7574594386
 40
1.0
 40
1.0
 40
1.0
 40
1.0
 10
32.9192140445
 20
64.0487539521
 30
0.0
 10
32.6822773568
 20
64.2369389577
 30
0.0
 10
32.2371057604
 20
64.6807800351
 30
0.0
 10
31.6950040024
 20
65.4600546084
 30
0.0
 10
31.291178746
 20
66.3191652507
 30
0.0
 10
31.1293828904
 20
66.926616585
 30
0.0
 10
31.0848757804
 20
67.2259033868
 30
0.0
  0
SPLINE
  5
4D9
100
AcDbEntity
  8
00_COMPONENTS_2
100
AcDbSpline
 62
7
  6
CONTINUOUS
 70
0
 71
3
 72
11
 73
7
 74
0
 42
0.0000001
 43
0.0000001
 44
0.0000000001
 40
0.0
 40
0.0
 40
0.0
 40
0.0
 40
0.2372531804
 40
0.5000006923
 40
0.7627478291
 40
1.0
 40
1.0
 40
1.0
 40
1.0
 10
52.8596552891
 20
98.6023853282
 30
0.0
 10
52.960050109
 20
98.544423661
 30
0.0
 10
53.1935020229
 20
98.4598305578
 30
0.0
 10
53.566763391
 20
98.4193880146
 30
0.0
 10
53.9400240683
 20
98.4598323374
 30
0.0
 10
54.173474889
 20
98.5444265771
 30
0.0
 10
54.2738688646
 20
98.6023887199
 30
0.0
  0
SPLINE
  5
4DA
100
AcDbEntity
  8
00_COMPONENTS_2
100
AcDbSpline
 62
7
  6
CONTINUOUS
 70
0
 71
3
 72
11
 73
7
 74
0
 42
0.0000001
 43
0.0000001
 44
0.0000000001
 40
0.0
 40
0.0
 40
0.0
 40
0.0
 40
0.2322269997
 40
0.4702020233
 40
0.7236832364
 40
1.0
 40
1.0
 40
1.0
 40
1.0
 10
36.3820703821
 20
63.4298522131
 30
0.0
 10
36.2833542839
 20
63.3516514637
 30
0.0
 10
36.0603062503
 20
63.2202803452
 30
0.0
 10
35.6762248608
 20
63.1200389769
 30
0.0
 10
35.2561351263
 20
63.1188394358
 30
0.0
 10
34.9731254958
 20
63.1792169079
 30
0.0
 10
34.8297195551
 20
63.2226792823
 30
0.0
  0
SPLINE
  5
4DB
100
AcDbEntity
  8
00_COMPONENTS_2
100
AcDbSpline
 62
7
  6
CONTINUOUS
 70
0
 71
3
 72
9
 73
5
 74
0
 42
0.0000001
 43
0.0000001
 44
0.0000000001
 40
0.0
 40
0.0
 40
0.0
 40
0.0
 40
0.2419239207
 40
1.0
 40
1.0
 40
1.0
 40
1.0
 10
34.8297195551
 20
63.2226792823
 30
0.0
 10
34.7925069449
 20
63.2339573953
 30
0.0
 10
34.6397184225
 20
63.2839505182
 30
0.0
 10
34.4912511002
 20
63.3468423361
 30
0.0
 10
34.3817325093
 20
63.4002443654
 30
0.0
  0
SPLINE
  5
4DC
100
AcDbEntity
  8
00_COMPONENTS_2
100
AcDbSpline
 62
7
  6
CONTINUOUS
 70
0
 71
3
 72
9
 73
5
 74
0
 42
0.0000001
 43
0.0000001
 44
0.0000000001
 40
0.0
 40
0.0
 40
0.0
 40
0.0
 40
0.2448739154
 40
1.0
 40
1.0
 40
1.0
 40
1.0
 10
33.7604900337
 20
63.7801442474
 30
0.0
 10
33.7260102597
 20
63.8055151331
 30
0.0
 10
33.5866226185
 20
63.9110430357
 30
0.0
 10
33.452912686
 20
64.0240239228
 30
0.0
 10
33.3551937804
 20
64.1127784763
 30
0.0
  0
SPLINE
  5
4DD
100
AcDbEntity
  8
00_COMPONENTS_2
100
AcDbSpline
 62
7
  6
CONTINUOUS
 70
0
 71
3
 72
11
 73
7
 74
0
 42
0.0000001
 43
0.0000001
 44
0.0000000001
 40
0.0
 40
0.0
 40
0.0
 40
0.0
 40
0.2403978995
 40
0.4954812362
 40
0.7528940943
 40
1.0
 40
1.0
 40
1.0
 40
1.0
 10
40.4145771311
 20
59.7214019542
 30
0.0
 10
40.1979145681
 20
59.8934844048
 30
0.0
 10
39.7876259209
 20
60.2950109879
 30
0.0
 10
39.2754099648
 20
60.998185498
 30
0.0
 10
38.8746487786
 20
61.7789980885
 30
0.0
 10
38.6947374789
 20
62.3347251053
 30
0.0
 10
38.6333069985
 20
62.6124178972
 30
0.0
  0
SPLINE
  5
4DE
100
AcDbEntity
  8
00_COMPONENTS_2
100
AcDbSpline
 62
7
  6
CONTINUOUS
 70
0
 71
3
 72
11
 73
7
 74
0
 42
0.0000001
 43
0.0000001
 44
0.0000000001
 40
0.0
 40
0.0
 40
0.0
 40
0.0
 40
0.2372531865
 40
0.5000006985
 40
0.7627478321
 40
1.0
 40
1.0
 40
1.0
 40
1.0
 10
37.8689291854
 20
107.257089284
 30
0.0
 10
37.9693240073
 20
107.199127627
 30
0.0
 10
38.2027759153
 20
107.1145345406
 30
0.0
 10
38.5760372657
 20
107.074092012
 30
0.0
 10
38.9492979187
 20
107.1145363404
 30
0.0
 10
39.1827487225
 20
107.1991305767
 30
0.0
 10
39.2831426915
 20
107.2570927158
 30
0.0
  0
SPLINE
  5
4DF
100
AcDbEntity
  8
00_COMPONENTS_2
100
AcDbSpline
 62
7
  6
CONTINUOUS
 70
0
 71
3
 72
9
 73
5
 74
0
 42
0.0000001
 43
0.0000001
 44
0.0000000001
 40
0.0
 40
0.0
 40
0.0
 40
0.0
 40
0.2582271349
 40
1.0
 40
1.0
 40
1.0
 40
1.0
 10
43.8469714529
 20
59.9665100616
 30
0.0
 10
43.826472591
 20
59.9329007283
 30
0.0
 10
43.7420494698
 20
59.8059341487
 30
0.0
 10
43.6360430046
 20
59.6929619341
 30
0.0
 10
43.5476917634
 20
59.6223764584
 30
0.0
  0
SPLINE
  5
4E0
100
AcDbEntity
  8
00_COMPONENTS_2
100
AcDbSpline
 62
7
  6
CONTINUOUS
 70
0
 71
3
 72
9
 73
5
 74
0
 42
0.0000001
 43
0.0000001
 44
0.0000000001
 40
0.0
 40
0.0
 40
0.0
 40
0.0
 40
0.2600431365
 40
1.0
 40
1.0
 40
1.0
 40
1.0
 10
46.0756019535
 20
91.0679955927
 30
0.0
 10
46.0821440943
 20
91.1044339909
 30
0.0
 10
46.1107511663
 20
91.2438903273
 30
0.0
 10
46.1536468096
 20
91.3806225106
 30
0.0
 10
46.1945856835
 20
91.4776861495
 30
0.0
  0
SPLINE
  5
4E1
100
AcDbEntity
  8
00_COMPONENTS_2
100
AcDbSpline
 62
7
  6
CONTINUOUS
 70
0
 71
3
 72
9
 73
5
 74
0
 42
0.0000001
 43
0.0000001
 44
0.0000000001
 40
0.0
 40
0.0
 40
0.0
 40
0.0
 40
0.5186812213
 40
1.0
 40
1.0
 40
1.0
 40
1.0
 10
46.1945856835
 20
91.4776861495
 30
0.0
 10
46.24898941
 20
91.6066741546
 30
0.0
 10
46.3866917665
 20
91.8441289342
 30
0.0
 10
46.5967412985
 20
92.023696817
 30
0.0
 10
46.7092447368
 20
92.0886503173
 30
0.0
  0
SPLINE
  5
4E2
100
AcDbEntity
  8
00_COMPONENTS_2
100
AcDbSpline
 62
7
  6
CONTINUOUS
 70
0
 71
3
 72
11
 73
7
 74
0
 42
0.0000001
 43
0.0000001
 44
0.0000000001
 40
0.0
 40
0.0
 40
0.0
 40
0.0
 40
0.2425393928
 40
0.499999207
 40
0.7574594386
 40
1.0
 40
1.0
 40
1.0
 40
1.0
 10
47.9099402176
 20
86.9110432575
 30
0.0
 10
47.6730035299
 20
87.0992282631
 30
0.0
 10
47.2278319335
 20
87.5430693405
 30
0.0
 10
46.6857301756
 20
88.3223439137
 30
0.0
 10
46.2819049191
 20
89.181454556
 30
0.0
 10
46.1201090635
 20
89.7889058903
 30
0.0
 10
46.0756019535
 20
90.0881926922
 30
0.0
  0
SPLINE
  5
4E3
100
AcDbEntity
  8
00_COMPONENTS_2
100
AcDbSpline
 62
7
  6
CONTINUOUS
 70
0
 71
3
 72
11
 73
7
 74
0
 42
0.0000001
 43
0.0000001
 44
0.0000000001
 40
0.0
 40
0.0
 40
0.0
 40
0.0
 40
0.2322269674
 40
0.4702019761
 40
0.7236831954
 40
1.0
 40
1.0
 40
1.0
 40
1.0
 10
36.3820706062
 20
94.9468456298
 30
0.0
 10
36.2833544212
 20
94.8686447631
 30
0.0
 10
36.0603061054
 20
94.737273502
 30
0.0
 10
35.6762242077
 20
94.6370321775
 30
0.0
 10
35.2561339241
 20
94.6358328341
 30
0.0
 10
34.9731239478
 20
94.6962105704
 30
0.0
 10
34.8297178349
 20
94.739673103
 30
0.0
  0
SPLINE
  5
4E4
100
AcDbEntity
  8
00_COMPONENTS_2
100
AcDbSpline
 62
7
  6
CONTINUOUS
 70
0
 71
3
 72
9
 73
5
 74
0
 42
0.0000001
 43
0.0000001
 44
0.0000000001
 40
0.0
 40
0.0
 40
0.0
 40
0.0
 40
0.2419128494
 40
1.0
 40
1.0
 40
1.0
 40
1.0
 10
34.8297178349
 20
94.739673103
 30
0.0
 10
34.7924510965
 20
94.7509676482
 30
0.0
 10
34.6394348348
 20
94.8010408098
 30
0.0
 10
34.4907529574
 20
94.8640498592
 30
0.0
 10
34.3810797534
 20
94.9175560403
 30
0.0
  0
SPLINE
  5
4E5
100
AcDbEntity
  8
00_COMPONENTS_2
100
AcDbSpline
 62
7
  6
CONTINUOUS
 70
0
 71
3
 72
9
 73
5
 74
0
 42
0.0000001
 43
0.0000001
 44
0.0000000001
 40
0.0
 40
0.0
 40
0.0
 40
0.0
 40
0.244886881
 40
1.0
 40
1.0
 40
1.0
 40
1.0
 10
33.7570249622
 20
95.2996896617
 30
0.0
 10
33.7225781376
 20
95.3250849441
 30
0.0
 10
33.5833312935
 20
95.430701698
 30
0.0
 10
33.4497576326
 20
95.5437518107
 30
0.0
 10
33.3521393893
 20
95.6325480529
 30
0.0
  0
SPLINE
  5
4E6
100
AcDbEntity
  8
00_COMPONENTS_2
100
AcDbSpline
 62
7
  6
CONTINUOUS
 70
0
 71
3
 72
9
 73
5
 74
0
 42
0.0000001
 43
0.0000001
 44
0.0000000001
 40
0.0
 40
0.0
 40
0.0
 40
0.0
 40
0.254305954
 40
1.0
 40
1.0
 40
1.0
 40
1.0
 10
31.3428436518
 20
99.1620854497
 30
0.0
 10
31.3354495446
 20
99.1986223779
 30
0.0
 10
31.3078686378
 20
99.3425922025
 30
0.0
 10
31.2863198436
 20
99.4877312862
 30
0.0
 10
31.2740042077
 20
99.5963433297
 30
0.0
  0
SPLINE
  5
4E7
100
AcDbEntity
  8
00_COMPONENTS_2
100
AcDbSpline
 62
7
  6
CONTINUOUS
 70
0
 71
3
 72
9
 73
5
 74
0
 42
0.0000001
 43
0.0000001
 44
0.0000000001
 40
0.0
 40
0.0
 40
0.0
 40
0.0
 40
0.2636834106
 40
1.0
 40
1.0
 40
1.0
 40
1.0
 10
31.2457695201
 20
100.0788619313
 30
0.0
 10
31.2457695201
 20
100.152614067
 30
0.0
 10
31.2538444769
 20
100.4321423693
 30
0.0
 10
31.2952380933
 20
100.7115642697
 30
0.0
 10
31.3500097837
 20
100.9100948878
 30
0.0
  0
SPLINE
  5
4E8
100
AcDbEntity
  8
00_COMPONENTS_2
100
AcDbSpline
 62
7
  6
CONTINUOUS
 70
0
 71
3
 72
10
 73
6
 74
0
 42
0.0000001
 43
0.0000001
 44
0.0000000001
 40
0.0
 40
0.0
 40
0.0
 40
0.0
 40
0.5258841581
 40
0.7666664015
 40
1.0
 40
1.0
 40
1.0
 40
1.0
 10
31.3500097837
 20
100.9100948878
 30
0.0
 10
31.4116005763
 20
101.1333426646
 30
0.0
 10
31.5493880706
 20
101.4519307914
 30
0.0
 10
31.839940193
 20
101.786424431
 30
0.0
 10
32.009408756
 20
101.9119437398
 30
0.0
 10
32.0983819076
 20
101.9633478318
 30
0.0
  0
SPLINE
  5
4E9
100
AcDbEntity
  8
00_COMPONENTS_2
100
AcDbSpline
 62
7
  6
CONTINUOUS
 70
0
 71
3
 72
10
 73
6
 74
0
 42
0.0000001
 43
0.0000001
 44
0.0000000001
 40
0.0
 40
0.0
 40
0.0
 40
0.0
 40
0.5087289917
 40
0.7608698234
 40
1.0
 40
1.0
 40
1.0
 40
1.0
 10
36.3820705814
 20
98.3638484773
 30
0.0
 10
36.2135641049
 20
98.8610171536
 30
0.0
 10
35.8547828052
 20
99.5733235124
 30
0.0
 10
35.2214055945
 20
100.3900809495
 30
0.0
 10
34.8559845292
 20
100.7450520134
 30
0.0
 10
34.6651442065
 20
100.9014734376
 30
0.0
  0
SPLINE
  5
4EA
100
AcDbEntity
  8
00_COMPONENTS_2
100
AcDbSpline
 62
7
  6
CONTINUOUS
 70
0
 71
3
 72
11
 73
7
 74
0
 42
0.0000001
 43
0.0000001
 44
0.0000000001
 40
0.0
 40
0.0
 40
0.0
 40
0.0
 40
0.2963662681
 40
0.5603480651
 40
0.7921317404
 40
1.0
 40
1.0
 40
1.0
 40
1.0
 10
34.6651442065
 20
100.9014734376
 30
0.0
 10
34.4900287232
 20
101.0450060669
 30
0.0
 10
34.1370142467
 20
101.2917486955
 30
0.0
 10
33.5780493095
 20
101.5361840803
 30
0.0
 10
33.0400300788
 20
101.6222551871
 30
0.0
 10
32.7006421583
 20
101.5604633888
 30
0.0
 10
32.5534096713
 20
101.5009378112
 30
0.0
  0
SPLINE
  5
4EB
100
AcDbEntity
  8
00_COMPONENTS_2
100
AcDbSpline
 62
7
  6
CONTINUOUS
 70
0
 71
3
 72
9
 73
5
 74
0
 42
0.0000001
 43
0.0000001
 44
0.0000000001
 40
0.0
 40
0.0
 40
0.0
 40
0.0
 40
0.2543144138
 40
1.0
 40
1.0
 40
1.0
 40
1.0
 10
39.3426759374
 20
96.4318544493
 30
0.0
 10
39.3488199372
 20
96.4467137828
 30
0.0
 10
39.3737648978
 20
96.5048133277
 30
0.0
 10
39.4019047625
 20
96.5615521029
 30
0.0
 10
39.4247400003
 20
96.6028002466
 30
0.0
  0
SPLINE
  5
4EC
100
AcDbEntity
  8
00_COMPONENTS_2
100
AcDbSpline
 62
7
  6
CONTINUOUS
 70
0
 71
3
 72
9
 73
5
 74
0
 42
0.0000001
 43
0.0000001
 44
0.0000000001
 40
0.0
 40
0.0
 40
0.0
 40
0.0
 40
0.2534490286
 40
1.0
 40
1.0
 40
1.0
 40
1.0
 10
39.4247400003
 20
96.6028002466
 30
0.0
 10
39.4314320009
 20
96.6148882574
 30
0.0
 10
39.4584658007
 20
96.6622297661
 30
0.0
 10
39.48805501
 20
96.708119984
 30
0.0
 10
39.5115819944
 20
96.74132877
 30
0.0
  0
SPLINE
  5
4ED
100
AcDbEntity
  8
00_COMPONENTS_2
100
AcDbSpline
 62
7
  6
CONTINUOUS
 70
0
 71
3
 72
9
 73
5
 74
0
 42
0.0000001
 43
0.0000001
 44
0.0000000001
 40
0.0
 40
0.0
 40
0.0
 40
0.0
 40
0.5079347253
 40
1.0
 40
1.0
 40
1.0
 40
1.0
 10
39.5115819944
 20
96.74132877
 30
0.0
 10
39.5655634703
 20
96.8175246499
 30
0.0
 10
39.6873714369
 20
96.9573490324
 30
0.0
 10
39.8377628314
 20
97.0663212846
 30
0.0
 10
39.91675465
 20
97.1104092467
 30
0.0
  0
SPLINE
  5
4EE
100
AcDbEntity
  8
00_COMPONENTS_2
100
AcDbSpline
 62
7
  6
CONTINUOUS
 70
0
 71
3
 72
11
 73
7
 74
0
 42
0.0000001
 43
0.0000001
 44
0.0000000001
 40
0.0
 40
0.0
 40
0.0
 40
0.0
 40
0.2070342888
 40
0.4365298519
 40
0.700422092
 40
1.0
 40
1.0
 40
1.0
 40
1.0
 10
39.91675465
 20
97.1104092467
 30
0.0
 10
40.0634219584
 20
97.1922691514
 30
0.0
 10
40.4147747328
 20
97.2955218986
 30
0.0
 10
40.9901923503
 20
97.2365462796
 30
0.0
 10
41.5917026587
 20
96.9911055444
 30
0.0
 10
41.9706313815
 20
96.7296003272
 30
0.0
 10
42.1586920111
 20
96.5756387124
 30
0.0
  0
SPLINE
  5
4EF
100
AcDbEntity
  8
00_COMPONENTS_2
100
AcDbSpline
 62
7
  6
CONTINUOUS
 70
0
 71
3
 72
11
 73
7
 74
0
 42
0.0000001
 43
0.0000001
 44
0.0000000001
 40
0.0
 40
0.0
 40
0.0
 40
0.0
 40
0.2431073769
 40
0.4997025318
 40
0.7564416607
 40
1.0
 40
1.0
 40
1.0
 40
1.0
 10
42.1825669684
 20
96.555950591
 30
0.0
 10
42.4208799191
 20
96.3580070931
 30
0.0
 10
42.8688752749
 20
95.8994250091
 30
0.0
 10
43.4195316031
 20
95.1034030201
 30
0.0
 10
43.8368076637
 20
94.2294173881
 30
0.0
 10
44.0125091558
 20
93.6121028672
 30
0.0
 10
44.0661335476
 20
93.3063979271
 30
0.0
  0
SPLINE
  5
4F0
100
AcDbEntity
  8
00_COMPONENTS_2
100
AcDbSpline
 62
7
  6
CONTINUOUS
 70
0
 71
3
 72
9
 73
5
 74
0
 42
0.0000001
 43
0.0000001
 44
0.0000000001
 40
0.0
 40
0.0
 40
0.0
 40
0.0
 40
0.2588063363
 40
1.0
 40
1.0
 40
1.0
 40
1.0
 10
44.0746791771
 20
93.2559564806
 30
0.0
 10
44.083254903
 20
93.2034736268
 30
0.0
 10
44.1126559444
 20
93.0001127948
 30
0.0
 10
44.1268963893
 20
92.7944065268
 30
0.0
 10
44.1268963893
 20
92.6421079099
 30
0.0
  0
SPLINE
  5
4F1
100
AcDbEntity
  8
00_COMPONENTS_2
100
AcDbSpline
 62
7
  6
CONTINUOUS
 70
0
 71
3
 72
9
 73
5
 74
0
 42
0.0000001
 43
0.0000001
 44
0.0000000001
 40
0.0
 40
0.0
 40
0.0
 40
0.0
 40
0.2593402318
 40
1.0
 40
1.0
 40
1.0
 40
1.0
 10
38.5795538091
 20
95.3915130563
 30
0.0
 10
38.5856120404
 20
95.425591926
 30
0.0
 10
38.6119900785
 20
95.5564236007
 30
0.0
 10
38.6508299493
 20
95.6848967201
 30
0.0
 10
38.6875651089
 20
95.7766706856
 30
0.0
  0
SPLINE
  5
4F2
100
AcDbEntity
  8
00_COMPONENTS_2
100
AcDbSpline
 62
7
  6
CONTINUOUS
 70
0
 71
3
 72
9
 73
5
 74
0
 42
0.0000001
 43
0.0000001
 44
0.0000000001
 40
0.0
 40
0.0
 40
0.0
 40
0.0
 40
0.5198254058
 40
1.0
 40
1.0
 40
1.0
 40
1.0
 10
38.6875651089
 20
95.7766706856
 30
0.0
 10
38.7416550648
 20
95.9118014374
 30
0.0
 10
38.8804441487
 20
96.1607234299
 30
0.0
 10
39.0974430909
 20
96.3487762242
 30
0.0
 10
39.2138820368
 20
96.4160016446
 30
0.0
  0
SPLINE
  5
4F3
100
AcDbEntity
  8
00_COMPONENTS_2
100
AcDbSpline
 62
7
  6
CONTINUOUS
 70
0
 71
3
 72
11
 73
7
 74
0
 42
0.0000001
 43
0.0000001
 44
0.0000000001
 40
0.0
 40
0.0
 40
0.0
 40
0.0
 40
0.2403016682
 40
0.4953853074
 40
0.7528487407
 40
1.0
 40
1.0
 40
1.0
 40
1.0
 10
40.4193205788
 20
91.2346337635
 30
0.0
 10
40.2020674751
 20
91.4066401229
 30
0.0
 10
39.7906016356
 20
91.8084009388
 30
0.0
 10
39.2769377097
 20
92.5125209833
 30
0.0
 10
38.8750540079
 20
93.2947742137
 30
0.0
 10
38.6947139187
 20
93.8516622155
 30
0.0
 10
38.6331904459
 20
94.1299421706
 30
0.0
  0
SPLINE
  5
4F4
100
AcDbEntity
  8
00_COMPONENTS_2
100
AcDbSpline
 62
7
  6
CONTINUOUS
 70
0
 71
3
 72
11
 73
7
 74
0
 42
0.0000001
 43
0.0000001
 44
0.0000000001
 40
0.0
 40
0.0
 40
0.0
 40
0.0
 40
0.2426475109
 40
0.500147053
 40
0.7575695321
 40
1.0
 40
1.0
 40
1.0
 40
1.0
 10
32.9159038273
 20
95.5683792667
 30
0.0
 10
32.67904933
 20
95.7569141466
 30
0.0
 10
32.2341424588
 20
96.2013263342
 30
0.0
 10
31.6925921691
 20
96.9812223582
 30
0.0
 10
31.2895393355
 20
97.8406119966
 30
0.0
 10
31.128372567
 20
98.4480884479
 30
0.0
 10
31.0842223296
 20
98.7473079892
 30
0.0
  0
SPLINE
  5
4F5
100
AcDbEntity
  8
00_COMPONENTS_2
100
AcDbSpline
 62
7
  6
CONTINUOUS
 70
0
 71
3
 72
9
 73
5
 74
0
 42
0.0000001
 43
0.0000001
 44
0.0000000001
 40
0.0
 40
0.0
 40
0.0
 40
0.0
 40
0.2600901561
 40
1.0
 40
1.0
 40
1.0
 40
1.0
 10
31.0842223296
 20
99.7190428103
 30
0.0
 10
31.09073952
 20
99.7556865522
 30
0.0
 10
31.1192742941
 20
99.8959071932
 30
0.0
 10
31.1622159336
 20
100.0334064091
 30
0.0
 10
31.2032738759
 20
100.1310024101
 30
0.0
  0
SPLINE
  5
4F6
100
AcDbEntity
  8
00_COMPONENTS_2
100
AcDbSpline
 62
7
  6
CONTINUOUS
 70
0
 71
3
 72
9
 73
5
 74
0
 42
0.0000001
 43
0.0000001
 44
0.0000000001
 40
0.0
 40
0.0
 40
0.0
 40
0.0
 40
0.5187347162
 40
1.0
 40
1.0
 40
1.0
 40
1.0
 10
31.2032738759
 20
100.1310024101
 30
0.0
 10
31.2576646726
 20
100.2602910191
 30
0.0
 10
31.3954285023
 20
100.4983067496
 30
0.0
 10
31.6058212928
 20
100.6782874904
 30
0.0
 10
31.7185185684
 20
100.7433543117
 30
0.0
  0
SPLINE
  5
4F7
100
AcDbEntity
  8
00_COMPONENTS_2
100
AcDbSpline
 62
7
  6
CONTINUOUS
 70
0
 71
3
 72
13
 73
9
 74
0
 42
0.0000001
 43
0.0000001
 44
0.0000000001
 40
0.0
 40
0.0
 40
0.0
 40
0.0
 40
0.1142259181
 40
0.2375599982
 40
0.5000010158
 40
0.7624414734
 40
0.8857749255
 40
1.0
 40
1.0
 40
1.0
 40
1.0
 10
53.4607453777
 20
80.3130613373
 30
0.0
 10
53.4607453777
 20
80.5198190763
 30
0.0
 10
53.4228127841
 20
80.9502491012
 30
0.0
 10
53.2171973482
 20
81.8338496591
 30
0.0
 10
52.7393288319
 20
82.9175960776
 30
0.0
 10
52.039707532
 20
83.8733116925
 30
0.0
 10
51.377293441
 20
84.4931734713
 30
0.0
 10
51.0234965394
 20
84.7412347204
 30
0.0
 10
50.8444393947
 20
84.8446110724
 30
0.0
  0
SPLINE
  5
4F8
100
AcDbEntity
  8
00_COMPONENTS_2
100
AcDbSpline
 62
7
  6
CONTINUOUS
 70
0
 71
3
 72
9
 73
5
 74
0
 42
0.0000001
 43
0.0000001
 44
0.0000000001
 40
0.0
 40
0.0
 40
0.0
 40
0.0
 40
0.2605251171
 40
1.0
 40
1.0
 40
1.0
 40
1.0
 10
24.8228015093
 20
99.8678708388
 30
0.0
 10
24.7788755733
 20
99.893230916
 30
0.0
 10
24.6081948896
 20
99.9868700975
 30
0.0
 10
24.4288428108
 20
100.0651981699
 30
0.0
 10
24.2924692154
 20
100.1113352032
 30
0.0
  0
SPLINE
  5
4F9
100
AcDbEntity
  8
00_COMPONENTS_2
100
AcDbSpline
 62
7
  6
CONTINUOUS
 70
0
 71
3
 72
11
 73
7
 74
0
 42
0.0000001
 43
0.0000001
 44
0.0000000001
 40
0.0
 40
0.0
 40
0.0
 40
0.0
 40
0.2423076096
 40
0.4995201454
 40
0.7569788649
 40
1.0
 40
1.0
 40
1.0
 40
1.0
 10
47.9099402176
 20
55.3940499563
 30
0.0
 10
47.6749830657
 20
55.580662732
 30
0.0
 10
47.2331829906
 20
56.0203456995
 30
0.0
 10
46.6938495635
 20
56.7921752154
 30
0.0
 10
46.2900224999
 20
57.6437576441
 30
0.0
 10
46.1261756763
 20
58.2463208047
 30
0.0
 10
46.0797979146
 20
58.5436578102
 30
0.0
  0
SPLINE
  5
4FA
100
AcDbEntity
  8
00_COMPONENTS_2
100
AcDbSpline
 62
7
  6
CONTINUOUS
 70
0
 71
3
 72
11
 73
7
 74
0
 42
0.0000001
 43
0.0000001
 44
0.0000000001
 40
0.0
 40
0.0
 40
0.0
 40
0.0
 40
0.276674462
 40
0.532228002
 40
0.7707655965
 40
1.0
 40
1.0
 40
1.0
 40
1.0
 10
24.1156932561
 20
100.0092741647
 30
0.0
 10
23.996899222
 20
100.0494637944
 30
0.0
 10
23.7619265315
 20
100.1096783078
 30
0.0
 10
23.4110459445
 20
100.1333520811
 30
0.0
 10
23.0841023128
 20
100.0837176434
 30
0.0
 10
22.8860184906
 20
100.0010018952
 30
0.0
 10
22.7960575904
 20
99.9490085845
 30
0.0
  0
SPLINE
  5
4FB
100
AcDbEntity
  8
00_COMPONENTS_2
100
AcDbSpline
 62
7
  6
CONTINUOUS
 70
0
 71
3
 72
13
 73
9
 74
0
 42
0.0000001
 43
0.0000001
 44
0.0000000001
 40
0.0
 40
0.0
 40
0.0
 40
0.0
 40
0.1142250362
 40
0.2375584228
 40
0.4999988469
 40
0.762439898
 40
0.8857740437
 40
1.0
 40
1.0
 40
1.0
 40
1.0
 10
20.2266265674
 20
73.6173639836
 30
0.0
 10
20.0475694826
 20
73.720740301
 30
0.0
 10
19.6937726992
 20
73.9688013887
 30
0.0
 10
19.0313587929
 20
74.5886630041
 30
0.0
 10
18.331737452
 20
75.5443784208
 30
0.0
 10
17.8538687437
 20
76.628124903
 30
0.0
 10
17.6482532587
 20
77.5117257026
 30
0.0
 10
17.6103205843
 20
77.9421559104
 30
0.0
 10
17.6103205843
 20
78.1489137187
 30
0.0
  0
SPLINE
  5
4FC
100
AcDbEntity
  8
00_COMPONENTS_2
100
AcDbSpline
 62
7
  6
CONTINUOUS
 70
0
 71
3
 72
11
 73
7
 74
0
 42
0.0000001
 43
0.0000001
 44
0.0000000001
 40
0.0
 40
0.0
 40
0.0
 40
0.0
 40
0.2897033281
 40
0.5490895198
 40
0.7822165953
 40
1.0
 40
1.0
 40
1.0
 40
1.0
 10
17.6103205843
 20
95.703715687
 30
0.0
 10
17.6103205843
 20
95.8911878212
 30
0.0
 10
17.6387441181
 20
96.2477200877
 30
0.0
 10
17.7831354085
 20
96.7375767381
 30
0.0
 10
18.0262423873
 20
97.1350677078
 30
0.0
 10
18.2545936308
 20
97.3270422963
 30
0.0
 10
18.3766440808
 20
97.3975076819
 30
0.0
  0
SPLINE
  5
4FD
100
AcDbEntity
  8
00_COMPONENTS_2
100
AcDbSpline
 62
7
  6
CONTINUOUS
 70
0
 71
3
 72
11
 73
7
 74
0
 42
0.0000001
 43
0.0000001
 44
0.0000000001
 40
0.0
 40
0.0
 40
0.0
 40
0.0
 40
0.2372193634
 40
0.5000010919
 40
0.762782226
 40
1.0
 40
1.0
 40
1.0
 40
1.0
 10
41.0156489539
 20
65.2485110516
 30
0.0
 10
41.0156489539
 20
65.3296477148
 30
0.0
 10
40.9852169755
 20
65.5007746352
 30
0.0
 10
40.8791373011
 20
65.7412451012
 30
0.0
 10
40.7239229684
 20
65.9533468835
 30
0.0
 10
40.5909384844
 20
66.0652639004
 30
0.0
 10
40.5206721463
 20
66.1058312718
 30
0.0
  0
SPLINE
  5
4FE
100
AcDbEntity
  8
00_COMPONENTS_2
100
AcDbSpline
 62
7
  6
CONTINUOUS
 70
0
 71
3
 72
10
 73
6
 74
0
 42
0.0000001
 43
0.0000001
 44
0.0000000001
 40
0.0
 40
0.0
 40
0.0
 40
0.0
 40
0.2500552136
 40
0.6249840815
 40
1.0
 40
1.0
 40
1.0
 40
1.0
 10
115.5711083934
 20
159.1886517673
 30
0.0
 10
114.6629601443
 20
158.6638021781
 30
0.0
 10
112.3932379425
 20
157.3518461233
 30
0.0
 10
108.7641461496
 20
155.2482469299
 30
0.0
 10
106.0413662436
 20
153.6726691065
 30
0.0
 10
104.679454039
 20
152.885418888
 30
0.0
  0
SPLINE
  5
4FF
100
AcDbEntity
  8
00_COMPONENTS_2
100
AcDbSpline
 62
7
  6
CONTINUOUS
 70
0
 71
3
 72
9
 73
5
 74
0
 42
0.0000001
 43
0.0000001
 44
0.0000000001
 40
0.0
 40
0.0
 40
0.0
 40
0.0
 40
0.4492410797
 40
1.0
 40
1.0
 40
1.0
 40
1.0
 10
45.4020781883
 20
124.5650310345
 30
0.0
 10
45.4358368965
 20
124.5844532543
 30
0.0
 10
45.4940191986
 20
124.6574795561
 30
0.0
 10
45.5056367344
 20
124.7461713946
 30
0.0
 10
45.5056367344
 20
124.7939195599
 30
0.0
  0
SPLINE
  5
500
100
AcDbEntity
  8
00_COMPONENTS_2
100
AcDbSpline
 62
7
  6
CONTINUOUS
 70
0
 71
3
 72
9
 73
5
 74
0
 42
0.0000001
 43
0.0000001
 44
0.0000000001
 40
0.0
 40
0.0
 40
0.0
 40
0.0
 40
0.5461460906
 40
1.0
 40
1.0
 40
1.0
 40
1.0
 10
44.7803933789
 20
123.7615862838
 30
0.0
 10
44.7466702465
 20
123.8268942573
 30
0.0
 10
44.6923205354
 20
123.9505582857
 30
0.0
 10
44.6622978808
 20
124.0833615329
 30
0.0
 10
44.658273322
 20
124.1443089166
 30
0.0
  0
SPLINE
  5
501
100
AcDbEntity
  8
00_COMPONENTS_2
100
AcDbSpline
 62
7
  6
CONTINUOUS
 70
0
 71
3
 72
23
 73
19
 74
0
 42
0.0000001
 43
0.0000001
 44
0.0000000001
 40
0.0
 40
0.0
 40
0.0
 40
0.0
 40
0.0447374148
 40
0.093331505
 40
0.1456749816
 40
0.2011494591
 40
0.3198464661
 40
0.4476484069
 40
0.5148576019
 40
0.5843801032
 40
0.6564003957
 40
0.7311887463
 40
0.8088280159
 40
0.887167039
 40
0.9232628193
 40
0.953593881
 40
0.9781835403
 40
1.0
 40
1.0
 40
1.0
 40
1.0
 10
44.6403000414
 20
119.5525423362
 30
0.0
 10
44.5754483438
 20
119.5150556988
 30
0.0
 10
44.4168887577
 20
119.4795970146
 30
0.0
 10
44.1729161863
 20
119.4968955579
 30
0.0
 10
43.9170945324
 20
119.5574841196
 30
0.0
 10
43.5597019511
 20
119.6857692645
 30
0.0
 10
43.1076368981
 20
119.9165085167
 30
0.0
 10
42.6704872959
 20
120.2095289847
 30
0.0
 10
42.3235815153
 20
120.4852410435
 30
0.0
 10
42.0628451023
 20
120.7183504905
 30
0.0
 10
41.8083220965
 20
120.9764019112
 30
0.0
 10
41.5648453849
 20
121.2634218764
 30
0.0
 10
41.3453032129
 20
121.5818370513
 30
0.0
 10
41.2030657513
 20
121.8741757058
 30
0.0
 10
41.1525651321
 20
122.1128911565
 30
0.0
 10
41.161613066
 20
122.2680026229
 30
0.0
 10
41.2194508829
 20
122.3869716594
 30
0.0
 10
41.2810218779
 20
122.4379014572
 30
0.0
 10
41.3126567244
 20
122.4561655191
 30
0.0
  0
SPLINE
  5
502
100
AcDbEntity
  8
00_COMPONENTS_2
100
AcDbSpline
 62
7
  6
CONTINUOUS
 70
0
 71
3
 72
11
 73
7
 74
0
 42
0.0000001
 43
0.0000001
 44
0.0000000001
 40
0.0
 40
0.0
 40
0.0
 40
0.0
 40
0.2282320039
 40
0.466200739
 40
0.7219751005
 40
1.0
 40
1.0
 40
1.0
 40
1.0
 10
46.7092447368
 20
92.0886503173
 30
0.0
 10
46.7908284003
 20
92.1357523845
 30
0.0
 10
46.9710130206
 20
92.2102186886
 30
0.0
 10
47.2688307777
 20
92.2518503567
 30
0.0
 10
47.5884549636
 20
92.2251662998
 30
0.0
 10
47.801981725
 20
92.1659933324
 30
0.0
 10
47.9099402176
 20
92.1270815632
 30
0.0
  0
SPLINE
  5
503
100
AcDbEntity
  8
00_COMPONENTS_2
100
AcDbSpline
 62
7
  6
CONTINUOUS
 70
0
 71
3
 72
9
 73
5
 74
0
 42
0.0000001
 43
0.0000001
 44
0.0000000001
 40
0.0
 40
0.0
 40
0.0
 40
0.0
 40
0.2422772574
 40
1.0
 40
1.0
 40
1.0
 40
1.0
 10
40.9655409426
 20
65.0640118127
 30
0.0
 10
40.9596846617
 20
65.0650579238
 30
0.0
 10
40.9356156686
 20
65.0699441446
 30
0.0
 10
40.9120051302
 20
65.0770001087
 30
0.0
 10
40.8945047534
 20
65.0833167299
 30
0.0
  0
SPLINE
  5
504
100
AcDbEntity
  8
00_COMPONENTS_2
100
AcDbSpline
 62
7
  6
CONTINUOUS
 70
0
 71
3
 72
9
 73
5
 74
0
 42
0.0000001
 43
0.0000001
 44
0.0000000001
 40
0.0
 40
0.0
 40
0.0
 40
0.0
 40
0.2413922428
 40
1.0
 40
1.0
 40
1.0
 40
1.0
 10
40.8945047534
 20
65.0833167299
 30
0.0
 10
40.8868915413
 20
65.0860646581
 30
0.0
 10
40.8556338422
 20
65.0982209331
 30
0.0
 10
40.8255423293
 20
65.1133075912
 30
0.0
 10
40.8035136812
 20
65.1260255494
 30
0.0
  0
SPLINE
  5
505
100
AcDbEntity
  8
00_COMPONENTS_2
100
AcDbSpline
 62
7
  6
CONTINUOUS
 70
0
 71
3
 72
11
 73
7
 74
0
 42
0.0000001
 43
0.0000001
 44
0.0000000001
 40
0.0
 40
0.0
 40
0.0
 40
0.0
 40
0.2177843137
 40
0.4509117637
 40
0.7102976701
 40
1.0
 40
1.0
 40
1.0
 40
1.0
 10
18.3766440808
 20
97.3975076819
 30
0.0
 10
18.4986917772
 20
97.4679714778
 30
0.0
 10
18.7791153343
 20
97.5697394833
 30
0.0
 10
19.2448940839
 20
97.5815329114
 30
0.0
 10
19.7413050706
 20
97.4616585077
 30
0.0
 10
20.0642749183
 20
97.3080154864
 30
0.0
 10
20.2266265674
 20
97.2142838386
 30
0.0
  0
SPLINE
  5
506
100
AcDbEntity
  8
00_COMPONENTS_2
100
AcDbSpline
 62
7
  6
CONTINUOUS
 70
0
 71
3
 72
9
 73
5
 74
0
 42
0.0000001
 43
0.0000001
 44
0.0000000001
 40
0.0
 40
0.0
 40
0.0
 40
0.0
 40
0.5116576672
 40
1.0
 40
1.0
 40
1.0
 40
1.0
 10
36.3538800437
 20
64.2973203549
 30
0.0
 10
36.2995746749
 20
64.2072499297
 30
0.0
 10
36.1741956374
 20
64.041733706
 30
0.0
 10
36.0111882927
 20
63.9121797486
 30
0.0
 10
35.9249075529
 20
63.8608744985
 30
0.0
  0
SPLINE
  5
507
100
AcDbEntity
  8
00_COMPONENTS_2
100
AcDbSpline
 62
7
  6
CONTINUOUS
 70
0
 71
3
 72
9
 73
5
 74
0
 42
0.0000001
 43
0.0000001
 44
0.0000000001
 40
0.0
 40
0.0
 40
0.0
 40
0.0
 40
0.2478152341
 40
1.0
 40
1.0
 40
1.0
 40
1.0
 10
35.9249075529
 20
63.8608744985
 30
0.0
 10
35.8941310908
 20
63.8425738432
 30
0.0
 10
35.7665071701
 20
63.774582738
 30
0.0
 10
35.6259398928
 20
63.7315203469
 30
0.0
 10
35.5187535472
 20
63.7135509494
 30
0.0
  0
SPLINE
  5
508
100
AcDbEntity
  8
00_COMPONENTS_2
100
AcDbSpline
 62
7
  6
CONTINUOUS
 70
0
 71
3
 72
9
 73
5
 74
0
 42
0.0000001
 43
0.0000001
 44
0.0000000001
 40
0.0
 40
0.0
 40
0.0
 40
0.0
 40
0.2458410718
 40
1.0
 40
1.0
 40
1.0
 40
1.0
 10
35.5187535472
 20
63.7135509494
 30
0.0
 10
35.5003852289
 20
63.7104715682
 30
0.0
 10
35.4253971068
 20
63.6996003047
 30
0.0
 10
35.3494901838
 20
63.6952853662
 30
0.0
 10
35.2923560268
 20
63.6953954532
 30
0.0
  0
SPLINE
  5
509
100
AcDbEntity
  8
00_COMPONENTS_2
100
AcDbSpline
 62
7
  6
CONTINUOUS
 70
0
 71
3
 72
9
 73
5
 74
0
 42
0.0000001
 43
0.0000001
 44
0.0000000001
 40
0.0
 40
0.0
 40
0.0
 40
0.0
 40
0.2446630563
 40
1.0
 40
1.0
 40
1.0
 40
1.0
 10
35.2923560268
 20
63.6953954532
 30
0.0
 10
35.2723535329
 20
63.6954339943
 30
0.0
 10
35.1906062063
 20
63.6972696944
 30
0.0
 10
35.1090388667
 20
63.7056972663
 30
0.0
 10
35.048039244
 20
63.7153131572
 30
0.0
  0
SPLINE
  5
50A
100
AcDbEntity
  8
00_COMPONENTS_2
100
AcDbSpline
 62
7
  6
CONTINUOUS
 70
0
 71
3
 72
9
 73
5
 74
0
 42
0.0000001
 43
0.0000001
 44
0.0000000001
 40
0.0
 40
0.0
 40
0.0
 40
0.0
 40
0.246054996
 40
1.0
 40
1.0
 40
1.0
 40
1.0
 10
51.059670846
 20
86.9107920348
 30
0.0
 10
51.0383986543
 20
86.9069390668
 30
0.0
 10
50.9516387622
 20
86.8930027309
 30
0.0
 10
50.8637994888
 20
86.8859743987
 30
0.0
 10
50.7975811999
 20
86.8842259128
 30
0.0
  0
SPLINE
  5
50B
100
AcDbEntity
  8
00_COMPONENTS_2
100
AcDbSpline
 62
7
  6
CONTINUOUS
 70
0
 71
3
 72
11
 73
7
 74
0
 42
0.0000001
 43
0.0000001
 44
0.0000000001
 40
0.0
 40
0.0
 40
0.0
 40
0.0
 40
0.2283142577
 40
0.4663245353
 40
0.7220735541
 40
1.0
 40
1.0
 40
1.0
 40
1.0
 10
31.7185185684
 20
100.7433543117
 30
0.0
 10
31.7999003781
 20
100.7903408573
 30
0.0
 10
31.9795874512
 20
100.8646708547
 30
0.0
 10
32.2765544169
 20
100.9064611272
 30
0.0
 10
32.5952686455
 20
100.880266784
 30
0.0
 10
32.8082287074
 20
100.8215966706
 30
0.0
 10
32.9159038273
 20
100.7829757689
 30
0.0
  0
SPLINE
  5
50C
100
AcDbEntity
  8
00_COMPONENTS_2
100
AcDbSpline
 62
7
  6
CONTINUOUS
 70
0
 71
3
 72
11
 73
7
 74
0
 42
0.0000001
 43
0.0000001
 44
0.0000000001
 40
0.0
 40
0.0
 40
0.0
 40
0.0
 40
0.2897270332
 40
0.5490867672
 40
0.7822246007
 40
1.0
 40
1.0
 40
1.0
 40
1.0
 10
52.0831735939
 20
88.0486532397
 30
0.0
 10
52.0831735939
 20
87.8382705854
 30
0.0
 10
52.0512928781
 20
87.438202297
 30
0.0
 10
51.8892632979
 20
86.8885147007
 30
0.0
 10
51.6164260114
 20
86.4425374684
 30
0.0
 10
51.3602224989
 20
86.2270851253
 30
0.0
 10
51.2232770293
 20
86.1480103796
 30
0.0
  0
SPLINE
  5
50D
100
AcDbEntity
  8
00_COMPONENTS_2
100
AcDbSpline
 62
7
  6
CONTINUOUS
 70
0
 71
3
 72
11
 73
7
 74
0
 42
0.0000001
 43
0.0000001
 44
0.0000000001
 40
0.0
 40
0.0
 40
0.0
 40
0.0
 40
0.2634541452
 40
0.524085063
 40
0.7722920329
 40
1.0
 40
1.0
 40
1.0
 40
1.0
 10
50.840359875
 20
60.0187246377
 30
0.0
 10
51.0326869606
 20
59.7509228815
 30
0.0
 10
51.378249405
 20
59.1906024266
 30
0.0
 10
51.7704106782
 20
58.3038774455
 30
0.0
 10
52.0190023727
 20
57.4128696973
 30
0.0
 10
52.0831735939
 20
56.816632418
 30
0.0
 10
52.0831735939
 20
56.5316599385
 30
0.0
  0
SPLINE
  5
50E
100
AcDbEntity
  8
00_COMPONENTS_2
100
AcDbSpline
 62
7
  6
CONTINUOUS
 70
0
 71
3
 72
9
 73
5
 74
0
 42
0.0000001
 43
0.0000001
 44
0.0000000001
 40
0.0
 40
0.0
 40
0.0
 40
0.0
 40
0.2698411382
 40
1.0
 40
1.0
 40
1.0
 40
1.0
 10
52.0831735939
 20
56.5316599385
 30
0.0
 10
52.0831735939
 20
56.4297529123
 30
0.0
 10
52.0683443927
 20
56.0527096477
 30
0.0
 10
51.9904974697
 20
55.6746903261
 30
0.0
 10
51.8843675572
 20
55.4201834763
 30
0.0
  0
SPLINE
  5
50F
100
AcDbEntity
  8
00_COMPONENTS_2
100
AcDbSpline
 62
7
  6
CONTINUOUS
 70
0
 71
3
 72
9
 73
5
 74
0
 42
0.0000001
 43
0.0000001
 44
0.0000000001
 40
0.0
 40
0.0
 40
0.0
 40
0.0
 40
0.5187930579
 40
1.0
 40
1.0
 40
1.0
 40
1.0
 10
51.8843675572
 20
55.4201834763
 30
0.0
 10
51.814906477
 20
55.2536110153
 30
0.0
 10
51.6386102363
 20
54.9468173901
 30
0.0
 10
51.3682140643
 20
54.7147780863
 30
0.0
 10
51.2232639158
 20
54.6310396362
 30
0.0
  0
SPLINE
  5
510
100
AcDbEntity
  8
00_COMPONENTS_2
100
AcDbSpline
 62
7
  6
CONTINUOUS
 70
0
 71
3
 72
9
 73
5
 74
0
 42
0.0000001
 43
0.0000001
 44
0.0000000001
 40
0.0
 40
0.0
 40
0.0
 40
0.0
 40
0.5086651782
 40
1.0
 40
1.0
 40
1.0
 40
1.0
 10
50.3645390496
 20
55.035667703
 30
0.0
 10
50.4591982153
 20
55.0427755126
 30
0.0
 10
50.6446015024
 20
55.075431109
 30
0.0
 10
50.8179483357
 20
55.1496866033
 30
0.0
 10
50.8973354859
 20
55.1955670203
 30
0.0
  0
SPLINE
  5
511
100
AcDbEntity
  8
00_COMPONENTS_2
100
AcDbSpline
 62
7
  6
CONTINUOUS
 70
0
 71
3
 72
9
 73
5
 74
0
 42
0.0000001
 43
0.0000001
 44
0.0000000001
 40
0.0
 40
0.0
 40
0.0
 40
0.0
 40
0.5086651782
 40
1.0
 40
1.0
 40
1.0
 40
1.0
 10
50.3645390496
 20
86.5526610042
 30
0.0
 10
50.4591982153
 20
86.5597688138
 30
0.0
 10
50.6446015024
 20
86.5924244102
 30
0.0
 10
50.8179483357
 20
86.6666799045
 30
0.0
 10
50.8973354859
 20
86.7125603215
 30
0.0
  0
SPLINE
  5
512
100
AcDbEntity
  8
00_COMPONENTS_2
100
AcDbSpline
 62
7
  6
CONTINUOUS
 70
0
 71
3
 72
9
 73
5
 74
0
 42
0.0000001
 43
0.0000001
 44
0.0000000001
 40
0.0
 40
0.0
 40
0.0
 40
0.0
 40
0.2446266888
 40
1.0
 40
1.0
 40
1.0
 40
1.0
 10
19.9083768492
 20
104.2975328539
 30
0.0
 10
20.9184916438
 20
103.5161719002
 30
0.0
 10
25.0908941468
 20
100.3781345692
 30
0.0
 10
29.4287705615
 20
97.4615539837
 30
0.0
 10
32.7764812288
 20
95.3775984471
 30
0.0
  0
SPLINE
  5
513
100
AcDbEntity
  8
00_COMPONENTS_2
100
AcDbSpline
 62
7
  6
CONTINUOUS
 70
0
 71
3
 72
9
 73
5
 74
0
 42
0.0000001
 43
0.0000001
 44
0.0000000001
 40
0.0
 40
0.0
 40
0.0
 40
0.0
 40
0.5135650394
 40
1.0
 40
1.0
 40
1.0
 40
1.0
 10
36.3820705951
 20
95.8631199773
 30
0.0
 10
36.3189976534
 20
95.7490843555
 30
0.0
 10
36.1668885703
 20
95.5410838731
 30
0.0
 10
35.956909165
 20
95.3896611178
 30
0.0
 10
35.8461708984
 20
95.3351404873
 30
0.0
  0
SPLINE
  5
514
100
AcDbEntity
  8
00_COMPONENTS_2
100
AcDbSpline
 62
7
  6
CONTINUOUS
 70
0
 71
3
 72
9
 73
5
 74
0
 42
0.0000001
 43
0.0000001
 44
0.0000000001
 40
0.0
 40
0.0
 40
0.0
 40
0.0
 40
0.2458829121
 40
1.0
 40
1.0
 40
1.0
 40
1.0
 10
35.8461708984
 20
95.3351404873
 30
0.0
 10
35.8130870372
 20
95.3188520531
 30
0.0
 10
35.6753673233
 20
95.2591239187
 30
0.0
 10
35.526202753
 20
95.2268433742
 30
0.0
 10
35.4135086898
 20
95.2172876448
 30
0.0
  0
SPLINE
  5
515
100
AcDbEntity
  8
00_COMPONENTS_2
100
AcDbSpline
 62
7
  6
CONTINUOUS
 70
0
 71
3
 72
9
 73
5
 74
0
 42
0.0000001
 43
0.0000001
 44
0.0000000001
 40
0.0
 40
0.0
 40
0.0
 40
0.0
 40
0.2654674874
 40
1.0
 40
1.0
 40
1.0
 40
1.0
 10
31.9123759841
 20
100.6644337071
 30
0.0
 10
31.9269207036
 20
100.7134408873
 30
0.0
 10
31.9884343301
 20
100.8958454417
 30
0.0
 10
32.0798036585
 20
101.0692360454
 30
0.0
 10
32.1651735871
 20
101.1820142313
 30
0.0
  0
SPLINE
  5
516
100
AcDbEntity
  8
00_COMPONENTS_2
100
AcDbSpline
 62
7
  6
CONTINUOUS
 70
0
 71
3
 72
9
 73
5
 74
0
 42
0.0000001
 43
0.0000001
 44
0.0000000001
 40
0.0
 40
0.0
 40
0.0
 40
0.0
 40
0.2562189728
 40
1.0
 40
1.0
 40
1.0
 40
1.0
 10
32.1651735871
 20
101.1820142313
 30
0.0
 10
32.1829800824
 20
101.2055375524
 30
0.0
 10
32.2555409713
 20
101.2949636779
 30
0.0
 10
32.3409406288
 20
101.3741570564
 30
0.0
 10
32.4102224896
 20
101.4245052911
 30
0.0
  0
SPLINE
  5
517
100
AcDbEntity
  8
00_COMPONENTS_2
100
AcDbSpline
 62
7
  6
CONTINUOUS
 70
0
 71
3
 72
15
 73
11
 74
0
 42
0.0000001
 43
0.0000001
 44
0.0000000001
 40
0.0
 40
0.0
 40
0.0
 40
0.0
 40
0.1558877001
 40
0.3090836594
 40
0.4549958183
 40
0.590019018
 40
0.7114642956
 40
0.8185043197
 40
0.9129547513
 40
1.0
 40
1.0
 40
1.0
 40
1.0
 10
36.382070488
 20
99.2801232587
 30
0.0
 10
36.2538974697
 20
99.5329041605
 30
0.0
 10
35.9701911937
 20
100.0196885127
 30
0.0
 10
35.4731729807
 20
100.683243718
 30
0.0
 10
34.9248896532
 20
101.2540628458
 30
0.0
 10
34.3487265102
 20
101.7092105606
 30
0.0
 10
33.7669617347
 20
102.0304216803
 30
0.0
 10
33.200169266
 20
102.2035645974
 30
0.0
 10
32.6675613434
 20
102.2163573142
 30
0.0
 10
32.3468073164
 20
102.1067811188
 30
0.0
 10
32.2097672231
 20
102.0276277229
 30
0.0
  0
SPLINE
  5
518
100
AcDbEntity
  8
00_COMPONENTS_2
100
AcDbSpline
 62
7
  6
CONTINUOUS
 70
0
 71
3
 72
9
 73
5
 74
0
 42
0.0000001
 43
0.0000001
 44
0.0000000001
 40
0.0
 40
0.0
 40
0.0
 40
0.0
 40
0.2537185374
 40
1.0
 40
1.0
 40
1.0
 40
1.0
 10
34.6127767489
 20
100.7845611487
 30
0.0
 10
34.5950782201
 20
100.7985745273
 30
0.0
 10
34.5248606203
 20
100.8532202335
 30
0.0
 10
34.452752336
 20
100.9054481236
 30
0.0
 10
34.3978706914
 20
100.9428247982
 30
0.0
  0
SPLINE
  5
519
100
AcDbEntity
  8
00_COMPONENTS_2
100
AcDbSpline
 62
7
  6
CONTINUOUS
 70
0
 71
3
 72
11
 73
7
 74
0
 42
0.0000001
 43
0.0000001
 44
0.0000000001
 40
0.0
 40
0.0
 40
0.0
 40
0.0
 40
0.2983971852
 40
0.5606195867
 40
0.7900424758
 40
1.0
 40
1.0
 40
1.0
 40
1.0
 10
34.3978706914
 20
100.9428247982
 30
0.0
 10
34.2443954825
 20
101.0523399016
 30
0.0
 10
33.9387898654
 20
101.2360325813
 30
0.0
 10
33.4621835104
 20
101.3997290296
 30
0.0
 10
33.0120371571
 20
101.4227352308
 30
0.0
 10
32.7403945186
 20
101.3333994065
 30
0.0
 10
32.6255239288
 20
101.2670377411
 30
0.0
  0
SPLINE
  5
51A
100
AcDbEntity
  8
00_COMPONENTS_2
100
AcDbSpline
 62
7
  6
CONTINUOUS
 70
0
 71
3
 72
9
 73
5
 74
0
 42
0.0000001
 43
0.0000001
 44
0.0000000001
 40
0.0
 40
0.0
 40
0.0
 40
0.0
 40
0.24637287
 40
1.0
 40
1.0
 40
1.0
 40
1.0
 10
31.0481232811
 20
119.955262427
 30
0.0
 10
31.7171190106
 20
119.4361509822
 30
0.0
 10
34.4514456214
 20
117.3536319565
 30
0.0
 10
37.2595405898
 20
115.3682635793
 30
0.0
 10
39.4105203988
 20
113.9252078979
 30
0.0
  0
SPLINE
  5
51B
100
AcDbEntity
  8
00_COMPONENTS_2
100
AcDbSpline
 62
7
  6
CONTINUOUS
 70
0
 71
3
 72
9
 73
5
 74
0
 42
0.0000001
 43
0.0000001
 44
0.0000000001
 40
0.0
 40
0.0
 40
0.0
 40
0.0
 40
0.5587917336
 40
1.0
 40
1.0
 40
1.0
 40
1.0
 10
41.9578525297
 20
122.7456149801
 30
0.0
 10
41.9578525297
 20
122.6982294116
 30
0.0
 10
41.9476264386
 20
122.6117540809
 30
0.0
 10
41.8924042348
 20
122.5386467275
 30
0.0
 10
41.8599745007
 20
122.5199877892
 30
0.0
  0
SPLINE
  5
51C
100
AcDbEntity
  8
00_COMPONENTS_2
100
AcDbSpline
 62
7
  6
CONTINUOUS
 70
0
 71
3
 72
9
 73
5
 74
0
 42
0.0000001
 43
0.0000001
 44
0.0000000001
 40
0.0
 40
0.0
 40
0.0
 40
0.0
 40
0.5454981875
 40
1.0
 40
1.0
 40
1.0
 40
1.0
 10
54.233791281
 20
115.5445540368
 30
0.0
 10
54.233791281
 20
115.4965396186
 30
0.0
 10
54.2211031031
 20
115.4063520155
 30
0.0
 10
54.160973556
 20
115.3333206826
 30
0.0
 10
54.1262955995
 20
115.3133748265
 30
0.0
  0
SPLINE
  5
51D
100
AcDbEntity
  8
00_COMPONENTS_2
100
AcDbSpline
 62
7
  6
CONTINUOUS
 70
0
 71
3
 72
11
 73
7
 74
0
 42
0.0000001
 43
0.0000001
 44
0.0000000001
 40
0.0
 40
0.0
 40
0.0
 40
0.0
 40
0.2646754078
 40
0.5248621
 40
0.7722644768
 40
1.0
 40
1.0
 40
1.0
 40
1.0
 10
32.1973719425
 20
106.493529766
 30
0.0
 10
32.4625960796
 20
107.0282207875
 30
0.0
 10
33.0579128442
 20
108.0556196644
 30
0.0
 10
34.1200311367
 20
109.4419901971
 30
0.0
 10
35.3026398796
 20
110.6119155737
 30
0.0
 10
36.1777892442
 20
111.2413270049
 30
0.0
 10
36.6226324916
 20
111.4979471359
 30
0.0
  0
SPLINE
  5
51E
100
AcDbEntity
  8
00_COMPONENTS_2
100
AcDbSpline
 62
7
  6
CONTINUOUS
 70
0
 71
3
 72
9
 73
5
 74
0
 42
0.0000001
 43
0.0000001
 44
0.0000000001
 40
0.0
 40
0.0
 40
0.0
 40
0.0
 40
0.2546832718
 40
1.0
 40
1.0
 40
1.0
 40
1.0
 10
41.9578503687
 20
124.5803707201
 30
0.0
 10
41.0043257488
 20
125.194219382
 30
0.0
 10
37.2855727304
 20
127.6432859765
 30
0.0
 10
33.6700363498
 20
130.2499589861
 30
0.0
 10
31.0481232811
 20
132.2844489257
 30
0.0
  0
SPLINE
  5
51F
100
AcDbEntity
  8
00_COMPONENTS_2
100
AcDbSpline
 62
7
  6
CONTINUOUS
 70
0
 71
3
 72
9
 73
5
 74
0
 42
0.0000001
 43
0.0000001
 44
0.0000000001
 40
0.0
 40
0.0
 40
0.0
 40
0.0
 40
0.2538119859
 40
1.0
 40
1.0
 40
1.0
 40
1.0
 10
69.7977362192
 20
109.912855578
 30
0.0
 10
68.6505362458
 20
110.4056441716
 30
0.0
 10
64.1474869403
 20
112.3860517022
 30
0.0
 10
59.7132698525
 20
114.5237039661
 30
0.0
 10
56.4535997342
 20
116.2114352524
 30
0.0
  0
SPLINE
  5
520
100
AcDbEntity
  8
00_COMPONENTS_2
100
AcDbSpline
 62
7
  6
CONTINUOUS
 70
0
 71
3
 72
9
 73
5
 74
0
 42
0.0000001
 43
0.0000001
 44
0.0000000001
 40
0.0
 40
0.0
 40
0.0
 40
0.0
 40
0.2536072555
 40
1.0
 40
1.0
 40
1.0
 40
1.0
 10
54.233791281
 20
117.3793008178
 30
0.0
 10
53.3510696945
 20
117.8511883674
 30
0.0
 10
49.8853240605
 20
119.7396121712
 30
0.0
 10
46.4804583247
 20
121.7401644567
 30
0.0
 10
43.9807002664
 20
123.2987917584
 30
0.0
  0
SPLINE
  5
521
100
AcDbEntity
  8
00_COMPONENTS_2
100
AcDbSpline
 62
7
  6
CONTINUOUS
 70
0
 71
3
 72
11
 73
7
 74
0
 42
0.0000001
 43
0.0000001
 44
0.0000000001
 40
0.0
 40
0.0
 40
0.0
 40
0.0
 40
0.2289853713
 40
0.4670423173
 40
0.7223413362
 40
1.0
 40
1.0
 40
1.0
 40
1.0
 10
43.3866596984
 20
91.31974828
 30
0.0
 10
43.4786810795
 20
91.3728671113
 30
0.0
 10
43.6522370471
 20
91.5078191835
 30
0.0
 10
43.8555510483
 20
91.778538565
 30
0.0
 10
43.9991077716
 20
92.1092374812
 30
0.0
 10
44.0511306039
 20
92.3526231798
 30
0.0
 10
44.0678765745
 20
92.4803675705
 30
0.0
  0
SPLINE
  5
522
100
AcDbEntity
  8
00_COMPONENTS_2
100
AcDbSpline
 62
7
  6
CONTINUOUS
 70
0
 71
3
 72
9
 73
5
 74
0
 42
0.0000001
 43
0.0000001
 44
0.0000000001
 40
0.0
 40
0.0
 40
0.0
 40
0.0
 40
0.2450831666
 40
1.0
 40
1.0
 40
1.0
 40
1.0
 10
44.0830552891
 20
92.6328893625
 30
0.0
 10
44.0846729818
 20
92.656277234
 30
0.0
 10
44.0899964881
 20
92.7517913426
 30
0.0
 10
44.0903272536
 20
92.8475693418
 30
0.0
 10
44.0880484855
 20
92.9197459357
 30
0.0
  0
SPLINE
  5
523
100
AcDbEntity
  8
00_COMPONENTS_2
100
AcDbSpline
 62
7
  6
CONTINUOUS
 70
0
 71
3
 72
9
 73
5
 74
0
 42
0.0000001
 43
0.0000001
 44
0.0000000001
 40
0.0
 40
0.0
 40
0.0
 40
0.0
 40
0.5144930487
 40
1.0
 40
1.0
 40
1.0
 40
1.0
 10
43.3614016545
 20
95.1135082777
 30
0.0
 10
43.1906325598
 20
95.388007936
 30
0.0
 10
42.8113800853
 20
95.8934666262
 30
0.0
 10
42.3457198459
 20
96.3225524137
 30
0.0
 10
42.0993807107
 20
96.5025097947
 30
0.0
  0
SPLINE
  5
524
100
AcDbEntity
  8
00_COMPONENTS_2
100
AcDbSpline
 62
7
  6
CONTINUOUS
 70
0
 71
3
 72
9
 73
5
 74
0
 42
0.0000001
 43
0.0000001
 44
0.0000000001
 40
0.0
 40
0.0
 40
0.0
 40
0.0
 40
0.2657540317
 40
1.0
 40
1.0
 40
1.0
 40
1.0
 10
42.0814822038
 20
96.5155078658
 30
0.0
 10
42.0155493866
 20
96.5631045722
 30
0.0
 10
41.7620222395
 20
96.7342573488
 30
0.0
 10
41.4851970766
 20
96.8732316566
 30
0.0
 10
41.2724026746
 20
96.9453125806
 30
0.0
  0
SPLINE
  5
525
100
AcDbEntity
  8
00_COMPONENTS_2
100
AcDbSpline
 62
7
  6
CONTINUOUS
 70
0
 71
3
 72
9
 73
5
 74
0
 42
0.0000001
 43
0.0000001
 44
0.0000000001
 40
0.0
 40
0.0
 40
0.0
 40
0.0
 40
0.2486200182
 40
1.0
 40
1.0
 40
1.0
 40
1.0
 10
43.3866555068
 20
59.8027618195
 30
0.0
 10
43.4122597346
 20
59.8175406151
 30
0.0
 10
43.513000919
 20
59.880814305
 30
0.0
 10
43.6039097808
 20
59.9595516281
 30
0.0
 10
43.6647525978
 20
60.0249803161
 30
0.0
  0
SPLINE
  5
526
100
AcDbEntity
  8
00_COMPONENTS_2
100
AcDbSpline
 62
7
  6
CONTINUOUS
 70
0
 71
3
 72
9
 73
5
 74
0
 42
0.0000001
 43
0.0000001
 44
0.0000000001
 40
0.0
 40
0.0
 40
0.0
 40
0.0
 40
0.4900151533
 40
1.0
 40
1.0
 40
1.0
 40
1.0
 10
47.3974154452
 20
92.7746371477
 30
0.0
 10
47.3114182077
 20
92.7249365462
 30
0.0
 10
47.1484010735
 20
92.6003560241
 30
0.0
 10
47.0211789972
 20
92.4399298831
 30
0.0
 10
46.9658518252
 20
92.3526081804
 30
0.0
  0
SPLINE
  5
527
100
AcDbEntity
  8
00_COMPONENTS_2
100
AcDbSpline
 62
7
  6
CONTINUOUS
 70
0
 71
3
 72
9
 73
5
 74
0
 42
0.0000001
 43
0.0000001
 44
0.0000000001
 40
0.0
 40
0.0
 40
0.0
 40
0.0
 40
0.2422334829
 40
1.0
 40
1.0
 40
1.0
 40
1.0
 10
46.9658518252
 20
92.3526081804
 30
0.0
 10
46.9500098106
 20
92.3276050644
 30
0.0
 10
46.8877235039
 20
92.2224253581
 30
0.0
 10
46.8378575637
 20
92.1100587454
 30
0.0
 10
46.8065775056
 20
92.0229079249
 30
0.0
  0
SPLINE
  5
528
100
AcDbEntity
  8
00_COMPONENTS_2
100
AcDbSpline
 62
7
  6
CONTINUOUS
 70
0
 71
3
 72
10
 73
6
 74
0
 42
0.0000001
 43
0.0000001
 44
0.0000000001
 40
0.0
 40
0.0
 40
0.0
 40
0.0
 40
0.2309480034
 40
0.4729682598
 40
1.0
 40
1.0
 40
1.0
 40
1.0
 10
65.5965957595
 20
53.8529018444
 30
0.0
 10
65.4053668143
 20
54.0512867188
 30
0.0
 10
65.0490390947
 20
54.4930240757
 30
0.0
 10
64.4562906365
 20
55.5326960028
 30
0.0
 10
64.1834009727
 20
56.4231709271
 30
0.0
 10
64.0632964099
 20
57.0403978752
 30
0.0
  0
SPLINE
  5
529
100
AcDbEntity
  8
00_COMPONENTS_2
100
AcDbSpline
 62
7
  6
CONTINUOUS
 70
0
 71
3
 72
9
 73
5
 74
0
 42
0.0000001
 43
0.0000001
 44
0.0000000001
 40
0.0
 40
0.0
 40
0.0
 40
0.0
 40
0.4864676038
 40
1.0
 40
1.0
 40
1.0
 40
1.0
 10
64.0632964099
 20
57.0403978752
 30
0.0
 10
63.5850833982
 20
59.4979729881
 30
0.0
 10
62.8790905327
 20
64.6062246926
 30
0.0
 10
62.6633735806
 20
69.7559426467
 30
0.0
 10
62.6633735806
 20
72.3989051146
 30
0.0
  0
SPLINE
  5
52A
100
AcDbEntity
  8
00_COMPONENTS_2
100
AcDbSpline
 62
7
  6
CONTINUOUS
 70
0
 71
3
 72
9
 73
5
 74
0
 42
0.0000001
 43
0.0000001
 44
0.0000000001
 40
0.0
 40
0.0
 40
0.0
 40
0.0
 40
0.4888973737
 40
1.0
 40
1.0
 40
1.0
 40
1.0
 10
62.6633735806
 20
72.3989051146
 30
0.0
 10
62.6633735806
 20
75.1767825758
 30
0.0
 10
62.9138166088
 20
80.8605677145
 30
0.0
 10
63.6075969171
 20
86.5058246803
 30
0.0
 10
64.0632963437
 20
89.3738939333
 30
0.0
  0
SPLINE
  5
52B
100
AcDbEntity
  8
00_COMPONENTS_2
100
AcDbSpline
 62
7
  6
CONTINUOUS
 70
0
 71
3
 72
11
 73
7
 74
0
 42
0.0000001
 43
0.0000001
 44
0.0000000001
 40
0.0
 40
0.0
 40
0.0
 40
0.0
 40
0.2647883181
 40
0.5249569305
 40
0.7722982843
 40
1.0
 40
1.0
 40
1.0
 40
1.0
 10
55.3425197919
 20
93.8919531686
 30
0.0
 10
55.6096341474
 20
94.4288197399
 30
0.0
 10
56.2100719388
 20
95.459364515
 30
0.0
 10
57.2786384065
 20
96.8500874168
 30
0.0
 10
58.4675695118
 20
98.0234538451
 30
0.0
 10
59.3473543574
 20
98.6536649188
 30
0.0
 10
59.7939289244
 20
98.9114933262
 30
0.0
  0
SPLINE
  5
52C
100
AcDbEntity
  8
00_COMPONENTS_2
100
AcDbSpline
 62
7
  6
CONTINUOUS
 70
0
 71
3
 72
11
 73
7
 74
0
 42
0.0000001
 43
0.0000001
 44
0.0000000001
 40
0.0
 40
0.0
 40
0.0
 40
0.0
 40
0.2646753789
 40
0.5248619658
 40
0.7722643129
 40
1.0
 40
1.0
 40
1.0
 40
1.0
 10
47.188086137
 20
97.8388188538
 30
0.0
 10
47.4533102904
 20
98.373510939
 30
0.0
 10
48.0486330656
 20
99.400908467
 30
0.0
 10
49.1107533582
 20
100.7872804965
 30
0.0
 10
50.2933649575
 20
101.9572068695
 30
0.0
 10
51.1685141493
 20
102.586622277
 30
0.0
 10
51.6133584809
 20
102.8432430334
 30
0.0
  0
SPLINE
  5
52D
100
AcDbEntity
  8
00_COMPONENTS_2
100
AcDbSpline
 62
7
  6
CONTINUOUS
 70
0
 71
3
 72
9
 73
5
 74
0
 42
0.0000001
 43
0.0000001
 44
0.0000000001
 40
0.0
 40
0.0
 40
0.0
 40
0.0
 40
0.4860048709
 40
1.0
 40
1.0
 40
1.0
 40
1.0
 10
64.0632963437
 20
89.3738939333
 30
0.0
 10
64.222216605
 20
90.3741021594
 30
0.0
 10
64.742482395
 20
92.4035087463
 30
0.0
 10
65.5658426137
 20
94.3266754651
 30
0.0
 10
66.0561694446
 20
95.2789338014
 30
0.0
  0
SPLINE
  5
52E
100
AcDbEntity
  8
00_COMPONENTS_2
100
AcDbSpline
 62
7
  6
CONTINUOUS
 70
0
 71
3
 72
11
 73
7
 74
0
 42
0.0000001
 43
0.0000001
 44
0.0000000001
 40
0.0
 40
0.0
 40
0.0
 40
0.0
 40
0.2646754078
 40
0.5248621
 40
0.7722644768
 40
1.0
 40
1.0
 40
1.0
 40
1.0
 10
39.6927350295
 20
102.1661777678
 30
0.0
 10
39.9579591666
 20
102.7008687894
 30
0.0
 10
40.5532759312
 20
103.7282676663
 30
0.0
 10
41.6153942236
 20
105.1146381989
 30
0.0
 10
42.7980029666
 20
106.2845635755
 30
0.0
 10
43.6731523312
 20
106.9139750067
 30
0.0
 10
44.1179955786
 20
107.1705951377
 30
0.0
  0
SPLINE
  5
52F
100
AcDbEntity
  8
00_COMPONENTS_2
100
AcDbSpline
 62
7
  6
CONTINUOUS
 70
0
 71
3
 72
9
 73
5
 74
0
 42
0.0000001
 43
0.0000001
 44
0.0000000001
 40
0.0
 40
0.0
 40
0.0
 40
0.0
 40
0.5253026441
 40
1.0
 40
1.0
 40
1.0
 40
1.0
 10
66.0561694446
 20
95.2789338014
 30
0.0
 10
66.0888486979
 20
95.3423998194
 30
0.0
 10
66.1658801022
 20
95.4560100166
 30
0.0
 10
66.2702067765
 20
95.547061163
 30
0.0
 10
66.3260727839
 20
95.5793152248
 30
0.0
  0
SPLINE
  5
530
100
AcDbEntity
  8
00_COMPONENTS_2
100
AcDbSpline
 62
7
  6
CONTINUOUS
 70
0
 71
3
 72
9
 73
5
 74
0
 42
0.0000001
 43
0.0000001
 44
0.0000000001
 40
0.0
 40
0.0
 40
0.0
 40
0.0
 40
0.2474047444
 40
1.0
 40
1.0
 40
1.0
 40
1.0
 10
47.5795616183
 20
92.862912086
 30
0.0
 10
47.5557451932
 20
92.8439698725
 30
0.0
 10
47.4620860127
 20
92.7641673285
 30
0.0
 10
47.3793983544
 20
92.6716351179
 30
0.0
 10
47.3245067293
 20
92.5970969312
 30
0.0
  0
SPLINE
  5
531
100
AcDbEntity
  8
00_COMPONENTS_2
100
AcDbSpline
 62
7
  6
CONTINUOUS
 70
0
 71
3
 72
9
 73
5
 74
0
 42
0.0000001
 43
0.0000001
 44
0.0000000001
 40
0.0
 40
0.0
 40
0.0
 40
0.0
 40
0.2477732333
 40
1.0
 40
1.0
 40
1.0
 40
1.0
 10
50.6051594853
 20
85.6349076393
 30
0.0
 10
51.2683918789
 20
85.3170478613
 30
0.0
 10
53.9521188715
 20
84.0487352872
 30
0.0
 10
56.6631179347
 20
82.8382122879
 30
0.0
 10
58.7156753894
 20
81.9592441053
 30
0.0
  0
SPLINE
  5
532
100
AcDbEntity
  8
00_COMPONENTS_2
100
AcDbSpline
 62
7
  6
CONTINUOUS
 70
0
 71
3
 72
9
 73
5
 74
0
 42
0.0000001
 43
0.0000001
 44
0.0000000001
 40
0.0
 40
0.0
 40
0.0
 40
0.0
 40
0.2478689929
 40
1.0
 40
1.0
 40
1.0
 40
1.0
 10
41.1183743635
 20
90.5017468686
 30
0.0
 10
41.6665226076
 20
90.200897332
 30
0.0
 10
43.8841179115
 20
88.9983893213
 30
0.0
 10
46.1258980472
 20
87.8405344083
 30
0.0
 10
47.8240229933
 20
86.9941899557
 30
0.0
  0
SPLINE
  5
533
100
AcDbEntity
  8
00_COMPONENTS_2
100
AcDbSpline
 62
7
  6
CONTINUOUS
 70
0
 71
3
 72
11
 73
7
 74
0
 42
0.0000001
 43
0.0000001
 44
0.0000000001
 40
0.0
 40
0.0
 40
0.0
 40
0.0
 40
0.2281133822
 40
0.4660231671
 40
0.7218362256
 40
1.0
 40
1.0
 40
1.0
 40
1.0
 10
39.2138820368
 20
96.4160016446
 30
0.0
 10
39.2957540347
 20
96.4632700171
 30
0.0
 10
39.4766521887
 20
96.5379307003
 30
0.0
 10
39.7756902443
 20
96.5793338109
 30
0.0
 10
40.0966184825
 20
96.5519421345
 30
0.0
 10
40.3109571499
 20
96.4920475382
 30
0.0
 10
40.4193205788
 20
96.4527179154
 30
0.0
  0
SPLINE
  5
534
100
AcDbEntity
  8
00_COMPONENTS_2
100
AcDbSpline
 62
7
  6
CONTINUOUS
 70
0
 71
3
 72
11
 73
7
 74
0
 42
0.0000001
 43
0.0000001
 44
0.0000000001
 40
0.0
 40
0.0
 40
0.0
 40
0.0
 40
0.2780260497
 40
0.5338007767
 40
0.7717690158
 40
1.0
 40
1.0
 40
1.0
 40
1.0
 10
35.6020839789
 20
64.6179510172
 30
0.0
 10
35.581804034
 20
64.5049958352
 30
0.0
 10
35.5262865946
 20
64.2904812763
 30
0.0
 10
35.3895817547
 20
64.0003250652
 30
0.0
 10
35.2046141434
 20
63.7632145079
 30
0.0
 10
35.0500272155
 20
63.6443997204
 30
0.0
 10
34.9684411955
 20
63.5972962927
 30
0.0
  0
SPLINE
  5
535
100
AcDbEntity
  8
00_COMPONENTS_2
100
AcDbSpline
 62
7
  6
CONTINUOUS
 70
0
 71
3
 72
9
 73
5
 74
0
 42
0.0000001
 43
0.0000001
 44
0.0000000001
 40
0.0
 40
0.0
 40
0.0
 40
0.0
 40
0.5087354042
 40
1.0
 40
1.0
 40
1.0
 40
1.0
 10
36.1422174275
 20
64.3967455734
 30
0.0
 10
36.0946622944
 20
64.3300041483
 30
0.0
 10
35.9882799658
 20
64.207325615
 30
0.0
 10
35.8575505644
 20
64.1106056681
 30
0.0
 10
35.7890165397
 20
64.0710374266
 30
0.0
  0
SPLINE
  5
536
100
AcDbEntity
  8
00_COMPONENTS_2
100
AcDbSpline
 62
7
  6
CONTINUOUS
 70
0
 71
3
 72
11
 73
7
 74
0
 42
0.0000001
 43
0.0000001
 44
0.0000000001
 40
0.0
 40
0.0
 40
0.0
 40
0.0
 40
0.2895416691
 40
0.549118971
 40
0.7822562701
 40
1.0
 40
1.0
 40
1.0
 40
1.0
 10
56.5366199851
 20
97.2960183055
 30
0.0
 10
56.4927669387
 20
97.2706998885
 30
0.0
 10
56.4131881596
 20
97.215827601
 30
0.0
 10
56.3179962068
 20
97.1158918707
 30
0.0
 10
56.257769555
 20
97.0052524058
 30
0.0
 10
56.2437856514
 20
96.9258580891
 30
0.0
 10
56.2437856631
 20
96.8877775514
 30
0.0
  0
SPLINE
  5
537
100
AcDbEntity
  8
00_COMPONENTS_2
100
AcDbSpline
 62
7
  6
CONTINUOUS
 70
0
 71
3
 72
9
 73
5
 74
0
 42
0.0000001
 43
0.0000001
 44
0.0000000001
 40
0.0
 40
0.0
 40
0.0
 40
0.0
 40
0.2552939509
 40
1.0
 40
1.0
 40
1.0
 40
1.0
 10
35.0431399407
 20
63.7014097872
 30
0.0
 10
35.0628914919
 20
63.6987619438
 30
0.0
 10
35.1404239498
 20
63.6896808354
 30
0.0
 10
35.2185985997
 20
63.6858846994
 30
0.0
 10
35.2767281955
 20
63.6863845185
 30
0.0
  0
SPLINE
  5
538
100
AcDbEntity
  8
00_COMPONENTS_2
100
AcDbSpline
 62
7
  6
CONTINUOUS
 70
0
 71
3
 72
9
 73
5
 74
0
 42
0.0000001
 43
0.0000001
 44
0.0000000001
 40
0.0
 40
0.0
 40
0.0
 40
0.0
 40
0.2546763245
 40
1.0
 40
1.0
 40
1.0
 40
1.0
 10
35.2767281955
 20
63.6863845185
 30
0.0
 10
35.2963577521
 20
63.6865533005
 30
0.0
 10
35.3734107548
 20
63.6887009602
 30
0.0
 10
35.4503217409
 20
63.6969467046
 30
0.0
 10
35.5069184212
 20
63.7068062015
 30
0.0
  0
SPLINE
  5
539
100
AcDbEntity
  8
00_COMPONENTS_2
100
AcDbSpline
 62
7
  6
CONTINUOUS
 70
0
 71
3
 72
9
 73
5
 74
0
 42
0.0000001
 43
0.0000001
 44
0.0000000001
 40
0.0
 40
0.0
 40
0.0
 40
0.0
 40
0.2551239538
 40
1.0
 40
1.0
 40
1.0
 40
1.0
 10
35.5069184212
 20
63.7068062015
 30
0.0
 10
35.5445066116
 20
63.7133543003
 30
0.0
 10
35.6906494678
 20
63.7453514903
 30
0.0
 10
35.831026144
 20
63.8042876822
 30
0.0
 10
35.9263890213
 20
63.8618668732
 30
0.0
  0
SPLINE
  5
53A
100
AcDbEntity
  8
00_COMPONENTS_2
100
AcDbSpline
 62
7
  6
CONTINUOUS
 70
0
 71
3
 72
9
 73
5
 74
0
 42
0.0000001
 43
0.0000001
 44
0.0000000001
 40
0.0
 40
0.0
 40
0.0
 40
0.0
 40
0.4894012436
 40
1.0
 40
1.0
 40
1.0
 40
1.0
 10
35.9263890213
 20
63.8618668732
 30
0.0
 10
36.0122839154
 20
63.9137293867
 30
0.0
 10
36.1743729572
 20
64.0433718381
 30
0.0
 10
36.2996616642
 20
64.20820501
 30
0.0
 10
36.3539366767
 20
64.2977197408
 30
0.0
  0
SPLINE
  5
53B
100
AcDbEntity
  8
00_COMPONENTS_2
100
AcDbSpline
 62
7
  6
CONTINUOUS
 70
0
 71
3
 72
9
 73
5
 74
0
 42
0.0000001
 43
0.0000001
 44
0.0000000001
 40
0.0
 40
0.0
 40
0.0
 40
0.0
 40
0.5174452767
 40
1.0
 40
1.0
 40
1.0
 40
1.0
 10
89.3816515142
 20
49.336118374
 30
0.0
 10
89.5176397377
 20
48.8249706419
 30
0.0
 10
89.7263328318
 20
47.821656358
 30
0.0
 10
89.8059173493
 20
46.7987395132
 30
0.0
 10
89.8059173493
 20
46.3054763542
 30
0.0
  0
SPLINE
  5
53C
100
AcDbEntity
  8
00_COMPONENTS_2
100
AcDbSpline
 62
7
  6
CONTINUOUS
 70
0
 71
3
 72
9
 73
5
 74
0
 42
0.0000001
 43
0.0000001
 44
0.0000000001
 40
0.0
 40
0.0
 40
0.0
 40
0.0
 40
0.2456197726
 40
1.0
 40
1.0
 40
1.0
 40
1.0
 10
43.4034129192
 20
91.0483486118
 30
0.0
 10
43.3709441836
 20
91.0336611568
 30
0.0
 10
43.2363327751
 20
90.9792934232
 30
0.0
 10
43.0928903729
 20
90.947405199
 30
0.0
 10
42.984072508
 20
90.9356522952
 30
0.0
  0
SPLINE
  5
53D
100
AcDbEntity
  8
00_COMPONENTS_2
100
AcDbSpline
 62
7
  6
CONTINUOUS
 70
0
 71
3
 72
9
 73
5
 74
0
 42
0.0000001
 43
0.0000001
 44
0.0000000001
 40
0.0
 40
0.0
 40
0.0
 40
0.0
 40
0.2469823382
 40
1.0
 40
1.0
 40
1.0
 40
1.0
 10
42.984072508
 20
90.9356522952
 30
0.0
 10
42.9701702486
 20
90.9341507778
 30
0.0
 10
42.9137980563
 20
90.9288641719
 30
0.0
 10
42.857139548
 20
90.9267089784
 30
0.0
 10
42.81450683
 20
90.9267225441
 30
0.0
  0
SPLINE
  5
53E
100
AcDbEntity
  8
00_COMPONENTS_2
100
AcDbSpline
 62
7
  6
CONTINUOUS
 70
0
 71
3
 72
11
 73
7
 74
0
 42
0.0000001
 43
0.0000001
 44
0.0000000001
 40
0.0
 40
0.0
 40
0.0
 40
0.0
 40
0.2780260497
 40
0.5338007767
 40
0.7717690158
 40
1.0
 40
1.0
 40
1.0
 40
1.0
 10
43.0974470654
 20
60.2905990193
 30
0.0
 10
43.0771671205
 20
60.1776438372
 30
0.0
 10
43.0216496812
 20
59.9631292784
 30
0.0
 10
42.8849448413
 20
59.6729730673
 30
0.0
 10
42.69997723
 20
59.43586251
 30
0.0
 10
42.545390302
 20
59.3170477225
 30
0.0
 10
42.4638042821
 20
59.2699442948
 30
0.0
  0
SPLINE
  5
53F
100
AcDbEntity
  8
00_COMPONENTS_2
100
AcDbSpline
 62
7
  6
CONTINUOUS
 70
0
 71
3
 72
23
 73
19
 74
0
 42
0.0000001
 43
0.0000001
 44
0.0000000001
 40
0.0
 40
0.0
 40
0.0
 40
0.0
 40
0.0481206942
 40
0.0996127848
 40
0.1569710141
 40
0.2211176946
 40
0.2916393318
 40
0.3671642225
 40
0.4456918574
 40
0.5248732546
 40
0.6022639242
 40
0.6755697523
 40
0.7429197968
 40
0.803204359
 40
0.8565208769
 40
0.9046312178
 40
0.9510758901
 40
1.0
 40
1.0
 40
1.0
 40
1.0
 10
43.8064208055
 20
90.6329147679
 30
0.0
 10
43.9619325566
 20
90.7227467148
 30
0.0
 10
44.2510277245
 20
90.9714988996
 30
0.0
 10
44.5421162796
 20
91.4906699594
 30
0.0
 10
44.6902663374
 20
92.1260774573
 30
0.0
 10
44.694502074
 20
92.8474391796
 30
0.0
 10
44.5577132399
 20
93.6234994297
 30
0.0
 10
44.2873452261
 20
94.4198733836
 30
0.0
 10
43.8968518659
 20
95.200654478
 30
0.0
 10
43.4053664797
 20
95.9304191572
 30
0.0
 10
42.8365864211
 20
96.576088665
 30
0.0
 10
42.2173126771
 20
97.1085325356
 30
0.0
 10
41.57562565
 20
97.5037939076
 30
0.0
 10
40.9386696786
 20
97.743453356
 30
0.0
 10
40.3312636817
 20
97.8129193302
 30
0.0
 10
39.7794226917
 20
97.6978301463
 30
0.0
 10
39.3232838636
 20
97.3932089157
 30
0.0
 10
39.1152625093
 20
97.0944882446
 30
0.0
 10
39.0335259275
 20
96.9312129849
 30
0.0
  0
SPLINE
  5
540
100
AcDbEntity
  8
00_COMPONENTS_2
100
AcDbSpline
 62
7
  6
CONTINUOUS
 70
0
 71
3
 72
9
 73
5
 74
0
 42
0.0000001
 43
0.0000001
 44
0.0000000001
 40
0.0
 40
0.0
 40
0.0
 40
0.0
 40
0.2461980555
 40
1.0
 40
1.0
 40
1.0
 40
1.0
 10
32.4066698164
 20
101.4293742848
 30
0.0
 10
32.3709807744
 20
101.4087566458
 30
0.0
 10
32.2304722742
 20
101.3173927599
 30
0.0
 10
32.1103103218
 20
101.1958241338
 30
0.0
 10
32.0350075638
 20
101.0945584346
 30
0.0
  0
SPLINE
  5
541
100
AcDbEntity
  8
00_COMPONENTS_2
100
AcDbSpline
 62
7
  6
CONTINUOUS
 70
0
 71
3
 72
9
 73
5
 74
0
 42
0.0000001
 43
0.0000001
 44
0.0000000001
 40
0.0
 40
0.0
 40
0.0
 40
0.0
 40
0.2464839446
 40
1.0
 40
1.0
 40
1.0
 40
1.0
 10
32.0350075638
 20
101.0945584346
 30
0.0
 10
32.0261289492
 20
101.0826186445
 30
0.0
 10
31.9908977028
 20
101.0335941528
 30
0.0
 10
31.9588231209
 20
100.9823148741
 30
0.0
 10
31.9364238416
 20
100.9427259584
 30
0.0
  0
SPLINE
  5
542
100
AcDbEntity
  8
00_COMPONENTS_2
100
AcDbSpline
 62
7
  6
CONTINUOUS
 70
0
 71
3
 72
9
 73
5
 74
0
 42
0.0000001
 43
0.0000001
 44
0.0000000001
 40
0.0
 40
0.0
 40
0.0
 40
0.0
 40
0.2456440623
 40
1.0
 40
1.0
 40
1.0
 40
1.0
 10
31.9364238416
 20
100.9427259584
 30
0.0
 10
31.9283017649
 20
100.9283708444
 30
0.0
 10
31.8961717848
 20
100.8694065028
 30
0.0
 10
31.8677550095
 20
100.8084340273
 30
0.0
 10
31.8483307393
 20
100.7616560581
 30
0.0
  0
SPLINE
  5
543
100
AcDbEntity
  8
00_COMPONENTS_2
100
AcDbSpline
 62
7
  6
CONTINUOUS
 70
0
 71
3
 72
14
 73
10
 74
0
 42
0.0000001
 43
0.0000001
 44
0.0000000001
 40
0.0
 40
0.0
 40
0.0
 40
0.0
 40
0.0897599717
 40
0.1865080496
 40
0.2948905593
 40
0.4166092841
 40
0.550953495
 40
0.6954651914
 40
1.0
 40
1.0
 40
1.0
 40
1.0
 10
32.0983819076
 20
101.9633478318
 30
0.0
 10
32.2416048513
 20
102.046094652
 30
0.0
 10
32.5739221149
 20
102.1628825564
 30
0.0
 10
33.1252981321
 20
102.162725157
 30
0.0
 10
33.7114464585
 20
102.0011318216
 30
0.0
 10
34.3107302958
 20
101.6895524157
 30
0.0
 10
34.9015217694
 20
101.2419050515
 30
0.0
 10
35.659334313
 20
100.4760374923
 30
0.0
 10
36.1256617626
 20
99.779312972
 30
0.0
 10
36.3820703928
 20
99.2801231319
 30
0.0
  0
SPLINE
  5
544
100
AcDbEntity
  8
00_COMPONENTS_2
100
AcDbSpline
 62
7
  6
CONTINUOUS
 70
0
 71
3
 72
9
 73
5
 74
0
 42
0.0000001
 43
0.0000001
 44
0.0000000001
 40
0.0
 40
0.0
 40
0.0
 40
0.0
 40
0.2563233393
 40
1.0
 40
1.0
 40
1.0
 40
1.0
 10
42.9763334267
 20
59.4181972631
 30
0.0
 10
43.0140001356
 20
59.422067911
 30
0.0
 10
43.1603157548
 20
59.4426102793
 30
0.0
 10
43.3036018915
 20
59.4860692366
 30
0.0
 10
43.4037496625
 20
59.5312286169
 30
0.0
  0
SPLINE
  5
545
100
AcDbEntity
  8
00_COMPONENTS_2
100
AcDbSpline
 62
7
  6
CONTINUOUS
 70
0
 71
3
 72
9
 73
5
 74
0
 42
0.0000001
 43
0.0000001
 44
0.0000000001
 40
0.0
 40
0.0
 40
0.0
 40
0.0
 40
0.515128052
 40
1.0
 40
1.0
 40
1.0
 40
1.0
 10
44.2726890219
 20
59.6981369065
 30
0.0
 10
44.2047015276
 20
59.5604846081
 30
0.0
 10
44.039319474
 20
59.3074051574
 30
0.0
 10
43.8044553078
 20
59.1148143687
 30
0.0
 10
43.6793298195
 20
59.0425194596
 30
0.0
  0
SPLINE
  5
546
100
AcDbEntity
  8
00_COMPONENTS_2
100
AcDbSpline
 62
7
  6
CONTINUOUS
 70
0
 71
3
 72
11
 73
7
 74
0
 42
0.0000001
 43
0.0000001
 44
0.0000000001
 40
0.0
 40
0.0
 40
0.0
 40
0.0
 40
0.2425393928
 40
0.499999207
 40
0.7574594386
 40
1.0
 40
1.0
 40
1.0
 40
1.0
 10
48.7584718878
 20
91.6371926578
 30
0.0
 10
48.9954085756
 20
91.4490076522
 30
0.0
 10
49.440580172
 20
91.0051665749
 30
0.0
 10
49.9826819299
 20
90.2258920016
 30
0.0
 10
50.3865071863
 20
89.3667813593
 30
0.0
 10
50.548303042
 20
88.759330025
 30
0.0
 10
50.592810152
 20
88.4600432231
 30
0.0
  0
SPLINE
  5
547
100
AcDbEntity
  8
00_COMPONENTS_2
100
AcDbSpline
 62
7
  6
CONTINUOUS
 70
0
 71
3
 72
9
 73
5
 74
0
 42
0.0000001
 43
0.0000001
 44
0.0000000001
 40
0.0
 40
0.0
 40
0.0
 40
0.0
 40
0.2689370591
 40
1.0
 40
1.0
 40
1.0
 40
1.0
 10
89.8059173493
 20
128.853870726
 30
0.0
 10
89.8059173493
 20
128.622264866
 30
0.0
 10
89.774354135
 20
127.7622087562
 30
0.0
 10
89.6073496482
 20
126.9008559263
 30
0.0
 10
89.3816515142
 20
126.3131176116
 30
0.0
  0
SPLINE
  5
548
100
AcDbEntity
  8
00_COMPONENTS_2
100
AcDbSpline
 62
7
  6
CONTINUOUS
 70
0
 71
3
 72
11
 73
7
 74
0
 42
0.0000001
 43
0.0000001
 44
0.0000000001
 40
0.0
 40
0.0
 40
0.0
 40
0.0
 40
0.2780260497
 40
0.5338007767
 40
0.7717690158
 40
1.0
 40
1.0
 40
1.0
 40
1.0
 10
50.592810152
 20
87.4802403226
 30
0.0
 10
50.5725302071
 20
87.3672851405
 30
0.0
 10
50.5170127677
 20
87.1527705817
 30
0.0
 10
50.3803079278
 20
86.8626143705
 30
0.0
 10
50.1953403165
 20
86.6255038133
 30
0.0
 10
50.0407533886
 20
86.5066890257
 30
0.0
 10
49.9591673687
 20
86.4595855981
 30
0.0
  0
SPLINE
  5
549
100
AcDbEntity
  8
00_COMPONENTS_2
100
AcDbSpline
 62
7
  6
CONTINUOUS
 70
0
 71
3
 72
9
 73
5
 74
0
 42
0.0000001
 43
0.0000001
 44
0.0000000001
 40
0.0
 40
0.0
 40
0.0
 40
0.0
 40
0.2328286231
 40
1.0
 40
1.0
 40
1.0
 40
1.0
 10
48.7584648223
 20
92.6169745479
 30
0.0
 10
48.8301842673
 20
92.5911245159
 30
0.0
 10
49.1326024032
 20
92.464548374
 30
0.0
 10
49.4102929449
 20
92.2833158091
 30
0.0
 10
49.6069964925
 20
92.1270856425
 30
0.0
  0
SPLINE
  5
54A
100
AcDbEntity
  8
00_COMPONENTS_2
100
AcDbSpline
 62
7
  6
CONTINUOUS
 70
0
 71
3
 72
9
 73
5
 74
0
 42
0.0000001
 43
0.0000001
 44
0.0000000001
 40
0.0
 40
0.0
 40
0.0
 40
0.0
 40
0.2552939509
 40
1.0
 40
1.0
 40
1.0
 40
1.0
 10
35.0431399407
 20
95.2184030884
 30
0.0
 10
35.0628914919
 20
95.2157552449
 30
0.0
 10
35.1404239498
 20
95.2066741365
 30
0.0
 10
35.2185985998
 20
95.2028780005
 30
0.0
 10
35.2767281955
 20
95.2033778196
 30
0.0
  0
SPLINE
  5
54B
100
AcDbEntity
  8
00_COMPONENTS_2
100
AcDbSpline
 62
7
  6
CONTINUOUS
 70
0
 71
3
 72
9
 73
5
 74
0
 42
0.0000001
 43
0.0000001
 44
0.0000000001
 40
0.0
 40
0.0
 40
0.0
 40
0.0
 40
0.2546763246
 40
1.0
 40
1.0
 40
1.0
 40
1.0
 10
35.2767281955
 20
95.2033778196
 30
0.0
 10
35.2963577522
 20
95.2035466016
 30
0.0
 10
35.3734107548
 20
95.2056942613
 30
0.0
 10
35.4503217409
 20
95.2139400057
 30
0.0
 10
35.5069184212
 20
95.2237995027
 30
0.0
  0
SPLINE
  5
54C
100
AcDbEntity
  8
00_COMPONENTS_2
100
AcDbSpline
 62
7
  6
CONTINUOUS
 70
0
 71
3
 72
9
 73
5
 74
0
 42
0.0000001
 43
0.0000001
 44
0.0000000001
 40
0.0
 40
0.0
 40
0.0
 40
0.0
 40
0.2551239536
 40
1.0
 40
1.0
 40
1.0
 40
1.0
 10
35.5069184212
 20
95.2237995027
 30
0.0
 10
35.5445066116
 20
95.2303476015
 30
0.0
 10
35.6906494677
 20
95.2623447919
 30
0.0
 10
35.8310261437
 20
95.3212809841
 30
0.0
 10
35.9263890212
 20
95.3788601749
 30
0.0
  0
SPLINE
  5
54D
100
AcDbEntity
  8
00_COMPONENTS_2
100
AcDbSpline
 62
7
  6
CONTINUOUS
 70
0
 71
3
 72
9
 73
5
 74
0
 42
0.0000001
 43
0.0000001
 44
0.0000000001
 40
0.0
 40
0.0
 40
0.0
 40
0.0
 40
0.4878103228
 40
1.0
 40
1.0
 40
1.0
 40
1.0
 10
35.9263890212
 20
95.3788601749
 30
0.0
 10
36.0197434951
 20
95.4352267108
 30
0.0
 10
36.1951931896
 20
95.5789499728
 30
0.0
 10
36.3263636154
 20
95.7630831604
 30
0.0
 10
36.3820705842
 20
95.8631199607
 30
0.0
  0
SPLINE
  5
54E
100
AcDbEntity
  8
00_COMPONENTS_2
100
AcDbSpline
 62
7
  6
CONTINUOUS
 70
0
 71
3
 72
14
 73
10
 74
0
 42
0.0000001
 43
0.0000001
 44
0.0000000001
 40
0.0
 40
0.0
 40
0.0
 40
0.0
 40
0.1124519997
 40
0.2185134975
 40
0.3240275254
 40
0.4353343111
 40
0.5571281171
 40
0.691916327
 40
1.0
 40
1.0
 40
1.0
 40
1.0
 10
39.0335259285
 20
96.9312129843
 30
0.0
 10
39.0992828281
 20
97.0634954959
 30
0.0
 10
39.2583602957
 20
97.307205275
 30
0.0
 10
39.5881082138
 20
97.5865307254
 30
0.0
 10
39.9871916285
 20
97.7494412857
 30
0.0
 10
40.4357091331
 20
97.7904037192
 30
0.0
 10
40.9170187994
 20
97.7132127352
 30
0.0
 10
41.6138351155
 20
97.4483921771
 30
0.0
 10
42.0966899093
 20
97.1047888228
 30
0.0
 10
42.3991335924
 20
96.8358531373
 30
0.0
  0
SPLINE
  5
54F
100
AcDbEntity
  8
00_COMPONENTS_2
100
AcDbSpline
 62
7
  6
CONTINUOUS
 70
0
 71
3
 72
11
 73
7
 74
0
 42
0.0000001
 43
0.0000001
 44
0.0000000001
 40
0.0
 40
0.0
 40
0.0
 40
0.0
 40
0.2440924145
 40
0.4995104114
 40
0.7551768979
 40
1.0
 40
1.0
 40
1.0
 40
1.0
 10
42.3991335924
 20
96.8358531373
 30
0.0
 10
42.6460320078
 20
96.6163088111
 30
0.0
 10
43.1108934374
 20
96.1203563311
 30
0.0
 10
43.6899353118
 20
95.2737215602
 30
0.0
 10
44.139983118
 20
94.3509432813
 30
0.0
 10
44.3421402852
 20
93.7005817486
 30
0.0
 10
44.4114596283
 20
93.3765325625
 30
0.0
  0
SPLINE
  5
550
100
AcDbEntity
  8
00_COMPONENTS_2
100
AcDbSpline
 62
7
  6
CONTINUOUS
 70
0
 71
3
 72
9
 73
5
 74
0
 42
0.0000001
 43
0.0000001
 44
0.0000000001
 40
0.0
 40
0.0
 40
0.0
 40
0.0
 40
0.2610458301
 40
1.0
 40
1.0
 40
1.0
 40
1.0
 10
44.4114596283
 20
93.3765325625
 30
0.0
 10
44.4290765936
 20
93.2941780129
 30
0.0
 10
44.4890999754
 20
92.9772154246
 30
0.0
 10
44.5191237845
 20
92.6540596087
 30
0.0
 10
44.5191237845
 20
92.4156606384
 30
0.0
  0
SPLINE
  5
551
100
AcDbEntity
  8
00_COMPONENTS_2
100
AcDbSpline
 62
7
  6
CONTINUOUS
 70
0
 71
3
 72
11
 73
7
 74
0
 42
0.0000001
 43
0.0000001
 44
0.0000000001
 40
0.0
 40
0.0
 40
0.0
 40
0.0
 40
0.2896766151
 40
0.5491028997
 40
0.7822249882
 40
1.0
 40
1.0
 40
1.0
 40
1.0
 10
44.5191237845
 20
92.4156606384
 30
0.0
 10
44.5191237845
 20
92.2102359905
 30
0.0
 10
44.487939592
 20
91.8195193886
 30
0.0
 10
44.3297545268
 20
91.2826952702
 30
0.0
 10
44.0633514302
 20
90.8470417542
 30
0.0
 10
43.8130500473
 20
90.6367735319
 30
0.0
 10
43.6793298195
 20
90.5595127608
 30
0.0
  0
SPLINE
  5
552
100
AcDbEntity
  8
00_COMPONENTS_2
100
AcDbSpline
 62
7
  6
CONTINUOUS
 70
0
 71
3
 72
9
 73
5
 74
0
 42
0.0000001
 43
0.0000001
 44
0.0000000001
 40
0.0
 40
0.0
 40
0.0
 40
0.0
 40
0.2566573802
 40
1.0
 40
1.0
 40
1.0
 40
1.0
 10
42.8691759922
 20
90.8800130316
 30
0.0
 10
42.9034659809
 20
90.8825878147
 30
0.0
 10
43.0366409013
 20
90.8973954371
 30
0.0
 10
43.1677660159
 20
90.9324342882
 30
0.0
 10
43.2599250261
 20
90.9701866456
 30
0.0
  0
SPLINE
  5
553
100
AcDbEntity
  8
00_COMPONENTS_2
100
AcDbSpline
 62
7
  6
CONTINUOUS
 70
0
 71
3
 72
11
 73
7
 74
0
 42
0.0000001
 43
0.0000001
 44
0.0000000001
 40
0.0
 40
0.0
 40
0.0
 40
0.0
 40
0.2779294927
 40
0.533987253
 40
0.7721507171
 40
1.0
 40
1.0
 40
1.0
 40
1.0
 10
41.2724026746
 20
96.9453125806
 30
0.0
 10
41.1610561187
 20
96.9830295627
 30
0.0
 10
40.9411748816
 20
97.0397782373
 30
0.0
 10
40.6132540585
 20
97.062873219
 30
0.0
 10
40.3084653105
 20
97.0180375912
 30
0.0
 10
40.1240954058
 20
96.9414957048
 30
0.0
 10
40.0406296771
 20
96.8933070392
 30
0.0
  0
SPLINE
  5
554
100
AcDbEntity
  8
00_COMPONENTS_2
100
AcDbSpline
 62
7
  6
CONTINUOUS
 70
0
 71
3
 72
9
 73
5
 74
0
 42
0.0000001
 43
0.0000001
 44
0.0000000001
 40
0.0
 40
0.0
 40
0.0
 40
0.0
 40
0.2472110977
 40
1.0
 40
1.0
 40
1.0
 40
1.0
 10
118.5495651041
 20
157.8891806303
 30
0.0
 10
119.2880824026
 20
157.4096007036
 30
0.0
 10
122.2622930961
 20
155.4493928827
 30
0.0
 10
125.1838949035
 20
153.4095095008
 30
0.0
 10
127.353106687
 20
151.8332207169
 30
0.0
  0
SPLINE
  5
555
100
AcDbEntity
  8
00_COMPONENTS_2
100
AcDbSpline
 62
7
  6
CONTINUOUS
 70
0
 71
3
 72
9
 73
5
 74
0
 42
0.0000001
 43
0.0000001
 44
0.0000000001
 40
0.0
 40
0.0
 40
0.0
 40
0.0
 40
0.2549481117
 40
1.0
 40
1.0
 40
1.0
 40
1.0
 10
43.946656728
 20
93.2726626525
 30
0.0
 10
43.950930918
 20
93.2436841057
 30
0.0
 10
43.9664226066
 20
93.1298374858
 30
0.0
 10
43.9767381326
 20
93.0152706444
 30
0.0
 10
43.9811502985
 20
92.9297822802
 30
0.0
  0
SPLINE
  5
556
100
AcDbEntity
  8
00_COMPONENTS_2
100
AcDbSpline
 62
7
  6
CONTINUOUS
 70
0
 71
3
 72
9
 73
5
 74
0
 42
0.0000001
 43
0.0000001
 44
0.0000000001
 40
0.0
 40
0.0
 40
0.0
 40
0.0
 40
0.2329762436
 40
1.0
 40
1.0
 40
1.0
 40
1.0
 10
41.2678451836
 20
96.9426108991
 30
0.0
 10
41.3389471085
 20
96.9168050353
 30
0.0
 10
41.6386105064
 20
96.7908421653
 30
0.0
 10
41.9139151392
 20
96.6112052625
 30
0.0
 10
42.1090502247
 20
96.4564875452
 30
0.0
  0
SPLINE
  5
557
100
AcDbEntity
  8
00_COMPONENTS_2
100
AcDbSpline
 62
7
  6
CONTINUOUS
 70
0
 71
3
 72
9
 73
5
 74
0
 42
0.0000001
 43
0.0000001
 44
0.0000000001
 40
0.0
 40
0.0
 40
0.0
 40
0.0
 40
0.2549838416
 40
1.0
 40
1.0
 40
1.0
 40
1.0
 10
51.4413347566
 20
88.9499362078
 30
0.0
 10
51.4456839827
 20
88.9206899599
 30
0.0
 10
51.4614463792
 20
88.805804846
 30
0.0
 10
51.4719459658
 20
88.6901812669
 30
0.0
 10
51.4764368811
 20
88.6039061699
 30
0.0
  0
SPLINE
  5
558
100
AcDbEntity
  8
00_COMPONENTS_2
100
AcDbSpline
 62
7
  6
CONTINUOUS
 70
0
 71
3
 72
11
 73
7
 74
0
 42
0.0000001
 43
0.0000001
 44
0.0000000001
 40
0.0
 40
0.0
 40
0.0
 40
0.0
 40
0.278133374
 40
0.533937914
 40
0.7718606052
 40
1.0
 40
1.0
 40
1.0
 40
1.0
 10
43.0981321233
 20
91.8114268549
 30
0.0
 10
43.0779751516
 20
91.6980395026
 30
0.0
 10
43.0226266464
 20
91.4827033335
 30
0.0
 10
42.8858911768
 20
91.1914018981
 30
0.0
 10
42.7006050756
 20
90.953387074
 30
0.0
 10
42.5456125822
 20
90.8341701827
 30
0.0
 10
42.4638039944
 20
90.7869380932
 30
0.0
  0
SPLINE
  5
559
100
AcDbEntity
  8
00_COMPONENTS_2
100
AcDbSpline
 62
7
  6
CONTINUOUS
 70
0
 71
3
 72
11
 73
7
 74
0
 42
0.0000001
 43
0.0000001
 44
0.0000000001
 40
0.0
 40
0.0
 40
0.0
 40
0.0
 40
0.2425224366
 40
0.5000227213
 40
0.7575110977
 40
1.0
 40
1.0
 40
1.0
 40
1.0
 10
41.2605256201
 20
95.9665945605
 30
0.0
 10
41.4981059672
 20
95.7782230593
 30
0.0
 10
41.9444703811
 20
95.3336105942
 30
0.0
 10
42.4878055551
 20
94.5526415058
 30
0.0
 10
42.8922292632
 20
93.6915446518
 30
0.0
 10
43.053896891
 20
93.0826797667
 30
0.0
 10
43.0981321233
 20
92.7827696679
 30
0.0
  0
SPLINE
  5
55A
100
AcDbEntity
  8
00_COMPONENTS_2
100
AcDbSpline
 62
7
  6
CONTINUOUS
 70
0
 71
3
 72
11
 73
7
 74
0
 42
0.0000001
 43
0.0000001
 44
0.0000000001
 40
0.0
 40
0.0
 40
0.0
 40
0.0
 40
0.2369782819
 40
0.4891884054
 40
0.7468615893
 40
1.0
 40
1.0
 40
1.0
 40
1.0
 10
34.6101685639
 20
100.7830553214
 30
0.0
 10
34.7935549356
 20
100.6317047254
 30
0.0
 10
35.1420610233
 20
100.2826496174
 30
0.0
 10
35.5981781067
 20
99.6856689434
 30
0.0
 10
35.9775280453
 20
99.0180366337
 30
0.0
 10
36.1699764644
 20
98.5409081966
 30
0.0
 10
36.2471147663
 20
98.2989143375
 30
0.0
  0
SPLINE
  5
55B
100
AcDbEntity
  8
00_COMPONENTS_2
100
AcDbSpline
 62
7
  6
CONTINUOUS
 70
0
 71
3
 72
9
 73
5
 74
0
 42
0.0000001
 43
0.0000001
 44
0.0000000001
 40
0.0
 40
0.0
 40
0.0
 40
0.0
 40
0.2573396899
 40
1.0
 40
1.0
 40
1.0
 40
1.0
 10
36.2471147663
 20
98.2989143375
 30
0.0
 10
36.2663723281
 20
98.2385006185
 30
0.0
 10
36.33672462
 20
98.0023547668
 30
0.0
 10
36.389137944
 20
97.7606975741
 30
0.0
 10
36.4155749347
 20
97.5796250689
 30
0.0
  0
SPLINE
  5
55C
100
AcDbEntity
  8
00_COMPONENTS_2
100
AcDbSpline
 62
7
  6
CONTINUOUS
 70
0
 71
3
 72
9
 73
5
 74
0
 42
0.0000001
 43
0.0000001
 44
0.0000000001
 40
0.0
 40
0.0
 40
0.0
 40
0.0
 40
0.4919110711
 40
1.0
 40
1.0
 40
1.0
 40
1.0
 10
43.402004545
 20
59.5228639938
 30
0.0
 10
43.3253785146
 20
59.4786174047
 30
0.0
 10
43.158688097
 20
59.40648835
 30
0.0
 10
42.98048552
 20
59.3727748727
 30
0.0
 10
42.8894544561
 20
59.3646446919
 30
0.0
  0
SPLINE
  5
55D
100
AcDbEntity
  8
00_COMPONENTS_2
100
AcDbSpline
 62
7
  6
CONTINUOUS
 70
0
 71
3
 72
9
 73
5
 74
0
 42
0.0000001
 43
0.0000001
 44
0.0000000001
 40
0.0
 40
0.0
 40
0.0
 40
0.0
 40
0.2467872405
 40
1.0
 40
1.0
 40
1.0
 40
1.0
 10
42.8894544561
 20
59.3646446919
 30
0.0
 10
42.8762796984
 20
59.3634680259
 30
0.0
 10
42.8228289459
 20
59.3594559657
 30
0.0
 10
42.7691608047
 20
59.3584323066
 30
0.0
 10
42.7287981386
 20
59.3592214881
 30
0.0
  0
SPLINE
  5
55E
100
AcDbEntity
  8
00_COMPONENTS_2
100
AcDbSpline
 62
7
  6
CONTINUOUS
 70
0
 71
3
 72
9
 73
5
 74
0
 42
0.0000001
 43
0.0000001
 44
0.0000000001
 40
0.0
 40
0.0
 40
0.0
 40
0.0
 40
0.2459403308
 40
1.0
 40
1.0
 40
1.0
 40
1.0
 10
42.7287981386
 20
59.3592214881
 30
0.0
 10
42.7133834911
 20
59.3595228793
 30
0.0
 10
42.6507273575
 20
59.3616725178
 30
0.0
 10
42.5882061292
 20
59.3674597915
 30
0.0
 10
42.5413455363
 20
59.3736734275
 30
0.0
  0
SPLINE
  5
55F
100
AcDbEntity
  8
00_COMPONENTS_2
100
AcDbSpline
 62
7
  6
CONTINUOUS
 70
0
 71
3
 72
11
 73
7
 74
0
 42
0.0000001
 43
0.0000001
 44
0.0000000001
 40
0.0
 40
0.0
 40
0.0
 40
0.0
 40
0.2425010112
 40
0.4999992055
 40
0.757497818
 40
1.0
 40
1.0
 40
1.0
 40
1.0
 10
33.7642521442
 20
100.2946681641
 30
0.0
 10
34.0019267582
 20
100.1063363597
 30
0.0
 10
34.4484860398
 20
99.6617307946
 30
0.0
 10
34.9920723141
 20
98.8806632863
 30
0.0
 10
35.3967080505
 20
98.0193705449
 30
0.0
 10
35.558472142
 20
97.4103351893
 30
0.0
 10
35.6027374296
 20
97.1103359178
 30
0.0
  0
SPLINE
  5
560
100
AcDbEntity
  8
00_COMPONENTS_2
100
AcDbSpline
 62
7
  6
CONTINUOUS
 70
0
 71
3
 72
9
 73
5
 74
0
 42
0.0000001
 43
0.0000001
 44
0.0000000001
 40
0.0
 40
0.0
 40
0.0
 40
0.0
 40
0.4912073756
 40
1.0
 40
1.0
 40
1.0
 40
1.0
 10
43.8064218405
 20
59.115919756
 30
0.0
 10
43.9171744336
 20
59.1799062385
 30
0.0
 10
44.1262955912
 20
59.3406013532
 30
0.0
 10
44.2877753364
 20
59.5484780599
 30
0.0
 10
44.3569966612
 20
59.6614434971
 30
0.0
  0
SPLINE
  5
561
100
AcDbEntity
  8
00_COMPONENTS_2
100
AcDbSpline
 62
7
  6
CONTINUOUS
 70
0
 71
3
 72
9
 73
5
 74
0
 42
0.0000001
 43
0.0000001
 44
0.0000000001
 40
0.0
 40
0.0
 40
0.0
 40
0.0
 40
0.2366168863
 40
1.0
 40
1.0
 40
1.0
 40
1.0
 10
33.7644284319
 20
101.2728687536
 30
0.0
 10
33.8175386217
 20
101.2538191958
 30
0.0
 10
34.0389698055
 20
101.1649140368
 30
0.0
 10
34.2474248254
 20
101.0453076276
 30
0.0
 10
34.3978706914
 20
100.9428247982
 30
0.0
  0
SPLINE
  5
562
100
AcDbEntity
  8
00_COMPONENTS_2
100
AcDbSpline
 62
7
  6
CONTINUOUS
 70
0
 71
3
 72
9
 73
5
 74
0
 42
0.0000001
 43
0.0000001
 44
0.0000000001
 40
0.0
 40
0.0
 40
0.0
 40
0.0
 40
0.5129937909
 40
1.0
 40
1.0
 40
1.0
 40
1.0
 10
49.5728705529
 20
59.2771743102
 30
0.0
 10
49.8383387879
 20
58.9277556197
 30
0.0
 10
50.2753598797
 20
58.182946583
 30
0.0
 10
50.5315320809
 20
57.3551125774
 30
0.0
 10
50.592810152
 20
56.9430499219
 30
0.0
  0
SPLINE
  5
563
100
AcDbEntity
  8
00_COMPONENTS_2
100
AcDbSpline
 62
7
  6
CONTINUOUS
 70
0
 71
3
 72
11
 73
7
 74
0
 42
0.0000001
 43
0.0000001
 44
0.0000000001
 40
0.0
 40
0.0
 40
0.0
 40
0.0
 40
0.2781281571
 40
0.5339315902
 40
0.7718564504
 40
1.0
 40
1.0
 40
1.0
 40
1.0
 10
35.6027374296
 20
96.1386010967
 30
0.0
 10
35.5825747576
 20
96.0252338786
 30
0.0
 10
35.5272182188
 20
95.8099358453
 30
0.0
 10
35.3904843729
 20
95.5186873461
 30
0.0
 10
35.2052128547
 20
95.2807144376
 30
0.0
 10
35.0502391835
 20
95.1615161432
 30
0.0
 10
34.968440874
 20
95.1142901509
 30
0.0
  0
SPLINE
  5
564
100
AcDbEntity
  8
00_COMPONENTS_2
100
AcDbSpline
 62
7
  6
CONTINUOUS
 70
0
 71
3
 72
11
 73
7
 74
0
 42
0.0000001
 43
0.0000001
 44
0.0000000001
 40
0.0
 40
0.0
 40
0.0
 40
0.0
 40
0.2793812445
 40
0.5357626047
 40
0.773377893
 40
1.0
 40
1.0
 40
1.0
 40
1.0
 10
36.4155749347
 20
96.6078902478
 30
0.0
 10
36.395624979
 20
96.4947349596
 30
0.0
 10
36.340946713
 20
96.2800159906
 30
0.0
 10
36.2057655475
 20
95.9897089712
 30
0.0
 10
36.0229077638
 20
95.7530497431
 30
0.0
 10
35.8698194782
 20
95.6346836188
 30
0.0
 10
35.7891032434
 20
95.5880835384
 30
0.0
  0
SPLINE
  5
565
100
AcDbEntity
  8
00_COMPONENTS_2
100
AcDbSpline
 62
7
  6
CONTINUOUS
 70
0
 71
3
 72
17
 73
13
 74
0
 42
0.0000001
 43
0.0000001
 44
0.0000000001
 40
0.0
 40
0.0
 40
0.0
 40
0.0
 40
0.0428592926
 40
0.087485474
 40
0.1353198781
 40
0.1872819044
 40
0.3045421965
 40
0.4382074305
 40
0.582548911
 40
0.7297129633
 40
0.8713059682
 40
1.0
 40
1.0
 40
1.0
 40
1.0
 10
47.0714777198
 20
93.33918058
 30
0.0
 10
47.1738293978
 20
93.3982833085
 30
0.0
 10
47.3994819801
 20
93.4919822358
 30
0.0
 10
47.7719015273
 20
93.5466461911
 30
0.0
 10
48.171868619
 20
93.5171775799
 30
0.0
 10
48.7530114081
 20
93.3626127384
 30
0.0
 10
49.4959123039
 20
92.9563900137
 30
0.0
 10
50.3166997518
 20
92.2294977153
 30
0.0
 10
51.0422735299
 20
91.300831662
 30
0.0
 10
51.613291156
 20
90.2453920805
 30
0.0
 10
51.983898823
 20
89.1497528279
 30
0.0
 10
52.0831735939
 20
88.403545104
 30
0.0
 10
52.0831735939
 20
88.0486532397
 30
0.0
  0
SPLINE
  5
566
100
AcDbEntity
  8
00_COMPONENTS_2
100
AcDbSpline
 62
7
  6
CONTINUOUS
 70
0
 71
3
 72
21
 73
17
 74
0
 42
0.0000001
 43
0.0000001
 44
0.0000000001
 40
0.0
 40
0.0
 40
0.0
 40
0.0
 40
0.0476107487
 40
0.0986052688
 40
0.1547121122
 40
0.2165349648
 40
0.2837496294
 40
0.355372279
 40
0.5056057297
 40
0.6540056626
 40
0.7235643632
 40
0.7882844161
 40
0.8476005779
 40
0.9017217854
 40
0.9518237086
 40
1.0
 40
1.0
 40
1.0
 40
1.0
 10
47.3938687761
 20
93.5252673552
 30
0.0
 10
47.5414148631
 20
93.6104837114
 30
0.0
 10
47.8780361985
 20
93.7370132598
 30
0.0
 10
48.4368284878
 20
93.7732738562
 30
0.0
 10
49.0366571909
 20
93.6657305677
 30
0.0
 10
49.6566307183
 20
93.4223681741
 30
0.0
 10
50.2761229673
 20
93.0537217913
 30
0.0
 10
51.0840944298
 20
92.4032564146
 30
0.0
 10
51.9483211299
 20
91.3809355583
 30
0.0
 10
52.5478506796
 20
90.1902915668
 30
0.0
 10
52.8056552057
 20
89.2085398086
 30
0.0
 10
52.8738921967
 20
88.5156294082
 30
0.0
 10
52.817299614
 20
87.8761676363
 30
0.0
 10
52.635100072
 20
87.3136328558
 30
0.0
 10
52.3308680318
 20
86.852161021
 30
0.0
 10
52.0522639204
 20
86.6266001946
 30
0.0
 10
51.902946597
 20
86.5404038374
 30
0.0
  0
SPLINE
  5
567
100
AcDbEntity
  8
00_COMPONENTS_2
100
AcDbSpline
 62
7
  6
CONTINUOUS
 70
0
 71
3
 72
9
 73
5
 74
0
 42
0.0000001
 43
0.0000001
 44
0.0000000001
 40
0.0
 40
0.0
 40
0.0
 40
0.0
 40
0.246642239
 40
1.0
 40
1.0
 40
1.0
 40
1.0
 10
93.1289959935
 20
171.5920732378
 30
0.0
 10
93.8633730606
 20
171.2777524321
 30
0.0
 10
96.8303091963
 20
169.9787725472
 30
0.0
 10
99.7548108621
 20
168.5831974552
 30
0.0
 10
101.932537549
 20
167.4828089309
 30
0.0
  0
SPLINE
  5
568
100
AcDbEntity
  8
00_COMPONENTS_2
100
AcDbSpline
 62
7
  6
CONTINUOUS
 70
0
 71
3
 72
11
 73
7
 74
0
 42
0.0000001
 43
0.0000001
 44
0.0000000001
 40
0.0
 40
0.0
 40
0.0
 40
0.0
 40
0.2780260497
 40
0.5338007767
 40
0.7717690158
 40
1.0
 40
1.0
 40
1.0
 40
1.0
 10
50.592810152
 20
55.9632470214
 30
0.0
 10
50.5725302071
 20
55.8502918393
 30
0.0
 10
50.5170127677
 20
55.6357772805
 30
0.0
 10
50.3803079278
 20
55.3456210693
 30
0.0
 10
50.1953403165
 20
55.1085105121
 30
0.0
 10
50.0407533886
 20
54.9896957245
 30
0.0
 10
49.9591673687
 20
54.9425922969
 30
0.0
  0
SPLINE
  5
569
100
AcDbEntity
  8
00_COMPONENTS_2
100
AcDbSpline
 62
7
  6
CONTINUOUS
 70
0
 71
3
 72
13
 73
9
 74
0
 42
0.0000001
 43
0.0000001
 44
0.0000000001
 40
0.0
 40
0.0
 40
0.0
 40
0.0
 40
0.1142250362
 40
0.2375584228
 40
0.4999988469
 40
0.762439898
 40
0.8857740437
 40
1.0
 40
1.0
 40
1.0
 40
1.0
 10
46.2482644528
 20
82.1910240723
 30
0.0
 10
46.4273215375
 20
82.0876477549
 30
0.0
 10
46.781118321
 20
81.8395866672
 30
0.0
 10
47.4435322273
 20
81.2197250518
 30
0.0
 10
48.1431535682
 20
80.264009635
 30
0.0
 10
48.6210222764
 20
79.1802631529
 30
0.0
 10
48.8266377615
 20
78.2966623533
 30
0.0
 10
48.8645704358
 20
77.8662321454
 30
0.0
 10
48.8645704358
 20
77.6594743372
 30
0.0
  0
SPLINE
  5
56A
100
AcDbEntity
  8
00_COMPONENTS_2
100
AcDbSpline
 62
7
  6
CONTINUOUS
 70
0
 71
3
 72
11
 73
7
 74
0
 42
0.0000001
 43
0.0000001
 44
0.0000000001
 40
0.0
 40
0.0
 40
0.0
 40
0.0
 40
0.2897033281
 40
0.5490895198
 40
0.7822165953
 40
1.0
 40
1.0
 40
1.0
 40
1.0
 10
48.8645704358
 20
60.1046723689
 30
0.0
 10
48.8645704358
 20
59.9172002346
 30
0.0
 10
48.8361469021
 20
59.5606679682
 30
0.0
 10
48.6917556117
 20
59.0708113177
 30
0.0
 10
48.4486486329
 20
58.673320348
 30
0.0
 10
48.2202973894
 20
58.4813457595
 30
0.0
 10
48.0982469394
 20
58.4108803739
 30
0.0
  0
SPLINE
  5
56B
100
AcDbEntity
  8
00_COMPONENTS_2
100
AcDbSpline
 62
7
  6
CONTINUOUS
 70
0
 71
3
 72
11
 73
7
 74
0
 42
0.0000001
 43
0.0000001
 44
0.0000000001
 40
0.0
 40
0.0
 40
0.0
 40
0.0
 40
0.2372539606
 40
0.5000012599
 40
0.7627478689
 40
1.0
 40
1.0
 40
1.0
 40
1.0
 10
38.8236123387
 20
66.0241664698
 30
0.0
 10
38.823612481
 20
65.8154998823
 30
0.0
 10
38.901847915
 20
65.3754484278
 30
0.0
 10
39.1747383963
 20
64.7571910928
 30
0.0
 10
39.5737213927
 20
64.2117356389
 30
0.0
 10
39.9156996499
 20
63.9239594556
 30
0.0
 10
40.096409844
 20
63.8196287367
 30
0.0
  0
SPLINE
  5
56C
100
AcDbEntity
  8
00_COMPONENTS_2
100
AcDbSpline
 62
7
  6
CONTINUOUS
 70
0
 71
3
 72
15
 73
11
 74
0
 42
0.0000001
 43
0.0000001
 44
0.0000000001
 40
0.0
 40
0.0
 40
0.0
 40
0.0
 40
0.1351994472
 40
0.2532117325
 40
0.3584294227
 40
0.4606577813
 40
0.5709684639
 40
0.6968310358
 40
0.8404653471
 40
1.0
 40
1.0
 40
1.0
 40
1.0
 10
40.096409844
 20
63.8196287367
 30
0.0
 10
40.1919603307
 20
63.7644638854
 30
0.0
 10
40.3818673162
 20
63.6778402842
 30
0.0
 10
40.6749538987
 20
63.6296042886
 30
0.0
 10
40.9426028249
 20
63.6825625004
 30
0.0
 10
41.1589750229
 20
63.8395501639
 30
0.0
 10
41.30325203
 20
64.082074317
 30
0.0
 10
41.373385142
 20
64.3877074086
 30
0.0
 10
41.3710030135
 20
64.7401684174
 30
0.0
 10
41.3241062342
 20
64.9844562411
 30
0.0
 10
41.2901083323
 20
65.1101294628
 30
0.0
  0
SPLINE
  5
56D
100
AcDbEntity
  8
00_COMPONENTS_2
100
AcDbSpline
 62
7
  6
CONTINUOUS
 70
0
 71
3
 72
9
 73
5
 74
0
 42
0.0000001
 43
0.0000001
 44
0.0000000001
 40
0.0
 40
0.0
 40
0.0
 40
0.0
 40
0.2470830678
 40
1.0
 40
1.0
 40
1.0
 40
1.0
 10
41.2224939421
 20
65.3241352859
 30
0.0
 10
41.2000477492
 20
65.3863096351
 30
0.0
 10
41.1004990962
 20
65.6347255997
 30
0.0
 10
40.9680055902
 20
65.8698531131
 30
0.0
 10
40.852600212
 20
66.0349430417
 30
0.0
  0
SPLINE
  5
56E
100
AcDbEntity
  8
00_COMPONENTS_2
100
AcDbSpline
 62
7
  6
CONTINUOUS
 70
0
 71
3
 72
9
 73
5
 74
0
 42
0.0000001
 43
0.0000001
 44
0.0000000001
 40
0.0
 40
0.0
 40
0.0
 40
0.0
 40
0.2541922511
 40
1.0
 40
1.0
 40
1.0
 40
1.0
 10
40.6667748578
 20
66.2739072428
 30
0.0
 10
40.6504539096
 20
66.29277882
 30
0.0
 10
40.5852653286
 20
66.3661624938
 30
0.0
 10
40.5161143642
 20
66.4360512369
 30
0.0
 10
40.4623290511
 20
66.4857104385
 30
0.0
  0
SPLINE
  5
56F
100
AcDbEntity
  8
00_COMPONENTS_2
100
AcDbSpline
 62
7
  6
CONTINUOUS
 70
0
 71
3
 72
9
 73
5
 74
0
 42
0.0000001
 43
0.0000001
 44
0.0000000001
 40
0.0
 40
0.0
 40
0.0
 40
0.0
 40
0.2616701433
 40
1.0
 40
1.0
 40
1.0
 40
1.0
 10
40.4623290511
 20
66.4857104385
 30
0.0
 10
40.4330269035
 20
66.5127646876
 30
0.0
 10
40.3185386773
 20
66.6133511897
 30
0.0
 10
40.1938645399
 20
66.7027732163
 30
0.0
 10
40.096409844
 20
66.7590374383
 30
0.0
  0
SPLINE
  5
570
100
AcDbEntity
  8
00_COMPONENTS_2
100
AcDbSpline
 62
7
  6
CONTINUOUS
 70
0
 71
3
 72
15
 73
11
 74
0
 42
0.0000001
 43
0.0000001
 44
0.0000000001
 40
0.0
 40
0.0
 40
0.0
 40
0.0
 40
0.1447692105
 40
0.2745569858
 40
0.3911255939
 40
0.499998149
 40
0.6088710714
 40
0.7254405935
 40
0.8552294871
 40
1.0
 40
1.0
 40
1.0
 40
1.0
 10
40.096409844
 20
66.7590374383
 30
0.0
 10
40.0174731359
 20
66.804610537
 30
0.0
 10
39.8602993171
 20
66.879268208
 30
0.0
 10
39.618885928
 20
66.9377403621
 30
0.0
 10
39.3920533472
 20
66.9319554604
 30
0.0
 10
39.190377936
 20
66.8586164345
 30
0.0
 10
39.0260299525
 20
66.7206252939
 30
0.0
 10
38.9076072582
 20
66.5270712162
 30
0.0
 10
38.8375418318
 20
66.2887620603
 30
0.0
 10
38.8236122766
 20
66.1153150337
 30
0.0
 10
38.8236123387
 20
66.0241664698
 30
0.0
  0
SPLINE
  5
571
100
AcDbEntity
  8
00_COMPONENTS_2
100
AcDbSpline
 62
7
  6
CONTINUOUS
 70
0
 71
3
 72
11
 73
7
 74
0
 42
0.0000001
 43
0.0000001
 44
0.0000000001
 40
0.0
 40
0.0
 40
0.0
 40
0.0
 40
0.2372193808
 40
0.5000011099
 40
0.7627822347
 40
1.0
 40
1.0
 40
1.0
 40
1.0
 10
40.0256953387
 20
65.8200479312
 30
0.0
 10
40.0256953422
 20
65.7389112759
 30
0.0
 10
40.0561273736
 20
65.5677843862
 30
0.0
 10
40.162207044
 20
65.3273139702
 30
0.0
 10
40.3174213638
 20
65.1152122397
 30
0.0
 10
40.4504058227
 20
65.003295251
 30
0.0
 10
40.5206721462
 20
64.9627278879
 30
0.0
  0
SPLINE
  5
572
100
AcDbEntity
  8
00_COMPONENTS_2
100
AcDbSpline
 62
7
  6
CONTINUOUS
 70
0
 71
3
 72
9
 73
5
 74
0
 42
0.0000001
 43
0.0000001
 44
0.0000000001
 40
0.0
 40
0.0
 40
0.0
 40
0.0
 40
0.4492359343
 40
1.0
 40
1.0
 40
1.0
 40
1.0
 10
57.7764963985
 20
117.4208212704
 30
0.0
 10
57.810257633
 20
117.4402381837
 30
0.0
 10
57.8684435024
 20
117.5132659574
 30
0.0
 10
57.8800569245
 20
117.6019577567
 30
0.0
 10
57.8800569245
 20
117.6497063558
 30
0.0
  0
SPLINE
  5
573
100
AcDbEntity
  8
00_COMPONENTS_2
100
AcDbSpline
 62
7
  6
CONTINUOUS
 70
0
 71
3
 72
9
 73
5
 74
0
 42
0.0000001
 43
0.0000001
 44
0.0000000001
 40
0.0
 40
0.0
 40
0.0
 40
0.0
 40
0.2587344544
 40
1.0
 40
1.0
 40
1.0
 40
1.0
 10
40.3085368736
 20
65.9833457789
 30
0.0
 10
40.3085368713
 20
65.9920222552
 30
0.0
 10
40.3092158663
 20
66.0255497394
 30
0.0
 10
40.3126647942
 20
66.059047146
 30
0.0
 10
40.3170470375
 20
66.0835156331
 30
0.0
  0
SPLINE
  5
574
100
AcDbEntity
  8
00_COMPONENTS_2
100
AcDbSpline
 62
7
  6
CONTINUOUS
 70
0
 71
3
 72
9
 73
5
 74
0
 42
0.0000001
 43
0.0000001
 44
0.0000000001
 40
0.0
 40
0.0
 40
0.0
 40
0.0
 40
0.2579675536
 40
1.0
 40
1.0
 40
1.0
 40
1.0
 10
40.3170470375
 20
66.0835156331
 30
0.0
 10
40.3181636417
 20
66.0897502518
 30
0.0
 10
40.3229546579
 20
66.1138309939
 30
0.0
 10
40.3296526428
 20
66.1375506127
 30
0.0
 10
40.3358446511
 20
66.1546850647
 30
0.0
  0
SPLINE
  5
575
100
AcDbEntity
  8
00_COMPONENTS_2
100
AcDbSpline
 62
7
  6
CONTINUOUS
 70
0
 71
3
 72
9
 73
5
 74
0
 42
0.0000001
 43
0.0000001
 44
0.0000000001
 40
0.0
 40
0.0
 40
0.0
 40
0.0
 40
0.2549838416
 40
1.0
 40
1.0
 40
1.0
 40
1.0
 10
51.4413347566
 20
57.4329429066
 30
0.0
 10
51.4456839827
 20
57.4036966587
 30
0.0
 10
51.4614463792
 20
57.2888115448
 30
0.0
 10
51.4719459658
 20
57.1731879657
 30
0.0
 10
51.4764368811
 20
57.0869128687
 30
0.0
  0
SPLINE
  5
576
100
AcDbEntity
  8
00_COMPONENTS_2
100
AcDbSpline
 62
7
  6
CONTINUOUS
 70
0
 71
3
 72
11
 73
7
 74
0
 42
0.0000001
 43
0.0000001
 44
0.0000000001
 40
0.0
 40
0.0
 40
0.0
 40
0.0
 40
0.2372428339
 40
0.4999989092
 40
0.7627555781
 40
1.0
 40
1.0
 40
1.0
 40
1.0
 10
40.8035136812
 20
65.1260255494
 30
0.0
 10
40.7332402868
 20
65.1665969948
 30
0.0
 10
40.6002634342
 20
65.2785230285
 30
0.0
 10
40.4450577103
 20
65.4906170269
 30
0.0
 10
40.3389804621
 20
65.7310761496
 30
0.0
 10
40.3085368954
 20
65.9022009683
 30
0.0
 10
40.3085368736
 20
65.9833457789
 30
0.0
  0
SPLINE
  5
577
100
AcDbEntity
  8
00_COMPONENTS_2
100
AcDbSpline
 62
7
  6
CONTINUOUS
 70
0
 71
3
 72
14
 73
10
 74
0
 42
0.0000001
 43
0.0000001
 44
0.0000000001
 40
0.0
 40
0.0
 40
0.0
 40
0.0
 40
0.2979263567
 40
0.4402586846
 40
0.5732095031
 40
0.6946760813
 40
0.8044075975
 40
0.9045940087
 40
1.0
 40
1.0
 40
1.0
 40
1.0
 10
51.4786177264
 20
60.3925665419
 30
0.0
 10
51.8583796188
 20
59.9317863875
 30
0.0
 10
52.3338578475
 20
59.1708510165
 30
0.0
 10
52.7205919601
 20
58.0855481807
 30
0.0
 10
52.8635840379
 20
57.299000099
 30
0.0
 10
52.8551693035
 20
56.5639127471
 30
0.0
 10
52.691963671
 20
55.9123105925
 30
0.0
 10
52.3759656525
 20
55.3769136626
 30
0.0
 10
52.0685092085
 20
55.1190861448
 30
0.0
 10
51.9029218593
 20
55.0234641913
 30
0.0
  0
SPLINE
  5
578
100
AcDbEntity
  8
00_COMPONENTS_2
100
AcDbSpline
 62
7
  6
CONTINUOUS
 70
0
 71
3
 72
22
 73
18
 74
0
 42
0.0000001
 43
0.0000001
 44
0.0000000001
 40
0.0
 40
0.0
 40
0.0
 40
0.0
 40
0.0227751009
 40
0.047437453
 40
0.07676983
 40
0.1112173852
 40
0.1862735351
 40
0.261438977
 40
0.3344798975
 40
0.40532346
 40
0.4741368444
 40
0.5410587953
 40
0.6694015613
 40
0.7901258458
 40
0.9014563597
 40
0.9525723634
 40
1.0
 40
1.0
 40
1.0
 40
1.0
 10
53.5252120097
 20
115.2185875976
 30
0.0
 10
53.4908497176
 20
115.1987507519
 30
0.0
 10
53.4244665768
 20
115.1462426972
 30
0.0
 10
53.3595895174
 20
115.0246276512
 30
0.0
 10
53.3488631183
 20
114.8672448455
 30
0.0
 10
53.4044667909
 20
114.6297387555
 30
0.0
 10
53.5620552114
 20
114.3443161931
 30
0.0
 10
53.803249248
 20
114.0386988425
 30
0.0
 10
54.07081025
 20
113.7656481968
 30
0.0
 10
54.3503996365
 20
113.5220824129
 30
0.0
 10
54.6368748428
 20
113.3038287575
 30
0.0
 10
55.0187765146
 20
113.0470207639
 30
0.0
 10
55.500664934
 20
112.7778253358
 30
0.0
 10
56.0820761811
 20
112.5385473395
 30
0.0
 10
56.5666800048
 20
112.4216002899
 30
0.0
 10
56.9331804768
 20
112.4166698598
 30
0.0
 10
57.1049374248
 20
112.460412672
 30
0.0
 10
57.1764899993
 20
112.5017295876
 30
0.0
  0
ELLIPSE
  5
579
100
AcDbEntity
  8
00_COMPONENTS_2
100
AcDbEllipse
 62
7
  6
CONTINUOUS
 10
58.9406679845
 20
115.9327222431
 30
0.0
 11
1.8484688859
 21
-1.3123441167
 31
0.0
 40
0.3640018184
 41
-2.8555748965
 42
-2.5273747633
  0
ENDSEC
  0
SECTION
  2
OBJECTS
  0
DICTIONARY
  5
C
100
AcDbDictionary
280
0
281
1
  3
ACAD_GROUP
350
D
  3
ACAD_MLINESTYLE
350
17
  3
ACAD_LAYOUT
350
1A
  3
ACAD_PLOTSETTINGS
350
19
  3
ACAD_PLOTSTYLENAME
350
E
  0
DICTIONARY
  5
D
102
{ACAD_REACTORS
330
C
102
}
100
AcDbDictionary
280
0
281
1
  0
ACDBDICTIONARYWDFLT
  5
E
102
{ACAD_REACTORS
330
C
102
}
100
AcDbDictionary
281
1
  3
Normal
350
F
100
AcDbDictionaryWithDefault
340
F
  0
DICTIONARY
  5
17
102
{ACAD_REACTORS
330
C
102
}
100
AcDbDictionary
280
0
281
1
  3
Standard
350
18
  0
DICTIONARY
  5
19
102
{ACAD_REACTORS
330
C
102
}
100
AcDbDictionary
281
1
  0
DICTIONARY
  5
1A
102
{ACAD_REACTORS
330
C
102
}
100
AcDbDictionary
281
1
  3
Model
350
57A
  3
Layout1
350
57B
  0
ACDBPLACEHOLDER
  5
F
102
{ACAD_REACTORS
330
E
102
}
  0
MLINESTYLE
  5
18
102
{ACAD_REACTORS
330
17
102
}
100
AcDbMlineStyle
  2
STANDARD
 70
0
  3

 62
256
 51
90.0
 52
90.0
 71
2
 49
0.5
 62
256
  6
BYLAYER
 49
-0.5
 62
256
  6
BYLAYER
  0
LAYOUT
  5
57A
102
{ACAD_REACTORS
330
1A
102
}
100
AcDbPlotSettings
  1

  2
none_device
  4

  6

 40
0.0
 41
0.0
 42
0.0
 43
0.0
 44
210.0
 45
297.0
 46
0.0
 47
0.0
 48
0.0
 49
0.0
140
0.0
141
0.0
142
1.0
143
1.0
 70
1024
 72
1
 73
0
 74
0
  7

 75
0
147
1.0
148
0.0
149
0.0
100
AcDbLayout
  1
Model
 70
0
 71
0
 10
0.0
 20
0.0
 11
210.0
 21
297.0
 12
0.0
 22
0.0
 32
0.0
 14
0.0
 24
0.0
 34
0.0
 15
0.0
 25
0.0
 35
0.0
146
0.0
 13
0.0
 23
0.0
 33
0.0
 16
1.0
 26
0.0
 36
0.0
 17
0.0
 27
1.0
 37
0.0
 76
0
330
213
345
0
346
0
  0
LAYOUT
  5
57B
102
{ACAD_REACTORS
330
1A
102
}
100
AcDbPlotSettings
  1

  2
none_device
  4

  6

 40
0.0
 41
0.0
 42
0.0
 43
0.0
 44
210.0
 45
297.0
 46
0.0
 47
0.0
 48
0.0
 49
0.0
140
0.0
141
0.0
142
1.0
143
1.0
 70
0
 72
1
 73
0
 74
0
  7

 75
0
147
1.0
148
0.0
149
0.0
100
AcDbLayout
  1
Layout1
 70
0
 71
1
 10
0.0
 20
0.0
 11
210.0
 21
297.0
 12
0.0
 22
0.0
 32
0.0
 14
0.0
 24
0.0
 34
0.0
 15
0.0
 25
0.0
 35
0.0
146
0.0
 13
0.0
 23
0.0
 33
0.0
 16
1.0
 26
0.0
 36
0.0
 17
0.0
 27
1.0
 37
0.0
 76
0
330
214
345
0
346
0
  0
ENDSEC
  0
EOF
