999
DXF file: C:\Users\sesa63760\Dev\_Creo\CAD\MCADPD0004457_3D-CAD\drw0001_4.dxf
999
Pro/ENGINEER 2019471 by Parametric Technology Corporation
  0
SECTION
  2
HEADER
  9
$ACADVER
  1
AC1024
  9
$DWGCODEPAGE
  3
ANSI_1252
  9
$EXTMAX
 10
137.3125208924
 20
194.1991366906
 30
0.0
  9
$EXTMIN
 10
0.0
 20
0.0
 30
0.0
  9
$LIMMIN
 10
0.0
 20
0.0
  9
$LIMMAX
 10
137.3125208924
 20
194.1991366906
  9
$VIEWCTR
 10
68.6562604462
 20
97.0995683453
  9
$VIEWSIZE
 40
194.1991366906
  9
$CLAYER
  8
0
  9
$LTSCALE
 40
12.658906688
  9
$CELTYPE
  6
BYLAYER
  9
$DIMSCALE
 40
1.0
  9
$DIMASZ
 40
1.6346728678
  9
$DIMEXO
 40
1.0
  9
$DIMDLI
 40
8.7461537117
  9
$DIMEXE
 40
1.0
  9
$DIMCEN
 40
2.071457458
  9
$DIMLFAC
 40
1.0
  9
$DIMBLK
  1
_FILLED
  9
$DIMALT
 70
0
  9
$DIMALTF
 40
0.0393700787
  9
$DIMTXT
 40
2.2885420149
  9
$DIMTOL
 70
1
  9
$DIMLIM
 70
0
  9
$DIMTFAC
 40
1.0
  9
$DIMTP
 40
0.01
  9
$DIMTM
 40
0.01
  9
$DIMGAP
 40
0.625
  9
$DIMDSEP
 70
46
  9
$AUNITS
 70
0
  9
$PDMODE
 70
3
  9
$PDSIZE
 40
0.3125
  9
$HANDSEED
  5
2FA
  9
$TILEMODE
 70
1
  9
$MEASUREMENT
 70
1
  9
$INSUNITS
 70
4
  0
ENDSEC
  0
SECTION
  2
CLASSES
  0
CLASS
  1
ACDBDICTIONARYWDFLT
  2
AcDbDictionaryWithDefault
  3
AutoCAD 2000
 90
0
 91
1
280
0
281
0
  0
CLASS
  1
ACDBPLACEHOLDER
  2
AcDbPlaceHolder
  3
AutoCAD 2000
 90
0
 91
1
280
0
281
0
  0
CLASS
  1
LAYOUT
  2
AcDbLayout
  3
AutoCAD 2000
 90
0
 91
0
280
0
281
0
  0
ENDSEC
  0
SECTION
  2
TABLES
  0
TABLE
  2
VPORT
  5
8
100
AcDbSymbolTable
 70
2
  0
VPORT
  5
1F4
100
AcDbSymbolTableRecord
100
AcDbViewportTableRecord
  2
*ACTIVE
 70
0
 10
0.0
 20
0.0
 11
1.0
 21
1.0
 12
68.6562604462
 22
97.0995683453
 13
0.0
 23
0.0
 14
1.0
 24
1.0
 15
0.0
 25
0.0
 16
0.0
 26
0.0
 36
1.0
 17
0.0
 27
0.0
 37
0.0
 40
194.1991366906
 41
0.7070707071
 42
50.0
 43
0.0
 44
0.0
 50
0.0
 51
0.0
 71
0
 72
100
 73
1
 74
1
 75
0
 76
0
 77
0
 78
0
  0
ENDTAB
  0
TABLE
  2
LTYPE
  5
5
100
AcDbSymbolTable
 70
6
  0
LTYPE
  5
14
100
AcDbSymbolTableRecord
100
AcDbLinetypeTableRecord
  2
BYBLOCK
 70
0
  3

 72
65
 73
0
 40
0.0
  0
LTYPE
  5
15
100
AcDbSymbolTableRecord
100
AcDbLinetypeTableRecord
  2
BYLAYER
 70
0
  3

 72
65
 73
0
 40
0.0
  0
LTYPE
  5
16
100
AcDbSymbolTableRecord
100
AcDbLinetypeTableRecord
  2
CONTINUOUS
 70
64
  3
Solid line
 72
65
 73
0
 40
0.0
  0
LTYPE
  5
1F5
100
AcDbSymbolTableRecord
100
AcDbLinetypeTableRecord
  2
CENTER
 70
64
  3
____ _ ____ _ ____ _ ____ _ ____ _ ____ _ ____
 72
65
 73
4
 40
0.6
 49
0.375
 74
0
 49
-0.075
 74
0
 49
0.075
 74
0
 49
-0.075
 74
0
  0
LTYPE
  5
1F6
100
AcDbSymbolTableRecord
100
AcDbLinetypeTableRecord
  2
HIDDEN
 70
64
  3
- - - - - - - - - - - - - - - - - - - -
 72
65
 73
2
 40
0.2
 49
0.1
 74
0
 49
-0.1
 74
0
  0
LTYPE
  5
1F7
100
AcDbSymbolTableRecord
100
AcDbLinetypeTableRecord
  2
PHANTOM
 70
64
  3
_____ _ _ _____ _ _ _____ _ _ _____
 72
65
 73
6
 40
0.8
 49
0.45
 74
0
 49
-0.05
 74
0
 49
0.1
 74
0
 49
-0.05
 74
0
 49
0.1
 74
0
 49
-0.05
 74
0
  0
LTYPE
  5
1F8
100
AcDbSymbolTableRecord
100
AcDbLinetypeTableRecord
  2
DOT
 70
64
  3
. . . . . . . . . . . . . . . . . . . .
 72
65
 73
2
 40
0.2
 49
0.1
 74
0
 49
-0.1
 74
0
  0
LTYPE
  5
1F9
100
AcDbSymbolTableRecord
100
AcDbLinetypeTableRecord
  2
DASHED
 70
64
  3
- - - - - - - - - - - - - - - - - - - -
 72
65
 73
2
 40
0.2
 49
0.1
 74
0
 49
-0.1
 74
0
  0
ENDTAB
  0
TABLE
  2
LAYER
  5
2
100
AcDbSymbolTable
 70
36
  0
LAYER
  5
10
100
AcDbSymbolTableRecord
100
AcDbLayerTableRecord
  2
0
 70
0
 62
7
  6
CONTINUOUS
370
-3
390
F
  0
LAYER
  5
1FA
100
AcDbSymbolTableRecord
100
AcDbLayerTableRecord
  2
DEFAULT_1
 70
0
 62
7
  6
CENTER
370
-3
390
F
  0
LAYER
  5
1FB
100
AcDbSymbolTableRecord
100
AcDbLayerTableRecord
  2
DEFAULT_2
 70
0
 62
7
  6
HIDDEN
370
-3
390
F
  0
LAYER
  5
1FC
100
AcDbSymbolTableRecord
100
AcDbLayerTableRecord
  2
DEFAULT_3
 70
0
 62
7
  6
PHANTOM
370
-3
390
F
  0
LAYER
  5
1FD
100
AcDbSymbolTableRecord
100
AcDbLayerTableRecord
  2
00_COMPONENTS
 70
0
 62
7
  6
CONTINUOUS
370
-3
390
F
  0
LAYER
  5
1FE
100
AcDbSymbolTableRecord
100
AcDbLayerTableRecord
  2
01_1_DEFAULT_DATUMS
 70
0
 62
7
  6
CONTINUOUS
370
-3
390
F
  0
LAYER
  5
1FF
100
AcDbSymbolTableRecord
100
AcDbLayerTableRecord
  2
01_PLANES
 70
0
 62
7
  6
CONTINUOUS
370
-3
390
F
  0
LAYER
  5
200
100
AcDbSymbolTableRecord
100
AcDbLayerTableRecord
  2
02_COORD_SYS
 70
0
 62
7
  6
CONTINUOUS
370
-3
390
F
  0
LAYER
  5
201
100
AcDbSymbolTableRecord
100
AcDbLayerTableRecord
  2
03_AXES
 70
0
 62
7
  6
CONTINUOUS
370
-3
390
F
  0
LAYER
  5
202
100
AcDbSymbolTableRecord
100
AcDbLayerTableRecord
  2
04_POINTS
 70
0
 62
7
  6
CONTINUOUS
370
-3
390
F
  0
LAYER
  5
203
100
AcDbSymbolTableRecord
100
AcDbLayerTableRecord
  2
05_CURVES
 70
0
 62
7
  6
CONTINUOUS
370
-3
390
F
  0
LAYER
  5
204
100
AcDbSymbolTableRecord
100
AcDbLayerTableRecord
  2
06_SURFS
 70
0
 62
7
  6
CONTINUOUS
370
-3
390
F
  0
LAYER
  5
205
100
AcDbSymbolTableRecord
100
AcDbLayerTableRecord
  2
07_COSMETICS
 70
0
 62
7
  6
CONTINUOUS
370
-3
390
F
  0
LAYER
  5
206
100
AcDbSymbolTableRecord
100
AcDbLayerTableRecord
  2
10_NOTES
 70
0
 62
7
  6
CONTINUOUS
370
-3
390
F
  0
LAYER
  5
207
100
AcDbSymbolTableRecord
100
AcDbLayerTableRecord
  2
11_NOTES_PUB
 70
0
 62
7
  6
CONTINUOUS
370
-3
390
F
  0
LAYER
  5
208
100
AcDbSymbolTableRecord
100
AcDbLayerTableRecord
  2
13_REF_GTOL
 70
0
 62
7
  6
CONTINUOUS
370
-3
390
F
  0
LAYER
  5
209
100
AcDbSymbolTableRecord
100
AcDbLayerTableRecord
  2
16_MISC
 70
0
 62
7
  6
CONTINUOUS
370
-3
390
F
  0
LAYER
  5
20A
100
AcDbSymbolTableRecord
100
AcDbLayerTableRecord
  2
17_NO_PRINT
 70
0
 62
7
  6
CONTINUOUS
370
-3
390
F
  0
LAYER
  5
20B
100
AcDbSymbolTableRecord
100
AcDbLayerTableRecord
  2
18_DATUM_CAMS_JOINTS
 70
0
 62
7
  6
CONTINUOUS
370
-3
390
F
  0
LAYER
  5
20C
100
AcDbSymbolTableRecord
100
AcDbLayerTableRecord
  2
19_DATUM_FUNCTIONAL
 70
0
 62
7
  6
CONTINUOUS
370
-3
390
F
  0
LAYER
  5
20D
100
AcDbSymbolTableRecord
100
AcDbLayerTableRecord
  2
20_DATUM_KINEMATIC_SCHEME
 70
0
 62
7
  6
CONTINUOUS
370
-3
390
F
  0
ENDTAB
  0
TABLE
  2
STYLE
  5
3
100
AcDbSymbolTable
 70
1
  0
STYLE
  5
11
100
AcDbSymbolTableRecord
100
AcDbTextStyleTableRecord
  2
STANDARD
 70
0
 40
0.0
 41
1.0
 50
0.0
 71
0
 42
0.2
  3
ARIAL.TTF
  4

  0
STYLE
  5
20E
100
AcDbSymbolTableRecord
100
AcDbTextStyleTableRecord
  2
TEXTSTYLE_1
 70
0
 40
0.0
 41
0.8
 50
0.0
 71
0
 42
0.2
  3
gdt
  4

  0
ENDTAB
  0
TABLE
  2
VIEW
  5
6
100
AcDbSymbolTable
 70
0
  0
ENDTAB
  0
TABLE
  2
UCS
  5
7
100
AcDbSymbolTable
 70
0
  0
ENDTAB
  0
TABLE
  2
APPID
  5
9
100
AcDbSymbolTable
 70
1
  0
APPID
  5
20F
100
AcDbSymbolTableRecord
100
AcDbRegAppTableRecord
  2
ACAD
 70
0
  0
ENDTAB
  0
TABLE
  2
BLOCK_RECORD
  5
1
100
AcDbSymbolTable
 70
0
  0
BLOCK_RECORD
  5
210
100
AcDbSymbolTableRecord
100
AcDbBlockTableRecord
  2
*Model_Space
  0
BLOCK_RECORD
  5
211
100
AcDbSymbolTableRecord
100
AcDbBlockTableRecord
  2
*Paper_Space
  0
BLOCK_RECORD
  5
212
100
AcDbSymbolTableRecord
100
AcDbBlockTableRecord
  2
_FILLED
  0
ENDTAB
  0
TABLE
  2
DIMSTYLE
  5
A
100
AcDbSymbolTable
 70
1
100
AcDbDimStyleTable
 71
0
  0
DIMSTYLE
105
213
100
AcDbSymbolTableRecord
100
AcDbDimStyleTableRecord
  2
STANDARD
 70
0
  3

  4

 40
1.0
 41
1.6346728678
 42
1.0
 43
0.38
 44
1.0
 45
0.0
 46
0.0
 47
0.01
 48
0.01
140
2.2885420149
141
0.09
142
0.0
143
25.4
144
1.0
145
0.0
146
1.0
147
0.625
 71
1
 72
0
 73
0
 74
0
 75
0
 76
0
 77
1
 78
8
 79
2
170
0
171
1
172
0
173
0
174
0
175
0
176
0
177
0
178
0
270
2
179
2
271
2
272
2
273
2
274
2
275
0
280
0
281
0
282
0
283
1
284
8
285
0
286
0
287
3
288
0
340
11
278
46
341
212
342
212
343
212
344
212
  0
ENDTAB
  0
ENDSEC
  0
SECTION
  2
BLOCKS
  0
BLOCK
  5
20
100
AcDbEntity
  8
0
100
AcDbBlockBegin
  2
*Model_Space
 70
0
 10
0.0
 20
0.0
 30
0.0
  3
*Model_Space
  1

  0
ENDBLK
  5
21
100
AcDbEntity
  8
0
100
AcDbBlockEnd
  0
BLOCK
  5
1C
100
AcDbEntity
  8
0
100
AcDbBlockBegin
  2
*Paper_Space
 70
0
 10
0.0
 20
0.0
 30
0.0
  3
*Paper_Space
  1

  0
ENDBLK
  5
1D
100
AcDbEntity
  8
0
100
AcDbBlockEnd
  0
BLOCK
  5
214
100
AcDbEntity
  8
0
100
AcDbBlockBegin
  2
_FILLED
 70
64
 10
0.0
 20
0.0
  3
_FILLED
  1

  0
SOLID
  5
215
100
AcDbEntity
  8
0
  6
BYBLOCK
 62
0
100
AcDbTrace
 10
0.0
 20
0.0
 11
-1.0
 21
0.25
 12
-1.0
 22
-0.25
 13
-1.0
 23
-0.25
  0
ENDBLK
  5
216
100
AcDbEntity
  8
0
  6
BYBLOCK
 62
0
100
AcDbBlockEnd
  0
ENDSEC
  0
SECTION
  2
ENTITIES
  0
LINE
  5
217
100
AcDbEntity
  8
0
100
AcDbLine
 62
7
  6
BYLAYER
 10
98.4389942591
 20
13.905323741
 11
42.4389942591
 21
13.905323741
  0
LINE
  5
218
100
AcDbEntity
  8
0
100
AcDbLine
 62
7
  6
BYLAYER
 10
98.4389942591
 20
34.905323741
 11
42.4389942591
 21
34.905323741
  0
LINE
  5
219
100
AcDbEntity
  8
0
100
AcDbLine
 62
7
  6
BYLAYER
 10
42.4389942591
 20
55.405323741
 11
98.4389942591
 21
55.405323741
  0
LINE
  5
21A
100
AcDbEntity
  8
0
100
AcDbLine
 62
7
  6
BYLAYER
 10
43.0389942591
 20
55.605323741
 11
97.8389942591
 21
55.605323741
  0
LINE
  5
21B
100
AcDbEntity
  8
0
100
AcDbLine
 62
7
  6
BYLAYER
 10
59.3389942591
 20
67.705323741
 11
60.3389942591
 21
67.705323741
  0
LINE
  5
21C
100
AcDbEntity
  8
0
100
AcDbLine
 62
7
  6
BYLAYER
 10
69.8389942591
 20
67.705323741
 11
70.8389942591
 21
67.705323741
  0
LINE
  5
21D
100
AcDbEntity
  8
0
100
AcDbLine
 62
7
  6
BYLAYER
 10
80.3389942591
 20
67.705323741
 11
81.3389942591
 21
67.705323741
  0
LINE
  5
21E
100
AcDbEntity
  8
0
100
AcDbLine
 62
7
  6
BYLAYER
 10
90.8389942591
 20
67.705323741
 11
91.8389942591
 21
67.705323741
  0
LINE
  5
21F
100
AcDbEntity
  8
0
100
AcDbLine
 62
7
  6
BYLAYER
 10
42.4389942591
 20
55.405323741
 11
42.4389942591
 21
13.905323741
  0
LINE
  5
220
100
AcDbEntity
  8
0
100
AcDbLine
 62
7
  6
BYLAYER
 10
42.4389942591
 20
137.605323741
 11
42.4389942591
 21
179.105323741
  0
LINE
  5
221
100
AcDbEntity
  8
0
100
AcDbLine
 62
7
  6
BYLAYER
 10
43.0389942591
 20
55.405323741
 11
43.0389942591
 21
137.405323741
  0
LINE
  5
222
100
AcDbEntity
  8
0
100
AcDbLine
 62
7
  6
BYLAYER
 10
43.0389942591
 20
137.4188861461
 11
43.0389942591
 21
137.605323741
  0
LINE
  5
223
100
AcDbEntity
  8
0
100
AcDbLine
 62
7
  6
BYLAYER
 10
43.5104516329
 20
122.305323741
 11
43.5104516329
 21
111.205323741
  0
LINE
  5
224
100
AcDbEntity
  8
0
100
AcDbLine
 62
7
  6
BYLAYER
 10
43.5104516329
 20
81.805323741
 11
43.5104516329
 21
70.705323741
  0
LINE
  5
225
100
AcDbEntity
  8
0
100
AcDbLine
 62
7
  6
BYLAYER
 10
43.6389942591
 20
158.105323741
 11
43.6389942591
 21
137.605323741
  0
LINE
  5
226
100
AcDbEntity
  8
0
100
AcDbLine
 62
7
  6
BYLAYER
 10
43.6389942591
 20
55.405323741
 11
43.6389942591
 21
34.905323741
  0
LINE
  5
227
100
AcDbEntity
  8
0
100
AcDbLine
 62
7
  6
BYLAYER
 10
44.1723275925
 20
179.105323741
 11
44.1723275925
 21
158.105323741
  0
LINE
  5
228
100
AcDbEntity
  8
0
100
AcDbLine
 62
7
  6
BYLAYER
 10
44.1723275925
 20
34.905323741
 11
44.1723275925
 21
13.905323741
  0
LINE
  5
229
100
AcDbEntity
  8
0
100
AcDbLine
 62
7
  6
BYLAYER
 10
97.8389942591
 20
70.705323741
 11
43.0389942591
 21
70.705323741
  0
LINE
  5
22A
100
AcDbEntity
  8
0
100
AcDbLine
 62
7
  6
BYLAYER
 10
48.1866147849
 20
81.805323741
 11
48.1866147849
 21
111.205323741
  0
LINE
  5
22B
100
AcDbEntity
  8
0
100
AcDbLine
 62
7
  6
BYLAYER
 10
52.4389942592
 20
111.205323741
 11
52.4389942591
 21
81.805323741
  0
LINE
  5
22C
100
AcDbEntity
  8
0
100
AcDbLine
 62
7
  6
BYLAYER
 10
63.5696829887
 20
76.8328897453
 11
64.779553817
 21
76.8328897453
  0
LINE
  5
22D
100
AcDbEntity
  8
0
100
AcDbLine
 62
7
  6
BYLAYER
 10
65.5861343692
 20
76.8328897453
 11
66.7439677426
 21
76.8328897453
  0
LINE
  5
22E
100
AcDbEntity
  8
0
100
AcDbLine
 62
7
  6
BYLAYER
 10
74.1696829887
 20
76.8328897453
 11
75.379553817
 21
76.8328897453
  0
LINE
  5
22F
100
AcDbEntity
  8
0
100
AcDbLine
 62
7
  6
BYLAYER
 10
76.1861343692
 20
76.8328897453
 11
77.3439677426
 21
76.8328897453
  0
LINE
  5
230
100
AcDbEntity
  8
0
100
AcDbLine
 62
7
  6
BYLAYER
 10
84.7696829887
 20
76.8328897453
 11
85.979553817
 21
76.8328897453
  0
LINE
  5
231
100
AcDbEntity
  8
0
100
AcDbLine
 62
7
  6
BYLAYER
 10
86.7861343692
 20
76.8328897453
 11
87.9439677426
 21
76.8328897453
  0
LINE
  5
232
100
AcDbEntity
  8
0
100
AcDbLine
 62
7
  6
BYLAYER
 10
87.9439677426
 20
77.524998666
 11
86.7861343692
 21
77.524998666
  0
LINE
  5
233
100
AcDbEntity
  8
0
100
AcDbLine
 62
7
  6
BYLAYER
 10
85.979553817
 20
77.524998666
 11
84.7696829887
 21
77.524998666
  0
LINE
  5
234
100
AcDbEntity
  8
0
100
AcDbLine
 62
7
  6
BYLAYER
 10
77.3439677426
 20
77.524998666
 11
76.1861343692
 21
77.524998666
  0
LINE
  5
235
100
AcDbEntity
  8
0
100
AcDbLine
 62
7
  6
BYLAYER
 10
75.379553817
 20
77.524998666
 11
74.1696829887
 21
77.524998666
  0
LINE
  5
236
100
AcDbEntity
  8
0
100
AcDbLine
 62
7
  6
BYLAYER
 10
66.7439677426
 20
77.524998666
 11
65.5861343692
 21
77.524998666
  0
LINE
  5
237
100
AcDbEntity
  8
0
100
AcDbLine
 62
7
  6
BYLAYER
 10
64.779553817
 20
77.524998666
 11
63.5696829887
 21
77.524998666
  0
LINE
  5
238
100
AcDbEntity
  8
0
100
AcDbLine
 62
7
  6
BYLAYER
 10
87.9439677426
 20
77.6389789505
 11
86.7861343692
 21
77.6389789505
  0
LINE
  5
239
100
AcDbEntity
  8
0
100
AcDbLine
 62
7
  6
BYLAYER
 10
85.979553817
 20
77.6389789505
 11
84.7696829887
 21
77.6389789505
  0
LINE
  5
23A
100
AcDbEntity
  8
0
100
AcDbLine
 62
7
  6
BYLAYER
 10
77.3439677426
 20
77.6389789505
 11
76.1861343692
 21
77.6389789505
  0
LINE
  5
23B
100
AcDbEntity
  8
0
100
AcDbLine
 62
7
  6
BYLAYER
 10
75.379553817
 20
77.6389789505
 11
74.1696829887
 21
77.6389789505
  0
LINE
  5
23C
100
AcDbEntity
  8
0
100
AcDbLine
 62
7
  6
BYLAYER
 10
66.7439677426
 20
77.6389789505
 11
65.5861343692
 21
77.6389789505
  0
LINE
  5
23D
100
AcDbEntity
  8
0
100
AcDbLine
 62
7
  6
BYLAYER
 10
64.779553817
 20
77.6389789505
 11
63.5696829887
 21
77.6389789505
  0
LINE
  5
23E
100
AcDbEntity
  8
0
100
AcDbLine
 62
7
  6
BYLAYER
 10
59.3389942591
 20
67.705323741
 11
59.3389942591
 21
70.705323741
  0
LINE
  5
23F
100
AcDbEntity
  8
0
100
AcDbLine
 62
7
  6
BYLAYER
 10
59.3389942591
 20
122.305323741
 11
59.3389942591
 21
125.305323741
  0
LINE
  5
240
100
AcDbEntity
  8
0
100
AcDbLine
 62
7
  6
BYLAYER
 10
43.0389942591
 20
81.805323741
 11
97.8389942591
 21
81.805323741
  0
LINE
  5
241
100
AcDbEntity
  8
0
100
AcDbLine
 62
7
  6
BYLAYER
 10
52.4389942591
 20
84.4524379321
 11
48.186614785
 21
84.4524379321
  0
LINE
  5
242
100
AcDbEntity
  8
0
100
AcDbLine
 62
7
  6
BYLAYER
 10
60.1889942591
 20
55.605323741
 11
60.1889942591
 21
57.8523837399
  0
LINE
  5
243
100
AcDbEntity
  8
0
100
AcDbLine
 62
7
  6
BYLAYER
 10
60.1889942591
 20
135.1582637418
 11
60.1889942591
 21
137.405323741
  0
LINE
  5
244
100
AcDbEntity
  8
0
100
AcDbLine
 62
7
  6
BYLAYER
 10
60.3389942591
 20
125.305323741
 11
60.3389942591
 21
122.305323741
  0
LINE
  5
245
100
AcDbEntity
  8
0
100
AcDbLine
 62
7
  6
BYLAYER
 10
60.3389942591
 20
70.705323741
 11
60.3389942591
 21
67.705323741
  0
LINE
  5
246
100
AcDbEntity
  8
0
100
AcDbLine
 62
7
  6
BYLAYER
 10
62.1773952573
 20
77.1601083806
 11
62.1773952573
 21
76.880912407
  0
LINE
  5
247
100
AcDbEntity
  8
0
100
AcDbLine
 62
7
  6
BYLAYER
 10
62.1773952573
 20
115.8505391014
 11
62.1773952573
 21
116.129735075
  0
LINE
  5
248
100
AcDbEntity
  8
0
100
AcDbLine
 62
7
  6
BYLAYER
 10
63.1889942591
 20
137.405323741
 11
63.1889942591
 21
135.1582637433
  0
LINE
  5
249
100
AcDbEntity
  8
0
100
AcDbLine
 62
7
  6
BYLAYER
 10
63.1889942591
 20
57.8523886128
 11
63.1889942591
 21
55.605323741
  0
LINE
  5
24A
100
AcDbEntity
  8
0
100
AcDbLine
 62
7
  6
BYLAYER
 10
63.5696829887
 20
77.6389789505
 11
63.5696829887
 21
76.8328897453
  0
LINE
  5
24B
100
AcDbEntity
  8
0
100
AcDbLine
 62
7
  6
BYLAYER
 10
63.6340207757
 20
116.3294096712
 11
63.6340207757
 21
115.5233204661
  0
LINE
  5
24C
100
AcDbEntity
  8
0
100
AcDbLine
 62
7
  6
BYLAYER
 10
64.779553817
 20
80.1419273815
 11
64.779553817
 21
77.524998666
  0
LINE
  5
24D
100
AcDbEntity
  8
0
100
AcDbLine
 62
7
  6
BYLAYER
 10
64.779553817
 20
76.8328897453
 11
64.779553817
 21
74.0643090953
  0
LINE
  5
24E
100
AcDbEntity
  8
0
100
AcDbLine
 62
7
  6
BYLAYER
 10
64.791854149
 20
118.9479995146
 11
64.791854149
 21
116.3294096712
  0
LINE
  5
24F
100
AcDbEntity
  8
0
100
AcDbLine
 62
7
  6
BYLAYER
 10
64.791854149
 20
115.6373007505
 11
64.791854149
 21
112.8670589726
  0
LINE
  5
250
100
AcDbEntity
  8
0
100
AcDbLine
 62
7
  6
BYLAYER
 10
65.5861343692
 20
74.0626479674
 11
65.5861343692
 21
76.8328897453
  0
LINE
  5
251
100
AcDbEntity
  8
0
100
AcDbLine
 62
7
  6
BYLAYER
 10
65.5861343692
 20
77.524998666
 11
65.5861343692
 21
80.1435885094
  0
LINE
  5
252
100
AcDbEntity
  8
0
100
AcDbLine
 62
7
  6
BYLAYER
 10
65.5984347013
 20
112.8687201005
 11
65.5984347013
 21
115.6373007505
  0
LINE
  5
253
100
AcDbEntity
  8
0
100
AcDbLine
 62
7
  6
BYLAYER
 10
65.5984347013
 20
116.3294096712
 11
65.5984347013
 21
118.9463383867
  0
LINE
  5
254
100
AcDbEntity
  8
0
100
AcDbLine
 62
7
  6
BYLAYER
 10
66.7439677426
 20
76.8328897453
 11
66.7439677426
 21
77.6389789505
  0
LINE
  5
255
100
AcDbEntity
  8
0
100
AcDbLine
 62
7
  6
BYLAYER
 10
66.8083055296
 20
115.5233204661
 11
66.8083055296
 21
116.3294096712
  0
LINE
  5
256
100
AcDbEntity
  8
0
100
AcDbLine
 62
7
  6
BYLAYER
 10
68.200593261
 20
116.129735075
 11
68.200593261
 21
115.8505391014
  0
LINE
  5
257
100
AcDbEntity
  8
0
100
AcDbLine
 62
7
  6
BYLAYER
 10
68.200593261
 20
76.880912407
 11
68.200593261
 21
77.1601083806
  0
LINE
  5
258
100
AcDbEntity
  8
0
100
AcDbLine
 62
7
  6
BYLAYER
 10
69.8389942591
 20
67.705323741
 11
69.8389942591
 21
70.705323741
  0
LINE
  5
259
100
AcDbEntity
  8
0
100
AcDbLine
 62
7
  6
BYLAYER
 10
69.8389942591
 20
122.305323741
 11
69.8389942591
 21
125.305323741
  0
LINE
  5
25A
100
AcDbEntity
  8
0
100
AcDbLine
 62
7
  6
BYLAYER
 10
70.8389942591
 20
125.305323741
 11
70.8389942591
 21
122.305323741
  0
LINE
  5
25B
100
AcDbEntity
  8
0
100
AcDbLine
 62
7
  6
BYLAYER
 10
70.8389942591
 20
70.705323741
 11
70.8389942591
 21
67.705323741
  0
LINE
  5
25C
100
AcDbEntity
  8
0
100
AcDbLine
 62
7
  6
BYLAYER
 10
72.7773952573
 20
77.1601083806
 11
72.7773952573
 21
76.880912407
  0
LINE
  5
25D
100
AcDbEntity
  8
0
100
AcDbLine
 62
7
  6
BYLAYER
 10
72.7773952573
 20
115.8505391014
 11
72.7773952573
 21
116.129735075
  0
LINE
  5
25E
100
AcDbEntity
  8
0
100
AcDbLine
 62
7
  6
BYLAYER
 10
74.1696829887
 20
77.6389789505
 11
74.1696829887
 21
76.8328897453
  0
LINE
  5
25F
100
AcDbEntity
  8
0
100
AcDbLine
 62
7
  6
BYLAYER
 10
74.2340207757
 20
116.3294096712
 11
74.2340207757
 21
115.5233204661
  0
LINE
  5
260
100
AcDbEntity
  8
0
100
AcDbLine
 62
7
  6
BYLAYER
 10
75.379553817
 20
80.1419273815
 11
75.379553817
 21
77.524998666
  0
LINE
  5
261
100
AcDbEntity
  8
0
100
AcDbLine
 62
7
  6
BYLAYER
 10
75.379553817
 20
76.8328897453
 11
75.379553817
 21
74.0643090953
  0
LINE
  5
262
100
AcDbEntity
  8
0
100
AcDbLine
 62
7
  6
BYLAYER
 10
75.391854149
 20
118.9479995146
 11
75.391854149
 21
116.3294096712
  0
LINE
  5
263
100
AcDbEntity
  8
0
100
AcDbLine
 62
7
  6
BYLAYER
 10
75.391854149
 20
115.6373007505
 11
75.391854149
 21
112.8670589726
  0
LINE
  5
264
100
AcDbEntity
  8
0
100
AcDbLine
 62
7
  6
BYLAYER
 10
76.1861343692
 20
74.0626479674
 11
76.1861343692
 21
76.8328897453
  0
LINE
  5
265
100
AcDbEntity
  8
0
100
AcDbLine
 62
7
  6
BYLAYER
 10
76.1861343692
 20
77.524998666
 11
76.1861343692
 21
80.1435885094
  0
LINE
  5
266
100
AcDbEntity
  8
0
100
AcDbLine
 62
7
  6
BYLAYER
 10
76.1984347013
 20
112.8687201005
 11
76.1984347013
 21
115.6373007505
  0
LINE
  5
267
100
AcDbEntity
  8
0
100
AcDbLine
 62
7
  6
BYLAYER
 10
76.1984347013
 20
116.3294096712
 11
76.1984347013
 21
118.9463383867
  0
LINE
  5
268
100
AcDbEntity
  8
0
100
AcDbLine
 62
7
  6
BYLAYER
 10
92.9167131308
 20
97.905323741
 11
48.186614785
 21
97.905323741
  0
LINE
  5
269
100
AcDbEntity
  8
0
100
AcDbLine
 62
7
  6
BYLAYER
 10
77.3439677426
 20
76.8328897453
 11
77.3439677426
 21
77.6389789505
  0
LINE
  5
26A
100
AcDbEntity
  8
0
100
AcDbLine
 62
7
  6
BYLAYER
 10
77.4083055296
 20
115.5233204661
 11
77.4083055296
 21
116.3294096712
  0
LINE
  5
26B
100
AcDbEntity
  8
0
100
AcDbLine
 62
7
  6
BYLAYER
 10
77.6889942591
 20
55.605323741
 11
77.6889942591
 21
57.8523837387
  0
LINE
  5
26C
100
AcDbEntity
  8
0
100
AcDbLine
 62
7
  6
BYLAYER
 10
77.6889942591
 20
135.1582589785
 11
77.6889942591
 21
137.405323741
  0
LINE
  5
26D
100
AcDbEntity
  8
0
100
AcDbLine
 62
7
  6
BYLAYER
 10
78.800593261
 20
116.129735075
 11
78.800593261
 21
115.8505391014
  0
LINE
  5
26E
100
AcDbEntity
  8
0
100
AcDbLine
 62
7
  6
BYLAYER
 10
78.800593261
 20
76.880912407
 11
78.800593261
 21
77.1601083806
  0
LINE
  5
26F
100
AcDbEntity
  8
0
100
AcDbLine
 62
7
  6
BYLAYER
 10
80.3389942591
 20
67.705323741
 11
80.3389942591
 21
70.705323741
  0
LINE
  5
270
100
AcDbEntity
  8
0
100
AcDbLine
 62
7
  6
BYLAYER
 10
80.3389942591
 20
122.305323741
 11
80.3389942591
 21
125.305323741
  0
LINE
  5
271
100
AcDbEntity
  8
0
100
AcDbLine
 62
7
  6
BYLAYER
 10
80.6889942591
 20
137.405323741
 11
80.6889942591
 21
135.1582637284
  0
LINE
  5
272
100
AcDbEntity
  8
0
100
AcDbLine
 62
7
  6
BYLAYER
 10
80.6889942591
 20
57.8523837538
 11
80.6889942591
 21
55.605323741
  0
LINE
  5
273
100
AcDbEntity
  8
0
100
AcDbLine
 62
7
  6
BYLAYER
 10
81.3389942591
 20
125.305323741
 11
81.3389942591
 21
122.305323741
  0
LINE
  5
274
100
AcDbEntity
  8
0
100
AcDbLine
 62
7
  6
BYLAYER
 10
81.3389942591
 20
70.705323741
 11
81.3389942591
 21
67.705323741
  0
LINE
  5
275
100
AcDbEntity
  8
0
100
AcDbLine
 62
7
  6
BYLAYER
 10
83.3773952573
 20
77.1601083806
 11
83.3773952573
 21
76.880912407
  0
LINE
  5
276
100
AcDbEntity
  8
0
100
AcDbLine
 62
7
  6
BYLAYER
 10
83.3773952573
 20
115.8505391014
 11
83.3773952573
 21
116.129735075
  0
LINE
  5
277
100
AcDbEntity
  8
0
100
AcDbLine
 62
7
  6
BYLAYER
 10
84.7696829887
 20
77.6389789505
 11
84.7696829887
 21
76.8328897453
  0
LINE
  5
278
100
AcDbEntity
  8
0
100
AcDbLine
 62
7
  6
BYLAYER
 10
84.8340207757
 20
116.3294096712
 11
84.8340207757
 21
115.5233204661
  0
LINE
  5
279
100
AcDbEntity
  8
0
100
AcDbLine
 62
7
  6
BYLAYER
 10
85.979553817
 20
80.1419273815
 11
85.979553817
 21
77.524998666
  0
LINE
  5
27A
100
AcDbEntity
  8
0
100
AcDbLine
 62
7
  6
BYLAYER
 10
85.979553817
 20
76.8328897453
 11
85.979553817
 21
74.0643090953
  0
LINE
  5
27B
100
AcDbEntity
  8
0
100
AcDbLine
 62
7
  6
BYLAYER
 10
85.991854149
 20
118.9479995146
 11
85.991854149
 21
116.3294096712
  0
LINE
  5
27C
100
AcDbEntity
  8
0
100
AcDbLine
 62
7
  6
BYLAYER
 10
85.991854149
 20
115.6373007505
 11
85.991854149
 21
112.8670589726
  0
LINE
  5
27D
100
AcDbEntity
  8
0
100
AcDbLine
 62
7
  6
BYLAYER
 10
86.7861343692
 20
74.0626479674
 11
86.7861343692
 21
76.8328897453
  0
LINE
  5
27E
100
AcDbEntity
  8
0
100
AcDbLine
 62
7
  6
BYLAYER
 10
86.7861343692
 20
77.524998666
 11
86.7861343692
 21
80.1435885094
  0
LINE
  5
27F
100
AcDbEntity
  8
0
100
AcDbLine
 62
7
  6
BYLAYER
 10
86.7984347013
 20
112.8687201005
 11
86.7984347013
 21
115.6373007505
  0
LINE
  5
280
100
AcDbEntity
  8
0
100
AcDbLine
 62
7
  6
BYLAYER
 10
86.7984347013
 20
116.3294096712
 11
86.7984347013
 21
118.9463383867
  0
LINE
  5
281
100
AcDbEntity
  8
0
100
AcDbLine
 62
7
  6
BYLAYER
 10
87.9439677426
 20
76.8328897453
 11
87.9439677426
 21
77.6389789505
  0
LINE
  5
282
100
AcDbEntity
  8
0
100
AcDbLine
 62
7
  6
BYLAYER
 10
88.0083055296
 20
115.5233204661
 11
88.0083055296
 21
116.3294096712
  0
LINE
  5
283
100
AcDbEntity
  8
0
100
AcDbLine
 62
7
  6
BYLAYER
 10
43.0389942591
 20
111.205323741
 11
97.8389942591
 21
111.205323741
  0
LINE
  5
284
100
AcDbEntity
  8
0
100
AcDbLine
 62
7
  6
BYLAYER
 10
89.400593261
 20
116.129735075
 11
89.400593261
 21
115.8505391014
  0
LINE
  5
285
100
AcDbEntity
  8
0
100
AcDbLine
 62
7
  6
BYLAYER
 10
89.400593261
 20
76.880912407
 11
89.400593261
 21
77.1601083806
  0
LINE
  5
286
100
AcDbEntity
  8
0
100
AcDbLine
 62
7
  6
BYLAYER
 10
90.8389942591
 20
67.705323741
 11
90.8389942591
 21
70.705323741
  0
LINE
  5
287
100
AcDbEntity
  8
0
100
AcDbLine
 62
7
  6
BYLAYER
 10
90.8389942591
 20
122.305323741
 11
90.8389942591
 21
125.305323741
  0
LINE
  5
288
100
AcDbEntity
  8
0
100
AcDbLine
 62
7
  6
BYLAYER
 10
91.8389942591
 20
125.305323741
 11
91.8389942591
 21
122.305323741
  0
LINE
  5
289
100
AcDbEntity
  8
0
100
AcDbLine
 62
7
  6
BYLAYER
 10
91.8389942591
 20
70.705323741
 11
91.8389942591
 21
67.705323741
  0
LINE
  5
28A
100
AcDbEntity
  8
0
100
AcDbLine
 62
7
  6
BYLAYER
 10
91.9411900756
 20
81.805323741
 11
91.9411900759
 21
111.205323741
  0
LINE
  5
28B
100
AcDbEntity
  8
0
100
AcDbLine
 62
7
  6
BYLAYER
 10
92.9167131308
 20
81.805323741
 11
92.9167131308
 21
111.205323741
  0
LINE
  5
28C
100
AcDbEntity
  8
0
100
AcDbLine
 62
7
  6
BYLAYER
 10
88.0083055296
 20
115.5233204661
 11
86.7984347013
 21
115.5233204661
  0
LINE
  5
28D
100
AcDbEntity
  8
0
100
AcDbLine
 62
7
  6
BYLAYER
 10
85.991854149
 20
115.5233204661
 11
84.8340207757
 21
115.5233204661
  0
LINE
  5
28E
100
AcDbEntity
  8
0
100
AcDbLine
 62
7
  6
BYLAYER
 10
77.4083055296
 20
115.5233204661
 11
76.1984347013
 21
115.5233204661
  0
LINE
  5
28F
100
AcDbEntity
  8
0
100
AcDbLine
 62
7
  6
BYLAYER
 10
75.391854149
 20
115.5233204661
 11
74.2340207757
 21
115.5233204661
  0
LINE
  5
290
100
AcDbEntity
  8
0
100
AcDbLine
 62
7
  6
BYLAYER
 10
66.8083055296
 20
115.5233204661
 11
65.5984347013
 21
115.5233204661
  0
LINE
  5
291
100
AcDbEntity
  8
0
100
AcDbLine
 62
7
  6
BYLAYER
 10
64.791854149
 20
115.5233204661
 11
63.6340207757
 21
115.5233204661
  0
LINE
  5
292
100
AcDbEntity
  8
0
100
AcDbLine
 62
7
  6
BYLAYER
 10
88.0083055296
 20
115.6373007505
 11
86.7984347013
 21
115.6373007505
  0
LINE
  5
293
100
AcDbEntity
  8
0
100
AcDbLine
 62
7
  6
BYLAYER
 10
85.991854149
 20
115.6373007505
 11
84.8340207757
 21
115.6373007505
  0
LINE
  5
294
100
AcDbEntity
  8
0
100
AcDbLine
 62
7
  6
BYLAYER
 10
77.4083055296
 20
115.6373007505
 11
76.1984347013
 21
115.6373007505
  0
LINE
  5
295
100
AcDbEntity
  8
0
100
AcDbLine
 62
7
  6
BYLAYER
 10
75.391854149
 20
115.6373007505
 11
74.2340207757
 21
115.6373007505
  0
LINE
  5
296
100
AcDbEntity
  8
0
100
AcDbLine
 62
7
  6
BYLAYER
 10
66.8083055296
 20
115.6373007505
 11
65.5984347013
 21
115.6373007505
  0
LINE
  5
297
100
AcDbEntity
  8
0
100
AcDbLine
 62
7
  6
BYLAYER
 10
64.791854149
 20
115.6373007505
 11
63.6340207757
 21
115.6373007505
  0
LINE
  5
298
100
AcDbEntity
  8
0
100
AcDbLine
 62
7
  6
BYLAYER
 10
63.6340207757
 20
116.3294096712
 11
64.791854149
 21
116.3294096712
  0
LINE
  5
299
100
AcDbEntity
  8
0
100
AcDbLine
 62
7
  6
BYLAYER
 10
65.5984347013
 20
116.3294096712
 11
66.8083055296
 21
116.3294096712
  0
LINE
  5
29A
100
AcDbEntity
  8
0
100
AcDbLine
 62
7
  6
BYLAYER
 10
74.2340207757
 20
116.3294096712
 11
75.391854149
 21
116.3294096712
  0
LINE
  5
29B
100
AcDbEntity
  8
0
100
AcDbLine
 62
7
  6
BYLAYER
 10
76.1984347013
 20
116.3294096712
 11
77.4083055296
 21
116.3294096712
  0
LINE
  5
29C
100
AcDbEntity
  8
0
100
AcDbLine
 62
7
  6
BYLAYER
 10
84.8340207757
 20
116.3294096712
 11
85.991854149
 21
116.3294096712
  0
LINE
  5
29D
100
AcDbEntity
  8
0
100
AcDbLine
 62
7
  6
BYLAYER
 10
86.7984347013
 20
116.3294096712
 11
88.0083055296
 21
116.3294096712
  0
LINE
  5
29E
100
AcDbEntity
  8
0
100
AcDbLine
 62
7
  6
BYLAYER
 10
96.7056609258
 20
13.905323741
 11
96.7056609258
 21
34.905323741
  0
LINE
  5
29F
100
AcDbEntity
  8
0
100
AcDbLine
 62
7
  6
BYLAYER
 10
96.7056609258
 20
158.105323741
 11
96.7056609258
 21
179.105323741
  0
LINE
  5
2A0
100
AcDbEntity
  8
0
100
AcDbLine
 62
7
  6
BYLAYER
 10
97.3675368869
 20
70.705323741
 11
97.3675368869
 21
81.805323741
  0
LINE
  5
2A1
100
AcDbEntity
  8
0
100
AcDbLine
 62
7
  6
BYLAYER
 10
97.3675368869
 20
111.205323741
 11
97.3675368869
 21
122.305323741
  0
LINE
  5
2A2
100
AcDbEntity
  8
0
100
AcDbLine
 62
7
  6
BYLAYER
 10
97.8389942591
 20
34.905323741
 11
97.8389942591
 21
137.405323741
  0
LINE
  5
2A3
100
AcDbEntity
  8
0
100
AcDbLine
 62
7
  6
BYLAYER
 10
97.8389942591
 20
137.4188861461
 11
97.8389942591
 21
158.105323741
  0
LINE
  5
2A4
100
AcDbEntity
  8
0
100
AcDbLine
 62
7
  6
BYLAYER
 10
98.4389942591
 20
55.405323741
 11
98.4389942591
 21
13.905323741
  0
LINE
  5
2A5
100
AcDbEntity
  8
0
100
AcDbLine
 62
7
  6
BYLAYER
 10
98.4389942591
 20
137.605323741
 11
98.4389942591
 21
179.105323741
  0
LINE
  5
2A6
100
AcDbEntity
  8
0
100
AcDbLine
 62
7
  6
BYLAYER
 10
43.0389942591
 20
122.305323741
 11
97.8389942591
 21
122.305323741
  0
LINE
  5
2A7
100
AcDbEntity
  8
0
100
AcDbLine
 62
7
  6
BYLAYER
 10
91.8389942591
 20
125.305323741
 11
90.8389942591
 21
125.305323741
  0
LINE
  5
2A8
100
AcDbEntity
  8
0
100
AcDbLine
 62
7
  6
BYLAYER
 10
81.3389942591
 20
125.305323741
 11
80.3389942591
 21
125.305323741
  0
LINE
  5
2A9
100
AcDbEntity
  8
0
100
AcDbLine
 62
7
  6
BYLAYER
 10
70.8389942591
 20
125.305323741
 11
69.8389942591
 21
125.305323741
  0
LINE
  5
2AA
100
AcDbEntity
  8
0
100
AcDbLine
 62
7
  6
BYLAYER
 10
60.3389942591
 20
125.305323741
 11
59.3389942591
 21
125.305323741
  0
LINE
  5
2AB
100
AcDbEntity
  8
0
100
AcDbLine
 62
7
  6
BYLAYER
 10
43.0389942591
 20
137.405323741
 11
97.8389942591
 21
137.405323741
  0
LINE
  5
2AC
100
AcDbEntity
  8
0
100
AcDbLine
 62
7
  6
BYLAYER
 10
43.0389942591
 20
137.4188861461
 11
97.8389942591
 21
137.4188861461
  0
LINE
  5
2AD
100
AcDbEntity
  8
0
100
AcDbLine
 62
7
  6
BYLAYER
 10
98.4389942591
 20
137.605323741
 11
42.4389942591
 21
137.605323741
  0
LINE
  5
2AE
100
AcDbEntity
  8
0
100
AcDbLine
 62
7
  6
BYLAYER
 10
42.4389942591
 20
158.105323741
 11
98.4389942591
 21
158.105323741
  0
LINE
  5
2AF
100
AcDbEntity
  8
0
100
AcDbLine
 62
7
  6
BYLAYER
 10
42.4389942591
 20
179.105323741
 11
98.4389942591
 21
179.105323741
  0
CIRCLE
  5
2B0
100
AcDbEntity
  8
0
100
AcDbCircle
 62
7
  6
BYLAYER
 10
65.1389942591
 20
77.205323741
 40
3.25
  0
ARC
  5
2B1
100
AcDbEntity
  8
0
100
AcDbCircle
 62
7
  6
BYLAYER
 10
65.1889942136
 20
77.0425130014
 40
3.0133798595
100
AcDbArc
 50
82.4268272769
 51
97.8091701894
  0
ARC
  5
2B2
100
AcDbEntity
  8
0
100
AcDbCircle
 62
7
  6
BYLAYER
 10
65.1889942136
 20
77.0497431909
 40
3.0133798595
100
AcDbArc
 50
262.1908298106
 51
277.5731727231
  0
ARC
  5
2B3
100
AcDbEntity
  8
0
100
AcDbCircle
 62
7
  6
BYLAYER
 10
65.1902887389
 20
77.1592591579
 40
3.0103839288
100
AcDbArc
 50
0.0161634397
 51
82.4443123959
  0
ARC
  5
2B4
100
AcDbEntity
  8
0
100
AcDbCircle
 62
7
  6
BYLAYER
 10
65.1902887335
 20
77.1609576069
 40
3.0103839288
100
AcDbArc
 50
277.5556876976
 51
359.9838364929
  0
ARC
  5
2B5
100
AcDbEntity
  8
0
100
AcDbCircle
 62
7
  6
BYLAYER
 10
65.1876911209
 20
77.15926443
 40
3.0103741891
100
AcDbArc
 50
97.7917655568
 51
179.9839368583
  0
ARC
  5
2B6
100
AcDbEntity
  8
0
100
AcDbCircle
 62
7
  6
BYLAYER
 10
65.1876911128
 20
77.160952326
 40
3.0103741891
100
AcDbArc
 50
180.0160630415
 51
262.2082345834
  0
ARC
  5
2B7
100
AcDbEntity
  8
0
100
AcDbCircle
 62
7
  6
BYLAYER
 10
65.1863899347
 20
76.8811447746
 40
3.0090055172
100
AcDbArc
 50
180.0044246287
 51
229.5494604918
  0
ARC
  5
2B8
100
AcDbEntity
  8
0
100
AcDbCircle
 62
7
  6
BYLAYER
 10
65.192323629
 20
76.8809524008
 40
3.0082685405
100
AcDbArc
 50
332.1204784385
 51
359.9992382747
  0
ARC
  5
2B9
100
AcDbEntity
  8
0
100
AcDbCircle
 62
7
  6
BYLAYER
 10
59.6889942583
 20
57.8523837383
 40
0.5000000008
100
AcDbArc
 50
0.0
 51
68.0624180926
  0
ARC
  5
2BA
100
AcDbEntity
  8
0
100
AcDbCircle
 62
7
  6
BYLAYER
 10
63.6889942596
 20
57.8523837383
 40
0.5000000004
100
AcDbArc
 50
111.9379664263
 51
179.9994414085
  0
CIRCLE
  5
2BB
100
AcDbEntity
  8
0
100
AcDbCircle
 62
7
  6
BYLAYER
 10
65.1389942591
 20
115.805323741
 40
3.25
  0
ARC
  5
2BC
100
AcDbEntity
  8
0
100
AcDbCircle
 62
7
  6
BYLAYER
 10
65.1889943047
 20
115.9681344806
 40
3.0133798595
100
AcDbArc
 50
262.4268272769
 51
277.8091701894
  0
ARC
  5
2BD
100
AcDbEntity
  8
0
100
AcDbCircle
 62
7
  6
BYLAYER
 10
65.1889943047
 20
115.9609042911
 40
3.0133798595
100
AcDbArc
 50
82.1908298106
 51
97.5731727231
  0
ARC
  5
2BE
100
AcDbEntity
  8
0
100
AcDbCircle
 62
7
  6
BYLAYER
 10
65.1876997847
 20
115.8513883276
 40
3.0103839288
100
AcDbArc
 50
180.0161635059
 51
262.4443123042
  0
ARC
  5
2BF
100
AcDbEntity
  8
0
100
AcDbCircle
 62
7
  6
BYLAYER
 10
65.1876997792
 20
115.8496898788
 40
3.0103839288
100
AcDbArc
 50
97.5556876019
 51
179.9838365619
  0
ARC
  5
2C0
100
AcDbEntity
  8
0
100
AcDbCircle
 62
7
  6
BYLAYER
 10
65.1902977412
 20
115.8513828324
 40
3.0103741891
100
AcDbArc
 50
277.7917596403
 51
359.9839410366
  0
ARC
  5
2C1
100
AcDbEntity
  8
0
100
AcDbCircle
 62
7
  6
BYLAYER
 10
65.1902977459
 20
115.8496953735
 40
3.0103741891
100
AcDbArc
 50
0.0160589044
 51
82.2082404418
  0
ARC
  5
2C2
100
AcDbEntity
  8
0
100
AcDbCircle
 62
7
  6
BYLAYER
 10
65.1863920091
 20
116.1295023032
 40
3.0090076015
100
AcDbArc
 50
130.3620190242
 51
179.9955676784
  0
ARC
  5
2C3
100
AcDbEntity
  8
0
100
AcDbCircle
 62
7
  6
BYLAYER
 10
65.1923220865
 20
116.1296946503
 40
3.0082700682
100
AcDbArc
 50
0.0007699331
 51
27.9008506705
  0
ARC
  5
2C4
100
AcDbEntity
  8
0
100
AcDbCircle
 62
7
  6
BYLAYER
 10
59.6889942583
 20
135.1582637437
 40
0.5000000008
100
AcDbArc
 50
291.935930794
 51
360.0
  0
ARC
  5
2C5
100
AcDbEntity
  8
0
100
AcDbCircle
 62
7
  6
BYLAYER
 10
63.6889942596
 20
135.1582637437
 40
0.5000000004
100
AcDbArc
 50
180.0000012761
 51
248.0612004759
  0
CIRCLE
  5
2C6
100
AcDbEntity
  8
0
100
AcDbCircle
 62
7
  6
BYLAYER
 10
86.3389942591
 20
77.205323741
 40
3.25
  0
CIRCLE
  5
2C7
100
AcDbEntity
  8
0
100
AcDbCircle
 62
7
  6
BYLAYER
 10
75.7389942591
 20
77.205323741
 40
3.25
  0
ARC
  5
2C8
100
AcDbEntity
  8
0
100
AcDbCircle
 62
7
  6
BYLAYER
 10
75.7889942136
 20
77.0425130014
 40
3.0133798595
100
AcDbArc
 50
82.4268272769
 51
97.8091701894
  0
ARC
  5
2C9
100
AcDbEntity
  8
0
100
AcDbCircle
 62
7
  6
BYLAYER
 10
75.7889942136
 20
77.0497431909
 40
3.0133798595
100
AcDbArc
 50
262.1908298106
 51
277.5731727231
  0
ARC
  5
2CA
100
AcDbEntity
  8
0
100
AcDbCircle
 62
7
  6
BYLAYER
 10
86.3889942136
 20
77.0425130014
 40
3.0133798595
100
AcDbArc
 50
82.4268272769
 51
97.8091701895
  0
ARC
  5
2CB
100
AcDbEntity
  8
0
100
AcDbCircle
 62
7
  6
BYLAYER
 10
86.3889942136
 20
77.0497431909
 40
3.0133798595
100
AcDbArc
 50
262.1908298105
 51
277.5731727231
  0
ARC
  5
2CC
100
AcDbEntity
  8
0
100
AcDbCircle
 62
7
  6
BYLAYER
 10
75.7902887389
 20
77.1592591579
 40
3.0103839288
100
AcDbArc
 50
0.0161634397
 51
82.4443123959
  0
ARC
  5
2CD
100
AcDbEntity
  8
0
100
AcDbCircle
 62
7
  6
BYLAYER
 10
75.7902887335
 20
77.1609576069
 40
3.0103839288
100
AcDbArc
 50
277.5556876976
 51
359.9838364929
  0
ARC
  5
2CE
100
AcDbEntity
  8
0
100
AcDbCircle
 62
7
  6
BYLAYER
 10
86.3902887389
 20
77.1592591579
 40
3.0103839288
100
AcDbArc
 50
0.0161634397
 51
82.4443123958
  0
ARC
  5
2CF
100
AcDbEntity
  8
0
100
AcDbCircle
 62
7
  6
BYLAYER
 10
86.3902887335
 20
77.1609576069
 40
3.0103839288
100
AcDbArc
 50
277.5556876976
 51
359.9838364929
  0
ARC
  5
2D0
100
AcDbEntity
  8
0
100
AcDbCircle
 62
7
  6
BYLAYER
 10
75.7876911209
 20
77.15926443
 40
3.0103741891
100
AcDbArc
 50
97.7917655568
 51
179.9839368583
  0
ARC
  5
2D1
100
AcDbEntity
  8
0
100
AcDbCircle
 62
7
  6
BYLAYER
 10
75.7876911128
 20
77.160952326
 40
3.0103741891
100
AcDbArc
 50
180.0160630415
 51
262.2082345834
  0
ARC
  5
2D2
100
AcDbEntity
  8
0
100
AcDbCircle
 62
7
  6
BYLAYER
 10
86.3876911209
 20
77.15926443
 40
3.0103741891
100
AcDbArc
 50
97.7917655568
 51
179.9839368583
  0
ARC
  5
2D3
100
AcDbEntity
  8
0
100
AcDbCircle
 62
7
  6
BYLAYER
 10
86.3876911128
 20
77.160952326
 40
3.0103741891
100
AcDbArc
 50
180.0160630415
 51
262.2082345833
  0
ARC
  5
2D4
100
AcDbEntity
  8
0
100
AcDbCircle
 62
7
  6
BYLAYER
 10
75.7863901405
 20
76.8811448412
 40
3.0090057272
100
AcDbArc
 50
180.0044258952
 51
229.5550370789
  0
ARC
  5
2D5
100
AcDbEntity
  8
0
100
AcDbCircle
 62
7
  6
BYLAYER
 10
86.3863887001
 20
76.8811443761
 40
3.0090042577
100
AcDbArc
 50
180.0044170416
 51
229.5159610573
  0
ARC
  5
2D6
100
AcDbEntity
  8
0
100
AcDbCircle
 62
7
  6
BYLAYER
 10
75.7923236592
 20
76.8809523875
 40
3.0082685077
100
AcDbArc
 50
332.1276460151
 51
359.9992385285
  0
ARC
  5
2D7
100
AcDbEntity
  8
0
100
AcDbCircle
 62
7
  6
BYLAYER
 10
86.3923237946
 20
76.8809523269
 40
3.0082683611
100
AcDbArc
 50
332.1600899869
 51
359.9992396823
  0
ARC
  5
2D8
100
AcDbEntity
  8
0
100
AcDbCircle
 62
7
  6
BYLAYER
 10
80.3579148354
 20
86.0553240936
 40
0.866991262
100
AcDbArc
 50
268.7489370359
 51
91.2510270325
  0
ARC
  5
2D9
100
AcDbEntity
  8
0
100
AcDbCircle
 62
7
  6
BYLAYER
 10
80.3560956551
 20
86.0553234188
 40
0.8669633344
100
AcDbArc
 50
91.1308283949
 51
268.8691338271
  0
ARC
  5
2DA
100
AcDbEntity
  8
0
100
AcDbCircle
 62
7
  6
BYLAYER
 10
81.1889942591
 20
57.8523837383
 40
0.5
100
AcDbArc
 50
111.9383806097
 51
179.9999982381
  0
ARC
  5
2DB
100
AcDbEntity
  8
0
100
AcDbCircle
 62
7
  6
BYLAYER
 10
77.1889942591
 20
57.8523837383
 40
0.5
100
AcDbArc
 50
0.0
 51
68.0609082689
  0
CIRCLE
  5
2DC
100
AcDbEntity
  8
0
100
AcDbCircle
 62
7
  6
BYLAYER
 10
75.7389942591
 20
115.805323741
 40
3.25
  0
CIRCLE
  5
2DD
100
AcDbEntity
  8
0
100
AcDbCircle
 62
7
  6
BYLAYER
 10
86.3389942591
 20
115.805323741
 40
3.25
  0
ARC
  5
2DE
100
AcDbEntity
  8
0
100
AcDbCircle
 62
7
  6
BYLAYER
 10
75.7889943047
 20
115.9681344806
 40
3.0133798595
100
AcDbArc
 50
262.4268272769
 51
277.8091701894
  0
ARC
  5
2DF
100
AcDbEntity
  8
0
100
AcDbCircle
 62
7
  6
BYLAYER
 10
75.7889943047
 20
115.9609042911
 40
3.0133798595
100
AcDbArc
 50
82.1908298106
 51
97.5731727231
  0
ARC
  5
2E0
100
AcDbEntity
  8
0
100
AcDbCircle
 62
7
  6
BYLAYER
 10
86.3889943047
 20
115.9681344806
 40
3.0133798595
100
AcDbArc
 50
262.4268272769
 51
277.8091701895
  0
ARC
  5
2E1
100
AcDbEntity
  8
0
100
AcDbCircle
 62
7
  6
BYLAYER
 10
86.3889943047
 20
115.9609042911
 40
3.0133798595
100
AcDbArc
 50
82.1908298105
 51
97.5731727231
  0
ARC
  5
2E2
100
AcDbEntity
  8
0
100
AcDbCircle
 62
7
  6
BYLAYER
 10
75.7876997847
 20
115.8513883276
 40
3.0103839288
100
AcDbArc
 50
180.0161635059
 51
262.4443123042
  0
ARC
  5
2E3
100
AcDbEntity
  8
0
100
AcDbCircle
 62
7
  6
BYLAYER
 10
75.7876997792
 20
115.8496898788
 40
3.0103839288
100
AcDbArc
 50
97.5556876019
 51
179.9838365619
  0
ARC
  5
2E4
100
AcDbEntity
  8
0
100
AcDbCircle
 62
7
  6
BYLAYER
 10
86.3876997847
 20
115.8513883276
 40
3.0103839288
100
AcDbArc
 50
180.0161635059
 51
262.4443123042
  0
ARC
  5
2E5
100
AcDbEntity
  8
0
100
AcDbCircle
 62
7
  6
BYLAYER
 10
86.3876997792
 20
115.8496898788
 40
3.0103839288
100
AcDbArc
 50
97.555687602
 51
179.9838365619
  0
ARC
  5
2E6
100
AcDbEntity
  8
0
100
AcDbCircle
 62
7
  6
BYLAYER
 10
75.7902977412
 20
115.8513828324
 40
3.0103741891
100
AcDbArc
 50
277.7917596403
 51
359.9839410366
  0
ARC
  5
2E7
100
AcDbEntity
  8
0
100
AcDbCircle
 62
7
  6
BYLAYER
 10
75.7902977459
 20
115.8496953735
 40
3.0103741891
100
AcDbArc
 50
0.0160589044
 51
82.2082404418
  0
ARC
  5
2E8
100
AcDbEntity
  8
0
100
AcDbCircle
 62
7
  6
BYLAYER
 10
86.3902977412
 20
115.8513828324
 40
3.0103741891
100
AcDbArc
 50
277.7917596404
 51
359.9839410366
  0
ARC
  5
2E9
100
AcDbEntity
  8
0
100
AcDbCircle
 62
7
  6
BYLAYER
 10
86.3902977459
 20
115.8496953735
 40
3.0103741891
100
AcDbArc
 50
0.0160589044
 51
82.2082404418
  0
ARC
  5
2EA
100
AcDbEntity
  8
0
100
AcDbCircle
 62
7
  6
BYLAYER
 10
75.7863919595
 20
116.1295023194
 40
3.0090075508
100
AcDbArc
 50
130.363343667
 51
179.9955679868
  0
ARC
  5
2EB
100
AcDbEntity
  8
0
100
AcDbCircle
 62
7
  6
BYLAYER
 10
86.3863915613
 20
116.1295024494
 40
3.0090071442
100
AcDbArc
 50
130.3739832336
 51
179.9955704621
  0
ARC
  5
2EC
100
AcDbEntity
  8
0
100
AcDbCircle
 62
7
  6
BYLAYER
 10
75.7923221072
 20
116.1296946597
 40
3.0082700457
100
AcDbArc
 50
0.0007697525
 51
27.8958224613
  0
ARC
  5
2ED
100
AcDbEntity
  8
0
100
AcDbCircle
 62
7
  6
BYLAYER
 10
86.3923221903
 20
116.1296946982
 40
3.0082699554
100
AcDbArc
 50
0.0007690199
 51
27.8754987294
  0
ARC
  5
2EE
100
AcDbEntity
  8
0
100
AcDbCircle
 62
7
  6
BYLAYER
 10
77.1889942591
 20
135.1582637437
 40
0.5
100
AcDbArc
 50
291.9374161425
 51
360.0
  0
ARC
  5
2EF
100
AcDbEntity
  8
0
100
AcDbCircle
 62
7
  6
BYLAYER
 10
81.1889942591
 20
135.1582637437
 40
0.5
100
AcDbArc
 50
180.0000031494
 51
248.0607929976
  0
SPLINE
  5
2F0
100
AcDbEntity
  8
0
100
AcDbSpline
 62
7
  6
BYLAYER
 70
0
 71
3
 72
13
 73
9
 74
0
 42
0.0000001
 43
0.0000001
 44
0.0000000001
 40
0.0
 40
0.0
 40
0.0
 40
0.0
 40
0.179825568
 40
0.3596565549
 40
0.5394875417
 40
0.7193185286
 40
0.8991495154
 40
1.0
 40
1.0
 40
1.0
 40
1.0
 10
81.002211444
 20
58.3161856159
 30
0.0
 10
81.403193812
 20
58.4777111984
 30
0.0
 10
81.9789204484
 20
58.9107718744
 30
0.0
 10
81.8645606977
 20
59.6640235417
 30
0.0
 10
80.8113324052
 20
60.2562730468
 30
0.0
 10
79.1890008927
 20
60.4798482541
 30
0.0
 10
77.8041729167
 20
60.2890067796
 30
0.0
 10
77.191188489
 20
60.0229997325
 30
0.0
 10
77.0116400173
 20
59.9142013335
 30
0.0
  0
SPLINE
  5
2F1
100
AcDbEntity
  8
0
100
AcDbSpline
 62
7
  6
BYLAYER
 70
0
 71
3
 72
13
 73
9
 74
0
 42
0.0000001
 43
0.0000001
 44
0.0000000001
 40
0.0
 40
0.0
 40
0.0
 40
0.0
 40
0.1797246881
 40
0.3594510481
 40
0.5391774081
 40
0.7189037681
 40
0.8986301281
 40
1.0
 40
1.0
 40
1.0
 40
1.0
 10
77.3757928773
 20
134.6944682319
 30
0.0
 10
76.9747991249
 20
134.5329407517
 30
0.0
 10
76.3990642097
 20
134.0998751012
 30
0.0
 10
76.5134325954
 20
133.3466184387
 30
0.0
 10
77.566667053
 20
132.7543710993
 30
0.0
 10
79.1890008927
 20
132.5307992279
 30
0.0
 10
80.5755662106
 20
132.7218832486
 30
0.0
 10
81.1893338979
 20
132.9887488178
 30
0.0
 10
81.36944109
 20
133.0983238823
 30
0.0
  0
SPLINE
  5
2F2
100
AcDbEntity
  8
0
100
AcDbSpline
 62
7
  6
BYLAYER
 70
0
 71
3
 72
13
 73
9
 74
0
 42
0.0000001
 43
0.0000001
 44
0.0000000001
 40
0.0
 40
0.0
 40
0.0
 40
0.0
 40
0.1798273918
 40
0.3596579524
 40
0.5394885131
 40
0.7193190737
 40
0.8991496344
 40
1.0
 40
1.0
 40
1.0
 40
1.0
 10
59.8757716059
 20
134.6944596633
 30
0.0
 10
59.4747862078
 20
134.5329320473
 30
0.0
 10
58.8990627898
 20
134.0998679606
 30
0.0
 10
59.0134359091
 20
133.3466157811
 30
0.0
 10
60.0666693026
 20
132.7543709193
 30
0.0
 10
61.6889982898
 20
132.5307996451
 30
0.0
 10
63.0738212778
 20
132.7216423898
 30
0.0
 10
63.6868032
 20
132.9876493064
 30
0.0
 10
63.8663510129
 20
133.0964476639
 30
0.0
  0
SPLINE
  5
2F3
100
AcDbEntity
  8
0
100
AcDbSpline
 62
7
  6
BYLAYER
 70
0
 71
3
 72
13
 73
9
 74
0
 42
0.0000001
 43
0.0000001
 44
0.0000000001
 40
0.0
 40
0.0
 40
0.0
 40
0.0
 40
0.1797246453
 40
0.3594506023
 40
0.5391765592
 40
0.7189025162
 40
0.8986284732
 40
1.0
 40
1.0
 40
1.0
 40
1.0
 10
63.5021988697
 20
58.3161805507
 30
0.0
 10
63.9031917649
 20
58.4777081976
 30
0.0
 10
64.478924259
 20
58.9107734437
 30
0.0
 10
64.3645555105
 20
59.6640283581
 30
0.0
 10
63.3113258629
 20
60.2562745358
 30
0.0
 10
61.6889982898
 20
60.4798478369
 30
0.0
 10
60.3024294666
 20
60.2887663972
 30
0.0
 10
59.6886574303
 20
60.0219003745
 30
0.0
 10
59.5085473694
 20
59.9123235802
 30
0.0
  0
SPLINE
  5
2F4
100
AcDbEntity
  8
0
100
AcDbSpline
 62
7
  6
BYLAYER
 70
0
 71
3
 72
10
 73
6
 74
0
 42
0.0000001
 43
0.0000001
 44
0.0000000001
 40
0.0
 40
0.0
 40
0.0
 40
0.0
 40
0.1800572135
 40
0.5900301239
 40
1.0
 40
1.0
 40
1.0
 40
1.0
 10
77.0116400173
 20
59.9142013335
 30
0.0
 10
76.8710276193
 20
59.8289964658
 30
0.0
 10
76.4920529969
 20
59.5232180587
 30
0.0
 10
76.3990641372
 20
58.9107719034
 30
0.0
 10
76.9748002196
 20
58.4777059069
 30
0.0
 10
77.3757951647
 20
58.3161783287
 30
0.0
  0
SPLINE
  5
2F5
100
AcDbEntity
  8
0
100
AcDbSpline
 62
7
  6
BYLAYER
 70
0
 71
3
 72
10
 73
6
 74
0
 42
0.0000001
 43
0.0000001
 44
0.0000000001
 40
0.0
 40
0.0
 40
0.0
 40
0.0
 40
0.1789753785
 40
0.5894913941
 40
1.0
 40
1.0
 40
1.0
 40
1.0
 10
81.36944109
 20
133.0983238823
 30
0.0
 10
81.5086596447
 20
133.1830227881
 30
0.0
 10
81.8860614387
 20
133.4882425505
 30
0.0
 10
81.978920909
 20
134.0998786416
 30
0.0
 10
81.4031868552
 20
134.5329415165
 30
0.0
 10
81.002196908
 20
134.6944677215
 30
0.0
  0
SPLINE
  5
2F6
100
AcDbEntity
  8
0
100
AcDbSpline
 62
7
  6
BYLAYER
 70
0
 71
3
 72
10
 73
6
 74
0
 42
0.0000001
 43
0.0000001
 44
0.0000000001
 40
0.0
 40
0.0
 40
0.0
 40
0.0
 40
0.1800568412
 40
0.5900295273
 40
1.0
 40
1.0
 40
1.0
 40
1.0
 10
63.8663510129
 20
133.0964476639
 30
0.0
 10
64.0069625138
 20
133.1816522681
 30
0.0
 10
64.385935188
 20
133.4874298553
 30
0.0
 10
64.4789243314
 20
134.0998745152
 30
0.0
 10
63.9031906714
 20
134.532940107
 30
0.0
 10
63.5021965849
 20
134.6944678517
 30
0.0
  0
SPLINE
  5
2F7
100
AcDbEntity
  8
0
100
AcDbSpline
 62
7
  6
BYLAYER
 70
0
 71
3
 72
10
 73
6
 74
0
 42
0.0000001
 43
0.0000001
 44
0.0000000001
 40
0.0
 40
0.0
 40
0.0
 40
0.0
 40
0.1789710005
 40
0.5894868357
 40
1.0
 40
1.0
 40
1.0
 40
1.0
 10
59.5085473694
 20
59.9123235802
 30
0.0
 10
59.3693325265
 20
59.8276269446
 30
0.0
 10
58.9919323451
 20
59.5224109554
 30
0.0
 10
58.8990623661
 20
58.9107767305
 30
0.0
 10
59.4747926072
 20
58.477710621
 30
0.0
 10
59.8757849775
 20
58.3161824323
 30
0.0
  0
ENDSEC
  0
SECTION
  2
OBJECTS
  0
DICTIONARY
  5
C
100
AcDbDictionary
280
0
281
1
  3
ACAD_GROUP
350
D
  3
ACAD_MLINESTYLE
350
17
  3
ACAD_LAYOUT
350
1A
  3
ACAD_PLOTSETTINGS
350
19
  3
ACAD_PLOTSTYLENAME
350
E
  0
DICTIONARY
  5
D
102
{ACAD_REACTORS
330
C
102
}
100
AcDbDictionary
280
0
281
1
  0
ACDBDICTIONARYWDFLT
  5
E
102
{ACAD_REACTORS
330
C
102
}
100
AcDbDictionary
281
1
  3
Normal
350
F
100
AcDbDictionaryWithDefault
340
F
  0
DICTIONARY
  5
17
102
{ACAD_REACTORS
330
C
102
}
100
AcDbDictionary
280
0
281
1
  3
Standard
350
18
  0
DICTIONARY
  5
19
102
{ACAD_REACTORS
330
C
102
}
100
AcDbDictionary
281
1
  0
DICTIONARY
  5
1A
102
{ACAD_REACTORS
330
C
102
}
100
AcDbDictionary
281
1
  3
Model
350
2F8
  3
Layout1
350
2F9
  0
ACDBPLACEHOLDER
  5
F
102
{ACAD_REACTORS
330
E
102
}
  0
MLINESTYLE
  5
18
102
{ACAD_REACTORS
330
17
102
}
100
AcDbMlineStyle
  2
STANDARD
 70
0
  3

 62
256
 51
90.0
 52
90.0
 71
2
 49
0.5
 62
256
  6
BYLAYER
 49
-0.5
 62
256
  6
BYLAYER
  0
LAYOUT
  5
2F8
102
{ACAD_REACTORS
330
1A
102
}
100
AcDbPlotSettings
  1

  2
none_device
  4

  6

 40
0.0
 41
0.0
 42
0.0
 43
0.0
 44
210.0
 45
297.0
 46
0.0
 47
0.0
 48
0.0
 49
0.0
140
0.0
141
0.0
142
1.0
143
1.0
 70
1024
 72
1
 73
0
 74
0
  7

 75
0
147
1.0
148
0.0
149
0.0
100
AcDbLayout
  1
Model
 70
0
 71
0
 10
0.0
 20
0.0
 11
210.0
 21
297.0
 12
0.0
 22
0.0
 32
0.0
 14
0.0
 24
0.0
 34
0.0
 15
0.0
 25
0.0
 35
0.0
146
0.0
 13
0.0
 23
0.0
 33
0.0
 16
1.0
 26
0.0
 36
0.0
 17
0.0
 27
1.0
 37
0.0
 76
0
330
210
345
0
346
0
  0
LAYOUT
  5
2F9
102
{ACAD_REACTORS
330
1A
102
}
100
AcDbPlotSettings
  1

  2
none_device
  4

  6

 40
0.0
 41
0.0
 42
0.0
 43
0.0
 44
210.0
 45
297.0
 46
0.0
 47
0.0
 48
0.0
 49
0.0
140
0.0
141
0.0
142
1.0
143
1.0
 70
0
 72
1
 73
0
 74
0
  7

 75
0
147
1.0
148
0.0
149
0.0
100
AcDbLayout
  1
Layout1
 70
0
 71
1
 10
0.0
 20
0.0
 11
210.0
 21
297.0
 12
0.0
 22
0.0
 32
0.0
 14
0.0
 24
0.0
 34
0.0
 15
0.0
 25
0.0
 35
0.0
146
0.0
 13
0.0
 23
0.0
 33
0.0
 16
1.0
 26
0.0
 36
0.0
 17
0.0
 27
1.0
 37
0.0
 76
0
330
211
345
0
346
0
  0
ENDSEC
  0
EOF
