999
DXF file: C:\Users\sesa63760\Dev\_Creo\CAD\MCADPD0004030_3D-CAD\drw0001_7.dxf
999
Pro/ENGINEER 2019471 by Parametric Technology Corporation
  0
SECTION
  2
HEADER
  9
$ACADVER
  1
AC1024
  9
$DWGCODEPAGE
  3
ANSI_1252
  9
$EXTMAX
 10
85.982477632
 20
121.6037897938
 30
0.0
  9
$EXTMIN
 10
0.0
 20
0.0
 30
0.0
  9
$LIMMIN
 10
0.0
 20
0.0
  9
$LIMMAX
 10
85.982477632
 20
121.6037897938
  9
$VIEWCTR
 10
42.991238816
 20
60.8018948969
  9
$VIEWSIZE
 40
121.6037897938
  9
$CLAYER
  8
0
  9
$LTSCALE
 40
7.9267655569
  9
$CELTYPE
  6
BYLAYER
  9
$DIMSCALE
 40
1.0
  9
$DIMASZ
 40
1.0236009242
  9
$DIMEXO
 40
1.0
  9
$DIMDLI
 40
5.4766743848
  9
$DIMEXE
 40
1.0
  9
$DIMCEN
 40
1.2971070911
  9
$DIMLFAC
 40
1.0
  9
$DIMBLK
  1
_FILLED
  9
$DIMALT
 70
0
  9
$DIMALTF
 40
0.0393700787
  9
$DIMTXT
 40
1.4330412939
  9
$DIMTOL
 70
1
  9
$DIMLIM
 70
0
  9
$DIMTFAC
 40
1.0
  9
$DIMTP
 40
0.01
  9
$DIMTM
 40
0.01
  9
$DIMGAP
 40
0.625
  9
$DIMDSEP
 70
46
  9
$AUNITS
 70
0
  9
$PDMODE
 70
3
  9
$PDSIZE
 40
0.3125
  9
$HANDSEED
  5
287
  9
$TILEMODE
 70
1
  9
$MEASUREMENT
 70
1
  9
$INSUNITS
 70
4
  0
ENDSEC
  0
SECTION
  2
CLASSES
  0
CLASS
  1
ACDBDICTIONARYWDFLT
  2
AcDbDictionaryWithDefault
  3
AutoCAD 2000
 90
0
 91
1
280
0
281
0
  0
CLASS
  1
ACDBPLACEHOLDER
  2
AcDbPlaceHolder
  3
AutoCAD 2000
 90
0
 91
1
280
0
281
0
  0
CLASS
  1
LAYOUT
  2
AcDbLayout
  3
AutoCAD 2000
 90
0
 91
0
280
0
281
0
  0
ENDSEC
  0
SECTION
  2
TABLES
  0
TABLE
  2
VPORT
  5
8
100
AcDbSymbolTable
 70
2
  0
VPORT
  5
1F4
100
AcDbSymbolTableRecord
100
AcDbViewportTableRecord
  2
*ACTIVE
 70
0
 10
0.0
 20
0.0
 11
1.0
 21
1.0
 12
42.991238816
 22
60.8018948969
 13
0.0
 23
0.0
 14
1.0
 24
1.0
 15
0.0
 25
0.0
 16
0.0
 26
0.0
 36
1.0
 17
0.0
 27
0.0
 37
0.0
 40
121.6037897938
 41
0.7070707071
 42
50.0
 43
0.0
 44
0.0
 50
0.0
 51
0.0
 71
0
 72
100
 73
1
 74
1
 75
0
 76
0
 77
0
 78
0
  0
ENDTAB
  0
TABLE
  2
LTYPE
  5
5
100
AcDbSymbolTable
 70
6
  0
LTYPE
  5
14
100
AcDbSymbolTableRecord
100
AcDbLinetypeTableRecord
  2
BYBLOCK
 70
0
  3

 72
65
 73
0
 40
0.0
  0
LTYPE
  5
15
100
AcDbSymbolTableRecord
100
AcDbLinetypeTableRecord
  2
BYLAYER
 70
0
  3

 72
65
 73
0
 40
0.0
  0
LTYPE
  5
16
100
AcDbSymbolTableRecord
100
AcDbLinetypeTableRecord
  2
CONTINUOUS
 70
64
  3
Solid line
 72
65
 73
0
 40
0.0
  0
LTYPE
  5
1F5
100
AcDbSymbolTableRecord
100
AcDbLinetypeTableRecord
  2
CENTER
 70
64
  3
____ _ ____ _ ____ _ ____ _ ____ _ ____ _ ____
 72
65
 73
4
 40
0.6
 49
0.375
 74
0
 49
-0.075
 74
0
 49
0.075
 74
0
 49
-0.075
 74
0
  0
LTYPE
  5
1F6
100
AcDbSymbolTableRecord
100
AcDbLinetypeTableRecord
  2
HIDDEN
 70
64
  3
- - - - - - - - - - - - - - - - - - - -
 72
65
 73
2
 40
0.2
 49
0.1
 74
0
 49
-0.1
 74
0
  0
LTYPE
  5
1F7
100
AcDbSymbolTableRecord
100
AcDbLinetypeTableRecord
  2
PHANTOM
 70
64
  3
_____ _ _ _____ _ _ _____ _ _ _____
 72
65
 73
6
 40
0.8
 49
0.45
 74
0
 49
-0.05
 74
0
 49
0.1
 74
0
 49
-0.05
 74
0
 49
0.1
 74
0
 49
-0.05
 74
0
  0
LTYPE
  5
1F8
100
AcDbSymbolTableRecord
100
AcDbLinetypeTableRecord
  2
DOT
 70
64
  3
. . . . . . . . . . . . . . . . . . . .
 72
65
 73
2
 40
0.2
 49
0.1
 74
0
 49
-0.1
 74
0
  0
LTYPE
  5
1F9
100
AcDbSymbolTableRecord
100
AcDbLinetypeTableRecord
  2
DASHED
 70
64
  3
- - - - - - - - - - - - - - - - - - - -
 72
65
 73
2
 40
0.2
 49
0.1
 74
0
 49
-0.1
 74
0
  0
ENDTAB
  0
TABLE
  2
LAYER
  5
2
100
AcDbSymbolTable
 70
36
  0
LAYER
  5
10
100
AcDbSymbolTableRecord
100
AcDbLayerTableRecord
  2
0
 70
0
 62
7
  6
CONTINUOUS
370
-3
390
F
  0
LAYER
  5
1FA
100
AcDbSymbolTableRecord
100
AcDbLayerTableRecord
  2
DEFAULT_1
 70
0
 62
7
  6
CENTER
370
-3
390
F
  0
LAYER
  5
1FB
100
AcDbSymbolTableRecord
100
AcDbLayerTableRecord
  2
DEFAULT_2
 70
0
 62
7
  6
HIDDEN
370
-3
390
F
  0
LAYER
  5
1FC
100
AcDbSymbolTableRecord
100
AcDbLayerTableRecord
  2
DEFAULT_3
 70
0
 62
7
  6
PHANTOM
370
-3
390
F
  0
LAYER
  5
1FD
100
AcDbSymbolTableRecord
100
AcDbLayerTableRecord
  2
00_COMPONENTS
 70
0
 62
7
  6
CONTINUOUS
370
-3
390
F
  0
LAYER
  5
1FE
100
AcDbSymbolTableRecord
100
AcDbLayerTableRecord
  2
01_1_DEFAULT_DATUMS
 70
0
 62
7
  6
CONTINUOUS
370
-3
390
F
  0
LAYER
  5
1FF
100
AcDbSymbolTableRecord
100
AcDbLayerTableRecord
  2
01_PLANES
 70
0
 62
7
  6
CONTINUOUS
370
-3
390
F
  0
LAYER
  5
200
100
AcDbSymbolTableRecord
100
AcDbLayerTableRecord
  2
02_COORD_SYS
 70
0
 62
7
  6
CONTINUOUS
370
-3
390
F
  0
LAYER
  5
201
100
AcDbSymbolTableRecord
100
AcDbLayerTableRecord
  2
03_AXES
 70
0
 62
7
  6
CONTINUOUS
370
-3
390
F
  0
LAYER
  5
202
100
AcDbSymbolTableRecord
100
AcDbLayerTableRecord
  2
04_POINTS
 70
0
 62
7
  6
CONTINUOUS
370
-3
390
F
  0
LAYER
  5
203
100
AcDbSymbolTableRecord
100
AcDbLayerTableRecord
  2
05_CURVES
 70
0
 62
7
  6
CONTINUOUS
370
-3
390
F
  0
LAYER
  5
204
100
AcDbSymbolTableRecord
100
AcDbLayerTableRecord
  2
06_SURFS
 70
0
 62
7
  6
CONTINUOUS
370
-3
390
F
  0
LAYER
  5
205
100
AcDbSymbolTableRecord
100
AcDbLayerTableRecord
  2
07_COSMETICS
 70
0
 62
7
  6
CONTINUOUS
370
-3
390
F
  0
LAYER
  5
206
100
AcDbSymbolTableRecord
100
AcDbLayerTableRecord
  2
10_NOTES
 70
0
 62
7
  6
CONTINUOUS
370
-3
390
F
  0
LAYER
  5
207
100
AcDbSymbolTableRecord
100
AcDbLayerTableRecord
  2
11_NOTES_PUB
 70
0
 62
7
  6
CONTINUOUS
370
-3
390
F
  0
LAYER
  5
208
100
AcDbSymbolTableRecord
100
AcDbLayerTableRecord
  2
13_REF_GTOL
 70
0
 62
7
  6
CONTINUOUS
370
-3
390
F
  0
LAYER
  5
209
100
AcDbSymbolTableRecord
100
AcDbLayerTableRecord
  2
16_MISC
 70
0
 62
7
  6
CONTINUOUS
370
-3
390
F
  0
LAYER
  5
20A
100
AcDbSymbolTableRecord
100
AcDbLayerTableRecord
  2
17_NO_PRINT
 70
0
 62
7
  6
CONTINUOUS
370
-3
390
F
  0
LAYER
  5
20B
100
AcDbSymbolTableRecord
100
AcDbLayerTableRecord
  2
18_DATUM_CAMS_JOINTS
 70
0
 62
7
  6
CONTINUOUS
370
-3
390
F
  0
LAYER
  5
20C
100
AcDbSymbolTableRecord
100
AcDbLayerTableRecord
  2
19_DATUM_FUNCTIONAL
 70
0
 62
7
  6
CONTINUOUS
370
-3
390
F
  0
LAYER
  5
20D
100
AcDbSymbolTableRecord
100
AcDbLayerTableRecord
  2
20_DATUM_KINEMATIC_SCHEME
 70
0
 62
7
  6
CONTINUOUS
370
-3
390
F
  0
ENDTAB
  0
TABLE
  2
STYLE
  5
3
100
AcDbSymbolTable
 70
1
  0
STYLE
  5
11
100
AcDbSymbolTableRecord
100
AcDbTextStyleTableRecord
  2
STANDARD
 70
0
 40
0.0
 41
1.0
 50
0.0
 71
0
 42
0.2
  3
ARIAL.TTF
  4

  0
STYLE
  5
20E
100
AcDbSymbolTableRecord
100
AcDbTextStyleTableRecord
  2
TEXTSTYLE_1
 70
0
 40
0.0
 41
0.8
 50
0.0
 71
0
 42
0.2
  3
gdt
  4

  0
ENDTAB
  0
TABLE
  2
VIEW
  5
6
100
AcDbSymbolTable
 70
0
  0
ENDTAB
  0
TABLE
  2
UCS
  5
7
100
AcDbSymbolTable
 70
0
  0
ENDTAB
  0
TABLE
  2
APPID
  5
9
100
AcDbSymbolTable
 70
1
  0
APPID
  5
20F
100
AcDbSymbolTableRecord
100
AcDbRegAppTableRecord
  2
ACAD
 70
0
  0
ENDTAB
  0
TABLE
  2
BLOCK_RECORD
  5
1
100
AcDbSymbolTable
 70
0
  0
BLOCK_RECORD
  5
210
100
AcDbSymbolTableRecord
100
AcDbBlockTableRecord
  2
*Model_Space
  0
BLOCK_RECORD
  5
211
100
AcDbSymbolTableRecord
100
AcDbBlockTableRecord
  2
*Paper_Space
  0
BLOCK_RECORD
  5
212
100
AcDbSymbolTableRecord
100
AcDbBlockTableRecord
  2
_FILLED
  0
ENDTAB
  0
TABLE
  2
DIMSTYLE
  5
A
100
AcDbSymbolTable
 70
1
100
AcDbDimStyleTable
 71
0
  0
DIMSTYLE
105
213
100
AcDbSymbolTableRecord
100
AcDbDimStyleTableRecord
  2
STANDARD
 70
0
  3

  4

 40
1.0
 41
1.0236009242
 42
1.0
 43
0.38
 44
1.0
 45
0.0
 46
0.0
 47
0.01
 48
0.01
140
1.4330412939
141
0.09
142
0.0
143
25.4
144
1.0
145
0.0
146
1.0
147
0.625
 71
1
 72
0
 73
0
 74
0
 75
0
 76
0
 77
1
 78
8
 79
2
170
0
171
1
172
0
173
0
174
0
175
0
176
0
177
0
178
0
270
2
179
2
271
2
272
2
273
2
274
2
275
0
280
0
281
0
282
0
283
1
284
8
285
0
286
0
287
3
288
0
340
11
278
46
341
212
342
212
343
212
344
212
  0
ENDTAB
  0
ENDSEC
  0
SECTION
  2
BLOCKS
  0
BLOCK
  5
20
100
AcDbEntity
  8
0
100
AcDbBlockBegin
  2
*Model_Space
 70
0
 10
0.0
 20
0.0
 30
0.0
  3
*Model_Space
  1

  0
ENDBLK
  5
21
100
AcDbEntity
  8
0
100
AcDbBlockEnd
  0
BLOCK
  5
1C
100
AcDbEntity
  8
0
100
AcDbBlockBegin
  2
*Paper_Space
 70
0
 10
0.0
 20
0.0
 30
0.0
  3
*Paper_Space
  1

  0
ENDBLK
  5
1D
100
AcDbEntity
  8
0
100
AcDbBlockEnd
  0
BLOCK
  5
214
100
AcDbEntity
  8
0
100
AcDbBlockBegin
  2
_FILLED
 70
64
 10
0.0
 20
0.0
  3
_FILLED
  1

  0
SOLID
  5
215
100
AcDbEntity
  8
0
  6
BYBLOCK
 62
0
100
AcDbTrace
 10
0.0
 20
0.0
 11
-1.0
 21
0.25
 12
-1.0
 22
-0.25
 13
-1.0
 23
-0.25
  0
ENDBLK
  5
216
100
AcDbEntity
  8
0
  6
BYBLOCK
 62
0
100
AcDbBlockEnd
  0
ENDSEC
  0
SECTION
  2
ENTITIES
  0
LINE
  5
217
100
AcDbEntity
  8
0
100
AcDbLine
 62
7
  6
BYLAYER
 10
12.1296683399
 20
20.5892226561
 11
74.1510133851
 21
20.5892226561
  0
LINE
  5
218
100
AcDbEntity
  8
0
100
AcDbLine
 62
7
  6
BYLAYER
 10
12.8219167221
 20
21.2814553619
 11
73.4586671345
 21
21.2814553619
  0
LINE
  5
219
100
AcDbEntity
  8
0
100
AcDbLine
 62
7
  6
BYLAYER
 10
9.1297184275
 20
98.61161984
 11
9.1297184275
 21
23.5875874384
  0
LINE
  5
21A
100
AcDbEntity
  8
0
100
AcDbLine
 62
7
  6
BYLAYER
 10
9.8223730798
 20
24.2798201609
 11
9.8223730798
 21
97.9193871578
  0
LINE
  5
21B
100
AcDbEntity
  8
0
100
AcDbLine
 62
7
  6
BYLAYER
 10
41.9920770482
 20
28.3381012341
 11
50.9646572355
 21
28.2600772593
  0
LINE
  5
21C
100
AcDbEntity
  8
0
100
AcDbLine
 62
7
  6
BYLAYER
 10
45.2319518955
 20
30.7384847906
 11
45.2194699312
 21
30.7384880816
  0
LINE
  5
21D
100
AcDbEntity
  8
0
100
AcDbLine
 62
7
  6
BYLAYER
 10
38.4371737243
 20
30.3690896624
 11
52.4497475057
 21
30.2472387921
  0
LINE
  5
21E
100
AcDbEntity
  8
0
100
AcDbLine
 62
7
  6
BYLAYER
 10
16.9778550552
 20
56.854513248
 11
17.0636612892
 21
48.9532349856
  0
LINE
  5
21F
100
AcDbEntity
  8
0
100
AcDbLine
 62
7
  6
BYLAYER
 10
17.0811136957
 20
48.9532349799
 11
16.9953074616
 21
56.8545132481
  0
LINE
  5
220
100
AcDbEntity
  8
0
100
AcDbLine
 62
7
  6
BYLAYER
 10
18.3132068757
 20
48.9668089235
 11
18.2274006416
 21
56.868087188
  0
LINE
  5
221
100
AcDbEntity
  8
0
100
AcDbLine
 62
7
  6
BYLAYER
 10
16.6957304858
 20
39.0982737336
 11
16.6957304858
 21
45.189302784
  0
LINE
  5
222
100
AcDbEntity
  8
0
100
AcDbLine
 62
7
  6
BYLAYER
 10
16.7413724682
 20
39.0982737336
 11
16.7413724682
 21
45.189302784
  0
LINE
  5
223
100
AcDbEntity
  8
0
100
AcDbLine
 62
7
  6
BYLAYER
 10
16.9440647159
 20
44.9645852074
 11
16.9440647159
 21
39.3111640693
  0
LINE
  5
224
100
AcDbEntity
  8
0
100
AcDbLine
 62
7
  6
BYLAYER
 10
23.6490889286
 20
39.0982737336
 11
16.6957304858
 21
39.0982737336
  0
LINE
  5
225
100
AcDbEntity
  8
0
100
AcDbLine
 62
7
  6
BYLAYER
 10
16.9440647159
 20
39.3111640693
 11
23.4839266903
 21
39.3111640693
  0
LINE
  5
226
100
AcDbEntity
  8
0
100
AcDbLine
 62
7
  6
BYLAYER
 10
23.4362310171
 20
39.3111640693
 11
23.4362310171
 21
44.9645852074
  0
LINE
  5
227
100
AcDbEntity
  8
0
100
AcDbLine
 62
7
  6
BYLAYER
 10
23.4839266903
 20
39.3111640693
 11
23.4839266903
 21
44.9645852074
  0
LINE
  5
228
100
AcDbEntity
  8
0
100
AcDbLine
 62
7
  6
BYLAYER
 10
23.6490889286
 20
45.189302784
 11
23.6490889286
 21
39.0982737336
  0
LINE
  5
229
100
AcDbEntity
  8
0
100
AcDbLine
 62
7
  6
BYLAYER
 10
23.4839266903
 20
44.9645852074
 11
16.9440647159
 21
44.9645852074
  0
LINE
  5
22A
100
AcDbEntity
  8
0
100
AcDbLine
 62
7
  6
BYLAYER
 10
16.6957304858
 20
45.189302784
 11
23.6490889286
 21
45.189302784
  0
LINE
  5
22B
100
AcDbEntity
  8
0
100
AcDbLine
 62
7
  6
BYLAYER
 10
30.4409791886
 20
36.3508485972
 11
30.7521255225
 21
72.1319714735
  0
LINE
  5
22C
100
AcDbEntity
  8
0
100
AcDbLine
 62
7
  6
BYLAYER
 10
17.0636612892
 20
48.9532349856
 11
17.0811136981
 21
48.9532347547
  0
LINE
  5
22D
100
AcDbEntity
  8
0
100
AcDbLine
 62
7
  6
BYLAYER
 10
18.3132068753
 20
48.9668089589
 11
18.3306592826
 21
48.96680888
  0
LINE
  5
22E
100
AcDbEntity
  8
0
100
AcDbLine
 62
7
  6
BYLAYER
 10
73.4586671345
 20
100.9177018238
 11
74.1508998403
 21
101.6099345296
  0
LINE
  5
22F
100
AcDbEntity
  8
0
100
AcDbLine
 62
7
  6
BYLAYER
 10
18.3129276713
 20
48.9925188381
 11
18.3080753618
 21
48.9915108312
  0
LINE
  5
230
100
AcDbEntity
  8
0
100
AcDbLine
 62
7
  6
BYLAYER
 10
18.3180759467
 20
48.9600474887
 11
18.3131460484
 21
48.9592690119
  0
LINE
  5
231
100
AcDbEntity
  8
0
100
AcDbLine
 62
7
  6
BYLAYER
 10
18.2267986583
 20
56.8746704474
 11
18.2313525085
 21
56.8740529705
  0
LINE
  5
232
100
AcDbEntity
  8
0
100
AcDbLine
 62
7
  6
BYLAYER
 10
18.2231530268
 20
56.8476678011
 11
18.2276325112
 21
56.8467359845
  0
LINE
  5
233
100
AcDbEntity
  8
0
100
AcDbLine
 62
7
  6
BYLAYER
 10
74.1508998403
 20
20.5892226561
 11
73.4586671345
 21
21.2814553619
  0
LINE
  5
234
100
AcDbEntity
  8
0
100
AcDbLine
 62
7
  6
BYLAYER
 10
36.7760308494
 20
75.7789120763
 11
36.4005372477
 21
32.5979993107
  0
LINE
  5
235
100
AcDbEntity
  8
0
100
AcDbLine
 62
7
  6
BYLAYER
 10
36.9722088329
 20
32.2897777032
 11
37.3529471695
 21
76.0738230848
  0
LINE
  5
236
100
AcDbEntity
  8
0
100
AcDbLine
 62
7
  6
BYLAYER
 10
38.4494545718
 20
31.7813592759
 11
38.4371737243
 21
30.3690896624
  0
LINE
  5
237
100
AcDbEntity
  8
0
100
AcDbLine
 62
7
  6
BYLAYER
 10
16.9778550557
 20
56.8545132006
 11
16.995307461
 21
56.8545133063
  0
LINE
  5
238
100
AcDbEntity
  8
0
100
AcDbLine
 62
7
  6
BYLAYER
 10
18.2274006442
 20
56.8680869435
 11
18.2448530481
 21
56.8680871855
  0
LINE
  5
239
100
AcDbEntity
  8
0
100
AcDbLine
 62
7
  6
BYLAYER
 10
41.9920089476
 20
28.3381018263
 11
42.0093999374
 21
30.3380262133
  0
LINE
  5
23A
100
AcDbEntity
  8
0
100
AcDbLine
 62
7
  6
BYLAYER
 10
76.45821022
 20
97.9172449788
 11
77.1504429258
 21
98.6094776846
  0
LINE
  5
23B
100
AcDbEntity
  8
0
100
AcDbLine
 62
7
  6
BYLAYER
 10
77.1504429258
 20
23.5896795011
 11
76.45821022
 21
24.2819122069
  0
LINE
  5
23C
100
AcDbEntity
  8
0
100
AcDbLine
 62
7
  6
BYLAYER
 10
45.8163285219
 20
30.3049218337
 11
45.7989375324
 21
28.3049974468
  0
LINE
  5
23D
100
AcDbEntity
  8
0
100
AcDbLine
 62
7
  6
BYLAYER
 10
9.8223730798
 20
24.2800849663
 11
9.1297184275
 21
23.5878522605
  0
LINE
  5
23E
100
AcDbEntity
  8
0
100
AcDbLine
 62
7
  6
BYLAYER
 10
9.1297184275
 20
98.6113049252
 11
9.8223730798
 21
97.9190722194
  0
LINE
  5
23F
100
AcDbEntity
  8
0
100
AcDbLine
 62
7
  6
BYLAYER
 10
50.1871565034
 20
30.2669138845
 11
50.1697655137
 21
28.2669894975
  0
LINE
  5
240
100
AcDbEntity
  8
0
100
AcDbLine
 62
7
  6
BYLAYER
 10
12.1292620698
 20
20.5892226561
 11
12.8219167221
 21
21.2814553619
  0
LINE
  5
241
100
AcDbEntity
  8
0
100
AcDbLine
 62
7
  6
BYLAYER
 10
12.8219167221
 20
100.9177018238
 11
12.1292620698
 21
101.6099345296
  0
LINE
  5
242
100
AcDbEntity
  8
0
100
AcDbLine
 62
7
  6
BYLAYER
 10
50.7281122124
 20
28.2621342131
 11
50.7455032022
 21
30.2620586
  0
LINE
  5
243
100
AcDbEntity
  8
0
100
AcDbLine
 62
7
  6
BYLAYER
 10
50.9820482253
 20
30.2600016462
 11
50.9646572355
 21
28.2600772593
  0
LINE
  5
244
100
AcDbEntity
  8
0
100
AcDbLine
 62
7
  6
BYLAYER
 10
52.4636472067
 20
31.8456728886
 11
52.4497475057
 21
30.2472387921
  0
LINE
  5
245
100
AcDbEntity
  8
0
100
AcDbLine
 62
7
  6
BYLAYER
 10
54.3265706937
 20
75.6893216874
 11
53.9499530149
 21
32.3791426057
  0
LINE
  5
246
100
AcDbEntity
  8
0
100
AcDbLine
 62
7
  6
BYLAYER
 10
54.5256623272
 20
32.5352504488
 11
54.8995071229
 21
75.5265542627
  0
LINE
  5
247
100
AcDbEntity
  8
0
100
AcDbLine
 62
7
  6
BYLAYER
 10
60.8597073641
 20
71.8475537443
 11
60.548955569
 21
36.1118019409
  0
LINE
  5
248
100
AcDbEntity
  8
0
100
AcDbLine
 62
7
  6
BYLAYER
 10
76.45821022
 20
24.2819122069
 11
76.45821022
 21
97.9172449788
  0
LINE
  5
249
100
AcDbEntity
  8
0
100
AcDbLine
 62
7
  6
BYLAYER
 10
77.1504429258
 20
98.6094776846
 11
77.1504429258
 21
23.5896795011
  0
LINE
  5
24A
100
AcDbEntity
  8
0
100
AcDbLine
 62
7
  6
BYLAYER
 10
12.8222726666
 20
100.9177018238
 11
73.4587806793
 21
100.9177018238
  0
LINE
  5
24B
100
AcDbEntity
  8
0
100
AcDbLine
 62
7
  6
BYLAYER
 10
12.1292620698
 20
101.6099345296
 11
74.1508998403
 21
101.6099345296
  0
ARC
  5
24C
100
AcDbEntity
  8
0
100
AcDbCircle
 62
7
  6
BYLAYER
 10
39.5373155475
 20
22.5418461164
 40
55.1668036716
100
AcDbArc
 50
73.8312063154
 51
74.4498032254
  0
ARC
  5
24D
100
AcDbEntity
  8
0
100
AcDbCircle
 62
7
  6
BYLAYER
 10
17.6918068828
 20
52.9054468446
 40
4.155217667
100
AcDbArc
 50
90.6362138273
 51
100.4816419044
  0
ARC
  5
24E
100
AcDbEntity
  8
0
100
AcDbCircle
 62
7
  6
BYLAYER
 10
17.6458447356
 20
52.9069976475
 40
4.153609575
100
AcDbArc
 50
90.0043281801
 51
99.8764158644
  0
ARC
  5
24F
100
AcDbEntity
  8
0
100
AcDbCircle
 62
7
  6
BYLAYER
 10
17.691487691
 20
52.9133485816
 40
4.1526881512
100
AcDbArc
 50
260.7016749282
 51
269.3676084472
  0
ARC
  5
250
100
AcDbEntity
  8
0
100
AcDbCircle
 62
7
  6
BYLAYER
 10
17.6456103851
 20
52.9131032292
 40
4.1523882695
100
AcDbArc
 50
261.2634308754
 51
269.9989041126
  0
ARC
  5
251
100
AcDbEntity
  8
0
100
AcDbCircle
 62
7
  6
BYLAYER
 10
17.69172351
 20
52.9118476185
 40
4.1512547978
100
AcDbArc
 50
224.1000441034
 51
260.6951156521
  0
ARC
  5
252
100
AcDbEntity
  8
0
100
AcDbCircle
 62
7
  6
BYLAYER
 10
17.6916986662
 20
52.9095183195
 40
4.151207195
100
AcDbArc
 50
100.4903963043
 51
136.6080183304
  0
ARC
  5
253
100
AcDbEntity
  8
0
100
AcDbCircle
 62
7
  6
BYLAYER
 10
17.691534756
 20
52.9099536941
 40
4.1507676238
100
AcDbArc
 50
136.610831092
 51
179.6511059914
  0
ARC
  5
254
100
AcDbEntity
  8
0
100
AcDbCircle
 62
7
  6
BYLAYER
 10
17.6915292482
 20
52.9113740152
 40
4.1507628925
100
AcDbArc
 50
180.3508411705
 51
223.8840768744
  0
ARC
  5
255
100
AcDbEntity
  8
0
100
AcDbCircle
 62
7
  6
BYLAYER
 10
17.6460145629
 20
52.9109168486
 40
4.1498060699
100
AcDbArc
 50
99.8880074337
 51
179.5181455035
  0
ARC
  5
256
100
AcDbEntity
  8
0
100
AcDbCircle
 62
7
  6
BYLAYER
 10
17.6459951514
 20
52.9103903546
 40
4.149785369
100
AcDbArc
 50
180.4789800554
 51
261.2524906966
  0
ARC
  5
257
100
AcDbEntity
  8
0
100
AcDbCircle
 62
7
  6
BYLAYER
 10
17.6451934541
 20
52.910320351
 40
4.1496515697
100
AcDbArc
 50
270.004660162
 51
0.0047045867
  0
ARC
  5
258
100
AcDbEntity
  8
0
100
AcDbCircle
 62
7
  6
BYLAYER
 10
17.6451952816
 20
52.9110044995
 40
4.1496501563
100
AcDbArc
 50
359.9952584172
 51
89.9953650006
  0
ARC
  5
259
100
AcDbEntity
  8
0
100
AcDbCircle
 62
7
  6
BYLAYER
 10
17.6870234367
 20
52.9075477442
 40
4.14487904
100
AcDbArc
 50
223.8891316902
 51
224.1025736685
  0
ARC
  5
25A
100
AcDbEntity
  8
0
100
AcDbCircle
 62
7
  6
BYLAYER
 10
17.610096188
 20
52.9106555885
 40
4.1139339831
100
AcDbArc
 50
179.5103000212
 51
180.486988346
  0
ARC
  5
25B
100
AcDbEntity
  8
0
100
AcDbCircle
 62
7
  6
BYLAYER
 10
17.6446544163
 20
52.9106647253
 40
4.1038966387
100
AcDbArc
 50
179.6569764567
 51
180.344946032
  0
ARC
  5
25C
100
AcDbEntity
  8
0
100
AcDbCircle
 62
7
  6
BYLAYER
 10
17.691593587
 20
52.9114421486
 40
4.0007478721
100
AcDbArc
 50
279.0090941779
 51
320.6074170348
  0
ARC
  5
25D
100
AcDbEntity
  8
0
100
AcDbCircle
 62
7
  6
BYLAYER
 10
17.6915931494
 20
52.9098822067
 40
4.0007465418
100
AcDbArc
 50
39.3485081293
 51
82.2463190554
  0
ARC
  5
25E
100
AcDbEntity
  8
0
100
AcDbCircle
 62
7
  6
BYLAYER
 10
17.6915229363
 20
52.9103459684
 40
4.0002985731
100
AcDbArc
 50
82.3102475453
 51
90.0008680356
  0
ARC
  5
25F
100
AcDbEntity
  8
0
100
AcDbCircle
 62
7
  6
BYLAYER
 10
17.6918572436
 20
52.9103334621
 40
4.0002589473
100
AcDbArc
 50
0.0047116364
 51
39.0575721459
  0
ARC
  5
260
100
AcDbEntity
  8
0
100
AcDbCircle
 62
7
  6
BYLAYER
 10
17.6915456732
 20
52.9108534576
 40
4.0001758284
100
AcDbArc
 50
269.9988062935
 51
278.9396049322
  0
ARC
  5
261
100
AcDbEntity
  8
0
100
AcDbCircle
 62
7
  6
BYLAYER
 10
17.6919742379
 20
52.9109464066
 40
4.0001372951
100
AcDbArc
 50
321.0317936131
 51
359.9959323283
  0
ARC
  5
262
100
AcDbEntity
  8
0
100
AcDbCircle
 62
7
  6
BYLAYER
 10
17.6460008131
 20
52.9109156491
 40
3.9998238896
100
AcDbArc
 50
99.6160470737
 51
180.0036464926
  0
ARC
  5
263
100
AcDbEntity
  8
0
100
AcDbCircle
 62
7
  6
BYLAYER
 10
17.6450612308
 20
52.9104064266
 40
3.9998238889
100
AcDbArc
 50
279.6160457064
 51
0.0036478593
  0
ARC
  5
264
100
AcDbEntity
  8
0
100
AcDbCircle
 62
7
  6
BYLAYER
 10
17.6450703976
 20
52.9109312469
 40
3.9998070421
100
AcDbArc
 50
359.9961300673
 51
81.6285080576
  0
ARC
  5
265
100
AcDbEntity
  8
0
100
AcDbCircle
 62
7
  6
BYLAYER
 10
17.6459915002
 20
52.9103908964
 40
3.999807037
100
AcDbArc
 50
179.9961296689
 51
261.6285084624
  0
ARC
  5
266
100
AcDbEntity
  8
0
100
AcDbCircle
 62
7
  6
BYLAYER
 10
17.663049988
 20
52.9111380016
 40
3.9995110221
100
AcDbArc
 50
90.0009543166
 51
99.6108837641
  0
ARC
  5
267
100
AcDbEntity
  8
0
100
AcDbCircle
 62
7
  6
BYLAYER
 10
17.6629201826
 20
52.910154512
 40
3.999481364
100
AcDbArc
 50
270.0009052295
 51
279.3628353391
  0
ARC
  5
268
100
AcDbEntity
  8
0
100
AcDbCircle
 62
7
  6
BYLAYER
 10
17.6630114222
 20
52.9097547352
 40
3.9990815869
100
AcDbArc
 50
261.633311782
 51
269.9995981094
  0
ARC
  5
269
100
AcDbEntity
  8
0
100
AcDbCircle
 62
7
  6
BYLAYER
 10
17.6629568962
 20
52.9115907388
 40
3.9990582845
100
AcDbArc
 50
81.8819492488
 51
89.999620668
  0
ARC
  5
26A
100
AcDbEntity
  8
0
100
AcDbCircle
 62
7
  6
BYLAYER
 10
17.6964620052
 20
52.9073631799
 40
3.9943941668
100
AcDbArc
 50
320.6083156131
 51
321.031271967
  0
ARC
  5
26B
100
AcDbEntity
  8
0
100
AcDbCircle
 62
7
  6
BYLAYER
 10
17.6965897708
 20
52.9140698788
 40
3.9942250766
100
AcDbArc
 50
39.0587282241
 51
39.3474996208
  0
ARC
  5
26C
100
AcDbEntity
  8
0
100
AcDbCircle
 62
7
  6
BYLAYER
 10
17.6641837178
 20
52.9023755874
 40
3.9916005117
100
AcDbArc
 50
279.363105481
 51
279.611666213
  0
ARC
  5
26D
100
AcDbEntity
  8
0
100
AcDbCircle
 62
7
  6
BYLAYER
 10
17.6640304437
 20
52.9189813806
 40
3.9915901037
100
AcDbArc
 50
81.6330949173
 51
81.8822239023
  0
ARC
  5
26E
100
AcDbEntity
  8
0
100
AcDbCircle
 62
7
  6
BYLAYER
 10
12.1285124964
 20
23.5880165331
 40
2.9987766463
100
AcDbArc
 50
180.0081983995
 51
270.0220838616
  0
ARC
  5
26F
100
AcDbEntity
  8
0
100
AcDbCircle
 62
7
  6
BYLAYER
 10
12.8211671456
 20
24.2802492358
 40
2.9987766434
100
AcDbArc
 50
180.008198022
 51
270.02208445
  0
ARC
  5
270
100
AcDbEntity
  8
0
100
AcDbCircle
 62
7
  6
BYLAYER
 10
39.7357834409
 20
85.9391371611
 40
55.4140382345
100
AcDbArc
 50
284.8629868526
 51
285.4797444891
  0
ARC
  5
271
100
AcDbEntity
  8
0
100
AcDbCircle
 62
7
  6
BYLAYER
 10
12.821179537
 20
97.9188955255
 40
2.9987897634
100
AcDbArc
 50
89.9791144527
 51
179.9906067777
  0
ARC
  5
272
100
AcDbEntity
  8
0
100
AcDbCircle
 62
7
  6
BYLAYER
 10
12.1285248831
 20
98.6111282329
 40
2.998789762
100
AcDbArc
 50
89.9791139048
 51
179.9906072602
  0
ARC
  5
273
100
AcDbEntity
  8
0
100
AcDbCircle
 62
7
  6
BYLAYER
 10
43.8734571099
 20
45.7740757609
 40
15.1477233237
100
AcDbArc
 50
240.4399045391
 51
242.8966855133
  0
ARC
  5
274
100
AcDbEntity
  8
0
100
AcDbCircle
 62
7
  6
BYLAYER
 10
74.1503567502
 20
23.5892393695
 40
3.0000363121
100
AcDbArc
 50
270.0125407317
 51
0.0105769408
  0
ARC
  5
275
100
AcDbEntity
  8
0
100
AcDbCircle
 62
7
  6
BYLAYER
 10
73.4581240602
 20
24.2814720901
 40
3.0000363117
100
AcDbArc
 50
270.0125401136
 51
0.0105766696
  0
ARC
  5
276
100
AcDbEntity
  8
0
100
AcDbCircle
 62
7
  6
BYLAYER
 10
43.9437887345
 20
62.4688154123
 40
15.1173882104
100
AcDbArc
 50
115.8475119239
 51
118.3033678595
  0
ARC
  5
277
100
AcDbEntity
  8
0
100
AcDbCircle
 62
7
  6
BYLAYER
 10
73.4581240444
 20
97.9176851104
 40
3.0000363121
100
AcDbArc
 50
359.9894230598
 51
89.9874592689
  0
ARC
  5
278
100
AcDbEntity
  8
0
100
AcDbCircle
 62
7
  6
BYLAYER
 10
74.150356766
 20
98.6099178014
 40
3.0000363117
100
AcDbArc
 50
359.9894233301
 51
89.9874598862
  0
SPLINE
  5
279
100
AcDbEntity
  8
0
100
AcDbSpline
 62
7
  6
BYLAYER
 70
0
 71
3
 72
23
 73
19
 74
0
 42
0.0000001
 43
0.0000001
 44
0.0000000001
 40
0.0
 40
0.0
 40
0.0
 40
0.0
 40
0.0624983302
 40
0.1250122809
 40
0.1875130744
 40
0.2500172117
 40
0.312520346
 40
0.3750221797
 40
0.4375237083
 40
0.5000243028
 40
0.5625238107
 40
0.6250223573
 40
0.6875200602
 40
0.7500169526
 40
0.8125132384
 40
0.8750091642
 40
0.9375047349
 40
1.0
 40
1.0
 40
1.0
 40
1.0
 10
69.1204022294
 20
54.1106610856
 30
0.0
 10
69.1204022294
 20
54.8751274193
 30
0.0
 10
69.0451996139
 20
56.4053077235
 30
0.0
 10
68.7082662029
 20
58.6775914807
 30
0.0
 10
68.1500760874
 20
60.9061768028
 30
0.0
 10
67.3762862502
 20
63.0691659004
 30
0.0
 10
66.3941869545
 20
65.1459177262
 30
0.0
 10
65.213306242
 20
67.1163892853
 30
0.0
 10
63.845029523
 20
68.9616344335
 30
0.0
 10
62.3024589354
 20
70.6638269566
 30
0.0
 10
60.6005061972
 20
72.2066042137
 30
0.0
 10
58.7555748631
 20
73.5751346158
 30
0.0
 10
56.7854021549
 20
74.7562037086
 30
0.0
 10
54.7089490941
 20
75.7384127343
 30
0.0
 10
52.5462611158
 20
76.5123600643
 30
0.0
 10
50.3180788944
 20
77.0705938692
 30
0.0
 10
48.0461385063
 20
77.407667024
 30
0.0
 10
46.5162144307
 20
77.4828051797
 30
0.0
 10
45.751785589
 20
77.4828051574
 30
0.0
  0
SPLINE
  5
27A
100
AcDbEntity
  8
0
100
AcDbSpline
 62
7
  6
BYLAYER
 70
0
 71
3
 72
21
 73
17
 74
0
 42
0.0000001
 43
0.0000001
 44
0.0000000001
 40
0.0
 40
0.0
 40
0.0
 40
0.0
 40
0.0039439608
 40
0.0102273731
 40
0.0188212993
 40
0.0296954728
 40
0.0581050719
 40
0.0950143915
 40
0.1399330516
 40
0.19231705
 40
0.2516181159
 40
0.3172855139
 40
0.4654642781
 40
0.632203374
 40
0.8123484212
 40
1.0
 40
1.0
 40
1.0
 40
1.0
 10
36.9721155192
 20
32.2897798395
 30
0.0
 10
36.9819793691
 20
32.2847295029
 30
0.0
 10
37.0081371287
 20
32.2727930542
 30
0.0
 10
37.0566740705
 20
32.2518113409
 30
0.0
 10
37.1235462324
 20
32.2241662308
 30
0.0
 10
37.2483828419
 20
32.1740394825
 30
0.0
 10
37.4482115038
 20
32.0971848788
 30
0.0
 10
37.7391957497
 20
31.9909932548
 30
0.0
 10
38.0957726892
 20
31.8682002809
 30
0.0
 10
38.5146851468
 20
31.7334493408
 30
0.0
 10
38.9923887836
 20
31.591437035
 30
0.0
 10
39.7332265978
 20
31.3907263746
 30
0.0
 10
40.7765155716
 20
31.153343746
 30
0.0
 10
42.1495408748
 20
30.9249257454
 30
0.0
 10
43.6448561906
 20
30.7735451002
 30
0.0
 10
44.678630501
 20
30.7384790685
 30
0.0
 10
45.20588629
 20
30.73850837
 30
0.0
  0
SPLINE
  5
27B
100
AcDbEntity
  8
0
100
AcDbSpline
 62
7
  6
BYLAYER
 70
0
 71
3
 72
21
 73
17
 74
0
 42
0.0000001
 43
0.0000001
 44
0.0000000001
 40
0.0
 40
0.0
 40
0.0
 40
0.0
 40
0.0039030244
 40
0.0102949222
 40
0.0191505577
 40
0.0304417956
 40
0.0601444623
 40
0.0989644972
 40
0.1463156787
 40
0.2014997807
 40
0.2637146346
 40
0.3320970546
 40
0.483744607
 40
0.6493852173
 40
0.8230235094
 40
1.0
 40
1.0
 40
1.0
 40
1.0
 10
36.4003488934
 20
32.5980079313
 30
0.0
 10
36.3923508775
 20
32.6025405914
 30
0.0
 10
36.3706558952
 20
32.6134076391
 30
0.0
 10
36.3300474525
 20
32.633025049
 30
0.0
 10
36.2734718007
 20
32.6596171115
 30
0.0
 10
36.1670317355
 20
32.709177145
 30
0.0
 10
35.9965472204
 20
32.7884031041
 30
0.0
 10
35.7497824788
 20
32.9050129605
 30
0.0
 10
35.4502605131
 20
33.050426794
 30
0.0
 10
35.1035521674
 20
33.2247457125
 30
0.0
 10
34.7158689677
 20
33.4277341008
 30
0.0
 10
34.1327648613
 20
33.7470894142
 30
0.0
 10
33.3502553631
 20
34.2091007618
 30
0.0
 10
32.3824767694
 20
34.842770569
 30
0.0
 10
31.3994768494
 20
35.5593970956
 30
0.0
 10
30.757749105
 20
36.0798904789
 30
0.0
 10
30.4409791886
 20
36.3508485972
 30
0.0
  0
SPLINE
  5
27C
100
AcDbEntity
  8
0
100
AcDbSpline
 62
7
  6
BYLAYER
 70
0
 71
3
 72
21
 73
17
 74
0
 42
0.0000001
 43
0.0000001
 44
0.0000000001
 40
0.0
 40
0.0
 40
0.0
 40
0.0
 40
0.003902012
 40
0.0102990612
 40
0.0191596496
 40
0.0304499796
 40
0.0601368161
 40
0.0989446259
 40
0.1462957069
 40
0.2014825559
 40
0.2637020357
 40
0.3320904888
 40
0.4837317929
 40
0.6493738815
 40
0.8230231393
 40
1.0
 40
1.0
 40
1.0
 40
1.0
 10
36.7759356694
 20
75.7789142231
 30
0.0
 10
36.7678435346
 20
75.7745587274
 30
0.0
 10
36.7459243453
 20
75.7641361482
 30
0.0
 10
36.7049222335
 20
75.7453137946
 30
0.0
 10
36.6478369265
 20
75.7197966965
 30
0.0
 10
36.5405324774
 20
75.6722334586
 30
0.0
 10
36.3687225855
 20
75.596137703
 30
0.0
 10
36.1200026449
 20
75.483983819
 30
0.0
 10
35.8179917071
 20
75.3439431924
 30
0.0
 10
35.4682596814
 20
75.1758201215
 30
0.0
 10
35.0770673387
 20
74.9797031008
 30
0.0
 10
34.4884982768
 20
74.6706534604
 30
0.0
 10
33.6980067118
 20
74.2226054798
 30
0.0
 10
32.7194576266
 20
73.6058781951
 30
0.0
 10
31.7241275375
 20
72.9066324094
 30
0.0
 10
31.0735281585
 20
72.3973556094
 30
0.0
 10
30.7521255225
 20
72.1319714735
 30
0.0
  0
SPLINE
  5
27D
100
AcDbEntity
  8
0
100
AcDbSpline
 62
7
  6
BYLAYER
 70
0
 71
3
 72
21
 73
17
 74
0
 42
0.0000001
 43
0.0000001
 44
0.0000000001
 40
0.0
 40
0.0
 40
0.0
 40
0.0
 40
0.1896578484
 40
0.3705466997
 40
0.537208404
 40
0.6848410414
 40
0.750143603
 40
0.8090585977
 40
0.8610567693
 40
0.9056156341
 40
0.9422190106
 40
0.9704063522
 40
0.9812069092
 40
0.9897583904
 40
0.9960319998
 40
1.0
 40
1.0
 40
1.0
 40
1.0
 10
45.2062565525
 20
77.4828340629
 30
0.0
 10
44.69907089
 20
77.482857513
 30
0.0
 10
43.707833187
 20
77.450470648
 30
0.0
 10
42.2770692192
 20
77.3112449305
 30
0.0
 10
40.9685956985
 20
77.1026724264
 30
0.0
 10
39.9761396041
 20
76.8869106626
 30
0.0
 10
39.2722234234
 20
76.7049956191
 30
0.0
 10
38.8187782278
 20
76.5765764132
 30
0.0
 10
38.4212028434
 20
76.4548467349
 30
0.0
 10
38.0827727788
 20
76.3440024812
 30
0.0
 10
37.8064787417
 20
76.2481856974
 30
0.0
 10
37.6166039893
 20
76.1787885644
 30
0.0
 10
37.4978161145
 20
76.1334941905
 30
0.0
 10
37.4340258798
 20
76.1084422002
 30
0.0
 10
37.3875388592
 20
76.0893565045
 30
0.0
 10
37.3623985348
 20
76.0784560889
 30
0.0
 10
37.3528490869
 20
76.0738292823
 30
0.0
  0
SPLINE
  5
27E
100
AcDbEntity
  8
0
100
AcDbSpline
 62
7
  6
BYLAYER
 70
0
 71
3
 72
15
 73
11
 74
0
 42
0.0000001
 43
0.0000001
 44
0.0000000001
 40
0.0
 40
0.0
 40
0.0
 40
0.0
 40
0.1249906469
 40
0.249983573
 40
0.3749794655
 40
0.4999785971
 40
0.6249802254
 40
0.7499860783
 40
0.874989467
 40
1.0
 40
1.0
 40
1.0
 40
1.0
 10
52.4983501742
 20
31.7337240652
 30
0.0
 10
53.688416648
 20
32.0926154306
 30
0.0
 10
56.015406003
 20
33.0025060012
 30
0.0
 10
59.2410333133
 20
34.903712905
 30
0.0
 10
62.1241114682
 20
37.2942836972
 30
0.0
 10
64.5900385438
 20
40.112988263
 30
0.0
 10
66.5763930159
 20
43.2880546601
 30
0.0
 10
68.0324178763
 20
46.7389400605
 30
0.0
 10
68.9212322062
 20
50.3765544356
 30
0.0
 10
69.1204022294
 20
52.8674584058
 30
0.0
 10
69.1204022294
 20
54.1106610856
 30
0.0
  0
SPLINE
  5
27F
100
AcDbEntity
  8
0
100
AcDbSpline
 62
7
  6
BYLAYER
 70
0
 71
3
 72
22
 73
18
 74
0
 42
0.0000001
 43
0.0000001
 44
0.0000000001
 40
0.0
 40
0.0
 40
0.0
 40
0.0
 40
0.0036720392
 40
0.0098452796
 40
0.0184983599
 40
0.0296007392
 40
0.0431123155
 40
0.0589825644
 40
0.0975517204
 40
0.1447314141
 40
0.1998201321
 40
0.2620141542
 40
0.3304375565
 40
0.4823128816
 40
0.6483717378
 40
0.8224956363
 40
1.0
 40
1.0
 40
1.0
 40
1.0
 10
54.8996955441
 20
75.5265526242
 30
0.0
 10
54.9079612333
 20
75.5241465008
 30
0.0
 10
54.9296832223
 20
75.5162717281
 30
0.0
 10
54.9701739748
 20
75.5007733792
 30
0.0
 10
55.0265881935
 20
75.4781113178
 30
0.0
 10
55.0986811041
 20
75.4483616976
 30
0.0
 10
55.1861030976
 20
75.4114020261
 30
0.0
 10
55.3323629622
 20
75.3482636588
 30
0.0
 10
55.5499714288
 20
75.2512666274
 30
0.0
 10
55.8494461574
 20
75.1121839635
 30
0.0
 10
56.1963234057
 20
74.9437949433
 30
0.0
 10
56.5843479751
 20
74.7462806977
 30
0.0
 10
57.1682730057
 20
74.4337096775
 30
0.0
 10
57.9519834212
 20
73.9788522948
 30
0.0
 10
58.9204687059
 20
73.3511866396
 30
0.0
 10
59.9033906025
 20
72.6382915617
 30
0.0
 10
60.5438800906
 20
72.1185308848
 30
0.0
 10
60.8597073641
 20
71.8475537443
 30
0.0
  0
SPLINE
  5
280
100
AcDbEntity
  8
0
100
AcDbSpline
 62
7
  6
BYLAYER
 70
0
 71
3
 72
23
 73
19
 74
0
 42
0.0000001
 43
0.0000001
 44
0.0000000001
 40
0.0
 40
0.0
 40
0.0
 40
0.0
 40
0.1848460297
 40
0.3638025923
 40
0.5305708626
 40
0.6076520185
 40
0.6796642701
 40
0.7459904349
 40
0.8060117126
 40
0.8591084652
 40
0.904658146
 40
0.9420411398
 40
0.9574922322
 40
0.9706962942
 40
0.9815891857
 40
0.9901242669
 40
0.9962706894
 40
1.0
 40
1.0
 40
1.0
 40
1.0
 10
45.20588629
 20
30.73850837
 30
0.0
 10
45.7569839288
 20
30.7385389966
 30
0.0
 10
46.8420125299
 20
30.7769334586
 30
0.0
 10
48.4163574191
 20
30.9418252191
 30
0.0
 10
49.6597861247
 20
31.1542136709
 30
0.0
 10
50.5800744535
 20
31.3543776257
 30
0.0
 10
51.2037654703
 20
31.5079807191
 30
0.0
 10
51.7743499067
 20
31.6636612763
 30
0.0
 10
52.2872264317
 20
31.8160325059
 30
0.0
 10
52.7380209687
 20
31.9595046476
 30
0.0
 10
53.1224482322
 20
32.0887437582
 30
0.0
 10
53.399337472
 20
32.1855518455
 30
0.0
 10
53.5848184523
 20
32.2515861245
 30
0.0
 10
53.6958162789
 20
32.2913604795
 30
0.0
 10
53.7874311401
 20
32.3240919738
 30
0.0
 10
53.859327976
 20
32.3494983995
 30
0.0
 10
53.9112712951
 20
32.3672035239
 30
0.0
 10
53.9392977396
 20
32.3763010047
 30
0.0
 10
53.9500472255
 20
32.3791417865
 30
0.0
  0
SPLINE
  5
281
100
AcDbEntity
  8
0
100
AcDbSpline
 62
7
  6
BYLAYER
 70
0
 71
3
 72
23
 73
19
 74
0
 42
0.0000001
 43
0.0000001
 44
0.0000000001
 40
0.0
 40
0.0
 40
0.0
 40
0.0
 40
0.0037090912
 40
0.0098727065
 40
0.0184611182
 40
0.0294412636
 40
0.0427607995
 40
0.0583531209
 40
0.0960857657
 40
0.1420402474
 40
0.1955680744
 40
0.2560186329
 40
0.3227472977
 40
0.3951045152
 40
0.4724406157
 40
0.6392818059
 40
0.8173924651
 40
1.0
 40
1.0
 40
1.0
 40
1.0
 10
54.3266649043
 20
75.6893208681
 30
0.0
 10
54.3155254745
 20
75.6924080649
 30
0.0
 10
54.2863896761
 20
75.7023796141
 30
0.0
 10
54.2322493448
 20
75.721803546
 30
0.0
 10
54.1570814729
 20
75.7497699537
 30
0.0
 10
54.061148069
 20
75.7858452993
 30
0.0
 10
53.944810631
 20
75.8296858539
 30
0.0
 10
53.750290818
 20
75.9024846144
 30
0.0
 10
53.4598674845
 20
76.009197977
 30
0.0
 10
53.0565837322
 20
76.1514711652
 30
0.0
 10
52.5837618724
 20
76.3092653836
 30
0.0
 10
52.0459679198
 20
76.4765690224
 30
0.0
 10
51.447924405
 20
76.6472208753
 30
0.0
 10
50.794624031
 20
76.815261629
 30
0.0
 10
49.8324737913
 20
77.0334878251
 30
0.0
 10
48.5357252706
 20
77.2639568611
 30
0.0
 10
46.8999537583
 20
77.441630581
 30
0.0
 10
45.7753494316
 20
77.4828077505
 30
0.0
 10
45.2062565525
 20
77.4828340629
 30
0.0
  0
SPLINE
  5
282
100
AcDbEntity
  8
0
100
AcDbSpline
 62
7
  6
BYLAYER
 70
0
 71
3
 72
21
 73
17
 74
0
 42
0.0000001
 43
0.0000001
 44
0.0000000001
 40
0.0
 40
0.0
 40
0.0
 40
0.0
 40
0.0036819141
 40
0.0098728282
 40
0.0185427075
 40
0.0296590654
 40
0.0590493197
 40
0.0976296184
 40
0.1448231057
 40
0.199922519
 40
0.2621197281
 40
0.3305470055
 40
0.482432445
 40
0.6484599671
 40
0.8225591772
 40
1.0
 40
1.0
 40
1.0
 40
1.0
 10
54.5257565377
 20
32.5352496295
 30
0.0
 10
54.5340738822
 20
32.5375626302
 30
0.0
 10
54.5559817782
 20
32.5451054564
 30
0.0
 10
54.5968171806
 20
32.559998971
 30
0.0
 10
54.6536906534
 20
32.5818199358
 30
0.0
 10
54.7609752491
 20
32.6240638114
 30
0.0
 10
54.9326148552
 20
32.6942764682
 30
0.0
 10
55.1810770403
 20
32.8000312939
 30
0.0
 10
55.4829739419
 20
32.9340826041
 30
0.0
 10
55.8327704703
 20
33.0965834403
 30
0.0
 10
56.2241955855
 20
33.2874849886
 30
0.0
 10
56.8135062509
 20
33.590042368
 30
0.0
 10
57.6049843567
 20
34.031384542
 30
0.0
 10
58.5841939863
 20
34.6422417958
 30
0.0
 10
59.5792058798
 20
35.3379281934
 30
0.0
 10
60.2285405068
 20
35.8464200834
 30
0.0
 10
60.548955569
 20
36.1118019409
 30
0.0
  0
ELLIPSE
  5
283
100
AcDbEntity
  8
0
100
AcDbEllipse
 62
7
  6
BYLAYER
 10
45.6369662162
 20
54.1106610856
 30
0.0
 11
23.3757365776
 21
0.0
 31
0.0
 40
0.9998476952
 41
2.2610911857
 42
4.0047055612
  0
ELLIPSE
  5
284
100
AcDbEntity
  8
0
100
AcDbEllipse
 62
7
  6
BYLAYER
 10
45.6369662162
 20
54.1106610856
 30
0.0
 11
23.3757365776
 21
0.0
 31
0.0
 40
0.9998476952
 41
5.4041910237
 42
7.1447910304
  0
ENDSEC
  0
SECTION
  2
OBJECTS
  0
DICTIONARY
  5
C
100
AcDbDictionary
280
0
281
1
  3
ACAD_GROUP
350
D
  3
ACAD_MLINESTYLE
350
17
  3
ACAD_LAYOUT
350
1A
  3
ACAD_PLOTSETTINGS
350
19
  3
ACAD_PLOTSTYLENAME
350
E
  0
DICTIONARY
  5
D
102
{ACAD_REACTORS
330
C
102
}
100
AcDbDictionary
280
0
281
1
  0
ACDBDICTIONARYWDFLT
  5
E
102
{ACAD_REACTORS
330
C
102
}
100
AcDbDictionary
281
1
  3
Normal
350
F
100
AcDbDictionaryWithDefault
340
F
  0
DICTIONARY
  5
17
102
{ACAD_REACTORS
330
C
102
}
100
AcDbDictionary
280
0
281
1
  3
Standard
350
18
  0
DICTIONARY
  5
19
102
{ACAD_REACTORS
330
C
102
}
100
AcDbDictionary
281
1
  0
DICTIONARY
  5
1A
102
{ACAD_REACTORS
330
C
102
}
100
AcDbDictionary
281
1
  3
Model
350
285
  3
Layout1
350
286
  0
ACDBPLACEHOLDER
  5
F
102
{ACAD_REACTORS
330
E
102
}
  0
MLINESTYLE
  5
18
102
{ACAD_REACTORS
330
17
102
}
100
AcDbMlineStyle
  2
STANDARD
 70
0
  3

 62
256
 51
90.0
 52
90.0
 71
2
 49
0.5
 62
256
  6
BYLAYER
 49
-0.5
 62
256
  6
BYLAYER
  0
LAYOUT
  5
285
102
{ACAD_REACTORS
330
1A
102
}
100
AcDbPlotSettings
  1

  2
none_device
  4

  6

 40
0.0
 41
0.0
 42
0.0
 43
0.0
 44
210.0
 45
297.0
 46
0.0
 47
0.0
 48
0.0
 49
0.0
140
0.0
141
0.0
142
1.0
143
1.0
 70
1024
 72
1
 73
0
 74
0
  7

 75
0
147
1.0
148
0.0
149
0.0
100
AcDbLayout
  1
Model
 70
0
 71
0
 10
0.0
 20
0.0
 11
210.0
 21
297.0
 12
0.0
 22
0.0
 32
0.0
 14
0.0
 24
0.0
 34
0.0
 15
0.0
 25
0.0
 35
0.0
146
0.0
 13
0.0
 23
0.0
 33
0.0
 16
1.0
 26
0.0
 36
0.0
 17
0.0
 27
1.0
 37
0.0
 76
0
330
210
345
0
346
0
  0
LAYOUT
  5
286
102
{ACAD_REACTORS
330
1A
102
}
100
AcDbPlotSettings
  1

  2
none_device
  4

  6

 40
0.0
 41
0.0
 42
0.0
 43
0.0
 44
210.0
 45
297.0
 46
0.0
 47
0.0
 48
0.0
 49
0.0
140
0.0
141
0.0
142
1.0
143
1.0
 70
0
 72
1
 73
0
 74
0
  7

 75
0
147
1.0
148
0.0
149
0.0
100
AcDbLayout
  1
Layout1
 70
0
 71
1
 10
0.0
 20
0.0
 11
210.0
 21
297.0
 12
0.0
 22
0.0
 32
0.0
 14
0.0
 24
0.0
 34
0.0
 15
0.0
 25
0.0
 35
0.0
146
0.0
 13
0.0
 23
0.0
 33
0.0
 16
1.0
 26
0.0
 36
0.0
 17
0.0
 27
1.0
 37
0.0
 76
0
330
211
345
0
346
0
  0
ENDSEC
  0
EOF
