999
DXF file: C:\Users\sesa63760\Dev\_Creo\CAD\MCADID0001084_3D-CAD\drw0001_1.dxf
999
Pro/ENGINEER 2019471 by Parametric Technology Corporation
  0
SECTION
  2
HEADER
  9
$ACADVER
  1
AC1024
  9
$DWGCODEPAGE
  3
ANSI_1252
  9
$EXTMAX
 10
452.6774624959
 20
640.2152683871
 30
0.0
  9
$EXTMIN
 10
0.0
 20
0.0
 30
0.0
  9
$LIMMIN
 10
0.0
 20
0.0
  9
$LIMMAX
 10
452.6774624959
 20
640.2152683871
  9
$VIEWCTR
 10
226.3387312479
 20
320.1076341935
  9
$VIEWSIZE
 40
640.2152683871
  9
$CLAYER
  8
0
  9
$LTSCALE
 40
41.7325508282
  9
$CELTYPE
  6
BYLAYER
  9
$DIMSCALE
 40
1.0
  9
$DIMASZ
 40
5.3890174107
  9
$DIMEXO
 40
1.0
  9
$DIMDLI
 40
28.833398754
  9
$DIMEXE
 40
1.0
  9
$DIMCEN
 40
6.8289628628
  9
$DIMLFAC
 40
1.0
  9
$DIMBLK
  1
_FILLED
  9
$DIMALT
 70
0
  9
$DIMALTF
 40
0.0393700787
  9
$DIMTXT
 40
7.5446243749
  9
$DIMTOL
 70
1
  9
$DIMLIM
 70
0
  9
$DIMTFAC
 40
1.0
  9
$DIMTP
 40
0.01
  9
$DIMTM
 40
0.01
  9
$DIMGAP
 40
0.625
  9
$DIMDSEP
 70
46
  9
$AUNITS
 70
0
  9
$PDMODE
 70
3
  9
$PDSIZE
 40
0.3125
  9
$HANDSEED
  5
382
  9
$TILEMODE
 70
1
  9
$MEASUREMENT
 70
1
  9
$INSUNITS
 70
4
  0
ENDSEC
  0
SECTION
  2
CLASSES
  0
CLASS
  1
ACDBDICTIONARYWDFLT
  2
AcDbDictionaryWithDefault
  3
AutoCAD 2000
 90
0
 91
1
280
0
281
0
  0
CLASS
  1
ACDBPLACEHOLDER
  2
AcDbPlaceHolder
  3
AutoCAD 2000
 90
0
 91
1
280
0
281
0
  0
CLASS
  1
LAYOUT
  2
AcDbLayout
  3
AutoCAD 2000
 90
0
 91
0
280
0
281
0
  0
ENDSEC
  0
SECTION
  2
TABLES
  0
TABLE
  2
VPORT
  5
8
100
AcDbSymbolTable
 70
2
  0
VPORT
  5
1F4
100
AcDbSymbolTableRecord
100
AcDbViewportTableRecord
  2
*ACTIVE
 70
0
 10
0.0
 20
0.0
 11
1.0
 21
1.0
 12
226.3387312479
 22
320.1076341935
 13
0.0
 23
0.0
 14
1.0
 24
1.0
 15
0.0
 25
0.0
 16
0.0
 26
0.0
 36
1.0
 17
0.0
 27
0.0
 37
0.0
 40
640.2152683871
 41
0.7070707071
 42
50.0
 43
0.0
 44
0.0
 50
0.0
 51
0.0
 71
0
 72
100
 73
1
 74
1
 75
0
 76
0
 77
0
 78
0
  0
ENDTAB
  0
TABLE
  2
LTYPE
  5
5
100
AcDbSymbolTable
 70
6
  0
LTYPE
  5
14
100
AcDbSymbolTableRecord
100
AcDbLinetypeTableRecord
  2
BYBLOCK
 70
0
  3

 72
65
 73
0
 40
0.0
  0
LTYPE
  5
15
100
AcDbSymbolTableRecord
100
AcDbLinetypeTableRecord
  2
BYLAYER
 70
0
  3

 72
65
 73
0
 40
0.0
  0
LTYPE
  5
16
100
AcDbSymbolTableRecord
100
AcDbLinetypeTableRecord
  2
CONTINUOUS
 70
64
  3
Solid line
 72
65
 73
0
 40
0.0
  0
LTYPE
  5
1F5
100
AcDbSymbolTableRecord
100
AcDbLinetypeTableRecord
  2
CENTER
 70
64
  3
____ _ ____ _ ____ _ ____ _ ____ _ ____ _ ____
 72
65
 73
4
 40
0.6
 49
0.375
 74
0
 49
-0.075
 74
0
 49
0.075
 74
0
 49
-0.075
 74
0
  0
LTYPE
  5
1F6
100
AcDbSymbolTableRecord
100
AcDbLinetypeTableRecord
  2
HIDDEN
 70
64
  3
- - - - - - - - - - - - - - - - - - - -
 72
65
 73
2
 40
0.2
 49
0.1
 74
0
 49
-0.1
 74
0
  0
LTYPE
  5
1F7
100
AcDbSymbolTableRecord
100
AcDbLinetypeTableRecord
  2
PHANTOM
 70
64
  3
_____ _ _ _____ _ _ _____ _ _ _____
 72
65
 73
6
 40
0.8
 49
0.45
 74
0
 49
-0.05
 74
0
 49
0.1
 74
0
 49
-0.05
 74
0
 49
0.1
 74
0
 49
-0.05
 74
0
  0
LTYPE
  5
1F8
100
AcDbSymbolTableRecord
100
AcDbLinetypeTableRecord
  2
DOT
 70
64
  3
. . . . . . . . . . . . . . . . . . . .
 72
65
 73
2
 40
0.2
 49
0.1
 74
0
 49
-0.1
 74
0
  0
LTYPE
  5
1F9
100
AcDbSymbolTableRecord
100
AcDbLinetypeTableRecord
  2
DASHED
 70
64
  3
- - - - - - - - - - - - - - - - - - - -
 72
65
 73
2
 40
0.2
 49
0.1
 74
0
 49
-0.1
 74
0
  0
ENDTAB
  0
TABLE
  2
LAYER
  5
2
100
AcDbSymbolTable
 70
36
  0
LAYER
  5
10
100
AcDbSymbolTableRecord
100
AcDbLayerTableRecord
  2
0
 70
0
 62
7
  6
CONTINUOUS
370
-3
390
F
  0
LAYER
  5
1FA
100
AcDbSymbolTableRecord
100
AcDbLayerTableRecord
  2
DEFAULT_1
 70
0
 62
7
  6
CENTER
370
-3
390
F
  0
LAYER
  5
1FB
100
AcDbSymbolTableRecord
100
AcDbLayerTableRecord
  2
DEFAULT_2
 70
0
 62
8
  6
HIDDEN
370
-3
390
F
  0
LAYER
  5
1FC
100
AcDbSymbolTableRecord
100
AcDbLayerTableRecord
  2
DEFAULT_3
 70
0
 62
7
  6
PHANTOM
370
-3
390
F
  0
LAYER
  5
1FD
100
AcDbSymbolTableRecord
100
AcDbLayerTableRecord
  2
00_COMPONENTS
 70
0
 62
7
  6
CONTINUOUS
370
-3
390
F
  0
LAYER
  5
1FE
100
AcDbSymbolTableRecord
100
AcDbLayerTableRecord
  2
01_1_DEFAULT_DATUMS
 70
0
 62
7
  6
CONTINUOUS
370
-3
390
F
  0
LAYER
  5
1FF
100
AcDbSymbolTableRecord
100
AcDbLayerTableRecord
  2
01_PLANES
 70
0
 62
7
  6
CONTINUOUS
370
-3
390
F
  0
LAYER
  5
200
100
AcDbSymbolTableRecord
100
AcDbLayerTableRecord
  2
02_COORD_SYS
 70
0
 62
7
  6
CONTINUOUS
370
-3
390
F
  0
LAYER
  5
201
100
AcDbSymbolTableRecord
100
AcDbLayerTableRecord
  2
03_AXES
 70
0
 62
7
  6
CONTINUOUS
370
-3
390
F
  0
LAYER
  5
202
100
AcDbSymbolTableRecord
100
AcDbLayerTableRecord
  2
04_POINTS
 70
0
 62
7
  6
CONTINUOUS
370
-3
390
F
  0
LAYER
  5
203
100
AcDbSymbolTableRecord
100
AcDbLayerTableRecord
  2
05_CURVES
 70
0
 62
7
  6
CONTINUOUS
370
-3
390
F
  0
LAYER
  5
204
100
AcDbSymbolTableRecord
100
AcDbLayerTableRecord
  2
06_SURFS
 70
0
 62
7
  6
CONTINUOUS
370
-3
390
F
  0
LAYER
  5
205
100
AcDbSymbolTableRecord
100
AcDbLayerTableRecord
  2
07_COSMETICS
 70
0
 62
7
  6
CONTINUOUS
370
-3
390
F
  0
LAYER
  5
206
100
AcDbSymbolTableRecord
100
AcDbLayerTableRecord
  2
10_NOTES
 70
0
 62
7
  6
CONTINUOUS
370
-3
390
F
  0
LAYER
  5
207
100
AcDbSymbolTableRecord
100
AcDbLayerTableRecord
  2
11_NOTES_PUB
 70
0
 62
7
  6
CONTINUOUS
370
-3
390
F
  0
LAYER
  5
208
100
AcDbSymbolTableRecord
100
AcDbLayerTableRecord
  2
13_REF_GTOL
 70
0
 62
7
  6
CONTINUOUS
370
-3
390
F
  0
LAYER
  5
209
100
AcDbSymbolTableRecord
100
AcDbLayerTableRecord
  2
16_MISC
 70
0
 62
7
  6
CONTINUOUS
370
-3
390
F
  0
LAYER
  5
20A
100
AcDbSymbolTableRecord
100
AcDbLayerTableRecord
  2
17_NO_PRINT
 70
0
 62
7
  6
CONTINUOUS
370
-3
390
F
  0
LAYER
  5
20B
100
AcDbSymbolTableRecord
100
AcDbLayerTableRecord
  2
18_DATUM_CAMS_JOINTS
 70
0
 62
7
  6
CONTINUOUS
370
-3
390
F
  0
LAYER
  5
20C
100
AcDbSymbolTableRecord
100
AcDbLayerTableRecord
  2
19_DATUM_FUNCTIONAL
 70
0
 62
7
  6
CONTINUOUS
370
-3
390
F
  0
LAYER
  5
20D
100
AcDbSymbolTableRecord
100
AcDbLayerTableRecord
  2
20_DATUM_KINEMATIC_SCHEME
 70
0
 62
7
  6
CONTINUOUS
370
-3
390
F
  0
ENDTAB
  0
TABLE
  2
STYLE
  5
3
100
AcDbSymbolTable
 70
1
  0
STYLE
  5
11
100
AcDbSymbolTableRecord
100
AcDbTextStyleTableRecord
  2
STANDARD
 70
0
 40
0.0
 41
0.8
 50
0.0
 71
0
 42
0.2
  3
txt
  4

  0
STYLE
  5
20E
100
AcDbSymbolTableRecord
100
AcDbTextStyleTableRecord
  2
TEXTSTYLE_1
 70
0
 40
0.0
 41
0.8
 50
0.0
 71
0
 42
0.2
  3
gdt
  4

  0
ENDTAB
  0
TABLE
  2
VIEW
  5
6
100
AcDbSymbolTable
 70
0
  0
ENDTAB
  0
TABLE
  2
UCS
  5
7
100
AcDbSymbolTable
 70
0
  0
ENDTAB
  0
TABLE
  2
APPID
  5
9
100
AcDbSymbolTable
 70
1
  0
APPID
  5
20F
100
AcDbSymbolTableRecord
100
AcDbRegAppTableRecord
  2
ACAD
 70
0
  0
ENDTAB
  0
TABLE
  2
BLOCK_RECORD
  5
1
100
AcDbSymbolTable
 70
0
  0
BLOCK_RECORD
  5
210
100
AcDbSymbolTableRecord
100
AcDbBlockTableRecord
  2
*Model_Space
  0
BLOCK_RECORD
  5
211
100
AcDbSymbolTableRecord
100
AcDbBlockTableRecord
  2
*Paper_Space
  0
BLOCK_RECORD
  5
212
100
AcDbSymbolTableRecord
100
AcDbBlockTableRecord
  2
_FILLED
  0
ENDTAB
  0
TABLE
  2
DIMSTYLE
  5
A
100
AcDbSymbolTable
 70
1
100
AcDbDimStyleTable
 71
0
  0
DIMSTYLE
105
213
100
AcDbSymbolTableRecord
100
AcDbDimStyleTableRecord
  2
STANDARD
 70
0
  3

  4

 40
1.0
 41
5.3890174107
 42
1.0
 43
0.38
 44
1.0
 45
0.0
 46
0.0
 47
0.01
 48
0.01
140
7.5446243749
141
0.09
142
0.0
143
25.4
144
1.0
145
0.0
146
1.0
147
0.625
 71
1
 72
0
 73
0
 74
0
 75
0
 76
0
 77
1
 78
8
 79
2
170
0
171
1
172
0
173
0
174
0
175
0
176
0
177
0
178
0
270
2
179
2
271
2
272
2
273
2
274
2
275
0
280
0
281
0
282
0
283
1
284
8
285
0
286
0
287
3
288
0
340
11
278
46
341
212
342
212
343
212
344
212
  0
ENDTAB
  0
ENDSEC
  0
SECTION
  2
BLOCKS
  0
BLOCK
  5
20
100
AcDbEntity
  8
0
100
AcDbBlockBegin
  2
*Model_Space
 70
0
 10
0.0
 20
0.0
 30
0.0
  3
*Model_Space
  1

  0
ENDBLK
  5
21
100
AcDbEntity
  8
0
100
AcDbBlockEnd
  0
BLOCK
  5
1C
100
AcDbEntity
  8
0
100
AcDbBlockBegin
  2
*Paper_Space
 70
0
 10
0.0
 20
0.0
 30
0.0
  3
*Paper_Space
  1

  0
ENDBLK
  5
1D
100
AcDbEntity
  8
0
100
AcDbBlockEnd
  0
BLOCK
  5
214
100
AcDbEntity
  8
0
100
AcDbBlockBegin
  2
_FILLED
 70
64
 10
0.0
 20
0.0
  3
_FILLED
  1

  0
SOLID
  5
215
100
AcDbEntity
  8
0
  6
BYBLOCK
 62
0
100
AcDbTrace
 10
0.0
 20
0.0
 11
-1.0
 21
0.25
 12
-1.0
 22
-0.25
 13
-1.0
 23
-0.25
  0
ENDBLK
  5
216
100
AcDbEntity
  8
0
  6
BYBLOCK
 62
0
100
AcDbBlockEnd
  0
ENDSEC
  0
SECTION
  2
ENTITIES
  0
LINE
  5
217
100
AcDbEntity
  8
0
100
AcDbLine
 62
7
  6
CONTINUOUS
 10
59.862824931
 20
462.6479358999
 11
60.37248773
 21
463.0796167723
  0
LINE
  5
218
100
AcDbEntity
  8
0
100
AcDbLine
 62
7
  6
CONTINUOUS
 10
55.3442091763
 20
478.3206559459
 11
123.933281386
 21
517.9203388715
  0
LINE
  5
219
100
AcDbEntity
  8
0
100
AcDbLine
 62
7
  6
CONTINUOUS
 10
66.3820544782
 20
453.9851276115
 11
65.8723916793
 21
453.5534467392
  0
LINE
  5
21A
100
AcDbEntity
  8
0
100
AcDbLine
 62
7
  6
CONTINUOUS
 10
59.8628249311
 20
462.6479358999
 11
60.8418288179
 21
463.2131606835
  0
LINE
  5
21B
100
AcDbEntity
  8
0
100
AcDbLine
 62
7
  6
CONTINUOUS
 10
57.4655619035
 20
459.1329505405
 11
60.2939772523
 21
460.765927156
  0
LINE
  5
21C
100
AcDbEntity
  8
0
100
AcDbLine
 62
7
  6
CONTINUOUS
 10
62.6912402799
 20
459.3818980126
 11
59.8628249311
 21
457.7489213971
  0
LINE
  5
21D
100
AcDbEntity
  8
0
100
AcDbLine
 62
7
  6
CONTINUOUS
 10
52.5157938274
 20
288.0756209735
 11
52.5157938274
 21
473.4216696619
  0
LINE
  5
21E
100
AcDbEntity
  8
0
100
AcDbLine
 62
7
  6
CONTINUOUS
 10
67.8755167718
 20
476.4836082206
 11
67.994519059
 21
477.140772675
  0
LINE
  5
21F
100
AcDbEntity
  8
0
100
AcDbLine
 62
7
  6
CONTINUOUS
 10
67.994519059
 20
476.0104660985
 11
67.994519059
 21
477.1407726749
  0
LINE
  5
220
100
AcDbEntity
  8
0
100
AcDbLine
 62
7
  6
CONTINUOUS
 10
69.8398790547
 20
477.708257073
 11
69.8398790547
 21
480.9742667416
  0
LINE
  5
221
100
AcDbEntity
  8
0
100
AcDbLine
 62
7
  6
CONTINUOUS
 10
72.2371420823
 20
479.5902375982
 11
72.2371420823
 21
476.3242279297
  0
LINE
  5
222
100
AcDbEntity
  8
0
100
AcDbLine
 62
7
  6
CONTINUOUS
 10
121.6154084001
 20
507.5101639148
 11
121.7344106873
 21
508.1673283692
  0
LINE
  5
223
100
AcDbEntity
  8
0
100
AcDbLine
 62
7
  6
CONTINUOUS
 10
121.7344106873
 20
507.0370217927
 11
121.7344106873
 21
508.1673283692
  0
LINE
  5
224
100
AcDbEntity
  8
0
100
AcDbLine
 62
7
  6
CONTINUOUS
 10
123.5797706829
 20
508.7348127673
 11
123.5797706829
 21
512.0008224358
  0
LINE
  5
225
100
AcDbEntity
  8
0
100
AcDbLine
 62
7
  6
CONTINUOUS
 10
125.9770337106
 20
510.6167932924
 11
125.9770337106
 21
507.3507836239
  0
LINE
  5
226
100
AcDbEntity
  8
0
100
AcDbLine
 62
7
  6
CONTINUOUS
 10
53.3442431103
 20
286.2444763823
 11
335.481023444
 21
123.3564153287
  0
LINE
  5
227
100
AcDbEntity
  8
0
100
AcDbLine
 62
7
  6
CONTINUOUS
 10
334.6525741611
 20
125.1875599199
 11
52.5157938274
 21
288.0756209735
  0
LINE
  5
228
100
AcDbEntity
  8
0
100
AcDbLine
 62
7
  6
CONTINUOUS
 10
337.4809895099
 20
129.678180001
 11
338.541621714
 21
129.0658375655
  0
LINE
  5
229
100
AcDbEntity
  8
0
100
AcDbLine
 62
7
  6
CONTINUOUS
 10
57.4655619035
 20
291.7499550289
 11
59.8628249311
 21
290.3659258855
  0
LINE
  5
22A
100
AcDbEntity
  8
0
100
AcDbLine
 62
7
  6
CONTINUOUS
 10
326.5208123219
 20
136.4143479339
 11
334.6525741611
 21
131.719579257
  0
LINE
  5
22B
100
AcDbEntity
  8
0
100
AcDbLine
 62
7
  6
CONTINUOUS
 10
60.2939772523
 20
293.3829316444
 11
62.6912402799
 21
291.998902501
  0
LINE
  5
22C
100
AcDbEntity
  8
0
100
AcDbLine
 62
7
  6
CONTINUOUS
 10
329.3492276707
 20
138.0473245494
 11
337.4809895099
 21
133.3525558724
  0
LINE
  5
22D
100
AcDbEntity
  8
0
100
AcDbLine
 62
7
  6
CONTINUOUS
 10
59.8628249311
 20
295.2649403883
 11
57.4655619035
 21
296.6489695317
  0
LINE
  5
22E
100
AcDbEntity
  8
0
100
AcDbLine
 62
7
  6
CONTINUOUS
 10
326.5208123219
 20
141.3133624367
 11
334.6525741611
 21
136.6185937597
  0
LINE
  5
22F
100
AcDbEntity
  8
0
100
AcDbLine
 62
7
  6
CONTINUOUS
 10
59.862824931
 20
295.2649403883
 11
60.37248773
 21
295.6966212607
  0
LINE
  5
230
100
AcDbEntity
  8
0
100
AcDbLine
 62
7
  6
CONTINUOUS
 10
337.4809895099
 20
152.9481748143
 11
337.8344207259
 21
152.7441258228
  0
LINE
  5
231
100
AcDbEntity
  8
0
100
AcDbLine
 62
7
  6
CONTINUOUS
 10
341.3699281361
 20
156.4183164089
 11
342.7841475864
 21
155.6018348999
  0
LINE
  5
232
100
AcDbEntity
  8
0
100
AcDbLine
 62
7
  6
CONTINUOUS
 10
66.3820544782
 20
286.6021321
 11
65.8723916793
 21
286.1704512276
  0
LINE
  5
233
100
AcDbEntity
  8
0
100
AcDbLine
 62
7
  6
CONTINUOUS
 10
386.9175607555
 20
254.1627994156
 11
385.9175994151
 21
254.06378122
  0
LINE
  5
234
100
AcDbEntity
  8
0
100
AcDbLine
 62
7
  6
CONTINUOUS
 10
371.7754049122
 20
262.2285963104
 11
372.7753662526
 21
262.327614506
  0
LINE
  5
235
100
AcDbEntity
  8
0
100
AcDbLine
 62
7
  6
CONTINUOUS
 10
387.3316893309
 20
185.0755569345
 11
387.7702758257
 21
184.9386690934
  0
LINE
  5
236
100
AcDbEntity
  8
0
100
AcDbLine
 62
7
  6
CONTINUOUS
 10
59.8628249311
 20
295.2649403883
 11
60.8418288179
 21
295.830165172
  0
LINE
  5
237
100
AcDbEntity
  8
0
100
AcDbLine
 62
7
  6
CONTINUOUS
 10
57.4655619035
 20
291.7499550289
 11
60.2939772523
 21
293.3829316444
  0
LINE
  5
238
100
AcDbEntity
  8
0
100
AcDbLine
 62
7
  6
CONTINUOUS
 10
62.6912402799
 20
291.998902501
 11
59.8628249311
 21
290.3659258855
  0
LINE
  5
239
100
AcDbEntity
  8
0
100
AcDbLine
 62
7
  6
CONTINUOUS
 10
359.4010759851
 20
171.7275568354
 11
360.8152954354
 21
170.9110753264
  0
LINE
  5
23A
100
AcDbEntity
  8
0
100
AcDbLine
 62
7
  6
CONTINUOUS
 10
354.5503966532
 20
181.4278115248
 11
348.1864091269
 21
185.1019783155
  0
LINE
  5
23B
100
AcDbEntity
  8
0
100
AcDbLine
 62
7
  6
CONTINUOUS
 10
376.0180161596
 20
176.4222799486
 11
377.4322356099
 21
175.6057984396
  0
LINE
  5
23C
100
AcDbEntity
  8
0
100
AcDbLine
 62
7
  6
CONTINUOUS
 10
360.7375552288
 20
185.8010529672
 11
358.2298955203
 21
187.2488182222
  0
LINE
  5
23D
100
AcDbEntity
  8
0
100
AcDbLine
 62
7
  6
CONTINUOUS
 10
360.7375552288
 20
189.5989527126
 11
357.9268407241
 21
191.2216827774
  0
LINE
  5
23E
100
AcDbEntity
  8
0
100
AcDbLine
 62
7
  6
CONTINUOUS
 10
354.5503966532
 20
193.8713083618
 11
348.5753017578
 21
197.3209529667
  0
LINE
  5
23F
100
AcDbEntity
  8
0
100
AcDbLine
 62
7
  6
CONTINUOUS
 10
380.9677430201
 20
179.2799890257
 11
382.3819624704
 21
178.4635075167
  0
LINE
  5
240
100
AcDbEntity
  8
0
100
AcDbLine
 62
7
  6
CONTINUOUS
 10
385.7610126408
 20
179.1722272359
 11
384.7710590256
 21
179.7437642922
  0
LINE
  5
241
100
AcDbEntity
  8
0
100
AcDbLine
 62
7
  6
CONTINUOUS
 10
384.4757809572
 20
179.9196083405
 11
384.6899013279
 21
179.7959886835
  0
LINE
  5
242
100
AcDbEntity
  8
0
100
AcDbLine
 62
7
  6
CONTINUOUS
 10
360.7375552288
 20
193.7467849916
 11
358.2298955203
 21
195.1945502465
  0
LINE
  5
243
100
AcDbEntity
  8
0
100
AcDbLine
 62
7
  6
CONTINUOUS
 10
387.3316893309
 20
185.0755569345
 11
385.9174698806
 21
185.8920384436
  0
LINE
  5
244
100
AcDbEntity
  8
0
100
AcDbLine
 62
7
  6
CONTINUOUS
 10
388.7609617397
 20
184.368409046
 11
387.7710081245
 21
184.9399461023
  0
LINE
  5
245
100
AcDbEntity
  8
0
100
AcDbLine
 62
7
  6
CONTINUOUS
 10
365.1569542114
 20
199.9949706699
 11
359.181859316
 21
203.4446152748
  0
LINE
  5
246
100
AcDbEntity
  8
0
100
AcDbLine
 62
7
  6
CONTINUOUS
 10
363.7852493103
 20
203.5388324599
 11
349.2895028888
 21
211.9077662279
  0
LINE
  5
247
100
AcDbEntity
  8
0
100
AcDbLine
 62
7
  6
CONTINUOUS
 10
384.7713173296
 20
179.7442124558
 11
384.6899013279
 21
179.7959886835
  0
LINE
  5
248
100
AcDbEntity
  8
0
100
AcDbLine
 62
7
  6
CONTINUOUS
 10
374.6039380197
 20
203.2529486771
 11
368.9469624646
 21
206.5189311503
  0
LINE
  5
249
100
AcDbEntity
  8
0
100
AcDbLine
 62
7
  6
CONTINUOUS
 10
374.6039380197
 20
204.4777023028
 11
370.0076453812
 21
207.1313130622
  0
LINE
  5
24A
100
AcDbEntity
  8
0
100
AcDbLine
 62
7
  6
CONTINUOUS
 10
374.8160694239
 20
210.887244307
 11
368.9116011882
 21
214.2961135133
  0
LINE
  5
24B
100
AcDbEntity
  8
0
100
AcDbLine
 62
7
  6
CONTINUOUS
 10
386.2711513337
 20
211.2137308417
 11
381.6748586952
 21
213.8673416011
  0
LINE
  5
24C
100
AcDbEntity
  8
0
100
AcDbLine
 62
7
  6
CONTINUOUS
 10
374.8160694239
 20
218.5705320522
 11
368.38125973
 21
222.2855871153
  0
LINE
  5
24D
100
AcDbEntity
  8
0
100
AcDbLine
 62
7
  6
CONTINUOUS
 10
374.8160694239
 20
226.8661966102
 11
368.38125973
 21
230.5812516734
  0
LINE
  5
24E
100
AcDbEntity
  8
0
100
AcDbLine
 62
7
  6
CONTINUOUS
 10
363.7852493103
 20
236.5908503053
 11
349.2894983621
 21
244.9597866868
  0
LINE
  5
24F
100
AcDbEntity
  8
0
100
AcDbLine
 62
7
  6
CONTINUOUS
 10
374.8160694239
 20
235.1618611682
 11
368.9116011882
 21
238.5707303746
  0
LINE
  5
250
100
AcDbEntity
  8
0
100
AcDbLine
 62
7
  6
CONTINUOUS
 10
374.6039380197
 20
246.3071211324
 11
360.4617435167
 21
254.4719362228
  0
LINE
  5
251
100
AcDbEntity
  8
0
100
AcDbLine
 62
7
  6
CONTINUOUS
 10
374.6039380197
 20
247.5318747581
 11
360.4617435167
 21
255.6966898485
  0
LINE
  5
252
100
AcDbEntity
  8
0
100
AcDbLine
 62
7
  6
CONTINUOUS
 10
383.3013152174
 20
247.8583889522
 11
380.2960469538
 21
249.593442141
  0
LINE
  5
253
100
AcDbEntity
  8
0
100
AcDbLine
 62
7
  6
CONTINUOUS
 10
371.7754049122
 20
262.2285963104
 11
385.9175994151
 21
254.06378122
  0
LINE
  5
254
100
AcDbEntity
  8
0
100
AcDbLine
 62
7
  6
CONTINUOUS
 10
372.7753879451
 20
262.3276520795
 11
386.9175824481
 21
254.1628369891
  0
LINE
  5
255
100
AcDbEntity
  8
0
100
AcDbLine
 62
7
  6
CONTINUOUS
 10
57.4655619035
 20
459.1329505405
 11
59.8628249311
 21
457.7489213971
  0
LINE
  5
256
100
AcDbEntity
  8
0
100
AcDbLine
 62
7
  6
CONTINUOUS
 10
326.5208123219
 20
303.7973434455
 11
334.6525741611
 21
299.1025747685
  0
LINE
  5
257
100
AcDbEntity
  8
0
100
AcDbLine
 62
7
  6
CONTINUOUS
 10
60.2939772523
 20
460.765927156
 11
62.6912402799
 21
459.3818980126
  0
LINE
  5
258
100
AcDbEntity
  8
0
100
AcDbLine
 62
7
  6
CONTINUOUS
 10
329.3492276707
 20
305.430320061
 11
337.4809895099
 21
300.735551384
  0
LINE
  5
259
100
AcDbEntity
  8
0
100
AcDbLine
 62
7
  6
CONTINUOUS
 10
357.2902522105
 20
290.6867285609
 11
358.7044716608
 21
289.8702470519
  0
LINE
  5
25A
100
AcDbEntity
  8
0
100
AcDbLine
 62
7
  6
CONTINUOUS
 10
59.8628249311
 20
462.6479358999
 11
57.4655619035
 21
464.0319650433
  0
LINE
  5
25B
100
AcDbEntity
  8
0
100
AcDbLine
 62
7
  6
CONTINUOUS
 10
326.5208123219
 20
308.6963579483
 11
334.6525741611
 21
304.0015892713
  0
LINE
  5
25C
100
AcDbEntity
  8
0
100
AcDbLine
 62
7
  6
CONTINUOUS
 10
52.5157938274
 20
473.4216696619
 11
334.6525741611
 21
310.5336086083
  0
LINE
  5
25D
100
AcDbEntity
  8
0
100
AcDbLine
 62
7
  6
CONTINUOUS
 10
361.5555011593
 20
298.0743974569
 11
362.9697206096
 21
297.2579159479
  0
LINE
  5
25E
100
AcDbEntity
  8
0
100
AcDbLine
 62
7
  6
CONTINUOUS
 10
337.4809895099
 20
315.4325948923
 11
55.3442091763
 21
478.3206559459
  0
LINE
  5
25F
100
AcDbEntity
  8
0
100
AcDbLine
 62
7
  6
CONTINUOUS
 10
65.5972560314
 20
478.5248018183
 11
67.994519059
 21
477.1407726749
  0
LINE
  5
260
100
AcDbEntity
  8
0
100
AcDbLine
 62
7
  6
CONTINUOUS
 10
334.6525064498
 20
323.1891947234
 11
342.784268289
 21
318.4944260464
  0
LINE
  5
261
100
AcDbEntity
  8
0
100
AcDbLine
 62
7
  6
CONTINUOUS
 10
337.4809895099
 20
253.5846674341
 11
339.2487314392
 21
251.3855861075
  0
LINE
  5
262
100
AcDbEntity
  8
0
100
AcDbLine
 62
7
  6
CONTINUOUS
 10
337.4809895099
 20
315.4325948923
 11
342.784268289
 21
318.4944260464
  0
LINE
  5
263
100
AcDbEntity
  8
0
100
AcDbLine
 62
7
  6
CONTINUOUS
 10
347.0268913123
 20
320.9438909696
 11
396.5241599173
 21
349.5209817406
  0
LINE
  5
264
100
AcDbEntity
  8
0
100
AcDbLine
 62
7
  6
CONTINUOUS
 10
400.7667829406
 20
351.9704466638
 11
406.0700617197
 21
355.0322778179
  0
LINE
  5
265
100
AcDbEntity
  8
0
100
AcDbLine
 62
7
  6
CONTINUOUS
 10
337.4809895099
 20
312.1665852238
 11
342.784268289
 21
315.2284163779
  0
LINE
  5
266
100
AcDbEntity
  8
0
100
AcDbLine
 62
7
  6
CONTINUOUS
 10
347.0268913123
 20
317.6778813011
 11
396.5241599173
 21
346.2549720721
  0
LINE
  5
267
100
AcDbEntity
  8
0
100
AcDbLine
 62
7
  6
CONTINUOUS
 10
400.7667829406
 20
348.7044369953
 11
406.0700617197
 21
351.7662681494
  0
LINE
  5
268
100
AcDbEntity
  8
0
100
AcDbLine
 62
7
  6
CONTINUOUS
 10
326.5208123219
 20
303.7973434455
 11
329.3492276707
 21
305.430320061
  0
LINE
  5
269
100
AcDbEntity
  8
0
100
AcDbLine
 62
7
  6
CONTINUOUS
 10
337.4809895099
 20
305.6345658868
 11
334.6525741611
 21
304.0015892713
  0
LINE
  5
26A
100
AcDbEntity
  8
0
100
AcDbLine
 62
7
  6
CONTINUOUS
 10
337.4809895099
 20
300.735551384
 11
334.6525741611
 21
299.1025747685
  0
LINE
  5
26B
100
AcDbEntity
  8
0
100
AcDbLine
 62
7
  6
CONTINUOUS
 10
72.2371420823
 20
476.3242279297
 11
69.8398790547
 21
477.708257073
  0
LINE
  5
26C
100
AcDbEntity
  8
0
100
AcDbLine
 62
7
  6
CONTINUOUS
 10
338.8951294731
 20
322.3726499781
 11
347.0268913123
 21
317.6778813011
  0
LINE
  5
26D
100
AcDbEntity
  8
0
100
AcDbLine
 62
7
  6
CONTINUOUS
 10
72.2371420823
 20
479.5902375982
 11
69.8398790547
 21
480.9742667416
  0
LINE
  5
26E
100
AcDbEntity
  8
0
100
AcDbLine
 62
7
  6
CONTINUOUS
 10
338.8951294731
 20
325.6386596466
 11
347.0268913123
 21
320.9438909696
  0
LINE
  5
26F
100
AcDbEntity
  8
0
100
AcDbLine
 62
7
  6
CONTINUOUS
 10
337.4809895099
 20
276.4467351138
 11
339.2487314392
 21
274.2476537871
  0
LINE
  5
270
100
AcDbEntity
  8
0
100
AcDbLine
 62
7
  6
CONTINUOUS
 10
376.8890735645
 20
321.3670763072
 11
375.4748541142
 21
322.1835578162
  0
LINE
  5
271
100
AcDbEntity
  8
0
100
AcDbLine
 62
7
  6
CONTINUOUS
 10
381.1543225132
 20
328.7547452033
 11
379.740103063
 21
329.5712267123
  0
LINE
  5
272
100
AcDbEntity
  8
0
100
AcDbLine
 62
7
  6
CONTINUOUS
 10
334.6525741611
 20
125.1875599199
 11
334.6525741611
 21
131.719579257
  0
LINE
  5
273
100
AcDbEntity
  8
0
100
AcDbLine
 62
7
  6
CONTINUOUS
 10
334.6525741611
 20
136.6185937597
 11
334.6525741611
 21
299.1025747685
  0
LINE
  5
274
100
AcDbEntity
  8
0
100
AcDbLine
 62
7
  6
CONTINUOUS
 10
334.6525741611
 20
304.0015892713
 11
334.6525741611
 21
310.5336086083
  0
LINE
  5
275
100
AcDbEntity
  8
0
100
AcDbLine
 62
7
  6
CONTINUOUS
 10
337.4809895099
 20
312.1665852238
 11
337.4809895099
 21
305.6345658868
  0
LINE
  5
276
100
AcDbEntity
  8
0
100
AcDbLine
 62
7
  6
CONTINUOUS
 10
337.4809895099
 20
300.735551384
 11
337.4809895099
 21
138.2515703752
  0
LINE
  5
277
100
AcDbEntity
  8
0
100
AcDbLine
 62
7
  6
CONTINUOUS
 10
337.4809895099
 20
133.3525558724
 11
337.4809895099
 21
125.1875317011
  0
LINE
  5
278
100
AcDbEntity
  8
0
100
AcDbLine
 62
7
  6
CONTINUOUS
 10
337.8344207259
 20
245.8254013756
 11
337.8344207259
 21
152.7441258228
  0
LINE
  5
279
100
AcDbEntity
  8
0
100
AcDbLine
 62
7
  6
CONTINUOUS
 10
339.2487314392
 20
274.2476537871
 11
337.4809895099
 21
273.2270536006
  0
LINE
  5
27A
100
AcDbEntity
  8
0
100
AcDbLine
 62
7
  6
CONTINUOUS
 10
339.4380465355
 20
272.8505288882
 11
339.2487314392
 21
272.7412284188
  0
LINE
  5
27B
100
AcDbEntity
  8
0
100
AcDbLine
 62
7
  6
CONTINUOUS
 10
339.2487314392
 20
270.4763906645
 11
337.4809895099
 21
269.4557904779
  0
LINE
  5
27C
100
AcDbEntity
  8
0
100
AcDbLine
 62
7
  6
CONTINUOUS
 10
119.3371476597
 20
509.5513575126
 11
121.7344106873
 21
508.1673283692
  0
LINE
  5
27D
100
AcDbEntity
  8
0
100
AcDbLine
 62
7
  6
CONTINUOUS
 10
388.3923980781
 20
354.2157504176
 11
396.5241599173
 21
349.5209817406
  0
LINE
  5
27E
100
AcDbEntity
  8
0
100
AcDbLine
 62
7
  6
CONTINUOUS
 10
338.5416452658
 20
125.799897932
 11
338.5416452658
 21
124.1668930977
  0
LINE
  5
27F
100
AcDbEntity
  8
0
100
AcDbLine
 62
7
  6
CONTINUOUS
 10
338.8951294731
 20
322.3726499781
 11
338.8951294731
 21
325.6386596466
  0
LINE
  5
280
100
AcDbEntity
  8
0
100
AcDbLine
 62
7
  6
CONTINUOUS
 10
339.2487314392
 20
247.6143229849
 11
339.2487314392
 21
251.3855861075
  0
LINE
  5
281
100
AcDbEntity
  8
0
100
AcDbLine
 62
7
  6
CONTINUOUS
 10
339.2487314392
 20
270.4763906645
 11
339.2487314392
 21
274.2476537871
  0
LINE
  5
282
100
AcDbEntity
  8
0
100
AcDbLine
 62
7
  6
CONTINUOUS
 10
339.7132063652
 20
127.43286095
 11
339.7132063652
 21
125.7998561158
  0
LINE
  5
283
100
AcDbEntity
  8
0
100
AcDbLine
 62
7
  6
CONTINUOUS
 10
339.9557322375
 20
153.9688582844
 11
339.9557322375
 21
247.0501338372
  0
LINE
  5
284
100
AcDbEntity
  8
0
100
AcDbLine
 62
7
  6
CONTINUOUS
 10
341.3699281361
 20
247.8666153462
 11
341.3699281361
 21
156.4183164089
  0
LINE
  5
285
100
AcDbEntity
  8
0
100
AcDbLine
 62
7
  6
CONTINUOUS
 10
342.7841475864
 20
248.6831104527
 11
342.7841475864
 21
155.6018348999
  0
LINE
  5
286
100
AcDbEntity
  8
0
100
AcDbLine
 62
7
  6
CONTINUOUS
 10
342.784268289
 20
315.2284163779
 11
342.784268289
 21
318.4944260464
  0
LINE
  5
287
100
AcDbEntity
  8
0
100
AcDbLine
 62
7
  6
CONTINUOUS
 10
347.0268913123
 20
317.6778813011
 11
347.0268913123
 21
320.9438909696
  0
LINE
  5
288
100
AcDbEntity
  8
0
100
AcDbLine
 62
7
  6
CONTINUOUS
 10
347.7338744469
 20
163.3585584798
 11
347.7338744469
 21
196.8351575821
  0
LINE
  5
289
100
AcDbEntity
  8
0
100
AcDbLine
 62
7
  6
CONTINUOUS
 10
348.1864091269
 20
185.1019783155
 11
348.1864091269
 21
197.0964270418
  0
LINE
  5
28A
100
AcDbEntity
  8
0
100
AcDbLine
 62
7
  6
CONTINUOUS
 10
349.2895028888
 20
211.0912742648
 11
349.2895028888
 21
244.9597945274
  0
LINE
  5
28B
100
AcDbEntity
  8
0
100
AcDbLine
 62
7
  6
CONTINUOUS
 10
354.5503966532
 20
181.4278115248
 11
354.5503966532
 21
193.8713083618
  0
LINE
  5
28C
100
AcDbEntity
  8
0
100
AcDbLine
 62
7
  6
CONTINUOUS
 10
355.9763804972
 20
193.8934905076
 11
355.9763804972
 21
190.9979358871
  0
LINE
  5
28D
100
AcDbEntity
  8
0
100
AcDbLine
 62
7
  6
CONTINUOUS
 10
355.9763804972
 20
190.0955907623
 11
355.9763804972
 21
186.8501036081
  0
LINE
  5
28E
100
AcDbEntity
  8
0
100
AcDbLine
 62
7
  6
CONTINUOUS
 10
355.9763804972
 20
185.9477584833
 11
355.9763804972
 21
183.0522038627
  0
LINE
  5
28F
100
AcDbEntity
  8
0
100
AcDbLine
 62
7
  6
CONTINUOUS
 10
354.5097966869
 20
285.870811592
 11
357.2902522105
 21
290.6867285609
  0
LINE
  5
290
100
AcDbEntity
  8
0
100
AcDbLine
 62
7
  6
CONTINUOUS
 10
359.2407008218
 20
294.0650234065
 11
361.5555011593
 21
298.0743974569
  0
LINE
  5
291
100
AcDbEntity
  8
0
100
AcDbLine
 62
7
  6
CONTINUOUS
 10
364.7467512819
 20
303.6018354925
 11
372.4353594578
 21
316.9189694176
  0
LINE
  5
292
100
AcDbEntity
  8
0
100
AcDbLine
 62
7
  6
CONTINUOUS
 10
375.4748541142
 20
322.1835578162
 11
377.956848617
 21
326.4825222633
  0
LINE
  5
293
100
AcDbEntity
  8
0
100
AcDbLine
 62
7
  6
CONTINUOUS
 10
379.7401030629
 20
329.5712267123
 11
382.4055300089
 21
334.1879072343
  0
LINE
  5
294
100
AcDbEntity
  8
0
100
AcDbLine
 62
7
  6
CONTINUOUS
 10
339.2487314392
 20
251.3855861075
 11
337.4809895099
 21
250.364985921
  0
LINE
  5
295
100
AcDbEntity
  8
0
100
AcDbLine
 62
7
  6
CONTINUOUS
 10
339.4380465355
 20
249.9884612086
 11
339.2487314392
 21
249.8791607392
  0
LINE
  5
296
100
AcDbEntity
  8
0
100
AcDbLine
 62
7
  6
CONTINUOUS
 10
339.2487314392
 20
247.6143229849
 11
337.4809895099
 21
246.5937227983
  0
LINE
  5
297
100
AcDbEntity
  8
0
100
AcDbLine
 62
7
  6
CONTINUOUS
 10
337.4809895099
 20
245.6213489859
 11
337.8344207259
 21
245.8254013756
  0
LINE
  5
298
100
AcDbEntity
  8
0
100
AcDbLine
 62
7
  6
CONTINUOUS
 10
339.9557322375
 20
247.0501338372
 11
342.7841475864
 21
248.6831104527
  0
LINE
  5
299
100
AcDbEntity
  8
0
100
AcDbLine
 62
7
  6
CONTINUOUS
 10
374.603820261
 20
267.0540973769
 11
377.4322356099
 21
268.6870739924
  0
LINE
  5
29A
100
AcDbEntity
  8
0
100
AcDbLine
 62
7
  6
CONTINUOUS
 10
379.5535471215
 20
269.911806454
 11
382.3819624704
 21
271.5447830695
  0
LINE
  5
29B
100
AcDbEntity
  8
0
100
AcDbLine
 62
7
  6
CONTINUOUS
 10
384.503273982
 20
272.7695155311
 11
387.3316893309
 21
274.4024921466
  0
LINE
  5
29C
100
AcDbEntity
  8
0
100
AcDbLine
 62
7
  6
CONTINUOUS
 10
360.4617435167
 20
255.6966898485
 11
371.7754049122
 21
262.2285963104
  0
LINE
  5
29D
100
AcDbEntity
  8
0
100
AcDbLine
 62
7
  6
CONTINUOUS
 10
349.2895028888
 20
244.9597945274
 11
363.1134508082
 21
252.9410069385
  0
LINE
  5
29E
100
AcDbEntity
  8
0
100
AcDbLine
 62
7
  6
CONTINUOUS
 10
125.9770337105
 20
507.3507836239
 11
123.5797706829
 21
508.7348127673
  0
LINE
  5
29F
100
AcDbEntity
  8
0
100
AcDbLine
 62
7
  6
CONTINUOUS
 10
392.6350211014
 20
353.3992056723
 11
400.7667829406
 21
348.7044369953
  0
LINE
  5
2A0
100
AcDbEntity
  8
0
100
AcDbLine
 62
7
  6
CONTINUOUS
 10
125.9770337106
 20
510.6167932924
 11
123.5797706829
 21
512.0008224358
  0
LINE
  5
2A1
100
AcDbEntity
  8
0
100
AcDbLine
 62
7
  6
CONTINUOUS
 10
392.6350211014
 20
356.6652153408
 11
400.7667829406
 21
351.9704466638
  0
LINE
  5
2A2
100
AcDbEntity
  8
0
100
AcDbLine
 62
7
  6
CONTINUOUS
 10
129.5901356355
 20
517.9203524689
 11
406.0700381679
 21
358.2982174514
  0
LINE
  5
2A3
100
AcDbEntity
  8
0
100
AcDbLine
 62
7
  6
CONTINUOUS
 10
387.3318070895
 20
253.2472646935
 11
386.9175607555
 21
254.1627994156
  0
LINE
  5
2A4
100
AcDbEntity
  8
0
100
AcDbLine
 62
7
  6
CONTINUOUS
 10
359.4010759851
 20
203.5711793222
 11
359.4010759851
 21
203.3180533351
  0
LINE
  5
2A5
100
AcDbEntity
  8
0
100
AcDbLine
 62
7
  6
CONTINUOUS
 10
359.4010759851
 20
184.2283358259
 11
359.4010759851
 21
171.7275568354
  0
LINE
  5
2A6
100
AcDbEntity
  8
0
100
AcDbLine
 62
7
  6
CONTINUOUS
 10
360.4617435167
 20
254.4719362228
 11
360.4617435167
 21
255.6966898485
  0
LINE
  5
2A7
100
AcDbEntity
  8
0
100
AcDbLine
 62
7
  6
CONTINUOUS
 10
360.7375552288
 20
185.8010529672
 11
360.7375552288
 21
188.6966075878
  0
LINE
  5
2A8
100
AcDbEntity
  8
0
100
AcDbLine
 62
7
  6
CONTINUOUS
 10
360.7375552288
 20
189.5989527126
 11
360.7375552288
 21
192.8444398668
  0
LINE
  5
2A9
100
AcDbEntity
  8
0
100
AcDbLine
 62
7
  6
CONTINUOUS
 10
360.7375552288
 20
193.7467849916
 11
360.7375552288
 21
196.6423396121
  0
LINE
  5
2AA
100
AcDbEntity
  8
0
100
AcDbLine
 62
7
  6
CONTINUOUS
 10
360.8152954354
 20
204.3876744287
 11
360.8152954354
 21
202.5015718261
  0
LINE
  5
2AB
100
AcDbEntity
  8
0
100
AcDbLine
 62
7
  6
CONTINUOUS
 10
360.8152954354
 20
185.0448309324
 11
360.8152954354
 21
170.9110753264
  0
LINE
  5
2AC
100
AcDbEntity
  8
0
100
AcDbLine
 62
7
  6
CONTINUOUS
 10
363.7852493103
 20
203.5388324599
 11
363.7852493103
 21
236.5908503053
  0
LINE
  5
2AD
100
AcDbEntity
  8
0
100
AcDbLine
 62
7
  6
CONTINUOUS
 10
365.1569542114
 20
199.9949706699
 11
365.1569542114
 21
187.5514738328
  0
LINE
  5
2AE
100
AcDbEntity
  8
0
100
AcDbLine
 62
7
  6
CONTINUOUS
 10
365.4115883889
 20
236.5500091048
 11
365.4115883889
 21
229.7322139217
  0
LINE
  5
2AF
100
AcDbEntity
  8
0
100
AcDbLine
 62
7
  6
CONTINUOUS
 10
365.4115883889
 20
228.8667213596
 11
365.4115883889
 21
221.4365493637
  0
LINE
  5
2B0
100
AcDbEntity
  8
0
100
AcDbLine
 62
7
  6
CONTINUOUS
 10
365.4115883889
 20
220.5710568015
 11
365.4115883889
 21
213.1408848057
  0
LINE
  5
2B1
100
AcDbEntity
  8
0
100
AcDbLine
 62
7
  6
CONTINUOUS
 10
365.4115883889
 20
212.2753922435
 11
365.4115883889
 21
205.4575970605
  0
LINE
  5
2B2
100
AcDbEntity
  8
0
100
AcDbLine
 62
7
  6
CONTINUOUS
 10
384.1595873115
 20
333.9600454193
 11
381.1543225132
 21
328.7547452032
  0
LINE
  5
2B3
100
AcDbEntity
  8
0
100
AcDbLine
 62
7
  6
CONTINUOUS
 10
379.6504676617
 20
326.1499777338
 11
376.8890735645
 21
321.3670763072
  0
LINE
  5
2B4
100
AcDbEntity
  8
0
100
AcDbLine
 62
7
  6
CONTINUOUS
 10
374.3664384511
 20
316.997719867
 11
365.492355723
 21
301.6272723881
  0
LINE
  5
2B5
100
AcDbEntity
  8
0
100
AcDbLine
 62
7
  6
CONTINUOUS
 10
362.9697206096
 20
297.2579159479
 11
360.2083265124
 21
292.4750145213
  0
LINE
  5
2B6
100
AcDbEntity
  8
0
100
AcDbLine
 62
7
  6
CONTINUOUS
 10
358.7044716608
 20
289.8702470519
 11
355.6992068626
 21
284.6649468358
  0
LINE
  5
2B7
100
AcDbEntity
  8
0
100
AcDbLine
 62
7
  6
CONTINUOUS
 10
357.1992006175
 20
283.7989002765
 11
360.2044654157
 21
289.0042004926
  0
LINE
  5
2B8
100
AcDbEntity
  8
0
100
AcDbLine
 62
7
  6
CONTINUOUS
 10
361.7083202673
 20
291.608967962
 11
364.4697143645
 21
296.3918693886
  0
LINE
  5
2B9
100
AcDbEntity
  8
0
100
AcDbLine
 62
7
  6
CONTINUOUS
 10
366.9923494779
 20
300.7612258288
 11
375.866432206
 21
316.1316733077
  0
LINE
  5
2BA
100
AcDbEntity
  8
0
100
AcDbLine
 62
7
  6
CONTINUOUS
 10
378.3890673194
 20
320.5010297479
 11
381.1504614166
 21
325.2839311745
  0
LINE
  5
2BB
100
AcDbEntity
  8
0
100
AcDbLine
 62
7
  6
CONTINUOUS
 10
382.6543162681
 20
327.8886986439
 11
385.6595810664
 21
333.09399886
  0
LINE
  5
2BC
100
AcDbEntity
  8
0
100
AcDbLine
 62
7
  6
CONTINUOUS
 10
374.6039380197
 20
247.5318747581
 11
385.9175994151
 21
254.06378122
  0
LINE
  5
2BD
100
AcDbEntity
  8
0
100
AcDbLine
 62
7
  6
CONTINUOUS
 10
386.2711513337
 20
253.0431496713
 11
374.6039380197
 21
246.3071211324
  0
LINE
  5
2BE
100
AcDbEntity
  8
0
100
AcDbLine
 62
7
  6
CONTINUOUS
 10
363.7852493103
 20
236.5908503053
 11
383.3013152174
 21
247.8583889522
  0
LINE
  5
2BF
100
AcDbEntity
  8
0
100
AcDbLine
 62
7
  6
CONTINUOUS
 10
374.8160694239
 20
241.9796563513
 11
365.4115883889
 21
236.5500091048
  0
LINE
  5
2C0
100
AcDbEntity
  8
0
100
AcDbLine
 62
7
  6
CONTINUOUS
 10
374.603820261
 20
261.2720300711
 11
374.603820261
 21
267.0540973769
  0
LINE
  5
2C1
100
AcDbEntity
  8
0
100
AcDbLine
 62
7
  6
CONTINUOUS
 10
374.603820261
 20
173.9728218241
 11
374.6039380197
 21
204.4777023028
  0
LINE
  5
2C2
100
AcDbEntity
  8
0
100
AcDbLine
 62
7
  6
CONTINUOUS
 10
374.6039380197
 20
246.3071211324
 11
374.6039380197
 21
247.5318747581
  0
LINE
  5
2C3
100
AcDbEntity
  8
0
100
AcDbLine
 62
7
  6
CONTINUOUS
 10
374.8160694239
 20
210.887244307
 11
374.8160694239
 21
217.70503949
  0
LINE
  5
2C4
100
AcDbEntity
  8
0
100
AcDbLine
 62
7
  6
CONTINUOUS
 10
374.8160694239
 20
218.5705320522
 11
374.8160694239
 21
226.000704048
  0
LINE
  5
2C5
100
AcDbEntity
  8
0
100
AcDbLine
 62
7
  6
CONTINUOUS
 10
374.8160694239
 20
226.8661966102
 11
374.8160694239
 21
234.2963686061
  0
LINE
  5
2C6
100
AcDbEntity
  8
0
100
AcDbLine
 62
7
  6
CONTINUOUS
 10
374.8160694239
 20
235.1618611682
 11
374.8160694239
 21
241.9796563513
  0
LINE
  5
2C7
100
AcDbEntity
  8
0
100
AcDbLine
 62
7
  6
CONTINUOUS
 10
376.0180161596
 20
267.8705788859
 11
376.0180161596
 21
260.4555621594
  0
LINE
  5
2C8
100
AcDbEntity
  8
0
100
AcDbLine
 62
7
  6
CONTINUOUS
 10
376.0180161596
 20
204.0693621985
 11
376.0180161596
 21
176.4222799486
  0
LINE
  5
2C9
100
AcDbEntity
  8
0
100
AcDbLine
 62
7
  6
CONTINUOUS
 10
377.4322356099
 20
268.6870739924
 11
377.4322356099
 21
259.6390806503
  0
LINE
  5
2CA
100
AcDbEntity
  8
0
100
AcDbLine
 62
7
  6
CONTINUOUS
 10
377.4322356099
 20
204.885857305
 11
377.4322356099
 21
175.6057984396
  0
LINE
  5
2CB
100
AcDbEntity
  8
0
100
AcDbLine
 62
7
  6
CONTINUOUS
 10
379.5535471215
 20
176.8305309012
 11
379.5535471215
 21
206.1105897667
  0
LINE
  5
2CC
100
AcDbEntity
  8
0
100
AcDbLine
 62
7
  6
CONTINUOUS
 10
379.5535471215
 20
258.4143685848
 11
379.5535471215
 21
269.911806454
  0
LINE
  5
2CD
100
AcDbEntity
  8
0
100
AcDbLine
 62
7
  6
CONTINUOUS
 10
380.9677430201
 20
270.728287963
 11
380.9677430201
 21
257.597900673
  0
LINE
  5
2CE
100
AcDbEntity
  8
0
100
AcDbLine
 62
7
  6
CONTINUOUS
 10
380.9677430201
 20
206.9270712756
 11
380.9677430201
 21
179.2799890257
  0
LINE
  5
2CF
100
AcDbEntity
  8
0
100
AcDbLine
 62
7
  6
CONTINUOUS
 10
382.3819624704
 20
271.5447830695
 11
382.3819624704
 21
256.781419164
  0
LINE
  5
2D0
100
AcDbEntity
  8
0
100
AcDbLine
 62
7
  6
CONTINUOUS
 10
382.3819624704
 20
207.7435663821
 11
382.3819624704
 21
178.4635075167
  0
LINE
  5
2D1
100
AcDbEntity
  8
0
100
AcDbLine
 62
7
  6
CONTINUOUS
 10
383.3013152174
 20
247.8583889522
 11
383.3013152174
 21
214.8063711068
  0
LINE
  5
2D2
100
AcDbEntity
  8
0
100
AcDbLine
 62
7
  6
CONTINUOUS
 10
384.503273982
 20
179.6882399783
 11
384.503273982
 21
179.9672287336
  0
LINE
  5
2D3
100
AcDbEntity
  8
0
100
AcDbLine
 62
7
  6
CONTINUOUS
 10
384.503273982
 20
182.6752608916
 11
384.503273982
 21
208.9682988438
  0
LINE
  5
2D4
100
AcDbEntity
  8
0
100
AcDbLine
 62
7
  6
CONTINUOUS
 10
384.503273982
 20
255.5567070984
 11
384.503273982
 21
272.7695155311
  0
LINE
  5
2D5
100
AcDbEntity
  8
0
100
AcDbLine
 62
7
  6
CONTINUOUS
 10
385.9174698806
 20
273.5859970401
 11
385.9174698806
 21
254.7402391866
  0
LINE
  5
2D6
100
AcDbEntity
  8
0
100
AcDbLine
 62
7
  6
CONTINUOUS
 10
385.9174698806
 20
209.7848551391
 11
385.9174698806
 21
185.8920384436
  0
LINE
  5
2D7
100
AcDbEntity
  8
0
100
AcDbLine
 62
7
  6
CONTINUOUS
 10
386.2711513337
 20
211.2137308417
 11
386.2711513337
 21
253.0431496713
  0
LINE
  5
2D8
100
AcDbEntity
  8
0
100
AcDbLine
 62
7
  6
CONTINUOUS
 10
387.3316893309
 20
274.4024921466
 11
387.3316893309
 21
185.0755569345
  0
LINE
  5
2D9
100
AcDbEntity
  8
0
100
AcDbLine
 62
7
  6
CONTINUOUS
 10
365.4115883889
 20
229.7322139217
 11
374.8160694239
 21
235.1618611682
  0
LINE
  5
2DA
100
AcDbEntity
  8
0
100
AcDbLine
 62
7
  6
CONTINUOUS
 10
374.8160694239
 20
234.2963686061
 11
365.4115883889
 21
228.8667213596
  0
LINE
  5
2DB
100
AcDbEntity
  8
0
100
AcDbLine
 62
7
  6
CONTINUOUS
 10
365.4115883889
 20
221.4365493637
 11
374.8160694239
 21
226.8661966102
  0
LINE
  5
2DC
100
AcDbEntity
  8
0
100
AcDbLine
 62
7
  6
CONTINUOUS
 10
374.8160694239
 20
226.000704048
 11
365.4115883889
 21
220.5710568015
  0
LINE
  5
2DD
100
AcDbEntity
  8
0
100
AcDbLine
 62
7
  6
CONTINUOUS
 10
349.9966157796
 20
211.4995236458
 11
349.2895028888
 21
211.0912742648
  0
LINE
  5
2DE
100
AcDbEntity
  8
0
100
AcDbLine
 62
7
  6
CONTINUOUS
 10
365.4115883889
 20
213.1408848057
 11
374.8160694239
 21
218.5705320522
  0
LINE
  5
2DF
100
AcDbEntity
  8
0
100
AcDbLine
 62
7
  6
CONTINUOUS
 10
391.5743123695
 20
353.6843236353
 11
391.5743123694
 21
352.3787129043
  0
LINE
  5
2E0
100
AcDbEntity
  8
0
100
AcDbLine
 62
7
  6
CONTINUOUS
 10
391.5743123686
 20
343.3971933161
 11
391.5743123542
 21
171.5231452601
  0
LINE
  5
2E1
100
AcDbEntity
  8
0
100
AcDbLine
 62
7
  6
CONTINUOUS
 10
392.6350211014
 20
353.3992056723
 11
392.6350211014
 21
356.6652153408
  0
LINE
  5
2E2
100
AcDbEntity
  8
0
100
AcDbLine
 62
7
  6
CONTINUOUS
 10
392.7458734536
 20
353.3352064848
 11
392.7458734536
 21
351.7023270989
  0
LINE
  5
2E3
100
AcDbEntity
  8
0
100
AcDbLine
 62
7
  6
CONTINUOUS
 10
392.7458734536
 20
344.0735903863
 11
392.7458734536
 21
173.1561082782
  0
LINE
  5
2E4
100
AcDbEntity
  8
0
100
AcDbLine
 62
7
  6
CONTINUOUS
 10
396.5241599173
 20
346.2549720721
 11
396.5241599173
 21
349.5209817406
  0
LINE
  5
2E5
100
AcDbEntity
  8
0
100
AcDbLine
 62
7
  6
CONTINUOUS
 10
400.7667829406
 20
348.7044369953
 11
400.7667829406
 21
351.9704466638
  0
LINE
  5
2E6
100
AcDbEntity
  8
0
100
AcDbLine
 62
7
  6
CONTINUOUS
 10
406.0700617197
 20
355.0322778179
 11
406.0700617197
 21
351.7662681494
  0
LINE
  5
2E7
100
AcDbEntity
  8
0
100
AcDbLine
 62
7
  6
CONTINUOUS
 10
407.2416228191
 20
353.3992311674
 11
407.2416228191
 21
356.665240836
  0
LINE
  5
2E8
100
AcDbEntity
  8
0
100
AcDbLine
 62
7
  6
CONTINUOUS
 10
333.0692516769
 20
135.8996162757
 11
333.6226726327
 21
137.2131942327
  0
LINE
  5
2E9
100
AcDbEntity
  8
0
100
AcDbLine
 62
7
  6
CONTINUOUS
 10
334.1760652471
 20
136.8937000857
 11
333.6226442914
 21
135.5801221287
  0
LINE
  5
2EA
100
AcDbEntity
  8
0
100
AcDbLine
 62
7
  6
CONTINUOUS
 10
374.8160694239
 20
217.70503949
 11
365.4115883889
 21
212.2753922435
  0
LINE
  5
2EB
100
AcDbEntity
  8
0
100
AcDbLine
 62
7
  6
CONTINUOUS
 10
347.7338744469
 20
196.8351575821
 11
360.8152954354
 21
204.3876744287
  0
LINE
  5
2EC
100
AcDbEntity
  8
0
100
AcDbLine
 62
7
  6
CONTINUOUS
 10
365.4115883889
 20
205.4575970605
 11
374.8160694239
 21
210.887244307
  0
LINE
  5
2ED
100
AcDbEntity
  8
0
100
AcDbLine
 62
7
  6
CONTINUOUS
 10
383.3013152174
 20
214.8063711068
 11
363.7852493103
 21
203.5388324599
  0
LINE
  5
2EE
100
AcDbEntity
  8
0
100
AcDbLine
 62
7
  6
CONTINUOUS
 10
354.5503966532
 20
193.8713083618
 11
365.1569542114
 21
199.9949706699
  0
LINE
  5
2EF
100
AcDbEntity
  8
0
100
AcDbLine
 62
7
  6
CONTINUOUS
 10
360.7375552288
 20
196.6423396121
 11
355.9763804972
 21
193.8934905076
  0
LINE
  5
2F0
100
AcDbEntity
  8
0
100
AcDbLine
 62
7
  6
CONTINUOUS
 10
374.6039380197
 20
204.4777023028
 11
386.2711513337
 21
211.2137308417
  0
LINE
  5
2F1
100
AcDbEntity
  8
0
100
AcDbLine
 62
7
  6
CONTINUOUS
 10
385.9175994151
 20
209.7848551391
 11
374.6039380197
 21
203.2529486771
  0
LINE
  5
2F2
100
AcDbEntity
  8
0
100
AcDbLine
 62
7
  6
CONTINUOUS
 10
355.9763804972
 20
190.9979358871
 11
360.7375552288
 21
193.7467849916
  0
LINE
  5
2F3
100
AcDbEntity
  8
0
100
AcDbLine
 62
7
  6
CONTINUOUS
 10
360.7375552288
 20
192.8444398668
 11
355.9763804972
 21
190.0955907623
  0
LINE
  5
2F4
100
AcDbEntity
  8
0
100
AcDbLine
 62
7
  6
CONTINUOUS
 10
355.9763804972
 20
186.8501036081
 11
360.7375552288
 21
189.5989527126
  0
LINE
  5
2F5
100
AcDbEntity
  8
0
100
AcDbLine
 62
7
  6
CONTINUOUS
 10
360.7375552288
 20
188.6966075878
 11
355.9763804972
 21
185.9477584833
  0
LINE
  5
2F6
100
AcDbEntity
  8
0
100
AcDbLine
 62
7
  6
CONTINUOUS
 10
355.9763804972
 20
183.0522038627
 11
360.7375552288
 21
185.8010529672
  0
LINE
  5
2F7
100
AcDbEntity
  8
0
100
AcDbLine
 62
7
  6
CONTINUOUS
 10
365.1569542114
 20
187.5514738328
 11
354.5503966532
 21
181.4278115248
  0
LINE
  5
2F8
100
AcDbEntity
  8
0
100
AcDbLine
 62
7
  6
CONTINUOUS
 10
359.4010759851
 20
171.7275568354
 11
347.7338744469
 21
164.9915350953
  0
LINE
  5
2F9
100
AcDbEntity
  8
0
100
AcDbLine
 62
7
  6
CONTINUOUS
 10
360.8152954354
 20
170.9110753264
 11
347.7338744469
 21
163.3585584798
  0
LINE
  5
2FA
100
AcDbEntity
  8
0
100
AcDbLine
 62
7
  6
CONTINUOUS
 10
380.9677430201
 20
179.2799890257
 11
379.5535471215
 21
178.4635075168
  0
LINE
  5
2FB
100
AcDbEntity
  8
0
100
AcDbLine
 62
7
  6
CONTINUOUS
 10
376.0180161596
 20
176.4222799486
 11
374.603820261
 21
175.6057984397
  0
LINE
  5
2FC
100
AcDbEntity
  8
0
100
AcDbLine
 62
7
  6
CONTINUOUS
 10
341.3699281361
 20
156.4183164089
 11
339.9557322375
 21
155.6018349
  0
LINE
  5
2FD
100
AcDbEntity
  8
0
100
AcDbLine
 62
7
  6
CONTINUOUS
 10
384.6899013279
 20
179.7959886835
 11
384.503273982
 21
179.6882399783
  0
LINE
  5
2FE
100
AcDbEntity
  8
0
100
AcDbLine
 62
7
  6
CONTINUOUS
 10
382.3819624704
 20
178.4635075167
 11
379.5535471215
 21
176.8305309012
  0
LINE
  5
2FF
100
AcDbEntity
  8
0
100
AcDbLine
 62
7
  6
CONTINUOUS
 10
377.4322356099
 20
175.6057984396
 11
374.603820261
 21
173.9728218241
  0
LINE
  5
300
100
AcDbEntity
  8
0
100
AcDbLine
 62
7
  6
CONTINUOUS
 10
342.7841475864
 20
155.6018348999
 11
339.9557322375
 21
153.9688582844
  0
LINE
  5
301
100
AcDbEntity
  8
0
100
AcDbLine
 62
7
  6
CONTINUOUS
 10
337.8344207259
 20
152.7441258228
 11
337.4809895099
 21
152.5400734331
  0
LINE
  5
302
100
AcDbEntity
  8
0
100
AcDbLine
 62
7
  6
CONTINUOUS
 10
326.5208123219
 20
136.4143479339
 11
329.3492276707
 21
138.0473245494
  0
LINE
  5
303
100
AcDbEntity
  8
0
100
AcDbLine
 62
7
  6
CONTINUOUS
 10
330.0564595883
 20
137.6390132487
 11
331.4707759057
 21
138.4555642812
  0
LINE
  5
304
100
AcDbEntity
  8
0
100
AcDbLine
 62
7
  6
CONTINUOUS
 10
337.4809895099
 20
140.2925371762
 11
391.5743123542
 21
171.5231452601
  0
LINE
  5
305
100
AcDbEntity
  8
0
100
AcDbLine
 62
7
  6
CONTINUOUS
 10
337.4809895099
 20
138.2515703752
 11
334.6525741611
 21
136.6185937597
  0
LINE
  5
306
100
AcDbEntity
  8
0
100
AcDbLine
 62
7
  6
CONTINUOUS
 10
337.4809895099
 20
133.3525558724
 11
334.6525741611
 21
131.719579257
  0
LINE
  5
307
100
AcDbEntity
  8
0
100
AcDbLine
 62
7
  6
CONTINUOUS
 10
337.4809895099
 20
125.1875317011
 11
338.5416452658
 21
125.799897932
  0
LINE
  5
308
100
AcDbEntity
  8
0
100
AcDbLine
 62
7
  6
CONTINUOUS
 10
338.5416452658
 20
124.1668930977
 11
337.4809895099
 21
123.5545268669
  0
ARC
  5
309
100
AcDbEntity
  8
0
100
AcDbCircle
 62
7
  6
CONTINUOUS
 10
378.3285270171
 20
325.6332771945
 40
10.1778413902
100
AcDbArc
 50
45.0111655638
 51
45.6851559123
  0
ARC
  5
30A
100
AcDbEntity
  8
0
100
AcDbCircle
 62
7
  6
CONTINUOUS
 10
67.7227728468
 20
473.1101975945
 40
5.1052372836
100
AcDbArc
 50
83.7518177262
 51
88.7367686774
  0
ARC
  5
30B
100
AcDbEntity
  8
0
100
AcDbCircle
 62
7
  6
CONTINUOUS
 10
121.462664475
 20
504.1367532888
 40
5.1052372835
100
AcDbArc
 50
83.7518177262
 51
88.7367686774
  0
ARC
  5
30C
100
AcDbEntity
  8
0
100
AcDbCircle
 62
7
  6
CONTINUOUS
 10
387.2609871903
 20
181.7703181409
 40
3.0
100
AcDbArc
 50
240.0005612632
 51
60.0005612632
  0
SPLINE
  5
30D
100
AcDbEntity
  8
0
100
AcDbSpline
 62
7
  6
CONTINUOUS
 70
0
 71
3
 72
17
 73
13
 74
0
 42
0.0000001
 43
0.0000001
 44
0.0000000001
 40
0.0
 40
0.0
 40
0.0
 40
0.0
 40
0.127289852
 40
0.2671729789
 40
0.412863703
 40
0.5565345139
 40
0.6907099654
 40
0.8096685789
 40
0.8627223904
 40
0.9115921644
 40
0.9569820599
 40
1.0
 40
1.0
 40
1.0
 40
1.0
 10
370.6793939645
 20
290.5081684625
 30
0.0
 10
372.2952706225
 20
291.4410897172
 30
0.0
 10
375.4374179494
 20
293.8402949948
 30
0.0
 10
379.4870485451
 20
298.3744628234
 30
0.0
 10
382.8606847267
 20
303.7191967186
 30
0.0
 10
385.2941630663
 20
309.4628975065
 30
0.0
 10
386.602506671
 20
315.1622741681
 30
0.0
 10
386.6697527043
 20
319.7026756306
 30
0.0
 10
386.0065746338
 20
322.8845383521
 30
0.0
 10
385.2099012492
 20
324.9050941035
 30
0.0
 10
384.1062386008
 20
326.6052112967
 30
0.0
 10
383.1605350485
 20
327.5127198319
 30
0.0
 10
382.6543162681
 20
327.8886986439
 30
0.0
  0
SPLINE
  5
30E
100
AcDbEntity
  8
0
100
AcDbSpline
 62
7
  6
CONTINUOUS
 70
0
 71
3
 72
11
 73
7
 74
0
 42
0.0000001
 43
0.0000001
 44
0.0000000001
 40
0.0
 40
0.0
 40
0.0
 40
0.0
 40
0.2180458089
 40
0.4530132976
 40
0.7126401678
 40
1.0
 40
1.0
 40
1.0
 40
1.0
 10
360.2044654157
 20
289.0042004926
 30
0.0
 10
360.9346454506
 20
288.6882326754
 30
0.0
 10
362.5649757384
 20
288.2737102305
 30
0.0
 10
365.1907370109
 20
288.3612884173
 30
0.0
 10
367.9647765486
 20
289.1101279388
 30
0.0
 10
369.7713414747
 20
289.9839072425
 30
0.0
 10
370.6793939645
 20
290.5081684625
 30
0.0
  0
SPLINE
  5
30F
100
AcDbEntity
  8
0
100
AcDbSpline
 62
7
  6
CONTINUOUS
 70
0
 71
3
 72
15
 73
11
 74
0
 42
0.0000001
 43
0.0000001
 44
0.0000000001
 40
0.0
 40
0.0
 40
0.0
 40
0.0
 40
0.1265363471
 40
0.2654840473
 40
0.410374762
 40
0.5536963099
 40
0.6882141137
 40
0.8082430107
 40
0.9112458358
 40
1.0
 40
1.0
 40
1.0
 40
1.0
 10
370.6793939645
 20
297.4484390081
 30
0.0
 10
371.6660520763
 20
298.0180829342
 30
0.0
 10
373.5867050073
 20
299.4775954371
 30
0.0
 10
376.0721885022
 20
302.233539118
 30
0.0
 10
378.1575922974
 20
305.4852986382
 30
0.0
 10
379.6846459203
 20
308.9898893144
 30
0.0
 10
380.5422701829
 20
312.4888844405
 30
0.0
 10
380.6608448001
 20
315.7340330245
 30
0.0
 10
380.0204052663
 20
318.5114591484
 30
0.0
 10
378.9960538826
 20
319.9812693785
 30
0.0
 10
378.3890673194
 20
320.5010297479
 30
0.0
  0
SPLINE
  5
310
100
AcDbEntity
  8
0
100
AcDbSpline
 62
7
  6
CONTINUOUS
 70
0
 71
3
 72
11
 73
7
 74
0
 42
0.0000001
 43
0.0000001
 44
0.0000000001
 40
0.0
 40
0.0
 40
0.0
 40
0.0
 40
0.2186093152
 40
0.4546803983
 40
0.7144114227
 40
1.0
 40
1.0
 40
1.0
 40
1.0
 10
364.4697143645
 20
296.3918693886
 30
0.0
 10
364.9152297183
 20
296.2347335649
 30
0.0
 10
365.8945154703
 20
296.0460772336
 30
0.0
 10
367.4482003504
 20
296.1505897538
 30
0.0
 10
369.0808066318
 20
296.6205103229
 30
0.0
 10
370.1449196954
 20
297.1398619869
 30
0.0
 10
370.6793939645
 20
297.4484390081
 30
0.0
  0
SPLINE
  5
311
100
AcDbEntity
  8
0
100
AcDbSpline
 62
7
  6
CONTINUOUS
 70
0
 71
3
 72
10
 73
6
 74
0
 42
0.0000001
 43
0.0000001
 44
0.0000000001
 40
0.0
 40
0.0
 40
0.0
 40
0.0
 40
0.5311530505
 40
0.7709767173
 40
1.0
 40
1.0
 40
1.0
 40
1.0
 10
374.559452366
 20
333.9545395132
 30
0.0
 10
376.1984105429
 20
334.5294954101
 30
0.0
 10
378.7307685314
 20
335.0603644887
 30
0.0
 10
382.0061061742
 20
334.7524833955
 30
0.0
 10
383.479659517
 20
334.2739974377
 30
0.0
 10
384.1595873115
 20
333.9600454193
 30
0.0
  0
SPLINE
  5
312
100
AcDbEntity
  8
0
100
AcDbSpline
 62
7
  6
CONTINUOUS
 70
0
 71
3
 72
15
 73
11
 74
0
 42
0.0000001
 43
0.0000001
 44
0.0000000001
 40
0.0
 40
0.0
 40
0.0
 40
0.0
 40
0.0429717259
 40
0.0878484513
 40
0.1866229617
 40
0.2709769669
 40
0.3640670583
 40
0.5705651355
 40
0.7896306995
 40
1.0
 40
1.0
 40
1.0
 40
1.0
 10
355.6992068626
 20
284.6649468358
 30
0.0
 10
355.1145358948
 20
285.0776405032
 30
0.0
 10
354.0120805442
 20
286.0604005903
 30
0.0
 10
352.1654955929
 20
288.5840775057
 30
0.0
 10
350.8696042563
 20
292.2383186017
 30
0.0
 10
350.4052894504
 20
296.8338732907
 30
0.0
 10
350.8404188723
 20
303.2393655197
 30
0.0
 10
353.28255946
 20
311.631070643
 30
0.0
 10
358.4253803187
 20
320.9668241541
 30
0.0
 10
363.2030141764
 20
326.4019525345
 30
0.0
 10
365.8567524049
 20
328.6893331509
 30
0.0
  0
SPLINE
  5
313
100
AcDbEntity
  8
0
100
AcDbSpline
 62
7
  6
CONTINUOUS
 70
0
 71
3
 72
11
 73
7
 74
0
 42
0.0000001
 43
0.0000001
 44
0.0000000001
 40
0.0
 40
0.0
 40
0.0
 40
0.0
 40
0.2868680667
 40
0.5465982829
 40
0.7818753045
 40
1.0
 40
1.0
 40
1.0
 40
1.0
 10
370.6793939645
 20
324.8012699819
 30
0.0
 10
371.4554688359
 20
325.2493343433
 30
0.0
 10
373.000202301
 20
325.9977256749
 30
0.0
 10
375.3714058874
 20
326.6494402647
 30
0.0
 10
377.6192185437
 20
326.743024393
 30
0.0
 10
379.0204440688
 20
326.4095175797
 30
0.0
 10
379.6504676617
 20
326.1499777338
 30
0.0
  0
SPLINE
  5
314
100
AcDbEntity
  8
0
100
AcDbSpline
 62
7
  6
CONTINUOUS
 70
0
 71
3
 72
17
 73
13
 74
0
 42
0.0000001
 43
0.0000001
 44
0.0000000001
 40
0.0
 40
0.0
 40
0.0
 40
0.0
 40
0.0430753695
 40
0.0886147182
 40
0.1905344997
 40
0.3097700103
 40
0.4440370264
 40
0.515174059
 40
0.5877537053
 40
0.7332466933
 40
0.8728949428
 40
1.0
 40
1.0
 40
1.0
 40
1.0
 10
360.2083265124
 20
292.4750145213
 30
0.0
 10
359.7762496008
 20
292.8079033308
 30
0.0
 10
358.9709853587
 20
293.6072661718
 30
0.0
 10
357.676532282
 20
295.6633361369
 30
0.0
 10
356.7989892297
 20
299.0005099577
 30
0.0
 10
356.8953879729
 20
303.5362629895
 30
0.0
 10
357.8340972343
 20
307.5662721929
 30
0.0
 10
359.0699079788
 20
310.8654503546
 30
0.0
 10
360.6402010589
 20
314.1779191332
 30
0.0
 10
363.0772245858
 20
318.0227745932
 30
0.0
 10
366.5743784794
 20
321.9289026094
 30
0.0
 10
369.2855552051
 20
323.9965416025
 30
0.0
 10
370.6793939645
 20
324.8012699819
 30
0.0
  0
SPLINE
  5
315
100
AcDbEntity
  8
0
100
AcDbSpline
 62
7
  6
CONTINUOUS
 70
0
 71
3
 72
9
 73
5
 74
0
 42
0.0000001
 43
0.0000001
 44
0.0000000001
 40
0.0
 40
0.0
 40
0.0
 40
0.0
 40
0.5431094781
 40
1.0
 40
1.0
 40
1.0
 40
1.0
 10
370.6793939645
 20
316.2279946021
 30
0.0
 10
371.2805527587
 20
316.575071722
 30
0.0
 10
372.4716700605
 20
317.0925411676
 30
0.0
 10
373.7990503169
 20
317.1358478723
 30
0.0
 10
374.3664384511
 20
316.997719867
 30
0.0
  0
SPLINE
  5
316
100
AcDbEntity
  8
0
100
AcDbSpline
 62
7
  6
CONTINUOUS
 70
0
 71
3
 72
14
 73
10
 74
0
 42
0.0000001
 43
0.0000001
 44
0.0000000001
 40
0.0
 40
0.0
 40
0.0
 40
0.0
 40
0.0903506177
 40
0.1954722253
 40
0.31693195
 40
0.4517958621
 40
0.7371589325
 40
0.8746542613
 40
1.0
 40
1.0
 40
1.0
 40
1.0
 10
365.492355723
 20
301.6272723881
 30
0.0
 10
365.1380133403
 20
301.9983173574
 30
0.0
 10
364.5654836205
 20
302.9908602192
 30
0.0
 10
364.2467601091
 20
304.7849983958
 30
0.0
 10
364.3888278583
 20
306.8492817013
 30
0.0
 10
365.1890238147
 20
309.8319976038
 30
0.0
 10
366.7535287502
 20
312.660661006
 30
0.0
 10
368.8606135753
 20
314.964896662
 30
0.0
 10
370.0629695849
 20
315.872103945
 30
0.0
 10
370.6793939645
 20
316.2279946021
 30
0.0
  0
SPLINE
  5
317
100
AcDbEntity
  8
0
100
AcDbSpline
 62
7
  6
CONTINUOUS
 70
0
 71
3
 72
9
 73
5
 74
0
 42
0.0000001
 43
0.0000001
 44
0.0000000001
 40
0.0
 40
0.0
 40
0.0
 40
0.0
 40
0.2280131952
 40
1.0
 40
1.0
 40
1.0
 40
1.0
 10
337.4238484446
 20
277.2974816129
 30
0.0
 10
337.4850970392
 20
277.2960230405
 30
0.0
 10
337.7532181541
 20
277.267128251
 30
0.0
 10
338.0084124723
 20
277.1605643307
 30
0.0
 10
338.1880521316
 20
277.0568516714
 30
0.0
  0
SPLINE
  5
318
100
AcDbEntity
  8
0
100
AcDbSpline
 62
7
  6
CONTINUOUS
 70
0
 71
3
 72
9
 73
5
 74
0
 42
0.0000001
 43
0.0000001
 44
0.0000000001
 40
0.0
 40
0.0
 40
0.0
 40
0.0
 40
0.2280131952
 40
1.0
 40
1.0
 40
1.0
 40
1.0
 10
337.4238484446
 20
254.4354139332
 30
0.0
 10
337.4850970392
 20
254.4339553608
 30
0.0
 10
337.7532181541
 20
254.4050605714
 30
0.0
 10
338.0084124723
 20
254.2984966511
 30
0.0
 10
338.1880521316
 20
254.1947839918
 30
0.0
  0
SPLINE
  5
319
100
AcDbEntity
  8
0
100
AcDbSpline
 62
7
  6
CONTINUOUS
 70
0
 71
3
 72
9
 73
5
 74
0
 42
0.0000001
 43
0.0000001
 44
0.0000000001
 40
0.0
 40
0.0
 40
0.0
 40
0.0
 40
0.4820563332
 40
1.0
 40
1.0
 40
1.0
 40
1.0
 10
338.8951294731
 20
322.3726499781
 30
0.0
 10
338.4159975341
 20
322.649270674
 30
0.0
 10
337.2702621488
 20
322.9511194589
 30
0.0
 10
336.1023883678
 20
322.8749067527
 30
0.0
 10
335.5275993505
 20
322.7233334924
 30
0.0
  0
SPLINE
  5
31A
100
AcDbEntity
  8
0
100
AcDbSpline
 62
7
  6
CONTINUOUS
 70
0
 71
3
 72
9
 73
5
 74
0
 42
0.0000001
 43
0.0000001
 44
0.0000000001
 40
0.0
 40
0.0
 40
0.0
 40
0.0
 40
0.4820563332
 40
1.0
 40
1.0
 40
1.0
 40
1.0
 10
392.6350211014
 20
353.3992056723
 30
0.0
 10
392.1558891624
 20
353.6758263683
 30
0.0
 10
391.0101537771
 20
353.9776751532
 30
0.0
 10
389.842279996
 20
353.901462447
 30
0.0
 10
389.2674909788
 20
353.7498891866
 30
0.0
  0
SPLINE
  5
31B
100
AcDbEntity
  8
0
100
AcDbSpline
 62
7
  6
CONTINUOUS
 70
0
 71
3
 72
11
 73
7
 74
0
 42
0.0000001
 43
0.0000001
 44
0.0000000001
 40
0.0
 40
0.0
 40
0.0
 40
0.0
 40
0.1920064903
 40
0.4190254928
 40
0.6916178899
 40
1.0
 40
1.0
 40
1.0
 40
1.0
 10
132.6151101641
 20
507.5101638552
 30
0.0
 10
132.6151704029
 20
507.1412779023
 30
0.0
 10
132.3466275317
 20
506.3301872009
 30
0.0
 10
131.3551112518
 20
505.3967556811
 30
0.0
 10
129.9417300872
 20
504.7171024747
 30
0.0
 10
128.8417389256
 20
504.4753611457
 30
0.0
 10
128.2536402344
 20
504.4035345836
 30
0.0
  0
SPLINE
  5
31C
100
AcDbEntity
  8
0
100
AcDbSpline
 62
7
  6
CONTINUOUS
 70
0
 71
3
 72
9
 73
5
 74
0
 42
0.0000001
 43
0.0000001
 44
0.0000000001
 40
0.0
 40
0.0
 40
0.0
 40
0.0
 40
0.2387662645
 40
1.0
 40
1.0
 40
1.0
 40
1.0
 10
131.7941750394
 20
505.9130295604
 30
0.0
 10
131.7372196521
 20
505.9661995658
 30
0.0
 10
131.491397562
 20
506.1810517886
 30
0.0
 10
131.2195410786
 20
506.3652928294
 30
0.0
 10
131.0044080772
 20
506.4894971158
 30
0.0
  0
SPLINE
  5
31D
100
AcDbEntity
  8
0
100
AcDbSpline
 62
7
  6
CONTINUOUS
 70
0
 71
3
 72
11
 73
7
 74
0
 42
0.0000001
 43
0.0000001
 44
0.0000000001
 40
0.0
 40
0.0
 40
0.0
 40
0.0
 40
0.1920064903
 40
0.4190254928
 40
0.6916178899
 40
1.0
 40
1.0
 40
1.0
 40
1.0
 10
78.8752185359
 20
476.483608161
 30
0.0
 10
78.8752787746
 20
476.114722208
 30
0.0
 10
78.6067359034
 20
475.3036315067
 30
0.0
 10
77.6152196236
 20
474.3701999868
 30
0.0
 10
76.2018384589
 20
473.6905467805
 30
0.0
 10
75.1018472974
 20
473.4488054514
 30
0.0
 10
74.5137486062
 20
473.3769788894
 30
0.0
  0
SPLINE
  5
31E
100
AcDbEntity
  8
0
100
AcDbSpline
 62
7
  6
CONTINUOUS
 70
0
 71
3
 72
9
 73
5
 74
0
 42
0.0000001
 43
0.0000001
 44
0.0000000001
 40
0.0
 40
0.0
 40
0.0
 40
0.0
 40
0.2387662645
 40
1.0
 40
1.0
 40
1.0
 40
1.0
 10
78.0542834111
 20
474.8864738662
 30
0.0
 10
77.9973280238
 20
474.9396438716
 30
0.0
 10
77.7515059338
 20
475.1544960943
 30
0.0
 10
77.4796494503
 20
475.3387371352
 30
0.0
 10
77.2645164489
 20
475.4629414216
 30
0.0
  0
SPLINE
  5
31F
100
AcDbEntity
  8
0
100
AcDbSpline
 62
7
  6
CONTINUOUS
 70
0
 71
3
 72
10
 73
6
 74
0
 42
0.0000001
 43
0.0000001
 44
0.0000000001
 40
0.0
 40
0.0
 40
0.0
 40
0.0
 40
0.2184950347
 40
0.4523142499
 40
1.0
 40
1.0
 40
1.0
 40
1.0
 10
60.3724805413
 20
295.6966337077
 30
0.0
 10
60.5538972451
 20
295.8014790338
 30
0.0
 10
60.9709518688
 20
295.9527978511
 30
0.0
 10
61.94178926
 20
295.9768651488
 30
0.0
 10
62.6675796641
 20
295.6869071642
 30
0.0
 10
63.1224397046
 20
295.4242995384
 30
0.0
  0
SPLINE
  5
320
100
AcDbEntity
  8
0
100
AcDbSpline
 62
7
  6
CONTINUOUS
 70
0
 71
3
 72
9
 73
5
 74
0
 42
0.0000001
 43
0.0000001
 44
0.0000000001
 40
0.0
 40
0.0
 40
0.0
 40
0.0
 40
0.4491717091
 40
1.0
 40
1.0
 40
1.0
 40
1.0
 10
55.9656331255
 20
296.7974308933
 30
0.0
 10
56.1678836226
 20
296.9144038418
 30
0.0
 10
56.721674222
 20
296.9981947698
 30
0.0
 10
57.2174284837
 20
296.7922261875
 30
0.0
 10
57.4655619035
 20
296.6489695317
 30
0.0
  0
SPLINE
  5
321
100
AcDbEntity
  8
0
100
AcDbSpline
 62
7
  6
CONTINUOUS
 70
0
 71
3
 72
9
 73
5
 74
0
 42
0.0000001
 43
0.0000001
 44
0.0000000001
 40
0.0
 40
0.0
 40
0.0
 40
0.0
 40
0.2435304075
 40
1.0
 40
1.0
 40
1.0
 40
1.0
 10
58.3069105172
 20
296.1224062948
 30
0.0
 10
58.3361088211
 20
296.0152841297
 30
0.0
 10
58.4727956183
 20
295.5800934861
 30
0.0
 10
58.6721778085
 20
295.1651643632
 30
0.0
 10
58.8509348881
 20
294.8702163976
 30
0.0
  0
SPLINE
  5
322
100
AcDbEntity
  8
0
100
AcDbSpline
 62
7
  6
CONTINUOUS
 70
0
 71
3
 72
9
 73
5
 74
0
 42
0.0000001
 43
0.0000001
 44
0.0000000001
 40
0.0
 40
0.0
 40
0.0
 40
0.0
 40
0.2672966972
 40
1.0
 40
1.0
 40
1.0
 40
1.0
 10
58.8509348881
 20
294.8702163976
 30
0.0
 10
58.9471445978
 20
294.7114710309
 30
0.0
 10
59.3382006368
 20
294.138769955
 30
0.0
 10
59.8533183047
 20
293.6373404509
 30
0.0
 10
60.2939772523
 20
293.3829316444
 30
0.0
  0
SPLINE
  5
323
100
AcDbEntity
  8
0
100
AcDbSpline
 62
7
  6
CONTINUOUS
 70
0
 71
3
 72
10
 73
6
 74
0
 42
0.0000001
 43
0.0000001
 44
0.0000000001
 40
0.0
 40
0.0
 40
0.0
 40
0.0
 40
0.2184950347
 40
0.4523142499
 40
1.0
 40
1.0
 40
1.0
 40
1.0
 10
60.3724805413
 20
463.0796292192
 30
0.0
 10
60.5538972451
 20
463.1844745454
 30
0.0
 10
60.9709518688
 20
463.3357933626
 30
0.0
 10
61.94178926
 20
463.3598606603
 30
0.0
 10
62.6675796641
 20
463.0699026758
 30
0.0
 10
63.1224397046
 20
462.8072950499
 30
0.0
  0
SPLINE
  5
324
100
AcDbEntity
  8
0
100
AcDbSpline
 62
7
  6
CONTINUOUS
 70
0
 71
3
 72
9
 73
5
 74
0
 42
0.0000001
 43
0.0000001
 44
0.0000000001
 40
0.0
 40
0.0
 40
0.0
 40
0.0
 40
0.4491717091
 40
1.0
 40
1.0
 40
1.0
 40
1.0
 10
55.9656331255
 20
464.1804264049
 30
0.0
 10
56.1678836226
 20
464.2973993533
 30
0.0
 10
56.721674222
 20
464.3811902814
 30
0.0
 10
57.2174284837
 20
464.1752216991
 30
0.0
 10
57.4655619035
 20
464.0319650433
 30
0.0
  0
SPLINE
  5
325
100
AcDbEntity
  8
0
100
AcDbSpline
 62
7
  6
CONTINUOUS
 70
0
 71
3
 72
9
 73
5
 74
0
 42
0.0000001
 43
0.0000001
 44
0.0000000001
 40
0.0
 40
0.0
 40
0.0
 40
0.0
 40
0.2435304075
 40
1.0
 40
1.0
 40
1.0
 40
1.0
 10
58.3069105172
 20
463.5054018064
 30
0.0
 10
58.3361088211
 20
463.3982796412
 30
0.0
 10
58.4727956183
 20
462.9630889976
 30
0.0
 10
58.6721778085
 20
462.5481598747
 30
0.0
 10
58.8509348881
 20
462.2532119092
 30
0.0
  0
SPLINE
  5
326
100
AcDbEntity
  8
0
100
AcDbSpline
 62
7
  6
CONTINUOUS
 70
0
 71
3
 72
9
 73
5
 74
0
 42
0.0000001
 43
0.0000001
 44
0.0000000001
 40
0.0
 40
0.0
 40
0.0
 40
0.0
 40
0.2672966972
 40
1.0
 40
1.0
 40
1.0
 40
1.0
 10
58.8509348881
 20
462.2532119092
 30
0.0
 10
58.9471445978
 20
462.0944665425
 30
0.0
 10
59.3382006368
 20
461.5217654666
 30
0.0
 10
59.8533183047
 20
461.0203359625
 30
0.0
 10
60.2939772523
 20
460.765927156
 30
0.0
  0
SPLINE
  5
327
100
AcDbEntity
  8
0
100
AcDbSpline
 62
7
  6
CONTINUOUS
 70
0
 71
3
 72
9
 73
5
 74
0
 42
0.0000001
 43
0.0000001
 44
0.0000000001
 40
0.0
 40
0.0
 40
0.0
 40
0.0
 40
0.4491717091
 40
1.0
 40
1.0
 40
1.0
 40
1.0
 10
325.0208835439
 20
308.8448193099
 30
0.0
 10
325.223134041
 20
308.9617922583
 30
0.0
 10
325.7769246404
 20
309.0455831864
 30
0.0
 10
326.2726789021
 20
308.8396146041
 30
0.0
 10
326.5208123219
 20
308.6963579483
 30
0.0
  0
SPLINE
  5
328
100
AcDbEntity
  8
0
100
AcDbSpline
 62
7
  6
CONTINUOUS
 70
0
 71
3
 72
9
 73
5
 74
0
 42
0.0000001
 43
0.0000001
 44
0.0000000001
 40
0.0
 40
0.0
 40
0.0
 40
0.0
 40
0.517959919
 40
1.0
 40
1.0
 40
1.0
 40
1.0
 10
327.3621609356
 20
308.1697947114
 30
0.0
 10
327.5184181312
 20
307.5965213743
 30
0.0
 10
328.036357656
 20
306.5476259186
 30
0.0
 10
328.8703291448
 20
305.7068059989
 30
0.0
 10
329.3492276707
 20
305.430320061
 30
0.0
  0
SPLINE
  5
329
100
AcDbEntity
  8
0
100
AcDbSpline
 62
7
  6
CONTINUOUS
 70
0
 71
3
 72
9
 73
5
 74
0
 42
0.0000001
 43
0.0000001
 44
0.0000000001
 40
0.0
 40
0.0
 40
0.0
 40
0.0
 40
0.4491717091
 40
1.0
 40
1.0
 40
1.0
 40
1.0
 10
325.0208835439
 20
141.4618237983
 30
0.0
 10
325.223134041
 20
141.5787967468
 30
0.0
 10
325.7769246404
 20
141.6625876748
 30
0.0
 10
326.2726789021
 20
141.4566190925
 30
0.0
 10
326.5208123219
 20
141.3133624367
 30
0.0
  0
SPLINE
  5
32A
100
AcDbEntity
  8
0
100
AcDbSpline
 62
7
  6
CONTINUOUS
 70
0
 71
3
 72
9
 73
5
 74
0
 42
0.0000001
 43
0.0000001
 44
0.0000000001
 40
0.0
 40
0.0
 40
0.0
 40
0.0
 40
0.517959919
 40
1.0
 40
1.0
 40
1.0
 40
1.0
 10
327.3621609356
 20
140.7867991999
 30
0.0
 10
327.5184181312
 20
140.2135258627
 30
0.0
 10
328.036357656
 20
139.1646304071
 30
0.0
 10
328.8703291448
 20
138.3238104874
 30
0.0
 10
329.3492276707
 20
138.0473245494
 30
0.0
  0
SPLINE
  5
32B
100
AcDbEntity
  8
0
100
AcDbSpline
 62
7
  6
CONTINUOUS
 70
0
 71
3
 72
9
 73
5
 74
0
 42
0.0000001
 43
0.0000001
 44
0.0000000001
 40
0.0
 40
0.0
 40
0.0
 40
0.0
 40
0.4491668937
 40
1.0
 40
1.0
 40
1.0
 40
1.0
 10
335.4811353468
 20
123.3566091572
 30
0.0
 10
335.750912859
 20
123.2008566087
 30
0.0
 10
336.4890810621
 20
123.0887588922
 30
0.0
 10
337.1501508903
 20
123.3635182409
 30
0.0
 10
337.4809895099
 20
123.5545268669
 30
0.0
  0
SPLINE
  5
32C
100
AcDbEntity
  8
0
100
AcDbSpline
 62
7
  6
CONTINUOUS
 70
0
 71
3
 72
9
 73
5
 74
0
 42
0.0000001
 43
0.0000001
 44
0.0000000001
 40
0.0
 40
0.0
 40
0.0
 40
0.0
 40
0.4491647435
 40
1.0
 40
1.0
 40
1.0
 40
1.0
 10
53.3443550158
 20
286.2446702092
 30
0.0
 10
53.0745682896
 20
286.400428269
 30
0.0
 10
52.6083810799
 20
286.9836740015
 30
0.0
 10
52.5157938274
 20
287.693585526
 30
0.0
 10
52.5157938274
 20
288.0756209735
 30
0.0
  0
SPLINE
  5
32D
100
AcDbEntity
  8
0
100
AcDbSpline
 62
7
  6
CONTINUOUS
 70
0
 71
3
 72
9
 73
5
 74
0
 42
0.0000001
 43
0.0000001
 44
0.0000000001
 40
0.0
 40
0.0
 40
0.0
 40
0.0
 40
0.4491641734
 40
1.0
 40
1.0
 40
1.0
 40
1.0
 10
339.7129825534
 20
125.7998561173
 30
0.0
 10
339.712982484
 20
125.4883468547
 30
0.0
 10
339.4409747227
 20
124.7930225761
 30
0.0
 10
338.8724862586
 20
124.3579030938
 30
0.0
 10
338.5416452658
 20
124.1668930977
 30
0.0
  0
SPLINE
  5
32E
100
AcDbEntity
  8
0
100
AcDbSpline
 62
7
  6
CONTINUOUS
 70
0
 71
3
 72
9
 73
5
 74
0
 42
0.0000001
 43
0.0000001
 44
0.0000000001
 40
0.0
 40
0.0
 40
0.0
 40
0.0
 40
0.4491634741
 40
1.0
 40
1.0
 40
1.0
 40
1.0
 10
339.7129825534
 20
127.4328609484
 30
0.0
 10
339.7129824566
 20
127.7443737018
 30
0.0
 10
339.4409678641
 20
128.4397065094
 30
0.0
 10
338.8724687267
 20
128.8748272749
 30
0.0
 10
338.541621714
 20
129.0658375655
 30
0.0
  0
SPLINE
  5
32F
100
AcDbEntity
  8
0
100
AcDbSpline
 62
7
  6
CONTINUOUS
 70
0
 71
3
 72
9
 73
5
 74
0
 42
0.0000001
 43
0.0000001
 44
0.0000000001
 40
0.0
 40
0.0
 40
0.0
 40
0.0
 40
0.4491634741
 40
1.0
 40
1.0
 40
1.0
 40
1.0
 10
407.2413990073
 20
356.6652408343
 30
0.0
 10
407.2413989105
 20
356.9767535878
 30
0.0
 10
406.969384318
 20
357.6720863953
 30
0.0
 10
406.4008851806
 20
358.1072071609
 30
0.0
 10
406.0700381679
 20
358.2982174514
 30
0.0
  0
SPLINE
  5
330
100
AcDbEntity
  8
0
100
AcDbSpline
 62
7
  6
CONTINUOUS
 70
0
 71
3
 72
9
 73
5
 74
0
 42
0.0000001
 43
0.0000001
 44
0.0000000001
 40
0.0
 40
0.0
 40
0.0
 40
0.0
 40
0.4491641734
 40
1.0
 40
1.0
 40
1.0
 40
1.0
 10
407.2413990073
 20
353.3992311689
 30
0.0
 10
407.241398938
 20
353.0877219063
 30
0.0
 10
406.9693911766
 20
352.3923976278
 30
0.0
 10
406.4009027125
 20
351.9572781454
 30
0.0
 10
406.0700617197
 20
351.7662681494
 30
0.0
  0
SPLINE
  5
331
100
AcDbEntity
  8
0
100
AcDbSpline
 62
7
  6
CONTINUOUS
 70
0
 71
3
 72
9
 73
5
 74
0
 42
0.0000001
 43
0.0000001
 44
0.0000000001
 40
0.0
 40
0.0
 40
0.0
 40
0.0
 40
0.4491641734
 40
1.0
 40
1.0
 40
1.0
 40
1.0
 10
392.7456496418
 20
173.1561082797
 30
0.0
 10
392.7456495724
 20
172.844599017
 30
0.0
 10
392.4736418111
 20
172.1492747385
 30
0.0
 10
391.905153347
 20
171.7141552562
 30
0.0
 10
391.5743123542
 20
171.5231452601
 30
0.0
  0
SPLINE
  5
332
100
AcDbEntity
  8
0
100
AcDbSpline
 62
7
  6
CONTINUOUS
 70
0
 71
3
 72
9
 73
5
 74
0
 42
0.0000001
 43
0.0000001
 44
0.0000000001
 40
0.0
 40
0.0
 40
0.0
 40
0.0
 40
0.2307789921
 40
1.0
 40
1.0
 40
1.0
 40
1.0
 10
69.8398790547
 20
477.708257073
 30
0.0
 10
69.7306685293
 20
477.7713083729
 30
0.0
 10
69.2390590659
 20
478.0123917214
 30
0.0
 10
68.6962220793
 20
478.1392694383
 30
0.0
 10
68.2784030724
 20
478.1851087044
 30
0.0
  0
SPLINE
  5
333
100
AcDbEntity
  8
0
100
AcDbSpline
 62
7
  6
CONTINUOUS
 70
0
 71
3
 72
9
 73
5
 74
0
 42
0.0000001
 43
0.0000001
 44
0.0000000001
 40
0.0
 40
0.0
 40
0.0
 40
0.0
 40
0.2548480605
 40
1.0
 40
1.0
 40
1.0
 40
1.0
 10
67.8353216808
 20
478.214194115
 30
0.0
 10
67.7186107729
 20
478.2167888842
 30
0.0
 10
67.2605288786
 20
478.2115306408
 30
0.0
 10
66.8024021334
 20
478.1459764184
 30
0.0
 10
66.4723489321
 20
478.0589405873
 30
0.0
  0
SPLINE
  5
334
100
AcDbEntity
  8
0
100
AcDbSpline
 62
7
  6
CONTINUOUS
 70
0
 71
3
 72
9
 73
5
 74
0
 42
0.0000001
 43
0.0000001
 44
0.0000000001
 40
0.0
 40
0.0
 40
0.0
 40
0.0
 40
0.4761928878
 40
1.0
 40
1.0
 40
1.0
 40
1.0
 10
77.2645164489
 20
475.4629414216
 30
0.0
 10
76.5549824227
 20
475.8725818153
 30
0.0
 10
74.8738601947
 20
476.3977701743
 30
0.0
 10
73.1317102669
 20
476.4334846891
 30
0.0
 10
72.2371420823
 20
476.3242279297
 30
0.0
  0
SPLINE
  5
335
100
AcDbEntity
  8
0
100
AcDbSpline
 62
7
  6
CONTINUOUS
 70
0
 71
3
 72
9
 73
5
 74
0
 42
0.0000001
 43
0.0000001
 44
0.0000000001
 40
0.0
 40
0.0
 40
0.0
 40
0.0
 40
0.2307789921
 40
1.0
 40
1.0
 40
1.0
 40
1.0
 10
123.5797706829
 20
508.7348127673
 30
0.0
 10
123.4705601575
 20
508.7978640671
 30
0.0
 10
122.9789506942
 20
509.0389474156
 30
0.0
 10
122.4361137076
 20
509.1658251325
 30
0.0
 10
122.0182947006
 20
509.2116643987
 30
0.0
  0
SPLINE
  5
336
100
AcDbEntity
  8
0
100
AcDbSpline
 62
7
  6
CONTINUOUS
 70
0
 71
3
 72
9
 73
5
 74
0
 42
0.0000001
 43
0.0000001
 44
0.0000000001
 40
0.0
 40
0.0
 40
0.0
 40
0.0
 40
0.2548480605
 40
1.0
 40
1.0
 40
1.0
 40
1.0
 10
121.5752133091
 20
509.2407498092
 30
0.0
 10
121.4585024011
 20
509.2433445784
 30
0.0
 10
121.0004205068
 20
509.2380863351
 30
0.0
 10
120.5422937617
 20
509.1725321127
 30
0.0
 10
120.2122405603
 20
509.0854962816
 30
0.0
  0
SPLINE
  5
337
100
AcDbEntity
  8
0
100
AcDbSpline
 62
7
  6
CONTINUOUS
 70
0
 71
3
 72
9
 73
5
 74
0
 42
0.0000001
 43
0.0000001
 44
0.0000000001
 40
0.0
 40
0.0
 40
0.0
 40
0.0
 40
0.4761928878
 40
1.0
 40
1.0
 40
1.0
 40
1.0
 10
131.0044080772
 20
506.4894971158
 30
0.0
 10
130.294874051
 20
506.8991375095
 30
0.0
 10
128.6137518229
 20
507.4243258685
 30
0.0
 10
126.8716018952
 20
507.4600403833
 30
0.0
 10
125.9770337105
 20
507.3507836239
 30
0.0
  0
SPLINE
  5
338
100
AcDbEntity
  8
0
100
AcDbSpline
 62
7
  6
CONTINUOUS
 70
0
 71
3
 72
9
 73
5
 74
0
 42
0.0000001
 43
0.0000001
 44
0.0000000001
 40
0.0
 40
0.0
 40
0.0
 40
0.0
 40
0.2623920286
 40
1.0
 40
1.0
 40
1.0
 40
1.0
 10
65.9508550535
 20
288.0757495654
 30
0.0
 10
66.0299899583
 20
288.0300620404
 30
0.0
 10
66.3361180464
 20
287.864135493
 30
0.0
 10
66.6612865313
 20
287.7316835087
 30
0.0
 10
66.9083393096
 20
287.6613551286
 30
0.0
  0
SPLINE
  5
339
100
AcDbEntity
  8
0
100
AcDbSpline
 62
7
  6
CONTINUOUS
 70
0
 71
3
 72
9
 73
5
 74
0
 42
0.0000001
 43
0.0000001
 44
0.0000000001
 40
0.0
 40
0.0
 40
0.0
 40
0.0
 40
0.5238074892
 40
1.0
 40
1.0
 40
1.0
 40
1.0
 10
62.6912402799
 20
291.998902501
 30
0.0
 10
63.043906739
 20
291.1695563052
 30
0.0
 10
63.9459179568
 20
289.6786721555
 30
0.0
 10
65.2413223323
 20
288.4853892057
 30
0.0
 10
65.9508550535
 20
288.0757495654
 30
0.0
  0
SPLINE
  5
33A
100
AcDbEntity
  8
0
100
AcDbSpline
 62
7
  6
CONTINUOUS
 70
0
 71
3
 72
9
 73
5
 74
0
 42
0.0000001
 43
0.0000001
 44
0.0000000001
 40
0.0
 40
0.0
 40
0.0
 40
0.0
 40
0.2623920286
 40
1.0
 40
1.0
 40
1.0
 40
1.0
 10
65.9508550535
 20
455.458745077
 30
0.0
 10
66.0299899583
 20
455.413057552
 30
0.0
 10
66.3361180464
 20
455.2471310046
 30
0.0
 10
66.6612865313
 20
455.1146790202
 30
0.0
 10
66.9083393096
 20
455.0443506401
 30
0.0
  0
SPLINE
  5
33B
100
AcDbEntity
  8
0
100
AcDbSpline
 62
7
  6
CONTINUOUS
 70
0
 71
3
 72
9
 73
5
 74
0
 42
0.0000001
 43
0.0000001
 44
0.0000000001
 40
0.0
 40
0.0
 40
0.0
 40
0.0
 40
0.5238074892
 40
1.0
 40
1.0
 40
1.0
 40
1.0
 10
62.6912402799
 20
459.3818980126
 30
0.0
 10
63.043906739
 20
458.5525518167
 30
0.0
 10
63.9459179568
 20
457.0616676671
 30
0.0
 10
65.2413223323
 20
455.8683847173
 30
0.0
 10
65.9508550535
 20
455.458745077
 30
0.0
  0
SPLINE
  5
33C
100
AcDbEntity
  8
0
100
AcDbSpline
 62
7
  6
CONTINUOUS
 70
0
 71
3
 72
9
 73
5
 74
0
 42
0.0000001
 43
0.0000001
 44
0.0000000001
 40
0.0
 40
0.0
 40
0.0
 40
0.0
 40
0.4999983279
 40
1.0
 40
1.0
 40
1.0
 40
1.0
 10
385.9175994151
 20
209.7848551391
 30
0.0
 10
386.337357066
 20
210.0272008852
 30
0.0
 10
387.0005683655
 20
210.7925958793
 30
0.0
 10
387.3318070895
 20
211.7496513772
 30
0.0
 10
387.3318070895
 20
212.2343482811
 30
0.0
  0
SPLINE
  5
33D
100
AcDbEntity
  8
0
100
AcDbSpline
 62
7
  6
CONTINUOUS
 70
0
 71
3
 72
11
 73
7
 74
0
 42
0.0000001
 43
0.0000001
 44
0.0000000001
 40
0.0
 40
0.0
 40
0.0
 40
0.0
 40
0.2372542275
 40
0.5000017852
 40
0.7627483734
 40
1.0
 40
1.0
 40
1.0
 40
1.0
 10
52.5157938274
 20
473.4216696619
 30
0.0
 10
52.5157938274
 20
473.8853734429
 30
0.0
 10
52.6896494589
 20
474.8632659782
 30
0.0
 10
53.2960670174
 20
476.2371735052
 30
0.0
 10
54.182688015
 20
477.4493005694
 30
0.0
 10
54.9426337252
 20
478.0888076351
 30
0.0
 10
55.3442091763
 20
478.3206559459
 30
0.0
  0
SPLINE
  5
33E
100
AcDbEntity
  8
0
100
AcDbSpline
 62
7
  6
CONTINUOUS
 70
0
 71
3
 72
9
 73
5
 74
0
 42
0.0000001
 43
0.0000001
 44
0.0000000001
 40
0.0
 40
0.0
 40
0.0
 40
0.0
 40
0.5508473557
 40
1.0
 40
1.0
 40
1.0
 40
1.0
 10
388.3923980781
 20
354.2157504176
 30
0.0
 10
388.1442549346
 20
354.3590126872
 30
0.0
 10
387.7179831184
 20
354.6853553765
 30
0.0
 10
387.5136723108
 20
355.2068510886
 30
0.0
 10
387.5138374344
 20
355.4404827918
 30
0.0
  0
SPLINE
  5
33F
100
AcDbEntity
  8
0
100
AcDbSpline
 62
7
  6
CONTINUOUS
 70
0
 71
3
 72
9
 73
5
 74
0
 42
0.0000001
 43
0.0000001
 44
0.0000000001
 40
0.0
 40
0.0
 40
0.0
 40
0.0
 40
0.5508473557
 40
1.0
 40
1.0
 40
1.0
 40
1.0
 10
334.6525064498
 20
323.1891947234
 30
0.0
 10
334.4043633064
 20
323.332456993
 30
0.0
 10
333.9780914901
 20
323.6587996823
 30
0.0
 10
333.7737806826
 20
324.1802953944
 30
0.0
 10
333.7739458061
 20
324.4139270976
 30
0.0
  0
SPLINE
  5
340
100
AcDbEntity
  8
0
100
AcDbSpline
 62
7
  6
CONTINUOUS
 70
0
 71
3
 72
11
 73
7
 74
0
 42
0.0000001
 43
0.0000001
 44
0.0000000001
 40
0.0
 40
0.0
 40
0.0
 40
0.0
 40
0.2372531816
 40
0.5000006935
 40
0.7627478297
 40
1.0
 40
1.0
 40
1.0
 40
1.0
 10
129.5901356355
 20
517.9203524689
 30
0.0
 10
129.1885563544
 20
518.1521991299
 30
0.0
 10
128.2547487031
 20
518.49057153
 30
0.0
 10
126.7617032442
 20
518.6523416916
 30
0.0
 10
125.2686605536
 20
518.4905643961
 30
0.0
 10
124.3348572835
 20
518.1521874401
 30
0.0
 10
123.933281386
 20
517.9203388715
 30
0.0
  0
SPLINE
  5
341
100
AcDbEntity
  8
0
100
AcDbSpline
 62
7
  6
CONTINUOUS
 70
0
 71
3
 72
9
 73
5
 74
0
 42
0.0000001
 43
0.0000001
 44
0.0000000001
 40
0.0
 40
0.0
 40
0.0
 40
0.0
 40
0.5508473557
 40
1.0
 40
1.0
 40
1.0
 40
1.0
 10
65.5972560314
 20
478.5248018183
 30
0.0
 10
65.3491128879
 20
478.668064088
 30
0.0
 10
64.9228410717
 20
478.9944067773
 30
0.0
 10
64.7185302641
 20
479.5159024893
 30
0.0
 10
64.7186953877
 20
479.7495341925
 30
0.0
  0
SPLINE
  5
342
100
AcDbEntity
  8
0
100
AcDbSpline
 62
7
  6
CONTINUOUS
 70
0
 71
3
 72
9
 73
5
 74
0
 42
0.0000001
 43
0.0000001
 44
0.0000000001
 40
0.0
 40
0.0
 40
0.0
 40
0.0
 40
0.2604451204
 40
1.0
 40
1.0
 40
1.0
 40
1.0
 10
69.4863742396
 20
474.2382653975
 30
0.0
 10
69.4193141046
 20
474.2769817086
 30
0.0
 10
69.1652739027
 20
474.4314201494
 30
0.0
 10
68.9252431155
 20
474.6096607152
 30
0.0
 10
68.7609716765
 20
474.7558183757
 30
0.0
  0
SPLINE
  5
343
100
AcDbEntity
  8
0
100
AcDbSpline
 62
7
  6
CONTINUOUS
 70
0
 71
3
 72
9
 73
5
 74
0
 42
0.0000001
 43
0.0000001
 44
0.0000000001
 40
0.0
 40
0.0
 40
0.0
 40
0.0
 40
0.5324244138
 40
1.0
 40
1.0
 40
1.0
 40
1.0
 10
68.7609716765
 20
474.7558183757
 30
0.0
 10
68.4975815617
 20
474.9901651569
 30
0.0
 10
68.0562859004
 20
475.5061950468
 30
0.0
 10
67.8753680487
 20
476.1739969589
 30
0.0
 10
67.8755023761
 20
476.4836082226
 30
0.0
  0
SPLINE
  5
344
100
AcDbEntity
  8
0
100
AcDbSpline
 62
7
  6
CONTINUOUS
 70
0
 71
3
 72
9
 73
5
 74
0
 42
0.0000001
 43
0.0000001
 44
0.0000000001
 40
0.0
 40
0.0
 40
0.0
 40
0.0
 40
0.5238071122
 40
1.0
 40
1.0
 40
1.0
 40
1.0
 10
74.5137486062
 20
473.3769788894
 30
0.0
 10
73.6191804215
 20
473.2677221299
 30
0.0
 10
71.8770304938
 20
473.3034366448
 30
0.0
 10
70.1959082657
 20
473.8286250038
 30
0.0
 10
69.4863742396
 20
474.2382653975
 30
0.0
  0
SPLINE
  5
345
100
AcDbEntity
  8
0
100
AcDbSpline
 62
7
  6
CONTINUOUS
 70
0
 71
3
 72
9
 73
5
 74
0
 42
0.0000001
 43
0.0000001
 44
0.0000000001
 40
0.0
 40
0.0
 40
0.0
 40
0.0
 40
0.5508473557
 40
1.0
 40
1.0
 40
1.0
 40
1.0
 10
119.3371476597
 20
509.5513575126
 30
0.0
 10
119.0890045162
 20
509.6946197822
 30
0.0
 10
118.6627326999
 20
510.0209624715
 30
0.0
 10
118.4584218924
 20
510.5424581836
 30
0.0
 10
118.458587016
 20
510.7760898868
 30
0.0
  0
SPLINE
  5
346
100
AcDbEntity
  8
0
100
AcDbSpline
 62
7
  6
CONTINUOUS
 70
0
 71
3
 72
9
 73
5
 74
0
 42
0.0000001
 43
0.0000001
 44
0.0000000001
 40
0.0
 40
0.0
 40
0.0
 40
0.0
 40
0.2604451204
 40
1.0
 40
1.0
 40
1.0
 40
1.0
 10
123.2262658678
 20
505.2648210917
 30
0.0
 10
123.1592057328
 20
505.3035374028
 30
0.0
 10
122.905165531
 20
505.4579758436
 30
0.0
 10
122.6651347438
 20
505.6362164094
 30
0.0
 10
122.5008633048
 20
505.7823740699
 30
0.0
  0
SPLINE
  5
347
100
AcDbEntity
  8
0
100
AcDbSpline
 62
7
  6
CONTINUOUS
 70
0
 71
3
 72
9
 73
5
 74
0
 42
0.0000001
 43
0.0000001
 44
0.0000000001
 40
0.0
 40
0.0
 40
0.0
 40
0.0
 40
0.5324244138
 40
1.0
 40
1.0
 40
1.0
 40
1.0
 10
122.5008633048
 20
505.7823740699
 30
0.0
 10
122.2374731899
 20
506.0167208512
 30
0.0
 10
121.7961775287
 20
506.532750741
 30
0.0
 10
121.6152596769
 20
507.2005526532
 30
0.0
 10
121.6153940043
 20
507.5101639169
 30
0.0
  0
SPLINE
  5
348
100
AcDbEntity
  8
0
100
AcDbSpline
 62
7
  6
CONTINUOUS
 70
0
 71
3
 72
9
 73
5
 74
0
 42
0.0000001
 43
0.0000001
 44
0.0000000001
 40
0.0
 40
0.0
 40
0.0
 40
0.0
 40
0.5238071122
 40
1.0
 40
1.0
 40
1.0
 40
1.0
 10
128.2536402344
 20
504.4035345836
 30
0.0
 10
127.3590720498
 20
504.2942778242
 30
0.0
 10
125.6169221221
 20
504.329992339
 30
0.0
 10
123.935799894
 20
504.855180698
 30
0.0
 10
123.2262658678
 20
505.2648210917
 30
0.0
  0
SPLINE
  5
349
100
AcDbEntity
  8
0
100
AcDbSpline
 62
7
  6
CONTINUOUS
 70
0
 71
3
 72
12
 73
8
 74
0
 42
0.0000001
 43
0.0000001
 44
0.0000000001
 40
0.0
 40
0.0
 40
0.0
 40
0.0
 40
0.2607457163
 40
0.5456281916
 40
0.6810828843
 40
0.8038322265
 40
1.0
 40
1.0
 40
1.0
 40
1.0
 10
63.1224397046
 20
462.8072950499
 30
0.0
 10
63.8931871554
 20
462.3623138685
 30
0.0
 10
65.2774455404
 20
461.0418708139
 30
0.0
 10
66.4350765333
 20
458.991182515
 30
0.0
 10
66.9418797716
 20
457.1939683593
 30
0.0
 10
67.0883585409
 20
455.6570781406
 30
0.0
 10
66.81133565
 20
454.4989644011
 30
0.0
 10
66.3820544782
 20
453.9851276115
 30
0.0
  0
SPLINE
  5
34A
100
AcDbEntity
  8
0
100
AcDbSpline
 62
7
  6
CONTINUOUS
 70
0
 71
3
 72
12
 73
8
 74
0
 42
0.0000001
 43
0.0000001
 44
0.0000000001
 40
0.0
 40
0.0
 40
0.0
 40
0.0
 40
0.2607457163
 40
0.5456281916
 40
0.6810828843
 40
0.8038322265
 40
1.0
 40
1.0
 40
1.0
 40
1.0
 10
63.1224397046
 20
295.4242995384
 30
0.0
 10
63.8931871554
 20
294.979318357
 30
0.0
 10
65.2774455404
 20
293.6588753023
 30
0.0
 10
66.4350765333
 20
291.6081870034
 30
0.0
 10
66.9418797716
 20
289.8109728477
 30
0.0
 10
67.0883585409
 20
288.2740826291
 30
0.0
 10
66.81133565
 20
287.1159688895
 30
0.0
 10
66.3820544782
 20
286.6021321
 30
0.0
  0
SPLINE
  5
34B
100
AcDbEntity
  8
0
100
AcDbSpline
 62
7
  6
CONTINUOUS
 70
0
 71
3
 72
9
 73
5
 74
0
 42
0.0000001
 43
0.0000001
 44
0.0000000001
 40
0.0
 40
0.0
 40
0.0
 40
0.0
 40
0.4894307473
 40
1.0
 40
1.0
 40
1.0
 40
1.0
 10
338.1880521316
 20
277.0568516714
 30
0.0
 10
338.6478963289
 20
276.7913665064
 30
0.0
 10
339.4143365199
 20
275.9648716393
 30
0.0
 10
339.8445458618
 20
274.9350932078
 30
0.0
 10
339.9256301497
 20
274.3871477682
 30
0.0
  0
SPLINE
  5
34C
100
AcDbEntity
  8
0
100
AcDbSpline
 62
7
  6
CONTINUOUS
 70
0
 71
3
 72
9
 73
5
 74
0
 42
0.0000001
 43
0.0000001
 44
0.0000000001
 40
0.0
 40
0.0
 40
0.0
 40
0.0
 40
0.2594262067
 40
1.0
 40
1.0
 40
1.0
 40
1.0
 10
339.9256301497
 20
274.3871477682
 30
0.0
 10
339.9314828244
 20
274.3475969936
 30
0.0
 10
339.9510324789
 20
274.1947317693
 30
0.0
 10
339.9582016862
 20
274.0401301545
 30
0.0
 10
339.9547384153
 20
273.926049194
 30
0.0
  0
SPLINE
  5
34D
100
AcDbEntity
  8
0
100
AcDbSpline
 62
7
  6
CONTINUOUS
 70
0
 71
3
 72
9
 73
5
 74
0
 42
0.0000001
 43
0.0000001
 44
0.0000000001
 40
0.0
 40
0.0
 40
0.0
 40
0.0
 40
0.5478653551
 40
1.0
 40
1.0
 40
1.0
 40
1.0
 10
339.9547384153
 20
273.926049194
 30
0.0
 10
339.9479055858
 20
273.7009741732
 30
0.0
 10
339.8798460405
 20
273.2825299441
 30
0.0
 10
339.5989200698
 20
272.9435526144
 30
0.0
 10
339.4380263642
 20
272.8505640585
 30
0.0
  0
SPLINE
  5
34E
100
AcDbEntity
  8
0
100
AcDbSpline
 62
7
  6
CONTINUOUS
 70
0
 71
3
 72
9
 73
5
 74
0
 42
0.0000001
 43
0.0000001
 44
0.0000000001
 40
0.0
 40
0.0
 40
0.0
 40
0.0
 40
0.4894307473
 40
1.0
 40
1.0
 40
1.0
 40
1.0
 10
338.1880521316
 20
254.1947839918
 30
0.0
 10
338.6478963289
 20
253.9292988267
 30
0.0
 10
339.4143365199
 20
253.1028039597
 30
0.0
 10
339.8445458618
 20
252.0730255282
 30
0.0
 10
339.9256301497
 20
251.5250800886
 30
0.0
  0
SPLINE
  5
34F
100
AcDbEntity
  8
0
100
AcDbSpline
 62
7
  6
CONTINUOUS
 70
0
 71
3
 72
9
 73
5
 74
0
 42
0.0000001
 43
0.0000001
 44
0.0000000001
 40
0.0
 40
0.0
 40
0.0
 40
0.0
 40
0.2594262067
 40
1.0
 40
1.0
 40
1.0
 40
1.0
 10
339.9256301497
 20
251.5250800886
 30
0.0
 10
339.9314828244
 20
251.485529314
 30
0.0
 10
339.9510324789
 20
251.3326640897
 30
0.0
 10
339.9582016862
 20
251.1780624749
 30
0.0
 10
339.9547384153
 20
251.0639815144
 30
0.0
  0
SPLINE
  5
350
100
AcDbEntity
  8
0
100
AcDbSpline
 62
7
  6
CONTINUOUS
 70
0
 71
3
 72
9
 73
5
 74
0
 42
0.0000001
 43
0.0000001
 44
0.0000000001
 40
0.0
 40
0.0
 40
0.0
 40
0.0
 40
0.5478653551
 40
1.0
 40
1.0
 40
1.0
 40
1.0
 10
339.9547384153
 20
251.0639815144
 30
0.0
 10
339.9479055858
 20
250.8389064936
 30
0.0
 10
339.8798460405
 20
250.4204622645
 30
0.0
 10
339.5989200698
 20
250.0814849348
 30
0.0
 10
339.4380263642
 20
249.9884963788
 30
0.0
  0
SPLINE
  5
351
100
AcDbEntity
  8
0
100
AcDbSpline
 62
7
  6
CONTINUOUS
 70
0
 71
3
 72
10
 73
6
 74
0
 42
0.0000001
 43
0.0000001
 44
0.0000000001
 40
0.0
 40
0.0
 40
0.0
 40
0.0
 40
0.2184950347
 40
0.4523142499
 40
1.0
 40
1.0
 40
1.0
 40
1.0
 10
65.8723988679
 20
453.5534342922
 30
0.0
 10
65.6909821642
 20
453.448588966
 30
0.0
 10
65.2739275405
 20
453.2972701488
 30
0.0
 10
64.3030901492
 20
453.2732028511
 30
0.0
 10
63.5772997451
 20
453.5631608356
 30
0.0
 10
63.1224397046
 20
453.8257684615
 30
0.0
  0
SPLINE
  5
352
100
AcDbEntity
  8
0
100
AcDbSpline
 62
7
  6
CONTINUOUS
 70
0
 71
3
 72
9
 73
5
 74
0
 42
0.0000001
 43
0.0000001
 44
0.0000000001
 40
0.0
 40
0.0
 40
0.0
 40
0.0
 40
0.4491736999
 40
1.0
 40
1.0
 40
1.0
 40
1.0
 10
388.7609078141
 20
184.368315695
 30
0.0
 10
388.5586538465
 20
184.4852833281
 30
0.0
 10
388.0048637601
 20
184.5690690092
 30
0.0
 10
387.5091179111
 20
184.363082882
 30
0.0
 10
387.2609871592
 20
184.2198253744
 30
0.0
  0
SPLINE
  5
353
100
AcDbEntity
  8
0
100
AcDbSpline
 62
7
  6
CONTINUOUS
 70
0
 71
3
 72
9
 73
5
 74
0
 42
0.0000001
 43
0.0000001
 44
0.0000000001
 40
0.0
 40
0.0
 40
0.0
 40
0.0
 40
0.5431094781
 40
1.0
 40
1.0
 40
1.0
 40
1.0
 10
370.6793939645
 20
301.5309510937
 30
0.0
 10
370.0782351703
 20
301.1838739738
 30
0.0
 10
368.8871178685
 20
300.6664045282
 30
0.0
 10
367.5597376121
 20
300.6230978235
 30
0.0
 10
366.9923494779
 20
300.7612258288
 30
0.0
  0
SPLINE
  5
354
100
AcDbEntity
  8
0
100
AcDbSpline
 62
7
  6
CONTINUOUS
 70
0
 71
3
 72
14
 73
10
 74
0
 42
0.0000001
 43
0.0000001
 44
0.0000000001
 40
0.0
 40
0.0
 40
0.0
 40
0.0
 40
0.0903506177
 40
0.1954722253
 40
0.31693195
 40
0.4517958621
 40
0.7371589325
 40
0.8746542613
 40
1.0
 40
1.0
 40
1.0
 40
1.0
 10
375.866432206
 20
316.1316733077
 30
0.0
 10
376.2207745887
 20
315.7606283384
 30
0.0
 10
376.7933043085
 20
314.7680854766
 30
0.0
 10
377.1120278199
 20
312.9739473
 30
0.0
 10
376.9699600707
 20
310.9096639945
 30
0.0
 10
376.1697641143
 20
307.926948092
 30
0.0
 10
374.6052591787
 20
305.0982846898
 30
0.0
 10
372.4981743536
 20
302.7940490338
 30
0.0
 10
371.2958183441
 20
301.8868417508
 30
0.0
 10
370.6793939645
 20
301.5309510937
 30
0.0
  0
SPLINE
  5
355
100
AcDbEntity
  8
0
100
AcDbSpline
 62
7
  6
CONTINUOUS
 70
0
 71
3
 72
17
 73
13
 74
0
 42
0.0000001
 43
0.0000001
 44
0.0000000001
 40
0.0
 40
0.0
 40
0.0
 40
0.0
 40
0.127289852
 40
0.2671729789
 40
0.412863703
 40
0.5565345139
 40
0.6907099654
 40
0.8096685789
 40
0.8627223904
 40
0.9115921644
 40
0.9569820599
 40
1.0
 40
1.0
 40
1.0
 40
1.0
 10
370.6793939645
 20
327.2507772333
 30
0.0
 10
369.0635173065
 20
326.3178559786
 30
0.0
 10
365.9213699796
 20
323.918650701
 30
0.0
 10
361.8717393838
 20
319.3844828724
 30
0.0
 10
358.4981032023
 20
314.0397489772
 30
0.0
 10
356.0646248627
 20
308.2960481893
 30
0.0
 10
354.756281258
 20
302.5966715277
 30
0.0
 10
354.6890352247
 20
298.0562700652
 30
0.0
 10
355.3522132952
 20
294.8744073437
 30
0.0
 10
356.1488866798
 20
292.8538515923
 30
0.0
 10
357.2525493281
 20
291.1537343991
 30
0.0
 10
358.1982528805
 20
290.2462258639
 30
0.0
 10
358.7044716608
 20
289.8702470519
 30
0.0
  0
SPLINE
  5
356
100
AcDbEntity
  8
0
100
AcDbSpline
 62
7
  6
CONTINUOUS
 70
0
 71
3
 72
11
 73
7
 74
0
 42
0.0000001
 43
0.0000001
 44
0.0000000001
 40
0.0
 40
0.0
 40
0.0
 40
0.0
 40
0.2180458089
 40
0.4530132976
 40
0.7126401678
 40
1.0
 40
1.0
 40
1.0
 40
1.0
 10
381.1543225132
 20
328.7547452032
 30
0.0
 10
380.4241424784
 20
329.0707130204
 30
0.0
 10
378.7938121905
 20
329.4852354653
 30
0.0
 10
376.1680509181
 20
329.3976572785
 30
0.0
 10
373.3940113804
 20
328.648817757
 30
0.0
 10
371.5874464543
 20
327.7750384533
 30
0.0
 10
370.6793939645
 20
327.2507772333
 30
0.0
  0
SPLINE
  5
357
100
AcDbEntity
  8
0
100
AcDbSpline
 62
7
  6
CONTINUOUS
 70
0
 71
3
 72
15
 73
11
 74
0
 42
0.0000001
 43
0.0000001
 44
0.0000000001
 40
0.0
 40
0.0
 40
0.0
 40
0.0
 40
0.0887541405
 40
0.1917569393
 40
0.3117858143
 40
0.446303606
 40
0.589625156
 40
0.7345158882
 40
0.8734636193
 40
1.0
 40
1.0
 40
1.0
 40
1.0
 10
361.5555011593
 20
298.0743974569
 30
0.0
 10
360.9485147575
 20
298.5941576881
 30
0.0
 10
359.9241635346
 20
300.0639674285
 30
0.0
 10
359.2837238371
 20
302.8413928415
 30
0.0
 10
359.4022980379
 20
306.0865408919
 30
0.0
 10
360.259921858
 20
309.585535835
 30
0.0
 10
361.7869751779
 20
313.0901267203
 30
0.0
 10
363.8723789541
 20
316.3418868033
 30
0.0
 10
366.3578627912
 20
319.0978311794
 30
0.0
 10
368.2785161401
 20
320.5573441192
 30
0.0
 10
369.2651745142
 20
321.1269881968
 30
0.0
  0
SPLINE
  5
358
100
AcDbEntity
  8
0
100
AcDbSpline
 62
7
  6
CONTINUOUS
 70
0
 71
3
 72
11
 73
7
 74
0
 42
0.0000001
 43
0.0000001
 44
0.0000000001
 40
0.0
 40
0.0
 40
0.0
 40
0.0
 40
0.2855885773
 40
0.5453196017
 40
0.7813906848
 40
1.0
 40
1.0
 40
1.0
 40
1.0
 10
369.2651745142
 20
321.1269881968
 30
0.0
 10
369.7996487833
 20
321.4355652179
 30
0.0
 10
370.8637618469
 20
321.9549168819
 30
0.0
 10
372.4963681282
 20
322.424837451
 30
0.0
 10
374.0500530084
 20
322.5293499713
 30
0.0
 10
375.0293387604
 20
322.34069364
 30
0.0
 10
375.4748541142
 20
322.1835578162
 30
0.0
  0
SPLINE
  5
359
100
AcDbEntity
  8
0
100
AcDbSpline
 62
7
  6
CONTINUOUS
 70
0
 71
3
 72
9
 73
5
 74
0
 42
0.0000001
 43
0.0000001
 44
0.0000000001
 40
0.0
 40
0.0
 40
0.0
 40
0.0
 40
0.5508359905
 40
1.0
 40
1.0
 40
1.0
 40
1.0
 10
406.0700617197
 20
355.0322778179
 30
0.0
 10
406.4009028113
 20
355.223287871
 30
0.0
 10
406.9693911821
 20
355.6584073991
 30
0.0
 10
407.241399104
 20
356.353731685
 30
0.0
 10
407.2413990073
 20
356.6652408343
 30
0.0
  0
SPLINE
  5
35A
100
AcDbEntity
  8
0
100
AcDbSpline
 62
7
  6
CONTINUOUS
 70
0
 71
3
 72
15
 73
11
 74
0
 42
0.0000001
 43
0.0000001
 44
0.0000000001
 40
0.0
 40
0.0
 40
0.0
 40
0.0
 40
0.1265363471
 40
0.2654840473
 40
0.410374762
 40
0.5536963099
 40
0.6882141137
 40
0.8082430107
 40
0.9112458358
 40
1.0
 40
1.0
 40
1.0
 40
1.0
 10
370.6793939645
 20
320.3105066877
 30
0.0
 10
369.6927358527
 20
319.7408627616
 30
0.0
 10
367.7720829216
 20
318.2813502587
 30
0.0
 10
365.2865994268
 20
315.5254065778
 30
0.0
 10
363.2011956316
 20
312.2736470576
 30
0.0
 10
361.6741420087
 20
308.7690563814
 30
0.0
 10
360.8165177461
 20
305.2700612553
 30
0.0
 10
360.6979431289
 20
302.0249126713
 30
0.0
 10
361.3383826627
 20
299.2474865474
 30
0.0
 10
362.3627340464
 20
297.7776763173
 30
0.0
 10
362.9697206096
 20
297.2579159479
 30
0.0
  0
SPLINE
  5
35B
100
AcDbEntity
  8
0
100
AcDbSpline
 62
7
  6
CONTINUOUS
 70
0
 71
3
 72
9
 73
5
 74
0
 42
0.0000001
 43
0.0000001
 44
0.0000000001
 40
0.0
 40
0.0
 40
0.0
 40
0.0
 40
0.5238071122
 40
1.0
 40
1.0
 40
1.0
 40
1.0
 10
72.2371420823
 20
479.5902375982
 30
0.0
 10
73.1317102669
 20
479.6994943576
 30
0.0
 10
74.8738601947
 20
479.6637798428
 30
0.0
 10
76.5549824227
 20
479.1385914838
 30
0.0
 10
77.2645164489
 20
478.7289510901
 30
0.0
  0
SPLINE
  5
35C
100
AcDbEntity
  8
0
100
AcDbSpline
 62
7
  6
CONTINUOUS
 70
0
 71
3
 72
11
 73
7
 74
0
 42
0.0000001
 43
0.0000001
 44
0.0000000001
 40
0.0
 40
0.0
 40
0.0
 40
0.0
 40
0.2186093152
 40
0.4546803983
 40
0.7144114227
 40
1.0
 40
1.0
 40
1.0
 40
1.0
 10
376.8890735645
 20
321.3670763072
 30
0.0
 10
376.4435582107
 20
321.5242121309
 30
0.0
 10
375.4642724587
 20
321.7128684622
 30
0.0
 10
373.9105875785
 20
321.608355942
 30
0.0
 10
372.2779812972
 20
321.1384353729
 30
0.0
 10
371.2138682336
 20
320.6190837089
 30
0.0
 10
370.6793939645
 20
320.3105066877
 30
0.0
  0
SPLINE
  5
35D
100
AcDbEntity
  8
0
100
AcDbSpline
 62
7
  6
CONTINUOUS
 70
0
 71
3
 72
10
 73
6
 74
0
 42
0.0000001
 43
0.0000001
 44
0.0000000001
 40
0.0
 40
0.0
 40
0.0
 40
0.0
 40
0.5477654272
 40
0.7816027525
 40
1.0
 40
1.0
 40
1.0
 40
1.0
 10
77.2645164489
 20
478.7289510901
 30
0.0
 10
77.7194428664
 20
478.4663051423
 30
0.0
 10
78.3334853313
 20
477.9827070207
 30
0.0
 10
78.7981968128
 20
477.1298507049
 30
0.0
 10
78.8751843344
 20
476.6930486321
 30
0.0
 10
78.8752185359
 20
476.483608161
 30
0.0
  0
SPLINE
  5
35E
100
AcDbEntity
  8
0
100
AcDbSpline
 62
7
  6
CONTINUOUS
 70
0
 71
3
 72
9
 73
5
 74
0
 42
0.0000001
 43
0.0000001
 44
0.0000000001
 40
0.0
 40
0.0
 40
0.0
 40
0.0
 40
0.5238071122
 40
1.0
 40
1.0
 40
1.0
 40
1.0
 10
125.9770337105
 20
510.6167932924
 30
0.0
 10
126.8716018952
 20
510.7260500519
 30
0.0
 10
128.6137518229
 20
510.690335537
 30
0.0
 10
130.294874051
 20
510.165147178
 30
0.0
 10
131.0044080772
 20
509.7555067843
 30
0.0
  0
SPLINE
  5
35F
100
AcDbEntity
  8
0
100
AcDbSpline
 62
7
  6
CONTINUOUS
 70
0
 71
3
 72
10
 73
6
 74
0
 42
0.0000001
 43
0.0000001
 44
0.0000000001
 40
0.0
 40
0.0
 40
0.0
 40
0.0
 40
0.5477654272
 40
0.7816027525
 40
1.0
 40
1.0
 40
1.0
 40
1.0
 10
131.0044080772
 20
509.7555067843
 30
0.0
 10
131.4593344946
 20
509.4928608366
 30
0.0
 10
132.0733769596
 20
509.0092627149
 30
0.0
 10
132.5380884411
 20
508.1564063991
 30
0.0
 10
132.6150759627
 20
507.7196043263
 30
0.0
 10
132.6151101641
 20
507.5101638552
 30
0.0
  0
SPLINE
  5
360
100
AcDbEntity
  8
0
100
AcDbSpline
 62
7
  6
CONTINUOUS
 70
0
 71
3
 72
13
 73
9
 74
0
 42
0.0000001
 43
0.0000001
 44
0.0000000001
 40
0.0
 40
0.0
 40
0.0
 40
0.0
 40
0.0871362949
 40
0.1868485083
 40
0.3045285645
 40
0.4386653932
 40
0.7300810738
 40
1.0
 40
1.0
 40
1.0
 40
1.0
 10
333.7739458061
 20
324.4139270976
 30
0.0
 10
333.774068087
 20
324.5869410008
 30
0.0
 10
333.8782136243
 20
324.9613686484
 30
0.0
 10
334.2864325334
 20
325.4254409441
 30
0.0
 10
334.8888041217
 20
325.7926203882
 30
0.0
 10
335.918825875
 20
326.135731176
 30
0.0
 10
337.3215481418
 20
326.2068930165
 30
0.0
 10
338.4309900604
 20
325.9066245993
 30
0.0
 10
338.8951294731
 20
325.6386596466
 30
0.0
  0
SPLINE
  5
361
100
AcDbEntity
  8
0
100
AcDbSpline
 62
7
  6
CONTINUOUS
 70
0
 71
3
 72
11
 73
7
 74
0
 42
0.0000001
 43
0.0000001
 44
0.0000000001
 40
0.0
 40
0.0
 40
0.0
 40
0.0
 40
0.2372518718
 40
0.4999985497
 40
0.7627460178
 40
1.0
 40
1.0
 40
1.0
 40
1.0
 10
337.4809895099
 20
315.4325948923
 30
0.0
 10
337.0794136437
 20
315.2007463418
 30
0.0
 10
336.3194675093
 20
314.5612387028
 30
0.0
 10
335.4328465309
 20
313.349111031
 30
0.0
 10
334.8264295082
 20
311.9752037912
 30
0.0
 10
334.6525741611
 20
310.9973119099
 30
0.0
 10
334.6525741611
 20
310.5336086083
 30
0.0
  0
SPLINE
  5
362
100
AcDbEntity
  8
0
100
AcDbSpline
 62
7
  6
CONTINUOUS
 70
0
 71
3
 72
13
 73
9
 74
0
 42
0.0000001
 43
0.0000001
 44
0.0000000001
 40
0.0
 40
0.0
 40
0.0
 40
0.0
 40
0.2699028351
 40
0.5613065255
 40
0.6954494767
 40
0.8131351157
 40
0.9128533852
 40
1.0
 40
1.0
 40
1.0
 40
1.0
 10
326.5208123219
 20
303.7973434455
 30
0.0
 10
326.0566956754
 20
304.0652952544
 30
0.0
 10
325.2419415684
 20
304.8759086598
 30
0.0
 10
324.6022047533
 20
306.1262474874
 30
0.0
 10
324.3843091064
 20
307.1898345594
 30
0.0
 10
324.4010959807
 20
307.8951337244
 30
0.0
 10
324.5988714669
 20
308.4807607357
 30
0.0
 10
324.8710950684
 20
308.758188128
 30
0.0
 10
325.0208835439
 20
308.8448193099
 30
0.0
  0
SPLINE
  5
363
100
AcDbEntity
  8
0
100
AcDbSpline
 62
7
  6
CONTINUOUS
 70
0
 71
3
 72
13
 73
9
 74
0
 42
0.0000001
 43
0.0000001
 44
0.0000000001
 40
0.0
 40
0.0
 40
0.0
 40
0.0
 40
0.2699028351
 40
0.5613065255
 40
0.6954494767
 40
0.8131351157
 40
0.9128533852
 40
1.0
 40
1.0
 40
1.0
 40
1.0
 10
326.5208123219
 20
136.4143479339
 30
0.0
 10
326.0566956754
 20
136.6822997429
 30
0.0
 10
325.2419415684
 20
137.4929131483
 30
0.0
 10
324.6022047533
 20
138.7432519759
 30
0.0
 10
324.3843091064
 20
139.8068390478
 30
0.0
 10
324.4010959807
 20
140.5121382129
 30
0.0
 10
324.5988714669
 20
141.0977652241
 30
0.0
 10
324.8710950684
 20
141.3751926164
 30
0.0
 10
325.0208835439
 20
141.4618237983
 30
0.0
  0
SPLINE
  5
364
100
AcDbEntity
  8
0
100
AcDbSpline
 62
7
  6
CONTINUOUS
 70
0
 71
3
 72
13
 73
9
 74
0
 42
0.0000001
 43
0.0000001
 44
0.0000000001
 40
0.0
 40
0.0
 40
0.0
 40
0.0
 40
0.2699028351
 40
0.5613065255
 40
0.6954494767
 40
0.8131351157
 40
0.9128533852
 40
1.0
 40
1.0
 40
1.0
 40
1.0
 10
57.4655619035
 20
459.1329505405
 30
0.0
 10
57.0014452569
 20
459.4009023494
 30
0.0
 10
56.18669115
 20
460.2115157548
 30
0.0
 10
55.5469543348
 20
461.4618545824
 30
0.0
 10
55.329058688
 20
462.5254416543
 30
0.0
 10
55.3458455623
 20
463.2307408194
 30
0.0
 10
55.5436210485
 20
463.8163678306
 30
0.0
 10
55.81584465
 20
464.0937952229
 30
0.0
 10
55.9656331255
 20
464.1804264049
 30
0.0
  0
SPLINE
  5
365
100
AcDbEntity
  8
0
100
AcDbSpline
 62
7
  6
CONTINUOUS
 70
0
 71
3
 72
9
 73
5
 74
0
 42
0.0000001
 43
0.0000001
 44
0.0000000001
 40
0.0
 40
0.0
 40
0.0
 40
0.0
 40
0.4761925108
 40
1.0
 40
1.0
 40
1.0
 40
1.0
 10
63.1224397046
 20
453.8257684615
 30
0.0
 10
62.4129069835
 20
454.2354081018
 30
0.0
 10
61.1175026079
 20
455.4286910516
 30
0.0
 10
60.2154913901
 20
456.9195752013
 30
0.0
 10
59.862824931
 20
457.7489213971
 30
0.0
  0
SPLINE
  5
366
100
AcDbEntity
  8
0
100
AcDbSpline
 62
7
  6
CONTINUOUS
 70
0
 71
3
 72
13
 73
9
 74
0
 42
0.0000001
 43
0.0000001
 44
0.0000000001
 40
0.0
 40
0.0
 40
0.0
 40
0.0
 40
0.0871362949
 40
0.1868485083
 40
0.3045285645
 40
0.4386653932
 40
0.7300810738
 40
1.0
 40
1.0
 40
1.0
 40
1.0
 10
387.5138374344
 20
355.4404827918
 30
0.0
 10
387.5139597152
 20
355.613496695
 30
0.0
 10
387.6181052525
 20
355.9879243426
 30
0.0
 10
388.0263241617
 20
356.4519966384
 30
0.0
 10
388.6286957499
 20
356.8191760825
 30
0.0
 10
389.6587175033
 20
357.1622868702
 30
0.0
 10
391.0614397701
 20
357.2334487107
 30
0.0
 10
392.1708816886
 20
356.9331802935
 30
0.0
 10
392.6350211014
 20
356.6652153408
 30
0.0
  0
SPLINE
  5
367
100
AcDbEntity
  8
0
100
AcDbSpline
 62
7
  6
CONTINUOUS
 70
0
 71
3
 72
13
 73
9
 74
0
 42
0.0000001
 43
0.0000001
 44
0.0000000001
 40
0.0
 40
0.0
 40
0.0
 40
0.0
 40
0.2699028351
 40
0.5613065255
 40
0.6954494767
 40
0.8131351157
 40
0.9128533852
 40
1.0
 40
1.0
 40
1.0
 40
1.0
 10
57.4655619035
 20
291.7499550289
 30
0.0
 10
57.0014452569
 20
292.0179068378
 30
0.0
 10
56.18669115
 20
292.8285202433
 30
0.0
 10
55.5469543348
 20
294.0788590708
 30
0.0
 10
55.329058688
 20
295.1424461428
 30
0.0
 10
55.3458455623
 20
295.8477453078
 30
0.0
 10
55.5436210485
 20
296.4333723191
 30
0.0
 10
55.81584465
 20
296.7107997114
 30
0.0
 10
55.9656331255
 20
296.7974308933
 30
0.0
  0
SPLINE
  5
368
100
AcDbEntity
  8
0
100
AcDbSpline
 62
7
  6
CONTINUOUS
 70
0
 71
3
 72
9
 73
5
 74
0
 42
0.0000001
 43
0.0000001
 44
0.0000000001
 40
0.0
 40
0.0
 40
0.0
 40
0.0
 40
0.4761925108
 40
1.0
 40
1.0
 40
1.0
 40
1.0
 10
63.1224397046
 20
286.4427729499
 30
0.0
 10
62.4129069835
 20
286.8524125902
 30
0.0
 10
61.1175026079
 20
288.04569554
 30
0.0
 10
60.2154913901
 20
289.5365796897
 30
0.0
 10
59.862824931
 20
290.3659258855
 30
0.0
  0
SPLINE
  5
369
100
AcDbEntity
  8
0
100
AcDbSpline
 62
7
  6
CONTINUOUS
 70
0
 71
3
 72
9
 73
5
 74
0
 42
0.0000001
 43
0.0000001
 44
0.0000000001
 40
0.0
 40
0.0
 40
0.0
 40
0.0
 40
0.5508354204
 40
1.0
 40
1.0
 40
1.0
 40
1.0
 10
334.6525741611
 20
125.1875599199
 30
0.0
 10
334.6525741611
 20
124.8055243583
 30
0.0
 10
334.7451615
 20
124.0956128917
 30
0.0
 10
335.2113486356
 20
123.5123670166
 30
0.0
 10
335.4811353468
 20
123.3566091572
 30
0.0
  0
SPLINE
  5
36A
100
AcDbEntity
  8
0
100
AcDbSpline
 62
7
  6
CONTINUOUS
 70
0
 71
3
 72
17
 73
13
 74
0
 42
0.0000001
 43
0.0000001
 44
0.0000000001
 40
0.0
 40
0.0
 40
0.0
 40
0.0
 40
0.0430179433
 40
0.0884078462
 40
0.1372776255
 40
0.1903314421
 40
0.3092900647
 40
0.4434655214
 40
0.5871363317
 40
0.7328270481
 40
0.8727101635
 40
1.0
 40
1.0
 40
1.0
 40
1.0
 10
357.2902522105
 20
290.6867285609
 30
0.0
 10
356.784033392
 20
291.0627074012
 30
0.0
 10
355.8383297866
 20
291.9702161082
 30
0.0
 10
354.7346670001
 20
293.6703334856
 30
0.0
 10
353.9379936202
 20
295.6908895333
 30
0.0
 10
353.2748157757
 20
298.8727525883
 30
0.0
 10
353.3420619136
 20
303.4131543229
 30
0.0
 10
354.6504058858
 20
309.1125311208
 30
0.0
 10
357.0838844517
 20
314.8562317487
 30
0.0
 10
360.4575205898
 20
320.2009653265
 30
0.0
 10
364.5071510262
 20
324.735132611
 30
0.0
 10
367.6492980529
 20
327.1343376013
 30
0.0
 10
369.2651745142
 20
328.0672587424
 30
0.0
  0
SPLINE
  5
36B
100
AcDbEntity
  8
0
100
AcDbSpline
 62
7
  6
CONTINUOUS
 70
0
 71
3
 72
11
 73
7
 74
0
 42
0.0000001
 43
0.0000001
 44
0.0000000001
 40
0.0
 40
0.0
 40
0.0
 40
0.0
 40
0.2873598322
 40
0.5469867024
 40
0.7819541911
 40
1.0
 40
1.0
 40
1.0
 40
1.0
 10
369.2651745142
 20
328.0672587424
 30
0.0
 10
370.173227004
 20
328.5915199624
 30
0.0
 10
371.9797919301
 20
329.4652992661
 30
0.0
 10
374.7538314678
 20
330.2141387875
 30
0.0
 10
377.3795927402
 20
330.3017169744
 30
0.0
 10
379.0099230281
 20
329.8871945294
 30
0.0
 10
379.7401030629
 20
329.5712267123
 30
0.0
  0
SPLINE
  5
36C
100
AcDbEntity
  8
0
100
AcDbSpline
 62
7
  6
CONTINUOUS
 70
0
 71
3
 72
10
 73
6
 74
0
 42
0.0000001
 43
0.0000001
 44
0.0000000001
 40
0.0
 40
0.0
 40
0.0
 40
0.0
 40
0.4283118069
 40
0.7005234768
 40
1.0
 40
1.0
 40
1.0
 40
1.0
 10
384.503273982
 20
179.9672287336
 30
0.0
 10
384.2418863973
 20
180.2713399692
 30
0.0
 10
384.0941676839
 20
180.9834844492
 30
0.0
 10
384.2211874378
 20
181.9044439542
 30
0.0
 10
384.3922142605
 20
182.4178085674
 30
0.0
 10
384.503273982
 20
182.6752608916
 30
0.0
  0
SPLINE
  5
36D
100
AcDbEntity
  8
0
100
AcDbSpline
 62
7
  6
CONTINUOUS
 70
0
 71
3
 72
11
 73
7
 74
0
 42
0.0000001
 43
0.0000001
 44
0.0000000001
 40
0.0
 40
0.0
 40
0.0
 40
0.0
 40
0.2466495505
 40
0.519087622
 40
0.7807598609
 40
1.0
 40
1.0
 40
1.0
 40
1.0
 10
369.2651745142
 20
302.3474326028
 30
0.0
 10
370.3313068583
 20
302.9629607244
 30
0.0
 10
372.3061613149
 20
304.7237129392
 30
0.0
 10
374.4459122024
 20
308.0257276943
 30
0.0
 10
375.6597195933
 20
311.6217037696
 30
0.0
 10
375.6943965728
 20
314.1047512194
 30
0.0
 10
375.4084710079
 20
315.1609928167
 30
0.0
  0
SPLINE
  5
36E
100
AcDbEntity
  8
0
100
AcDbSpline
 62
7
  6
CONTINUOUS
 70
0
 71
3
 72
9
 73
5
 74
0
 42
0.0000001
 43
0.0000001
 44
0.0000000001
 40
0.0
 40
0.0
 40
0.0
 40
0.0
 40
0.2357179888
 40
1.0
 40
1.0
 40
1.0
 40
1.0
 10
367.5005385323
 20
301.6167597559
 30
0.0
 10
367.6466104158
 20
301.6524164777
 30
0.0
 10
368.2598542923
 20
301.8299668117
 30
0.0
 10
368.8429659141
 20
302.1036718089
 30
0.0
 10
369.2651745142
 20
302.3474326028
 30
0.0
  0
SPLINE
  5
36F
100
AcDbEntity
  8
0
100
AcDbSpline
 62
7
  6
CONTINUOUS
 70
0
 71
3
 72
9
 73
5
 74
0
 42
0.0000001
 43
0.0000001
 44
0.0000000001
 40
0.0
 40
0.0
 40
0.0
 40
0.0
 40
0.4604731262
 40
1.0
 40
1.0
 40
1.0
 40
1.0
 10
361.9402018241
 20
291.9779841184
 30
0.0
 10
363.1013678661
 20
291.8074480581
 30
0.0
 10
365.7149494969
 20
292.0397770872
 30
0.0
 10
368.07429343
 20
293.0866058125
 30
0.0
 10
369.2651745142
 20
293.7741572229
 30
0.0
  0
SPLINE
  5
370
100
AcDbEntity
  8
0
100
AcDbSpline
 62
7
  6
CONTINUOUS
 70
0
 71
3
 72
15
 73
11
 74
0
 42
0.0000001
 43
0.0000001
 44
0.0000000001
 40
0.0
 40
0.0
 40
0.0
 40
0.0
 40
0.1239132384
 40
0.2596436907
 40
0.4016211576
 40
0.5432876677
 40
0.6781501
 40
0.8007501734
 40
0.9078464222
 40
1.0
 40
1.0
 40
1.0
 40
1.0
 10
369.2651745142
 20
293.7741572229
 30
0.0
 10
370.561195174
 20
294.5224106333
 30
0.0
 10
373.0917462874
 20
296.4180321615
 30
0.0
 10
376.4063954577
 20
299.9861968878
 30
0.0
 10
379.2439588157
 20
304.2059468748
 30
0.0
 10
381.4111380169
 20
308.7937550503
 30
0.0
 10
382.7651293065
 20
313.4434088634
 30
0.0
 10
383.2112530069
 20
317.8543741745
 30
0.0
 10
382.7165759836
 20
321.7503362636
 30
0.0
 10
381.6607392501
 20
323.9852615839
 30
0.0
 10
380.9754825983
 20
324.8622325559
 30
0.0
  0
SPLINE
  5
371
100
AcDbEntity
  8
0
100
AcDbSpline
 62
7
  6
CONTINUOUS
 70
0
 71
3
 72
11
 73
7
 74
0
 42
0.0000001
 43
0.0000001
 44
0.0000000001
 40
0.0
 40
0.0
 40
0.0
 40
0.0
 40
0.2197814405
 40
0.456991015
 40
0.7165336336
 40
1.0
 40
1.0
 40
1.0
 40
1.0
 10
357.3789443063
 20
284.0419956587
 30
0.0
 10
358.257763456
 20
283.8081696631
 30
0.0
 10
360.1567704508
 20
283.5691245622
 30
0.0
 10
363.1254026529
 20
283.8857951118
 30
0.0
 10
366.2265877368
 20
284.8400414108
 30
0.0
 10
368.2494078627
 20
285.8391858197
 30
0.0
 10
369.2651745142
 20
286.4256354687
 30
0.0
  0
SPLINE
  5
372
100
AcDbEntity
  8
0
100
AcDbSpline
 62
7
  6
CONTINUOUS
 70
0
 71
3
 72
17
 73
13
 74
0
 42
0.0000001
 43
0.0000001
 44
0.0000000001
 40
0.0
 40
0.0
 40
0.0
 40
0.0
 40
0.1254434278
 40
0.2630689192
 40
0.4067585516
 40
0.5493781762
 40
0.6839727102
 40
0.804928155
 40
0.859376868
 40
0.9096958497
 40
0.9562911326
 40
1.0
 40
1.0
 40
1.0
 40
1.0
 10
369.2651745142
 20
286.4256354687
 30
0.0
 10
371.2304860499
 20
287.5603018399
 30
0.0
 10
375.0606715835
 20
290.4552707047
 30
0.0
 10
380.0404258892
 20
295.9156089773
 30
0.0
 10
384.2510248024
 20
302.3642610093
 30
0.0
 10
387.3862366141
 20
309.339406497
 30
0.0
 10
389.22315855
 20
316.3397822239
 30
0.0
 10
389.5741972579
 20
321.9910667507
 30
0.0
 10
389.0219808676
 20
326.0495146258
 30
0.0
 10
388.2465928114
 20
328.6886319081
 30
0.0
 10
387.1056639288
 20
330.978606064
 30
0.0
 10
386.0831796198
 20
332.2724903173
 30
0.0
 10
385.5239450588
 20
332.8315002093
 30
0.0
  0
SPLINE
  5
373
100
AcDbEntity
  8
0
100
AcDbSpline
 62
7
  6
CONTINUOUS
 70
0
 71
3
 72
8
 73
4
 74
0
 42
0.0000001
 43
0.0000001
 44
0.0000000001
 40
0.0
 40
0.0
 40
0.0
 40
0.0
 40
1.0
 40
1.0
 40
1.0
 40
1.0
 10
384.4984858635
 20
185.3655637039
 30
0.0
 10
384.612428773
 20
185.4539140071
 30
0.0
 10
384.7319477229
 20
185.5357527352
 30
0.0
 10
384.8568141248
 20
185.6078439577
 30
0.0
  0
SPLINE
  5
374
100
AcDbEntity
  8
0
100
AcDbSpline
 62
7
  6
CONTINUOUS
 70
0
 71
3
 72
9
 73
5
 74
0
 42
0.0000001
 43
0.0000001
 44
0.0000000001
 40
0.0
 40
0.0
 40
0.0
 40
0.0
 40
0.27981972
 40
1.0
 40
1.0
 40
1.0
 40
1.0
 10
384.8568141248
 20
185.6078439577
 30
0.0
 10
384.946225723
 20
185.6594654614
 30
0.0
 10
385.2740204389
 20
185.826181014
 30
0.0
 10
385.6528029599
 20
185.9156804474
 30
0.0
 10
385.9174698806
 20
185.8920384436
 30
0.0
  0
SPLINE
  5
375
100
AcDbEntity
  8
0
100
AcDbSpline
 62
7
  6
CONTINUOUS
 70
0
 71
3
 72
11
 73
7
 74
0
 42
0.0000001
 43
0.0000001
 44
0.0000000001
 40
0.0
 40
0.0
 40
0.0
 40
0.0
 40
0.2431440287
 40
0.5120893489
 40
0.7743477214
 40
1.0
 40
1.0
 40
1.0
 40
1.0
 10
387.2609871592
 20
184.2198253744
 30
0.0
 10
386.9240561911
 20
184.0252993404
 30
0.0
 10
386.2951798049
 20
183.475388644
 30
0.0
 10
385.595718971
 20
182.4394041033
 30
0.0
 10
385.1699467701
 20
181.294381183
 30
0.0
 10
385.1122793783
 20
180.4949479721
 30
0.0
 10
385.171903173
 20
180.1388396112
 30
0.0
  0
SPLINE
  5
376
100
AcDbEntity
  8
0
100
AcDbSpline
 62
7
  6
CONTINUOUS
 70
0
 71
3
 72
9
 73
5
 74
0
 42
0.0000001
 43
0.0000001
 44
0.0000000001
 40
0.0
 40
0.0
 40
0.0
 40
0.0
 40
0.5355576261
 40
1.0
 40
1.0
 40
1.0
 40
1.0
 10
385.171903173
 20
180.1388396112
 30
0.0
 10
385.2061167182
 20
179.9344962016
 30
0.0
 10
385.3240972113
 20
179.5550465887
 30
0.0
 10
385.605528052
 20
179.2622717116
 30
0.0
 10
385.7610665664
 20
179.1723205868
 30
0.0
  0
SPLINE
  5
377
100
AcDbEntity
  8
0
100
AcDbSpline
 62
7
  6
CONTINUOUS
 70
0
 71
3
 72
11
 73
7
 74
0
 42
0.0000001
 43
0.0000001
 44
0.0000000001
 40
0.0
 40
0.0
 40
0.0
 40
0.0
 40
0.2879126076
 40
0.5474949987
 40
0.7820884516
 40
1.0
 40
1.0
 40
1.0
 40
1.0
 10
370.6793939645
 20
285.6091539597
 30
0.0
 10
369.5078677927
 20
284.9327770465
 30
0.0
 10
367.1774246526
 20
283.8093832642
 30
0.0
 10
363.5980708447
 20
282.8648359739
 30
0.0
 10
360.2162889442
 20
282.7929146198
 30
0.0
 10
358.1287508599
 20
283.3696867964
 30
0.0
 10
357.1992006175
 20
283.7989002765
 30
0.0
  0
SPLINE
  5
378
100
AcDbEntity
  8
0
100
AcDbSpline
 62
7
  6
CONTINUOUS
 70
0
 71
3
 72
13
 73
9
 74
0
 42
0.0000001
 43
0.0000001
 44
0.0000000001
 40
0.0
 40
0.0
 40
0.0
 40
0.0
 40
0.0871362949
 40
0.1868485083
 40
0.3045285645
 40
0.4386653932
 40
0.7300810738
 40
1.0
 40
1.0
 40
1.0
 40
1.0
 10
118.458587016
 20
510.7760898868
 30
0.0
 10
118.4587092968
 20
510.94910379
 30
0.0
 10
118.5628548341
 20
511.3235314376
 30
0.0
 10
118.9710737433
 20
511.7876037333
 30
0.0
 10
119.5734453315
 20
512.1547831775
 30
0.0
 10
120.6034670849
 20
512.4978939652
 30
0.0
 10
122.0061893517
 20
512.5690558057
 30
0.0
 10
123.1156312702
 20
512.2687873885
 30
0.0
 10
123.5797706829
 20
512.0008224358
 30
0.0
  0
SPLINE
  5
379
100
AcDbEntity
  8
0
100
AcDbSpline
 62
7
  6
CONTINUOUS
 70
0
 71
3
 72
17
 73
13
 74
0
 42
0.0000001
 43
0.0000001
 44
0.0000000001
 40
0.0
 40
0.0
 40
0.0
 40
0.0
 40
0.0429563508
 40
0.0881738745
 40
0.1368179017
 40
0.1896428075
 40
0.3082557648
 40
0.442338622
 40
0.5861621565
 40
0.7321679438
 40
0.8724129785
 40
1.0
 40
1.0
 40
1.0
 40
1.0
 10
385.6595810664
 20
333.09399886
 30
0.0
 10
386.3138733225
 20
332.6321625698
 30
0.0
 10
387.5401900682
 20
331.5086799578
 30
0.0
 10
388.9809122529
 20
329.3803010155
 30
0.0
 10
390.02916686
 20
326.8364599744
 30
0.0
 10
390.9178270476
 20
322.8138320404
 30
0.0
 10
390.8779175174
 20
317.0488122853
 30
0.0
 10
389.2518498567
 20
309.7958918796
 30
0.0
 10
386.1795563478
 20
302.4726019613
 30
0.0
 10
381.8970842119
 20
295.6505280068
 30
0.0
 10
376.7437351409
 20
289.8610527881
 30
0.0
 10
372.7394160115
 20
286.7985011436
 30
0.0
 10
370.6793939645
 20
285.6091539597
 30
0.0
  0
SPLINE
  5
37A
100
AcDbEntity
  8
0
100
AcDbSpline
 62
7
  6
CONTINUOUS
 70
0
 71
3
 72
13
 73
9
 74
0
 42
0.0000001
 43
0.0000001
 44
0.0000000001
 40
0.0
 40
0.0
 40
0.0
 40
0.0
 40
0.0871362949
 40
0.1868485083
 40
0.3045285645
 40
0.4386653932
 40
0.7300810738
 40
1.0
 40
1.0
 40
1.0
 40
1.0
 10
64.7186953877
 20
479.7495341925
 30
0.0
 10
64.7188176685
 20
479.9225480957
 30
0.0
 10
64.8229632058
 20
480.2969757434
 30
0.0
 10
65.231182115
 20
480.7610480391
 30
0.0
 10
65.8335537033
 20
481.1282274832
 30
0.0
 10
66.8635754566
 20
481.471338271
 30
0.0
 10
68.2662977234
 20
481.5425001115
 30
0.0
 10
69.3757396419
 20
481.2422316943
 30
0.0
 10
69.8398790547
 20
480.9742667416
 30
0.0
  0
SPLINE
  5
37B
100
AcDbEntity
  8
0
100
AcDbSpline
 62
7
  6
CONTINUOUS
 70
0
 71
3
 72
10
 73
6
 74
0
 42
0.0000001
 43
0.0000001
 44
0.0000000001
 40
0.0
 40
0.0
 40
0.0
 40
0.0
 40
0.2184950347
 40
0.4523142499
 40
1.0
 40
1.0
 40
1.0
 40
1.0
 10
65.8723988679
 20
286.1704387806
 30
0.0
 10
65.6909821642
 20
286.0655934545
 30
0.0
 10
65.2739275405
 20
285.9142746372
 30
0.0
 10
64.3030901492
 20
285.8902073395
 30
0.0
 10
63.5772997451
 20
286.1801653241
 30
0.0
 10
63.1224397046
 20
286.4427729499
 30
0.0
  0
SPLINE
  5
37C
100
AcDbEntity
  8
0
100
AcDbSpline
 62
7
  6
CONTINUOUS
 70
0
 71
3
 72
9
 73
5
 74
0
 42
0.0000001
 43
0.0000001
 44
0.0000000001
 40
0.0
 40
0.0
 40
0.0
 40
0.0
 40
0.2645307392
 40
1.0
 40
1.0
 40
1.0
 40
1.0
 10
338.5416452658
 20
125.799897932
 30
0.0
 10
338.6076341354
 20
125.8379963962
 30
0.0
 10
338.8524694253
 20
125.9896034734
 30
0.0
 10
339.0789170009
 20
126.1729334918
 30
0.0
 10
339.224520886
 20
126.326815885
 30
0.0
  0
SPLINE
  5
37D
100
AcDbEntity
  8
0
100
AcDbSpline
 62
7
  6
CONTINUOUS
 70
0
 71
3
 72
9
 73
5
 74
0
 42
0.0000001
 43
0.0000001
 44
0.0000000001
 40
0.0
 40
0.0
 40
0.0
 40
0.0
 40
0.5259339461
 40
1.0
 40
1.0
 40
1.0
 40
1.0
 10
339.224520886
 20
126.326815885
 30
0.0
 10
339.3729294524
 20
126.4836624234
 30
0.0
 10
339.6179197693
 20
126.8242917119
 30
0.0
 10
339.7129826138
 20
127.2382257189
 30
0.0
 10
339.7129825534
 20
127.4328609484
 30
0.0
  0
SPLINE
  5
37E
100
AcDbEntity
  8
0
100
AcDbSpline
 62
7
  6
CONTINUOUS
 70
0
 71
3
 72
11
 73
7
 74
0
 42
0.0000001
 43
0.0000001
 44
0.0000000001
 40
0.0
 40
0.0
 40
0.0
 40
0.0
 40
0.2868680667
 40
0.5465982829
 40
0.7818753045
 40
1.0
 40
1.0
 40
1.0
 40
1.0
 10
370.6793939645
 20
292.9576757139
 30
0.0
 10
369.9033190931
 20
292.5096113525
 30
0.0
 10
368.3585856279
 20
291.7612200209
 30
0.0
 10
365.9873820416
 20
291.1095054311
 30
0.0
 10
363.7395693853
 20
291.0159213028
 30
0.0
 10
362.3383438602
 20
291.3494281161
 30
0.0
 10
361.7083202673
 20
291.608967962
 30
0.0
  0
SPLINE
  5
37F
100
AcDbEntity
  8
0
100
AcDbSpline
 62
7
  6
CONTINUOUS
 70
0
 71
3
 72
17
 73
13
 74
0
 42
0.0000001
 43
0.0000001
 44
0.0000000001
 40
0.0
 40
0.0
 40
0.0
 40
0.0
 40
0.0430753695
 40
0.0886147182
 40
0.1905344997
 40
0.3097700103
 40
0.4440370264
 40
0.515174059
 40
0.5877537053
 40
0.7332466933
 40
0.8728949428
 40
1.0
 40
1.0
 40
1.0
 40
1.0
 10
381.1504614166
 20
325.2839311745
 30
0.0
 10
381.5825383282
 20
324.951042365
 30
0.0
 10
382.3878025702
 20
324.151679524
 30
0.0
 10
383.6822556469
 20
322.0956095589
 30
0.0
 10
384.5597986993
 20
318.7584357381
 30
0.0
 10
384.4633999561
 20
314.2226827063
 30
0.0
 10
383.5246906947
 20
310.1926735029
 30
0.0
 10
382.2888799502
 20
306.8934953412
 30
0.0
 10
380.7185868701
 20
303.5810265626
 30
0.0
 10
378.2815633432
 20
299.7361711026
 30
0.0
 10
374.7844094496
 20
295.8300430864
 30
0.0
 10
372.0732327239
 20
293.7624040933
 30
0.0
 10
370.6793939645
 20
292.9576757139
 30
0.0
  0
ENDSEC
  0
SECTION
  2
OBJECTS
  0
DICTIONARY
  5
C
100
AcDbDictionary
280
0
281
1
  3
ACAD_GROUP
350
D
  3
ACAD_MLINESTYLE
350
17
  3
ACAD_LAYOUT
350
1A
  3
ACAD_PLOTSETTINGS
350
19
  3
ACAD_PLOTSTYLENAME
350
E
  0
DICTIONARY
  5
D
102
{ACAD_REACTORS
330
C
102
}
100
AcDbDictionary
280
0
281
1
  0
ACDBDICTIONARYWDFLT
  5
E
102
{ACAD_REACTORS
330
C
102
}
100
AcDbDictionary
281
1
  3
Normal
350
F
100
AcDbDictionaryWithDefault
340
F
  0
DICTIONARY
  5
17
102
{ACAD_REACTORS
330
C
102
}
100
AcDbDictionary
280
0
281
1
  3
Standard
350
18
  0
DICTIONARY
  5
19
102
{ACAD_REACTORS
330
C
102
}
100
AcDbDictionary
281
1
  0
DICTIONARY
  5
1A
102
{ACAD_REACTORS
330
C
102
}
100
AcDbDictionary
281
1
  3
Model
350
380
  3
Layout1
350
381
  0
ACDBPLACEHOLDER
  5
F
102
{ACAD_REACTORS
330
E
102
}
  0
MLINESTYLE
  5
18
102
{ACAD_REACTORS
330
17
102
}
100
AcDbMlineStyle
  2
STANDARD
 70
0
  3

 62
256
 51
90.0
 52
90.0
 71
2
 49
0.5
 62
256
  6
BYLAYER
 49
-0.5
 62
256
  6
BYLAYER
  0
LAYOUT
  5
380
102
{ACAD_REACTORS
330
1A
102
}
100
AcDbPlotSettings
  1

  2
none_device
  4

  6

 40
0.0
 41
0.0
 42
0.0
 43
0.0
 44
210.0
 45
297.0
 46
0.0
 47
0.0
 48
0.0
 49
0.0
140
0.0
141
0.0
142
1.0
143
1.0
 70
1024
 72
1
 73
0
 74
0
  7

 75
0
147
1.0
148
0.0
149
0.0
100
AcDbLayout
  1
Model
 70
0
 71
0
 10
0.0
 20
0.0
 11
210.0
 21
297.0
 12
0.0
 22
0.0
 32
0.0
 14
0.0
 24
0.0
 34
0.0
 15
0.0
 25
0.0
 35
0.0
146
0.0
 13
0.0
 23
0.0
 33
0.0
 16
1.0
 26
0.0
 36
0.0
 17
0.0
 27
1.0
 37
0.0
 76
0
330
210
345
0
346
0
  0
LAYOUT
  5
381
102
{ACAD_REACTORS
330
1A
102
}
100
AcDbPlotSettings
  1

  2
none_device
  4

  6

 40
0.0
 41
0.0
 42
0.0
 43
0.0
 44
210.0
 45
297.0
 46
0.0
 47
0.0
 48
0.0
 49
0.0
140
0.0
141
0.0
142
1.0
143
1.0
 70
0
 72
1
 73
0
 74
0
  7

 75
0
147
1.0
148
0.0
149
0.0
100
AcDbLayout
  1
Layout1
 70
0
 71
1
 10
0.0
 20
0.0
 11
210.0
 21
297.0
 12
0.0
 22
0.0
 32
0.0
 14
0.0
 24
0.0
 34
0.0
 15
0.0
 25
0.0
 35
0.0
146
0.0
 13
0.0
 23
0.0
 33
0.0
 16
1.0
 26
0.0
 36
0.0
 17
0.0
 27
1.0
 37
0.0
 76
0
330
211
345
0
346
0
  0
ENDSEC
  0
EOF
