999
DXF file: C:\Users\sesa63760\Dev\_Creo\CAD\MCADID0002054_3D-CAD\drw0001_1.dxf
999
Pro/ENGINEER 2019471 by Parametric Technology Corporation
  0
SECTION
  2
HEADER
  9
$ACADVER
  1
AC1024
  9
$DWGCODEPAGE
  3
ANSI_1252
  9
$EXTMAX
 10
112.0381777952
 20
158.4539943104
 30
0.0
  9
$EXTMIN
 10
0.0
 20
0.0
 30
0.0
  9
$LIMMIN
 10
0.0
 20
0.0
  9
$LIMMAX
 10
112.0381777952
 20
158.4539943104
  9
$VIEWCTR
 10
56.0190888976
 20
79.2269971552
  9
$VIEWSIZE
 40
158.4539943104
  9
$CLAYER
  8
0
  9
$LTSCALE
 40
10.3288529625
  9
$CELTYPE
  6
BYLAYER
  9
$DIMSCALE
 40
1.0
  9
$DIMASZ
 40
1.3337878309
  9
$DIMEXO
 40
1.0
  9
$DIMDLI
 40
7.1362984104
  9
$DIMEXE
 40
1.0
  9
$DIMCEN
 40
1.6901759393
  9
$DIMLFAC
 40
1.0
  9
$DIMBLK
  1
_FILLED
  9
$DIMALT
 70
0
  9
$DIMALTF
 40
0.0393700787
  9
$DIMTXT
 40
1.8673029633
  9
$DIMTOL
 70
1
  9
$DIMLIM
 70
0
  9
$DIMTFAC
 40
1.0
  9
$DIMTP
 40
0.01
  9
$DIMTM
 40
0.01
  9
$DIMGAP
 40
0.625
  9
$DIMDSEP
 70
46
  9
$AUNITS
 70
0
  9
$PDMODE
 70
3
  9
$PDSIZE
 40
0.3125
  9
$HANDSEED
  5
4B8
  9
$TILEMODE
 70
1
  9
$MEASUREMENT
 70
1
  9
$INSUNITS
 70
4
  0
ENDSEC
  0
SECTION
  2
CLASSES
  0
CLASS
  1
ACDBDICTIONARYWDFLT
  2
AcDbDictionaryWithDefault
  3
AutoCAD 2000
 90
0
 91
1
280
0
281
0
  0
CLASS
  1
ACDBPLACEHOLDER
  2
AcDbPlaceHolder
  3
AutoCAD 2000
 90
0
 91
1
280
0
281
0
  0
CLASS
  1
LAYOUT
  2
AcDbLayout
  3
AutoCAD 2000
 90
0
 91
0
280
0
281
0
  0
ENDSEC
  0
SECTION
  2
TABLES
  0
TABLE
  2
VPORT
  5
8
100
AcDbSymbolTable
 70
2
  0
VPORT
  5
1F4
100
AcDbSymbolTableRecord
100
AcDbViewportTableRecord
  2
*ACTIVE
 70
0
 10
0.0
 20
0.0
 11
1.0
 21
1.0
 12
56.0190888976
 22
79.2269971552
 13
0.0
 23
0.0
 14
1.0
 24
1.0
 15
0.0
 25
0.0
 16
0.0
 26
0.0
 36
1.0
 17
0.0
 27
0.0
 37
0.0
 40
158.4539943104
 41
0.7070707071
 42
50.0
 43
0.0
 44
0.0
 50
0.0
 51
0.0
 71
0
 72
100
 73
1
 74
1
 75
0
 76
0
 77
0
 78
0
  0
ENDTAB
  0
TABLE
  2
LTYPE
  5
5
100
AcDbSymbolTable
 70
6
  0
LTYPE
  5
14
100
AcDbSymbolTableRecord
100
AcDbLinetypeTableRecord
  2
BYBLOCK
 70
0
  3

 72
65
 73
0
 40
0.0
  0
LTYPE
  5
15
100
AcDbSymbolTableRecord
100
AcDbLinetypeTableRecord
  2
BYLAYER
 70
0
  3

 72
65
 73
0
 40
0.0
  0
LTYPE
  5
16
100
AcDbSymbolTableRecord
100
AcDbLinetypeTableRecord
  2
CONTINUOUS
 70
64
  3
Solid line
 72
65
 73
0
 40
0.0
  0
LTYPE
  5
1F5
100
AcDbSymbolTableRecord
100
AcDbLinetypeTableRecord
  2
CENTER
 70
64
  3
____ _ ____ _ ____ _ ____ _ ____ _ ____ _ ____
 72
65
 73
4
 40
0.6
 49
0.375
 74
0
 49
-0.075
 74
0
 49
0.075
 74
0
 49
-0.075
 74
0
  0
LTYPE
  5
1F6
100
AcDbSymbolTableRecord
100
AcDbLinetypeTableRecord
  2
HIDDEN
 70
64
  3
- - - - - - - - - - - - - - - - - - - -
 72
65
 73
2
 40
0.2
 49
0.1
 74
0
 49
-0.1
 74
0
  0
LTYPE
  5
1F7
100
AcDbSymbolTableRecord
100
AcDbLinetypeTableRecord
  2
PHANTOM
 70
64
  3
_____ _ _ _____ _ _ _____ _ _ _____
 72
65
 73
6
 40
0.8
 49
0.45
 74
0
 49
-0.05
 74
0
 49
0.1
 74
0
 49
-0.05
 74
0
 49
0.1
 74
0
 49
-0.05
 74
0
  0
LTYPE
  5
1F8
100
AcDbSymbolTableRecord
100
AcDbLinetypeTableRecord
  2
DOT
 70
64
  3
. . . . . . . . . . . . . . . . . . . .
 72
65
 73
2
 40
0.2
 49
0.1
 74
0
 49
-0.1
 74
0
  0
LTYPE
  5
1F9
100
AcDbSymbolTableRecord
100
AcDbLinetypeTableRecord
  2
DASHED
 70
64
  3
- - - - - - - - - - - - - - - - - - - -
 72
65
 73
2
 40
0.2
 49
0.1
 74
0
 49
-0.1
 74
0
  0
ENDTAB
  0
TABLE
  2
LAYER
  5
2
100
AcDbSymbolTable
 70
36
  0
LAYER
  5
10
100
AcDbSymbolTableRecord
100
AcDbLayerTableRecord
  2
0
 70
0
 62
7
  6
CONTINUOUS
370
-3
390
F
  0
LAYER
  5
1FA
100
AcDbSymbolTableRecord
100
AcDbLayerTableRecord
  2
DEFAULT_1
 70
0
 62
7
  6
CENTER
370
-3
390
F
  0
LAYER
  5
1FB
100
AcDbSymbolTableRecord
100
AcDbLayerTableRecord
  2
DEFAULT_2
 70
0
 62
8
  6
HIDDEN
370
-3
390
F
  0
LAYER
  5
1FC
100
AcDbSymbolTableRecord
100
AcDbLayerTableRecord
  2
DEFAULT_3
 70
0
 62
7
  6
PHANTOM
370
-3
390
F
  0
LAYER
  5
1FD
100
AcDbSymbolTableRecord
100
AcDbLayerTableRecord
  2
00_COMPONENTS
 70
0
 62
7
  6
CONTINUOUS
370
-3
390
F
  0
LAYER
  5
1FE
100
AcDbSymbolTableRecord
100
AcDbLayerTableRecord
  2
01_1_DEFAULT_DATUMS
 70
0
 62
7
  6
CONTINUOUS
370
-3
390
F
  0
LAYER
  5
1FF
100
AcDbSymbolTableRecord
100
AcDbLayerTableRecord
  2
01_PLANES
 70
0
 62
7
  6
CONTINUOUS
370
-3
390
F
  0
LAYER
  5
200
100
AcDbSymbolTableRecord
100
AcDbLayerTableRecord
  2
02_COORD_SYS
 70
0
 62
7
  6
CONTINUOUS
370
-3
390
F
  0
LAYER
  5
201
100
AcDbSymbolTableRecord
100
AcDbLayerTableRecord
  2
03_AXES
 70
0
 62
7
  6
CONTINUOUS
370
-3
390
F
  0
LAYER
  5
202
100
AcDbSymbolTableRecord
100
AcDbLayerTableRecord
  2
04_POINTS
 70
0
 62
7
  6
CONTINUOUS
370
-3
390
F
  0
LAYER
  5
203
100
AcDbSymbolTableRecord
100
AcDbLayerTableRecord
  2
05_CURVES
 70
0
 62
7
  6
CONTINUOUS
370
-3
390
F
  0
LAYER
  5
204
100
AcDbSymbolTableRecord
100
AcDbLayerTableRecord
  2
06_SURFS
 70
0
 62
7
  6
CONTINUOUS
370
-3
390
F
  0
LAYER
  5
205
100
AcDbSymbolTableRecord
100
AcDbLayerTableRecord
  2
07_COSMETICS
 70
0
 62
7
  6
CONTINUOUS
370
-3
390
F
  0
LAYER
  5
206
100
AcDbSymbolTableRecord
100
AcDbLayerTableRecord
  2
10_NOTES
 70
0
 62
7
  6
CONTINUOUS
370
-3
390
F
  0
LAYER
  5
207
100
AcDbSymbolTableRecord
100
AcDbLayerTableRecord
  2
11_NOTES_PUB
 70
0
 62
7
  6
CONTINUOUS
370
-3
390
F
  0
LAYER
  5
208
100
AcDbSymbolTableRecord
100
AcDbLayerTableRecord
  2
13_REF_GTOL
 70
0
 62
7
  6
CONTINUOUS
370
-3
390
F
  0
LAYER
  5
209
100
AcDbSymbolTableRecord
100
AcDbLayerTableRecord
  2
16_MISC
 70
0
 62
7
  6
CONTINUOUS
370
-3
390
F
  0
LAYER
  5
20A
100
AcDbSymbolTableRecord
100
AcDbLayerTableRecord
  2
17_NO_PRINT
 70
0
 62
7
  6
CONTINUOUS
370
-3
390
F
  0
LAYER
  5
20B
100
AcDbSymbolTableRecord
100
AcDbLayerTableRecord
  2
18_DATUM_CAMS_JOINTS
 70
0
 62
7
  6
CONTINUOUS
370
-3
390
F
  0
LAYER
  5
20C
100
AcDbSymbolTableRecord
100
AcDbLayerTableRecord
  2
19_DATUM_FUNCTIONAL
 70
0
 62
7
  6
CONTINUOUS
370
-3
390
F
  0
LAYER
  5
20D
100
AcDbSymbolTableRecord
100
AcDbLayerTableRecord
  2
20_DATUM_KINEMATIC_SCHEME
 70
0
 62
7
  6
CONTINUOUS
370
-3
390
F
  0
LAYER
  5
20E
100
AcDbSymbolTableRecord
100
AcDbLayerTableRecord
  2
_1
 70
0
 62
7
  6
CONTINUOUS
370
-3
390
F
  0
ENDTAB
  0
TABLE
  2
STYLE
  5
3
100
AcDbSymbolTable
 70
1
  0
STYLE
  5
11
100
AcDbSymbolTableRecord
100
AcDbTextStyleTableRecord
  2
STANDARD
 70
0
 40
0.0
 41
0.8
 50
0.0
 71
0
 42
0.2
  3
txt
  4

  0
STYLE
  5
20F
100
AcDbSymbolTableRecord
100
AcDbTextStyleTableRecord
  2
TEXTSTYLE_1
 70
0
 40
0.0
 41
0.8
 50
0.0
 71
0
 42
0.2
  3
gdt
  4

  0
ENDTAB
  0
TABLE
  2
VIEW
  5
6
100
AcDbSymbolTable
 70
0
  0
ENDTAB
  0
TABLE
  2
UCS
  5
7
100
AcDbSymbolTable
 70
0
  0
ENDTAB
  0
TABLE
  2
APPID
  5
9
100
AcDbSymbolTable
 70
1
  0
APPID
  5
210
100
AcDbSymbolTableRecord
100
AcDbRegAppTableRecord
  2
ACAD
 70
0
  0
ENDTAB
  0
TABLE
  2
BLOCK_RECORD
  5
1
100
AcDbSymbolTable
 70
0
  0
BLOCK_RECORD
  5
211
100
AcDbSymbolTableRecord
100
AcDbBlockTableRecord
  2
*Model_Space
  0
BLOCK_RECORD
  5
212
100
AcDbSymbolTableRecord
100
AcDbBlockTableRecord
  2
*Paper_Space
  0
BLOCK_RECORD
  5
213
100
AcDbSymbolTableRecord
100
AcDbBlockTableRecord
  2
_FILLED
  0
ENDTAB
  0
TABLE
  2
DIMSTYLE
  5
A
100
AcDbSymbolTable
 70
1
100
AcDbDimStyleTable
 71
0
  0
DIMSTYLE
105
214
100
AcDbSymbolTableRecord
100
AcDbDimStyleTableRecord
  2
STANDARD
 70
0
  3

  4

 40
1.0
 41
1.3337878309
 42
1.0
 43
0.38
 44
1.0
 45
0.0
 46
0.0
 47
0.01
 48
0.01
140
1.8673029633
141
0.09
142
0.0
143
25.4
144
1.0
145
0.0
146
1.0
147
0.625
 71
1
 72
0
 73
0
 74
0
 75
0
 76
0
 77
1
 78
8
 79
2
170
0
171
1
172
0
173
0
174
0
175
0
176
0
177
0
178
0
270
2
179
2
271
2
272
2
273
2
274
2
275
0
280
0
281
0
282
0
283
1
284
8
285
0
286
0
287
3
288
0
340
11
278
46
341
213
342
213
343
213
344
213
  0
ENDTAB
  0
ENDSEC
  0
SECTION
  2
BLOCKS
  0
BLOCK
  5
20
100
AcDbEntity
  8
0
100
AcDbBlockBegin
  2
*Model_Space
 70
0
 10
0.0
 20
0.0
 30
0.0
  3
*Model_Space
  1

  0
ENDBLK
  5
21
100
AcDbEntity
  8
0
100
AcDbBlockEnd
  0
BLOCK
  5
1C
100
AcDbEntity
  8
0
100
AcDbBlockBegin
  2
*Paper_Space
 70
0
 10
0.0
 20
0.0
 30
0.0
  3
*Paper_Space
  1

  0
ENDBLK
  5
1D
100
AcDbEntity
  8
0
100
AcDbBlockEnd
  0
BLOCK
  5
215
100
AcDbEntity
  8
0
100
AcDbBlockBegin
  2
_FILLED
 70
64
 10
0.0
 20
0.0
  3
_FILLED
  1

  0
SOLID
  5
216
100
AcDbEntity
  8
0
  6
BYBLOCK
 62
0
100
AcDbTrace
 10
0.0
 20
0.0
 11
-1.0
 21
0.25
 12
-1.0
 22
-0.25
 13
-1.0
 23
-0.25
  0
ENDBLK
  5
217
100
AcDbEntity
  8
0
  6
BYBLOCK
 62
0
100
AcDbBlockEnd
  0
ENDSEC
  0
SECTION
  2
ENTITIES
  0
LWPOLYLINE
  5
218
100
AcDbEntity
  8
_1
100
AcDbPolyline
 62
7
  6
CONTINUOUS
 90
4
 70
0
 10
18.6745293141
 20
136.3699456022
 10
18.4107752116
 20
136.1634501452
 10
18.1838315456
 20
135.848717434
 10
17.9854998204
 20
135.0353112905
  0
LINE
  5
219
100
AcDbEntity
  8
_1
100
AcDbLine
 62
7
  6
CONTINUOUS
 10
33.2165305079
 20
144.765733493
 11
18.6747537458
 21
136.3700795824
  0
LINE
  5
21A
100
AcDbEntity
  8
_1
100
AcDbLine
 62
7
  6
CONTINUOUS
 10
34.3830037968
 20
144.6882885033
 11
29.4108076882
 21
141.8176068772
  0
LINE
  5
21B
100
AcDbEntity
  8
_1
100
AcDbLine
 62
7
  6
CONTINUOUS
 10
26.7311132879
 20
140.2704938288
 11
19.8582970322
 21
136.3024951993
  0
LINE
  5
21C
100
AcDbEntity
  8
_1
100
AcDbLine
 62
7
  6
CONTINUOUS
 10
24.4643057751
 20
134.123465306
 11
25.4775689207
 21
134.7084695639
  0
LINE
  5
21D
100
AcDbEntity
  8
_1
100
AcDbLine
 62
7
  6
CONTINUOUS
 10
37.5802156111
 20
141.6958941792
 11
38.5934787566
 21
142.280898437
  0
LINE
  5
21E
100
AcDbEntity
  8
_1
100
AcDbLine
 62
7
  6
CONTINUOUS
 10
44.3933194805
 20
142.5285910249
 11
51.4643578527
 21
146.6110325636
  0
LINE
  5
21F
100
AcDbEntity
  8
_1
100
AcDbLine
 62
7
  6
CONTINUOUS
 10
43.0744520484
 20
141.028696243
 11
28.5952597952
 21
132.6691805976
  0
LINE
  5
220
100
AcDbEntity
  8
_1
100
AcDbLine
 62
7
  6
CONTINUOUS
 10
28.3732347438
 20
132.405466498
 11
28.0563090127
 21
132.2224904341
  0
LINE
  5
221
100
AcDbEntity
  8
_1
100
AcDbLine
 62
7
  6
CONTINUOUS
 10
43.3151814669
 20
141.0112536104
 11
28.8359892138
 21
132.651737965
  0
LINE
  5
222
100
AcDbEntity
  8
_1
100
AcDbLine
 62
7
  6
CONTINUOUS
 10
28.0805155251
 20
131.9988012393
 11
28.3156226122
 21
132.1345395691
  0
LINE
  5
223
100
AcDbEntity
  8
_1
100
AcDbLine
 62
7
  6
CONTINUOUS
 10
48.4675602992
 20
140.7090171519
 11
48.5057348704
 21
140.7310571193
  0
LINE
  5
224
100
AcDbEntity
  8
_1
100
AcDbLine
 62
7
  6
CONTINUOUS
 10
52.0030794852
 20
142.7502379213
 11
52.0412540565
 21
142.7722778887
  0
LINE
  5
225
100
AcDbEntity
  8
_1
100
AcDbLine
 62
7
  6
CONTINUOUS
 10
53.768038841
 20
143.0012701344
 11
53.1643782913
 21
142.6527486339
  0
LINE
  5
226
100
AcDbEntity
  8
_1
100
AcDbLine
 62
7
  6
CONTINUOUS
 10
50.232519655
 20
140.9600493651
 11
49.6288591052
 21
140.6115278646
  0
LINE
  5
227
100
AcDbEntity
  8
_1
100
AcDbLine
 62
7
  6
CONTINUOUS
 10
44.0466978494
 20
137.1028419332
 11
43.7569207279
 21
136.9355400328
  0
LINE
  5
228
100
AcDbEntity
  8
_1
100
AcDbLine
 62
7
  6
CONTINUOUS
 10
56.4141259287
 20
143.7533472819
 11
49.3430875566
 21
139.6709057432
  0
LINE
  5
229
100
AcDbEntity
  8
_1
100
AcDbLine
 62
7
  6
CONTINUOUS
 10
49.3430875566
 20
138.6094525748
 11
56.4141259287
 21
142.6918941135
  0
LINE
  5
22A
100
AcDbEntity
  8
_1
100
AcDbLine
 62
7
  6
CONTINUOUS
 10
56.2085012101
 20
142.0878605448
 11
56.0317220261
 21
141.9857976446
  0
LINE
  5
22B
100
AcDbEntity
  8
_1
100
AcDbLine
 62
7
  6
CONTINUOUS
 10
55.1750229041
 20
141.4911851284
 11
54.9985753885
 21
141.3893137158
  0
LINE
  5
22C
100
AcDbEntity
  8
_1
100
AcDbLine
 62
7
  6
CONTINUOUS
 10
54.4254526309
 20
141.0584231126
 11
54.2556384805
 21
140.9603814524
  0
LINE
  5
22D
100
AcDbEntity
  8
_1
100
AcDbLine
 62
7
  6
CONTINUOUS
 10
52.7536522515
 20
140.093214475
 11
52.5768730676
 21
139.9911515748
  0
LINE
  5
22E
100
AcDbEntity
  8
_1
100
AcDbLine
 62
7
  6
CONTINUOUS
 10
51.7201739456
 20
139.4965390586
 11
51.5437264299
 21
139.394667646
  0
LINE
  5
22F
100
AcDbEntity
  8
_1
100
AcDbLine
 62
7
  6
CONTINUOUS
 10
51.4163658172
 20
139.3211364008
 11
50.5460682964
 21
138.8186728923
  0
LINE
  5
230
100
AcDbEntity
  8
_1
100
AcDbLine
 62
7
  6
CONTINUOUS
 10
50.7371108063
 20
138.7083769429
 11
51.3739138703
 21
139.0760331687
  0
LINE
  5
231
100
AcDbEntity
  8
_1
100
AcDbLine
 62
7
  6
CONTINUOUS
 10
50.7371108063
 20
138.6668986201
 11
51.3739138703
 21
139.0345548459
  0
LINE
  5
232
100
AcDbEntity
  8
_1
100
AcDbLine
 62
7
  6
CONTINUOUS
 10
56.377324421
 20
141.621590543
 11
55.8061916729
 21
141.2918488655
  0
LINE
  5
233
100
AcDbEntity
  8
_1
100
AcDbLine
 62
7
  6
CONTINUOUS
 10
52.9224754624
 20
139.6269444732
 11
52.3513427144
 21
139.2972027957
  0
LINE
  5
234
100
AcDbEntity
  8
_1
100
AcDbLine
 62
7
  6
CONTINUOUS
 10
52.5984371607
 20
139.2192682538
 11
53.0577977043
 21
139.4844786041
  0
LINE
  5
235
100
AcDbEntity
  8
_1
100
AcDbLine
 62
7
  6
CONTINUOUS
 10
56.0532861193
 20
141.2139143236
 11
56.5126466628
 21
141.4791246739
  0
LINE
  5
236
100
AcDbEntity
  8
_1
100
AcDbLine
 62
7
  6
CONTINUOUS
 10
52.6452892777
 20
139.2048398518
 11
53.0577977043
 21
139.4430002813
  0
LINE
  5
237
100
AcDbEntity
  8
_1
100
AcDbLine
 62
7
  6
CONTINUOUS
 10
56.1001382362
 20
141.1994859216
 11
56.5126466628
 21
141.4376463511
  0
LINE
  5
238
100
AcDbEntity
  8
_1
100
AcDbLine
 62
7
  6
CONTINUOUS
 10
53.7005787508
 20
138.7526175217
 11
53.8660812138
 21
138.8481698429
  0
LINE
  5
239
100
AcDbEntity
  8
_1
100
AcDbLine
 62
7
  6
CONTINUOUS
 10
57.1554277093
 20
140.7472635915
 11
57.3209301723
 21
140.8428159127
  0
LINE
  5
23A
100
AcDbEntity
  8
_1
100
AcDbLine
 62
7
  6
CONTINUOUS
 10
55.9113402335
 20
140.0044832249
 11
56.0214540966
 21
140.0680571139
  0
LINE
  5
23B
100
AcDbEntity
  8
_1
100
AcDbLine
 62
7
  6
CONTINUOUS
 10
53.7005787508
 20
138.7111391989
 11
53.8660812138
 21
138.8066915201
  0
LINE
  5
23C
100
AcDbEntity
  8
_1
100
AcDbLine
 62
7
  6
CONTINUOUS
 10
57.1554277093
 20
140.7057852687
 11
57.3209301723
 21
140.8013375899
  0
LINE
  5
23D
100
AcDbEntity
  8
_1
100
AcDbLine
 62
7
  6
CONTINUOUS
 10
55.9113402335
 20
139.9630049021
 11
56.0214540966
 21
140.0265787911
  0
LINE
  5
23E
100
AcDbEntity
  8
_1
100
AcDbLine
 62
7
  6
CONTINUOUS
 10
43.7569207279
 20
132.5672373304
 11
43.0144554783
 21
132.1385773774
  0
LINE
  5
23F
100
AcDbEntity
  8
_1
100
AcDbLine
 62
7
  6
CONTINUOUS
 10
59.0304319118
 20
141.1814033218
 11
51.9593935396
 21
137.0989617831
  0
LINE
  5
240
100
AcDbEntity
  8
_1
100
AcDbLine
 62
7
  6
CONTINUOUS
 10
39.287980146
 20
129.7545656266
 11
43.0144554783
 21
131.9060343203
  0
LINE
  5
241
100
AcDbEntity
  8
_1
100
AcDbLine
 62
7
  6
CONTINUOUS
 10
39.820831585
 20
129.4538028789
 11
43.0144554783
 21
131.2976314872
  0
LINE
  5
242
100
AcDbEntity
  8
_1
100
AcDbLine
 62
7
  6
CONTINUOUS
 10
59.0304319118
 20
140.2016004213
 11
51.9593935396
 21
136.1191588825
  0
LINE
  5
243
100
AcDbEntity
  8
_1
100
AcDbLine
 62
7
  6
CONTINUOUS
 10
52.5626210537
 20
138.6348503919
 11
52.3715799577
 21
138.5490638372
  0
LWPOLYLINE
  5
244
100
AcDbEntity
  8
_1
100
AcDbPolyline
 62
7
  6
CONTINUOUS
 90
6
 70
0
 10
43.7569207279
 20
132.9991258887
 10
43.328518982
 20
132.6444459093
 10
41.643910683
 20
132.0377396231
 10
39.6158793435
 20
131.8566435895
 10
37.6480316342
 20
132.1557995214
 10
36.2710777135
 20
132.777612896
  0
LINE
  5
245
100
AcDbEntity
  8
_1
100
AcDbLine
 62
7
  6
CONTINUOUS
 10
43.0144554783
 20
130.5546529095
 11
40.4760065571
 21
129.0890874898
  0
LINE
  5
246
100
AcDbEntity
  8
_1
100
AcDbLine
 62
7
  6
CONTINUOUS
 10
17.4407777118
 20
114.4800065409
 11
17.1143282461
 21
114.291531979
  0
LINE
  5
247
100
AcDbEntity
  8
_1
100
AcDbLine
 62
7
  6
CONTINUOUS
 10
43.6627364317
 20
127.3048313817
 11
44.6963175114
 21
127.9015661342
  0
LINE
  5
248
100
AcDbEntity
  8
_1
100
AcDbLine
 62
7
  6
CONTINUOUS
 10
45.3659776226
 20
127.2985923334
 11
45.5533484497
 21
127.4067702851
  0
LINE
  5
249
100
AcDbEntity
  8
_1
100
AcDbLine
 62
7
  6
CONTINUOUS
 10
91.2288706289
 20
26.2327054112
 11
90.1514775763
 21
26.3593067307
  0
LINE
  5
24A
100
AcDbEntity
  8
_1
100
AcDbLine
 62
7
  6
CONTINUOUS
 10
37.9940168475
 20
35.2851685637
 11
20.0334298288
 21
45.6544837285
  0
LINE
  5
24B
100
AcDbEntity
  8
_1
100
AcDbLine
 62
7
  6
CONTINUOUS
 10
64.0734652168
 20
20.298030323
 11
71.2577000243
 21
16.1503042571
  0
LINE
  5
24C
100
AcDbEntity
  8
_1
100
AcDbLine
 62
7
  6
CONTINUOUS
 10
37.6257711412
 20
36.0991123345
 11
19.6651841225
 21
46.4684274994
  0
LINE
  5
24D
100
AcDbEntity
  8
_1
100
AcDbLine
 62
7
  6
CONTINUOUS
 10
80.7542035093
 20
12.2296707018
 11
17.1143282461
 21
48.9713386086
  0
LINE
  5
24E
100
AcDbEntity
  8
_1
100
AcDbLine
 62
7
  6
CONTINUOUS
 10
58.3233221866
 20
131.4650141039
 11
51.2522838145
 21
127.3825725652
  0
LINE
  5
24F
100
AcDbEntity
  8
_1
100
AcDbLine
 62
7
  6
CONTINUOUS
 10
51.9240380534
 20
126.9947438484
 11
58.9950764255
 21
131.0771853871
  0
LINE
  5
250
100
AcDbEntity
  8
_1
100
AcDbLine
 62
7
  6
CONTINUOUS
 10
49.3172656139
 20
125.2337208581
 11
49.1298947869
 21
125.1255429064
  0
LINE
  5
251
100
AcDbEntity
  8
_1
100
AcDbLine
 62
7
  6
CONTINUOUS
 10
50.8478185653
 20
124.3500756903
 11
49.8850153435
 21
123.7942043091
  0
LINE
  5
252
100
AcDbEntity
  8
_1
100
AcDbLine
 62
7
  6
CONTINUOUS
 10
51.4010806334
 20
124.0306569126
 11
50.4403698399
 21
123.4759935882
  0
LINE
  5
253
100
AcDbEntity
  8
_1
100
AcDbLine
 62
7
  6
CONTINUOUS
 10
42.5329105249
 20
33.8575798353
 11
43.075455794
 21
33.9830137116
  0
LINE
  5
254
100
AcDbEntity
  8
_1
100
AcDbLine
 62
7
  6
CONTINUOUS
 10
86.4196006907
 20
18.3583282248
 11
86.2093255251
 21
18.4611783263
  0
LINE
  5
255
100
AcDbEntity
  8
_1
100
AcDbLine
 62
7
  6
CONTINUOUS
 10
83.0169357884
 20
14.9649312242
 11
82.0671626003
 21
15.5132706249
  0
LINE
  5
256
100
AcDbEntity
  8
_1
100
AcDbLine
 62
7
  6
CONTINUOUS
 10
17.1143282461
 20
114.291531979
 11
17.1143282461
 21
48.9713386086
  0
LINE
  5
257
100
AcDbEntity
  8
_1
100
AcDbLine
 62
7
  6
CONTINUOUS
 10
19.6651841225
 20
46.4684274994
 11
19.6651841225
 21
47.4986345987
  0
LINE
  5
258
100
AcDbEntity
  8
_1
100
AcDbLine
 62
7
  6
CONTINUOUS
 10
17.4913209396
 20
118.6896563499
 11
17.9855031438
 21
135.0355301667
  0
LINE
  5
259
100
AcDbEntity
  8
_1
100
AcDbLine
 62
7
  6
CONTINUOUS
 10
17.3696822902
 20
114.602955228
 11
17.491948034
 21
118.6470919939
  0
LINE
  5
25A
100
AcDbEntity
  8
_1
100
AcDbLine
 62
7
  6
CONTINUOUS
 10
18.1341171005
 20
134.8200614191
 11
17.6400254545
 21
118.4771829628
  0
LINE
  5
25B
100
AcDbEntity
  8
_1
100
AcDbLine
 62
7
  6
CONTINUOUS
 10
17.640652549
 20
118.4346186068
 11
17.5183868051
 21
114.3904818408
  0
LINE
  5
25C
100
AcDbEntity
  8
_1
100
AcDbLine
 62
7
  6
CONTINUOUS
 10
28.2847178839
 20
131.9650052842
 11
28.2848579572
 21
131.9657815167
  0
LINE
  5
25D
100
AcDbEntity
  8
_1
100
AcDbLine
 62
7
  6
CONTINUOUS
 10
28.3494952105
 20
132.3203460963
 11
28.2848583223
 21
131.9657835193
  0
LINE
  5
25E
100
AcDbEntity
  8
_1
100
AcDbLine
 62
7
  6
CONTINUOUS
 10
28.490104618
 20
132.0291215575
 11
28.4254673647
 21
131.6745569779
  0
LINE
  5
25F
100
AcDbEntity
  8
_1
100
AcDbLine
 62
7
  6
CONTINUOUS
 10
28.2847279485
 20
131.9650174581
 11
28.2814874522
 21
131.9508036468
  0
LINE
  5
260
100
AcDbEntity
  8
_1
100
AcDbLine
 62
7
  6
CONTINUOUS
 10
51.9240380534
 20
123.7287341799
 11
58.9950764255
 21
127.8111757186
  0
LINE
  5
261
100
AcDbEntity
  8
_1
100
AcDbLine
 62
7
  6
CONTINUOUS
 10
87.448659157
 20
21.1980892815
 11
87.3461631036
 21
21.2467926085
  0
LINE
  5
262
100
AcDbEntity
  8
_1
100
AcDbLine
 62
7
  6
CONTINUOUS
 10
82.7734306436
 20
17.5784069555
 11
82.7913912306
 21
17.5680376403
  0
LINE
  5
263
100
AcDbEntity
  8
_1
100
AcDbLine
 62
7
  6
CONTINUOUS
 10
82.7734306436
 20
17.7857985694
 11
82.7913912306
 21
17.7754292542
  0
LINE
  5
264
100
AcDbEntity
  8
_1
100
AcDbLine
 62
7
  6
CONTINUOUS
 10
82.4640727148
 20
18.1142397531
 11
82.4820333019
 21
18.103870438
  0
LINE
  5
265
100
AcDbEntity
  8
_1
100
AcDbLine
 62
7
  6
CONTINUOUS
 10
81.8453568573
 20
18.4714657335
 11
81.8633174443
 21
18.4610964183
  0
LINE
  5
266
100
AcDbEntity
  8
_1
100
AcDbLine
 62
7
  6
CONTINUOUS
 10
82.4640727148
 20
18.3216313671
 11
82.4820333019
 21
18.3112620519
  0
LINE
  5
267
100
AcDbEntity
  8
_1
100
AcDbLine
 62
7
  6
CONTINUOUS
 10
81.8453568573
 20
18.6788573474
 11
81.8633174443
 21
18.6684880323
  0
LINE
  5
268
100
AcDbEntity
  8
_1
100
AcDbLine
 62
7
  6
CONTINUOUS
 10
83.3921465012
 20
18.143012204
 11
83.4101070882
 21
18.1326428889
  0
LINE
  5
269
100
AcDbEntity
  8
_1
100
AcDbLine
 62
7
  6
CONTINUOUS
 10
82.9929863851
 20
19.3414376092
 11
83.0109469721
 21
19.331068294
  0
LINE
  5
26A
100
AcDbEntity
  8
_1
100
AcDbLine
 62
7
  6
CONTINUOUS
 10
83.70150443
 20
19.0360586364
 11
83.719465017
 21
19.0256893212
  0
LINE
  5
26B
100
AcDbEntity
  8
_1
100
AcDbLine
 62
7
  6
CONTINUOUS
 10
82.9929863851
 20
20.6666210322
 11
83.0109469721
 21
20.656251717
  0
LINE
  5
26C
100
AcDbEntity
  8
_1
100
AcDbLine
 62
7
  6
CONTINUOUS
 10
84.3202202875
 20
20.107711886
 11
84.3381808745
 21
20.0973425708
  0
LINE
  5
26D
100
AcDbEntity
  8
_1
100
AcDbLine
 62
7
  6
CONTINUOUS
 10
83.1725907597
 20
20.7703150472
 11
83.1905513467
 21
20.7599457321
  0
LINE
  5
26E
100
AcDbEntity
  8
_1
100
AcDbLine
 62
7
  6
CONTINUOUS
 10
25.4775689905
 20
133.5897852706
 11
25.4775689207
 21
134.7084695639
  0
LINE
  5
26F
100
AcDbEntity
  8
_1
100
AcDbLine
 62
7
  6
CONTINUOUS
 10
26.2486198858
 20
138.1654895275
 11
26.2486198858
 21
139.2038469046
  0
LINE
  5
270
100
AcDbEntity
  8
_1
100
AcDbLine
 62
7
  6
CONTINUOUS
 10
60.5839976431
 20
118.0089163133
 11
67.9592645063
 21
122.3419770195
  0
LINE
  5
271
100
AcDbEntity
  8
_1
100
AcDbLine
 62
7
  6
CONTINUOUS
 10
60.0014774646
 20
120.5750971059
 11
63.144554021
 21
122.3897423699
  0
LINE
  5
272
100
AcDbEntity
  8
_1
100
AcDbLine
 62
7
  6
CONTINUOUS
 10
60.3035997002
 20
117.7575467506
 11
60.5839976431
 21
117.9194336121
  0
LINE
  5
273
100
AcDbEntity
  8
_1
100
AcDbLine
 62
7
  6
CONTINUOUS
 10
90.0044684641
 20
20.8362843982
 11
86.9759603987
 21
22.5847547893
  0
LINE
  5
274
100
AcDbEntity
  8
_1
100
AcDbLine
 62
7
  6
CONTINUOUS
 10
87.2871125608
 20
23.3857397239
 11
89.2624744738
 21
22.245289792
  0
LINE
  5
275
100
AcDbEntity
  8
_1
100
AcDbLine
 62
7
  6
CONTINUOUS
 10
94.4013075675
 20
20.1087828715
 11
91.9263807622
 21
21.5376502035
  0
LINE
  5
276
100
AcDbEntity
  8
_1
100
AcDbLine
 62
7
  6
CONTINUOUS
 10
94.4013075675
 20
21.5376621015
 11
93.1638441649
 21
22.2520957675
  0
LINE
  5
277
100
AcDbEntity
  8
_1
100
AcDbLine
 62
7
  6
CONTINUOUS
 10
31.0577623476
 20
137.2225605936
 11
31.0577625988
 21
139.1835962851
  0
LINE
  5
278
100
AcDbEntity
  8
_1
100
AcDbLine
 62
7
  6
CONTINUOUS
 10
44.8785071486
 20
140.2072180623
 11
43.9690536455
 21
136.8130678064
  0
LINE
  5
279
100
AcDbEntity
  8
_1
100
AcDbLine
 62
7
  6
CONTINUOUS
 10
64.9319901703
 20
115.5420927815
 11
72.3072570334
 21
119.8751534876
  0
LINE
  5
27A
100
AcDbEntity
  8
_1
100
AcDbLine
 62
7
  6
CONTINUOUS
 10
72.4205926474
 20
119.5278554698
 11
64.755953073
 21
115.1027001629
  0
LINE
  5
27B
100
AcDbEntity
  8
_1
100
AcDbLine
 62
7
  6
CONTINUOUS
 10
73.9575365105
 20
120.1281967873
 11
64.9656534113
 21
114.9367616482
  0
LINE
  5
27C
100
AcDbEntity
  8
_1
100
AcDbLine
 62
7
  6
CONTINUOUS
 10
74.4903879495
 20
120.4223798628
 11
64.971356093
 21
114.9265970634
  0
LINE
  5
27D
100
AcDbEntity
  8
_1
100
AcDbLine
 62
7
  6
CONTINUOUS
 10
95.3510807585
 20
22.0860106357
 11
94.1136173558
 21
22.8004443017
  0
LINE
  5
27E
100
AcDbEntity
  8
_1
100
AcDbLine
 62
7
  6
CONTINUOUS
 10
87.6763965237
 20
26.6494834027
 11
82.4653947954
 21
29.6579885919
  0
LINE
  5
27F
100
AcDbEntity
  8
_1
100
AcDbLine
 62
7
  6
CONTINUOUS
 10
41.4322350106
 20
34.9317062109
 11
41.4457425015
 21
34.8810550067
  0
LINE
  5
280
100
AcDbEntity
  8
_1
100
AcDbLine
 62
7
  6
CONTINUOUS
 10
32.819494744
 20
137.4235924049
 11
32.7692049318
 21
139.0870088485
  0
LINE
  5
281
100
AcDbEntity
  8
_1
100
AcDbLine
 62
7
  6
CONTINUOUS
 10
35.4315493898
 20
133.9881325465
 11
35.4318105104
 21
133.9710656155
  0
LINE
  5
282
100
AcDbEntity
  8
_1
100
AcDbLine
 62
7
  6
CONTINUOUS
 10
33.5574125439
 20
137.6293873155
 11
33.5574126985
 21
138.8359948427
  0
LINE
  5
283
100
AcDbEntity
  8
_1
100
AcDbLine
 62
7
  6
CONTINUOUS
 10
34.0064234807
 20
137.8900303521
 11
34.0064235836
 21
138.6930020613
  0
LINE
  5
284
100
AcDbEntity
  8
_1
100
AcDbLine
 62
7
  6
CONTINUOUS
 10
36.4111598858
 20
138.4338521087
 11
36.4111598858
 21
139.4718787449
  0
LINE
  5
285
100
AcDbEntity
  8
_1
100
AcDbLine
 62
7
  6
CONTINUOUS
 10
61.3141506424
 20
124.1859513822
 11
60.9555100584
 21
123.7044756949
  0
LINE
  5
286
100
AcDbEntity
  8
_1
100
AcDbLine
 62
7
  6
CONTINUOUS
 10
94.9528485606
 20
30.8505198681
 11
89.7418468322
 21
33.8590250573
  0
LINE
  5
287
100
AcDbEntity
  8
_1
100
AcDbLine
 62
7
  6
CONTINUOUS
 10
37.6257711412
 20
37.1293194339
 11
37.6257711412
 21
36.0991123345
  0
LINE
  5
288
100
AcDbEntity
  8
_1
100
AcDbLine
 62
7
  6
CONTINUOUS
 10
38.5934788264
 20
141.1622141438
 11
38.5934787566
 21
142.280898437
  0
LINE
  5
289
100
AcDbEntity
  8
_1
100
AcDbLine
 62
7
  6
CONTINUOUS
 10
70.4631866286
 20
108.6188080294
 11
84.9423788817
 21
116.9783236749
  0
LINE
  5
28A
100
AcDbEntity
  8
_1
100
AcDbLine
 62
7
  6
CONTINUOUS
 10
70.8036716912
 20
108.0794217006
 11
85.2828639443
 21
116.438937346
  0
LINE
  5
28B
100
AcDbEntity
  8
_1
100
AcDbLine
 62
7
  6
CONTINUOUS
 10
85.3475011976
 20
116.0231833993
 11
70.8566645334
 21
107.6569448901
  0
LINE
  5
28C
100
AcDbEntity
  8
_1
100
AcDbLine
 62
7
  6
CONTINUOUS
 10
85.6978525704
 20
115.4904159418
 11
81.0135522821
 21
112.7859500529
  0
LINE
  5
28D
100
AcDbEntity
  8
_1
100
AcDbLine
 62
7
  6
CONTINUOUS
 10
77.604252542
 20
110.8176016797
 11
71.1863093606
 21
107.1122225744
  0
LINE
  5
28E
100
AcDbEntity
  8
_1
100
AcDbLine
 62
7
  6
CONTINUOUS
 10
71.5902508604
 20
107.0887259912
 11
72.6061492469
 21
107.675251697
  0
LINE
  5
28F
100
AcDbEntity
  8
_1
100
AcDbLine
 62
7
  6
CONTINUOUS
 10
84.7061606963
 20
114.6611548643
 11
85.7220590828
 21
115.2476805701
  0
LINE
  5
290
100
AcDbEntity
  8
_1
100
AcDbLine
 62
7
  6
CONTINUOUS
 10
43.0144554783
 20
132.1385773774
 11
43.0144554783
 21
128.8725676648
  0
LINE
  5
291
100
AcDbEntity
  8
_1
100
AcDbLine
 62
7
  6
CONTINUOUS
 10
43.7569207279
 20
136.9355400328
 11
43.7569207279
 21
131.7099245631
  0
LINE
  5
292
100
AcDbEntity
  8
_1
100
AcDbLine
 62
7
  6
CONTINUOUS
 10
44.3933194805
 20
140.4873349559
 11
44.3933194805
 21
142.5285910249
  0
LINE
  5
293
100
AcDbEntity
  8
_1
100
AcDbLine
 62
7
  6
CONTINUOUS
 10
45.6307614995
 20
127.362076851
 11
45.6307614995
 21
127.1457227492
  0
LINE
  5
294
100
AcDbEntity
  8
_1
100
AcDbLine
 62
7
  6
CONTINUOUS
 10
45.0603010113
 20
102.6042353171
 11
45.13240645
 21
104.9892390508
  0
LINE
  5
295
100
AcDbEntity
  8
_1
100
AcDbLine
 62
7
  6
CONTINUOUS
 10
44.8826813123
 20
102.7489840893
 11
45.0079139365
 21
105.1455178331
  0
LINE
  5
296
100
AcDbEntity
  8
_1
100
AcDbLine
 62
7
  6
CONTINUOUS
 10
56.9382086377
 20
123.3382208933
 11
56.8283666138
 21
122.9340268602
  0
LINE
  5
297
100
AcDbEntity
  8
_1
100
AcDbLine
 62
7
  6
CONTINUOUS
 10
89.3140623204
 20
112.9980183303
 11
88.3007991749
 21
112.4130140724
  0
LINE
  5
298
100
AcDbEntity
  8
_1
100
AcDbLine
 62
7
  6
CONTINUOUS
 10
76.1981524844
 20
105.4255894571
 11
75.1848893389
 21
104.8405851993
  0
LINE
  5
299
100
AcDbEntity
  8
_1
100
AcDbLine
 62
7
  6
CONTINUOUS
 10
48.5057348704
 20
140.7310571193
 11
48.5057348704
 21
140.700617841
  0
LINE
  5
29A
100
AcDbEntity
  8
_1
100
AcDbLine
 62
7
  6
CONTINUOUS
 10
49.0602436665
 20
125.3821092357
 11
49.0602436665
 21
125.1657550898
  0
LINE
  5
29B
100
AcDbEntity
  8
_1
100
AcDbLine
 62
7
  6
CONTINUOUS
 10
49.2468710124
 20
125.2743622808
 11
49.2468710124
 21
125.1930787586
  0
LINE
  5
29C
100
AcDbEntity
  8
_1
100
AcDbLine
 62
7
  6
CONTINUOUS
 10
49.3430875566
 20
139.6709057432
 11
49.3430875566
 21
138.6094525748
  0
LINE
  5
29D
100
AcDbEntity
  8
_1
100
AcDbLine
 62
7
  6
CONTINUOUS
 10
50.232519655
 20
140.9600493651
 11
50.232519655
 21
140.7368138316
  0
LINE
  5
29E
100
AcDbEntity
  8
_1
100
AcDbLine
 62
7
  6
CONTINUOUS
 10
50.5460682964
 20
138.7771945695
 11
50.5460682964
 21
138.8186728923
  0
LINE
  5
29F
100
AcDbEntity
  8
_1
100
AcDbLine
 62
7
  6
CONTINUOUS
 10
50.7371108063
 20
138.6668986201
 11
50.7371108063
 21
138.7083769429
  0
LINE
  5
2A0
100
AcDbEntity
  8
_1
100
AcDbLine
 62
7
  6
CONTINUOUS
 10
51.2522838145
 20
127.3825725652
 11
51.2522838145
 21
136.5273996371
  0
LINE
  5
2A1
100
AcDbEntity
  8
_1
100
AcDbLine
 62
7
  6
CONTINUOUS
 10
51.3739138703
 20
139.0760331687
 11
51.3739138703
 21
139.0345548459
  0
LINE
  5
2A2
100
AcDbEntity
  8
_1
100
AcDbLine
 62
7
  6
CONTINUOUS
 10
51.4389234928
 20
138.7055806448
 11
51.4389234928
 21
138.7470589676
  0
LINE
  5
2A3
100
AcDbEntity
  8
_1
100
AcDbLine
 62
7
  6
CONTINUOUS
 10
51.5437264299
 20
139.3531893232
 11
51.5437264299
 21
139.394667646
  0
LINE
  5
2A4
100
AcDbEntity
  8
_1
100
AcDbLine
 62
7
  6
CONTINUOUS
 10
51.7437323649
 20
138.0857385399
 11
51.7437323649
 21
138.1272168627
  0
LINE
  5
2A5
100
AcDbEntity
  8
_1
100
AcDbLine
 62
7
  6
CONTINUOUS
 10
51.9240380534
 20
123.7287341358
 11
51.9240380534
 21
126.9947438484
  0
LINE
  5
2A6
100
AcDbEntity
  8
_1
100
AcDbLine
 62
7
  6
CONTINUOUS
 10
51.9593935396
 20
137.0989617831
 11
51.9593935396
 21
136.1191588825
  0
LINE
  5
2A7
100
AcDbEntity
  8
_1
100
AcDbLine
 62
7
  6
CONTINUOUS
 10
52.0412540565
 20
142.7722778887
 11
52.0412540565
 21
142.7418386104
  0
LINE
  5
2A8
100
AcDbEntity
  8
_1
100
AcDbLine
 62
7
  6
CONTINUOUS
 10
52.3715799577
 20
138.5490638372
 11
52.3715799577
 21
138.5075855144
  0
LINE
  5
2A9
100
AcDbEntity
  8
_1
100
AcDbLine
 62
7
  6
CONTINUOUS
 10
61.2905245899
 20
122.529832827
 11
61.4003666138
 21
122.9340268602
  0
LINE
  5
2AA
100
AcDbEntity
  8
_1
100
AcDbLine
 62
7
  6
CONTINUOUS
 10
79.3953642987
 20
101.9295310065
 11
93.9200710634
 21
110.3153243105
  0
LINE
  5
2AB
100
AcDbEntity
  8
_1
100
AcDbLine
 62
7
  6
CONTINUOUS
 10
81.0703345546
 20
98.899350782
 11
95.6442539856
 21
107.3135568626
  0
LINE
  5
2AC
100
AcDbEntity
  8
_1
100
AcDbLine
 62
7
  6
CONTINUOUS
 10
90.1514775763
 20
26.3593067307
 11
89.5521527905
 21
27.0905800475
  0
LINE
  5
2AD
100
AcDbEntity
  8
_1
100
AcDbLine
 62
7
  6
CONTINUOUS
 10
56.2904018632
 20
98.6317177534
 11
56.3422753466
 21
96.1329340638
  0
LINE
  5
2AE
100
AcDbEntity
  8
_1
100
AcDbLine
 62
7
  6
CONTINUOUS
 10
52.5768730676
 20
139.949673252
 11
52.5768730676
 21
139.9911515748
  0
LINE
  5
2AF
100
AcDbEntity
  8
_1
100
AcDbLine
 62
7
  6
CONTINUOUS
 10
52.6156920409
 20
138.0602728888
 11
52.6156920409
 21
138.1017512115
  0
LINE
  5
2B0
100
AcDbEntity
  8
_1
100
AcDbLine
 62
7
  6
CONTINUOUS
 10
53.0577977043
 20
139.4430002813
 11
53.0577977043
 21
139.4844786041
  0
LINE
  5
2B1
100
AcDbEntity
  8
_1
100
AcDbLine
 62
7
  6
CONTINUOUS
 10
53.3795198792
 20
139.1210373924
 11
53.3795198792
 21
139.0795590696
  0
LINE
  5
2B2
100
AcDbEntity
  8
_1
100
AcDbLine
 62
7
  6
CONTINUOUS
 10
53.7005787508
 20
138.7111391989
 11
53.7005787508
 21
138.7526175217
  0
LINE
  5
2B3
100
AcDbEntity
  8
_1
100
AcDbLine
 62
7
  6
CONTINUOUS
 10
53.768038841
 20
143.0012701344
 11
53.768038841
 21
142.778034601
  0
LINE
  5
2B4
100
AcDbEntity
  8
_1
100
AcDbLine
 62
7
  6
CONTINUOUS
 10
53.8660812138
 20
138.8066915201
 11
53.8660812138
 21
138.8481698429
  0
LINE
  5
2B5
100
AcDbEntity
  8
_1
100
AcDbLine
 62
7
  6
CONTINUOUS
 10
54.2556384805
 20
140.9189031296
 11
54.2556384805
 21
140.9603814524
  0
LINE
  5
2B6
100
AcDbEntity
  8
_1
100
AcDbLine
 62
7
  6
CONTINUOUS
 10
54.9985753885
 20
141.347835393
 11
54.9985753885
 21
141.3893137158
  0
LINE
  5
2B7
100
AcDbEntity
  8
_1
100
AcDbLine
 62
7
  6
CONTINUOUS
 10
55.9113402335
 20
139.9630049021
 11
55.9113402335
 21
140.0044832249
  0
LINE
  5
2B8
100
AcDbEntity
  8
_1
100
AcDbLine
 62
7
  6
CONTINUOUS
 10
55.9962437737
 20
140.5022319924
 11
55.9962437737
 21
140.5437103151
  0
LINE
  5
2B9
100
AcDbEntity
  8
_1
100
AcDbLine
 62
7
  6
CONTINUOUS
 10
56.0214540966
 20
140.0680571139
 11
56.0214540966
 21
140.0265787911
  0
LINE
  5
2BA
100
AcDbEntity
  8
_1
100
AcDbLine
 62
7
  6
CONTINUOUS
 10
56.0317220261
 20
141.9443193218
 11
56.0317220261
 21
141.9857976446
  0
LINE
  5
2BB
100
AcDbEntity
  8
_1
100
AcDbLine
 62
7
  6
CONTINUOUS
 10
56.1634016451
 20
96.1940021962
 11
56.1634007362
 21
98.7050402294
  0
LINE
  5
2BC
100
AcDbEntity
  8
_1
100
AcDbLine
 62
7
  6
CONTINUOUS
 10
56.4141259287
 20
143.7533472819
 11
56.4141259287
 21
142.6918941135
  0
LINE
  5
2BD
100
AcDbEntity
  8
_1
100
AcDbLine
 62
7
  6
CONTINUOUS
 10
56.5126466628
 20
141.4376463511
 11
56.5126466628
 21
141.4791246739
  0
LINE
  5
2BE
100
AcDbEntity
  8
_1
100
AcDbLine
 62
7
  6
CONTINUOUS
 10
56.8283666138
 20
122.3118520183
 11
56.8283666138
 21
122.9340268602
  0
LINE
  5
2BF
100
AcDbEntity
  8
_1
100
AcDbLine
 62
7
  6
CONTINUOUS
 10
56.8343688378
 20
141.1156834622
 11
56.8343688378
 21
141.0742051394
  0
LINE
  5
2C0
100
AcDbEntity
  8
_1
100
AcDbLine
 62
7
  6
CONTINUOUS
 10
57.1554277093
 20
140.7057852687
 11
57.1554277093
 21
140.7472635915
  0
LINE
  5
2C1
100
AcDbEntity
  8
_1
100
AcDbLine
 62
7
  6
CONTINUOUS
 10
57.3209301723
 20
140.8013375899
 11
57.3209301723
 21
140.8428159127
  0
LINE
  5
2C2
100
AcDbEntity
  8
_1
100
AcDbLine
 62
7
  6
CONTINUOUS
 10
93.3067354663
 20
101.9416917658
 11
83.5273731386
 21
96.2956079959
  0
LINE
  5
2C3
100
AcDbEntity
  8
_1
100
AcDbLine
 62
7
  6
CONTINUOUS
 10
82.5178347468
 20
94.1978906259
 11
83.4109570635
 21
94.7135319579
  0
LINE
  5
2C4
100
AcDbEntity
  8
_1
100
AcDbLine
 62
7
  6
CONTINUOUS
 10
93.4681646719
 20
100.5200288178
 11
94.3612869886
 21
101.0356701498
  0
LINE
  5
2C5
100
AcDbEntity
  8
_1
100
AcDbLine
 62
7
  6
CONTINUOUS
 10
17.9854847176
 20
135.0348792265
 11
18.1341171005
 21
134.8200614191
  0
LINE
  5
2C6
100
AcDbEntity
  8
_1
100
AcDbLine
 62
7
  6
CONTINUOUS
 10
55.7176689693
 20
140.3600015875
 11
55.7202963095
 21
140.3108616783
  0
LINE
  5
2C7
100
AcDbEntity
  8
_1
100
AcDbLine
 62
7
  6
CONTINUOUS
 10
58.3233221866
 20
139.793352868
 11
58.3233221866
 21
131.4650141039
  0
LINE
  5
2C8
100
AcDbEntity
  8
_1
100
AcDbLine
 62
7
  6
CONTINUOUS
 10
58.9950764255
 20
131.0771853871
 11
58.9950764255
 21
127.8111756745
  0
LINE
  5
2C9
100
AcDbEntity
  8
_1
100
AcDbLine
 62
7
  6
CONTINUOUS
 10
59.0304319118
 20
141.1814033218
 11
59.0304319118
 21
140.2016004213
  0
LINE
  5
2CA
100
AcDbEntity
  8
_1
100
AcDbLine
 62
7
  6
CONTINUOUS
 10
60.5839976431
 20
117.5911830509
 11
60.5839976431
 21
118.0089163133
  0
LINE
  5
2CB
100
AcDbEntity
  8
_1
100
AcDbLine
 62
7
  6
CONTINUOUS
 10
61.4003666138
 20
122.3118520183
 11
61.4003666138
 21
122.9340268602
  0
LINE
  5
2CC
100
AcDbEntity
  8
_1
100
AcDbLine
 62
7
  6
CONTINUOUS
 10
85.4957364167
 20
116.2333045428
 11
85.3475011976
 21
116.0231833993
  0
LINE
  5
2CD
100
AcDbEntity
  8
_1
100
AcDbLine
 62
7
  6
CONTINUOUS
 10
85.2828639443
 20
116.438937346
 11
85.4311843678
 21
116.6484972513
  0
LINE
  5
2CE
100
AcDbEntity
  8
_1
100
AcDbLine
 62
7
  6
CONTINUOUS
 10
83.4928472303
 20
93.6349791462
 11
95.3028458731
 21
100.453444341
  0
LINE
  5
2CF
100
AcDbEntity
  8
_1
100
AcDbLine
 62
7
  6
CONTINUOUS
 10
84.1673746446
 20
93.2455294273
 11
94.6283184587
 21
99.2851221028
  0
LINE
  5
2D0
100
AcDbEntity
  8
_1
100
AcDbLine
 62
7
  6
CONTINUOUS
 10
87.0307233877
 20
93.0071204564
 11
86.8382361117
 21
92.8959885392
  0
LINE
  5
2D1
100
AcDbEntity
  8
_1
100
AcDbLine
 62
7
  6
CONTINUOUS
 10
84.1673746446
 20
90.3720503757
 11
92.0439363726
 21
94.9195582647
  0
LINE
  5
2D2
100
AcDbEntity
  8
_1
100
AcDbLine
 62
7
  6
CONTINUOUS
 10
89.2624744738
 20
22.245289792
 11
90.0044684641
 21
20.8362843982
  0
LINE
  5
2D3
100
AcDbEntity
  8
_1
100
AcDbLine
 62
7
  6
CONTINUOUS
 10
63.8938593467
 20
21.8197068319
 11
63.8938593467
 21
20.6091150886
  0
LINE
  5
2D4
100
AcDbEntity
  8
_1
100
AcDbLine
 62
7
  6
CONTINUOUS
 10
64.9319901703
 20
115.2043346217
 11
64.9319901703
 21
115.5420927815
  0
LWPOLYLINE
  5
2D5
100
AcDbEntity
  8
_1
100
AcDbPolyline
 62
7
  6
CONTINUOUS
 90
7
 70
0
 10
78.3468378978
 20
114.4934514548
 10
78.0951347631
 20
113.7468557915
 10
77.1011397521
 20
112.8980073003
 10
75.4413469303
 20
112.3174734748
 10
73.4397625077
 20
112.1918875478
 10
71.4809093904
 20
112.5678256402
 10
70.0902104232
 20
113.2721262605
  0
LINE
  5
2D6
100
AcDbEntity
  8
_1
100
AcDbLine
 62
7
  6
CONTINUOUS
 10
94.6283184587
 20
93.427476435
 11
84.1673746446
 21
87.3878837594
  0
LINE
  5
2D7
100
AcDbEntity
  8
_1
100
AcDbLine
 62
7
  6
CONTINUOUS
 10
95.3028458731
 20
93.038026716
 11
83.4928472303
 21
86.2195615212
  0
LINE
  5
2D8
100
AcDbEntity
  8
_1
100
AcDbLine
 62
7
  6
CONTINUOUS
 10
96.1383456316
 20
90.9706807816
 11
94.5520186054
 21
90.054819913
  0
LINE
  5
2D9
100
AcDbEntity
  8
_1
100
AcDbLine
 62
7
  6
CONTINUOUS
 10
82.6566636379
 20
83.1870745153
 11
81.0703366117
 21
82.2712136466
  0
LINE
  5
2DA
100
AcDbEntity
  8
_1
100
AcDbLine
 62
7
  6
CONTINUOUS
 10
96.1377185372
 20
90.9302884921
 11
81.0684555148
 21
82.2300973628
  0
LINE
  5
2DB
100
AcDbEntity
  8
_1
100
AcDbLine
 62
7
  6
CONTINUOUS
 10
85.0895795331
 20
73.2302125758
 11
87.6763965237
 21
71.7367468766
  0
LINE
  5
2DC
100
AcDbEntity
  8
_1
100
AcDbLine
 62
7
  6
CONTINUOUS
 10
80.7542035093
 20
77.5498640722
 11
17.1143282461
 21
114.291531979
  0
LINE
  5
2DD
100
AcDbEntity
  8
_1
100
AcDbLine
 62
7
  6
CONTINUOUS
 10
80.3501449531
 20
78.1153700131
 11
17.5183868051
 21
114.3904818408
  0
LINE
  5
2DE
100
AcDbEntity
  8
_1
100
AcDbLine
 62
7
  6
CONTINUOUS
 10
69.193577265
 20
114.673514077
 11
69.193828731
 21
114.6584869514
  0
LINE
  5
2DF
100
AcDbEntity
  8
_1
100
AcDbLine
 62
7
  6
CONTINUOUS
 10
72.1557293753
 20
16.6687965686
 11
72.1557293753
 21
17.1938897521
  0
LINE
  5
2E0
100
AcDbEntity
  8
_1
100
AcDbLine
 62
7
  6
CONTINUOUS
 10
72.3072570334
 20
119.8751534876
 11
72.3072570334
 21
119.4624215131
  0
LINE
  5
2E1
100
AcDbEntity
  8
_1
100
AcDbLine
 62
7
  6
CONTINUOUS
 10
72.6061493229
 20
106.4559336195
 11
72.6061492469
 21
107.675251697
  0
LINE
  5
2E2
100
AcDbEntity
  8
_1
100
AcDbLine
 62
7
  6
CONTINUOUS
 10
95.6442539856
 20
107.3135568626
 11
95.7928777301
 21
107.5285821213
  0
LINE
  5
2E3
100
AcDbEntity
  8
_1
100
AcDbLine
 62
7
  6
CONTINUOUS
 10
96.259984281
 20
86.8861523139
 11
81.0684560239
 21
78.1153717397
  0
LINE
  5
2E4
100
AcDbEntity
  8
_1
100
AcDbLine
 62
7
  6
CONTINUOUS
 10
96.6640398466
 20
86.7353575343
 11
80.7542035093
 21
77.5498640722
  0
LINE
  5
2E5
100
AcDbEntity
  8
_1
100
AcDbLine
 62
7
  6
CONTINUOUS
 10
80.3501444441
 20
82.2300956362
 11
56.1634016451
 21
96.1940021962
  0
LINE
  5
2E6
100
AcDbEntity
  8
_1
100
AcDbLine
 62
7
  6
CONTINUOUS
 10
45.0603010113
 20
102.6042353171
 11
17.640652549
 21
118.4346186068
  0
LINE
  5
2E7
100
AcDbEntity
  8
_1
100
AcDbLine
 62
7
  6
CONTINUOUS
 10
80.3520255409
 20
82.27121192
 11
56.3422753466
 21
96.1329340638
  0
LINE
  5
2E8
100
AcDbEntity
  8
_1
100
AcDbLine
 62
7
  6
CONTINUOUS
 10
44.8826813123
 20
102.7489840893
 11
17.6400254545
 21
118.4771829628
  0
LINE
  5
2E9
100
AcDbEntity
  8
_1
100
AcDbLine
 62
7
  6
CONTINUOUS
 10
56.3128767186
 20
97.5490875069
 11
56.1634014668
 21
97.6353851315
  0
LINE
  5
2EA
100
AcDbEntity
  8
_1
100
AcDbLine
 62
7
  6
CONTINUOUS
 10
92.36603157
 20
77.4312490412
 11
94.9528485606
 21
75.937783342
  0
LINE
  5
2EB
100
AcDbEntity
  8
_1
100
AcDbLine
 62
7
  6
CONTINUOUS
 10
56.1634013449
 20
98.6206352559
 11
45.13240645
 21
104.9892390508
  0
LINE
  5
2EC
100
AcDbEntity
  8
_1
100
AcDbLine
 62
7
  6
CONTINUOUS
 10
77.3672082097
 20
108.9211890449
 11
77.3672082097
 21
109.9592156804
  0
LINE
  5
2ED
100
AcDbEntity
  8
_1
100
AcDbLine
 62
7
  6
CONTINUOUS
 10
78.3465013622
 20
114.4741233445
 11
78.3467981483
 21
114.4931249411
  0
LINE
  5
2EE
100
AcDbEntity
  8
_1
100
AcDbLine
 62
7
  6
CONTINUOUS
 10
83.4928472303
 20
86.2195615212
 11
82.6324456153
 21
86.6822153021
  0
LINE
  5
2EF
100
AcDbEntity
  8
_1
100
AcDbLine
 62
7
  6
CONTINUOUS
 10
45.0079139365
 20
105.1455178331
 11
56.2904018632
 21
98.6317177534
  0
LINE
  5
2F0
100
AcDbEntity
  8
_1
100
AcDbLine
 62
7
  6
CONTINUOUS
 10
70.1437559864
 20
107.5890366993
 11
70.0907631442
 21
108.0115135098
  0
LINE
  5
2F1
100
AcDbEntity
  8
_1
100
AcDbLine
 62
7
  6
CONTINUOUS
 10
70.8566645334
 20
107.6569448901
 11
70.8036716912
 21
108.0794217006
  0
LINE
  5
2F2
100
AcDbEntity
  8
_1
100
AcDbLine
 62
7
  6
CONTINUOUS
 10
82.5178347468
 20
94.1978906259
 11
82.6324456153
 21
86.6822153021
  0
LINE
  5
2F3
100
AcDbEntity
  8
_1
100
AcDbLine
 62
7
  6
CONTINUOUS
 10
80.3501449531
 20
78.1153700131
 11
80.3501444441
 21
82.2300956362
  0
LINE
  5
2F4
100
AcDbEntity
  8
_1
100
AcDbLine
 62
7
  6
CONTINUOUS
 10
80.3520255409
 20
82.27121192
 11
80.3520234838
 21
98.8993490554
  0
LINE
  5
2F5
100
AcDbEntity
  8
_1
100
AcDbLine
 62
7
  6
CONTINUOUS
 10
80.7542035093
 20
77.5498640722
 11
80.7542035093
 21
12.2296707018
  0
LINE
  5
2F6
100
AcDbEntity
  8
_1
100
AcDbLine
 62
7
  6
CONTINUOUS
 10
81.0684555148
 20
82.2300973628
 11
81.0684560239
 21
78.1153717397
  0
LINE
  5
2F7
100
AcDbEntity
  8
_1
100
AcDbLine
 62
7
  6
CONTINUOUS
 10
81.0703345546
 20
98.899350782
 11
81.0703366117
 21
82.2712136466
  0
LINE
  5
2F8
100
AcDbEntity
  8
_1
100
AcDbLine
 62
7
  6
CONTINUOUS
 10
81.8453568573
 20
18.6788573474
 11
81.8453568573
 21
18.4714657335
  0
LINE
  5
2F9
100
AcDbEntity
  8
_1
100
AcDbLine
 62
7
  6
CONTINUOUS
 10
81.8633174443
 20
18.6684880323
 11
81.8633174443
 21
18.4610964183
  0
LINE
  5
2FA
100
AcDbEntity
  8
_1
100
AcDbLine
 62
7
  6
CONTINUOUS
 10
82.0671626003
 20
14.4165826916
 11
82.0671626003
 21
15.8454619215
  0
LINE
  5
2FB
100
AcDbEntity
  8
_1
100
AcDbLine
 62
7
  6
CONTINUOUS
 10
82.4640727148
 20
18.3216313671
 11
82.4640727148
 21
18.1142397531
  0
LINE
  5
2FC
100
AcDbEntity
  8
_1
100
AcDbLine
 62
7
  6
CONTINUOUS
 10
82.4653947954
 20
68.7281915847
 11
82.4653947954
 21
23.6409281108
  0
LINE
  5
2FD
100
AcDbEntity
  8
_1
100
AcDbLine
 62
7
  6
CONTINUOUS
 10
82.4820333019
 20
18.3112620519
 11
82.4820333019
 21
18.103870438
  0
LINE
  5
2FE
100
AcDbEntity
  8
_1
100
AcDbLine
 62
7
  6
CONTINUOUS
 10
82.7473969845
 20
109.8388516865
 11
82.7473966808
 21
107.4683062016
  0
LINE
  5
2FF
100
AcDbEntity
  8
_1
100
AcDbLine
 62
7
  6
CONTINUOUS
 10
82.7734306436
 20
17.7857985694
 11
82.7734306436
 21
17.5784069555
  0
LINE
  5
300
100
AcDbEntity
  8
_1
100
AcDbLine
 62
7
  6
CONTINUOUS
 10
82.7913912306
 20
17.7754292542
 11
82.7913912306
 21
17.5680376403
  0
LINE
  5
301
100
AcDbEntity
  8
_1
100
AcDbLine
 62
7
  6
CONTINUOUS
 10
82.9929863851
 20
20.6666210322
 11
82.9929863851
 21
19.3414376092
  0
LINE
  5
302
100
AcDbEntity
  8
_1
100
AcDbLine
 62
7
  6
CONTINUOUS
 10
83.0109469721
 20
20.656251717
 11
83.0109469721
 21
19.331068294
  0
LINE
  5
303
100
AcDbEntity
  8
_1
100
AcDbLine
 62
7
  6
CONTINUOUS
 10
83.0169357884
 20
13.5360519942
 11
83.0169357884
 21
14.9649312242
  0
LINE
  5
304
100
AcDbEntity
  8
_1
100
AcDbLine
 62
7
  6
CONTINUOUS
 10
83.1905513467
 20
20.7599457321
 11
83.1905513467
 21
19.4347623091
  0
LINE
  5
305
100
AcDbEntity
  8
_1
100
AcDbLine
 62
7
  6
CONTINUOUS
 10
83.4101070882
 20
17.9252512749
 11
83.4101070882
 21
18.1326428889
  0
LINE
  5
306
100
AcDbEntity
  8
_1
100
AcDbLine
 62
7
  6
CONTINUOUS
 10
83.4928472303
 20
86.2195615212
 11
83.4928472303
 21
93.6349791462
  0
LINE
  5
307
100
AcDbEntity
  8
_1
100
AcDbLine
 62
7
  6
CONTINUOUS
 10
80.3242952218
 20
107.956451265
 11
80.3389616146
 21
109.5922771968
  0
LINE
  5
308
100
AcDbEntity
  8
_1
100
AcDbLine
 62
7
  6
CONTINUOUS
 10
44.8826813123
 20
102.7489840893
 11
45.0646771911
 21
102.7489845268
  0
LINE
  5
309
100
AcDbEntity
  8
_1
100
AcDbLine
 62
7
  6
CONTINUOUS
 10
45.2786022426
 20
104.9892394023
 11
45.13240645
 21
104.9892390508
  0
LINE
  5
30A
100
AcDbEntity
  8
_1
100
AcDbLine
 62
7
  6
CONTINUOUS
 10
83.4928472303
 20
93.6349791462
 11
82.5178347468
 21
94.1978906259
  0
LINE
  5
30B
100
AcDbEntity
  8
_1
100
AcDbLine
 62
7
  6
CONTINUOUS
 10
96.6640398466
 20
86.7353575343
 11
96.3152249454
 21
86.9367413555
  0
LINE
  5
30C
100
AcDbEntity
  8
_1
100
AcDbLine
 62
7
  6
CONTINUOUS
 10
85.200078642
 20
93.8417577992
 11
86.8382361117
 21
92.8959885392
  0
LWPOLYLINE
  5
30D
100
AcDbEntity
  8
_1
100
AcDbPolyline
 62
7
  6
CONTINUOUS
 90
3
 70
0
 10
36.2703936288
 20
132.77807847
 10
35.6115925887
 20
133.4222110252
 10
35.4319216405
 20
133.9872104377
  0
LINE
  5
30E
100
AcDbEntity
  8
_1
100
AcDbLine
 62
7
  6
CONTINUOUS
 10
84.5040151972
 20
107.7503926735
 11
84.4522730266
 21
109.4618482088
  0
LINE
  5
30F
100
AcDbEntity
  8
_1
100
AcDbLine
 62
7
  6
CONTINUOUS
 10
87.0307233877
 20
93.0071204564
 11
87.0071198507
 21
94.0343319025
  0
LINE
  5
310
100
AcDbEntity
  8
_1
100
AcDbLine
 62
7
  6
CONTINUOUS
 10
83.719465017
 20
18.8182977072
 11
83.719465017
 21
19.0256893212
  0
LINE
  5
311
100
AcDbEntity
  8
_1
100
AcDbLine
 62
7
  6
CONTINUOUS
 10
84.1673746446
 20
87.3878837594
 11
84.1673746446
 21
93.2455294273
  0
LINE
  5
312
100
AcDbEntity
  8
_1
100
AcDbLine
 62
7
  6
CONTINUOUS
 10
84.3381808745
 20
19.8899509569
 11
84.3381808745
 21
20.0973425708
  0
LINE
  5
313
100
AcDbEntity
  8
_1
100
AcDbLine
 62
7
  6
CONTINUOUS
 10
85.2470469138
 20
108.1616734416
 11
85.2470470382
 21
109.1322379622
  0
LINE
  5
314
100
AcDbEntity
  8
_1
100
AcDbLine
 62
7
  6
CONTINUOUS
 10
85.6960578507
 20
108.4224471132
 11
85.6960578848
 21
108.6887492515
  0
LINE
  5
315
100
AcDbEntity
  8
_1
100
AcDbLine
 62
7
  6
CONTINUOUS
 10
85.7220591589
 20
114.0283624926
 11
85.7220590828
 21
115.2476805701
  0
LINE
  5
316
100
AcDbEntity
  8
_1
100
AcDbLine
 62
7
  6
CONTINUOUS
 10
86.8382361117
 20
93.9309328011
 11
86.8382361117
 21
92.8959885392
  0
LINE
  5
317
100
AcDbEntity
  8
_1
100
AcDbLine
 62
7
  6
CONTINUOUS
 10
87.5297482097
 20
108.6528264638
 11
87.5297482097
 21
109.6911838368
  0
LINE
  5
318
100
AcDbEntity
  8
_1
100
AcDbLine
 62
7
  6
CONTINUOUS
 10
87.6763965237
 20
26.6494834027
 11
87.6763965237
 21
71.7367468766
  0
LINE
  5
319
100
AcDbEntity
  8
_1
100
AcDbLine
 62
7
  6
CONTINUOUS
 10
38.8830017638
 20
35.3732291425
 11
39.7752322323
 21
35.8883555687
  0
LINE
  5
31A
100
AcDbEntity
  8
_1
100
AcDbLine
 62
7
  6
CONTINUOUS
 10
94.1736058356
 20
110.3407834383
 11
93.9200705748
 21
110.3153228256
  0
LINE
  5
31B
100
AcDbEntity
  8
_1
100
AcDbLine
 62
7
  6
CONTINUOUS
 10
87.0307233877
 20
93.0071204564
 11
87.8811073496
 21
92.516162154
  0
LINE
  5
31C
100
AcDbEntity
  8
_1
100
AcDbLine
 62
7
  6
CONTINUOUS
 10
86.7091243164
 20
93.8518840798
 11
86.1676062948
 21
94.1645225825
  0
LINE
  5
31D
100
AcDbEntity
  8
_1
100
AcDbLine
 62
7
  6
CONTINUOUS
 10
87.5132649684
 20
94.3442193473
 11
89.2803542921
 21
93.3240129307
  0
LINE
  5
31E
100
AcDbEntity
  8
_1
100
AcDbLine
 62
7
  6
CONTINUOUS
 10
90.2926072203
 20
93.9084339428
 11
88.524786818
 21
94.9290624382
  0
LINE
  5
31F
100
AcDbEntity
  8
_1
100
AcDbLine
 62
7
  6
CONTINUOUS
 10
94.6283184587
 20
93.427476435
 11
93.6849149802
 21
93.9721388439
  0
LINE
  5
320
100
AcDbEntity
  8
_1
100
AcDbLine
 62
7
  6
CONTINUOUS
 10
92.8459444789
 20
94.4565291437
 11
92.0439363726
 21
94.9195582647
  0
LINE
  5
321
100
AcDbEntity
  8
_1
100
AcDbLine
 62
7
  6
CONTINUOUS
 10
92.0376394196
 20
95.3397557291
 11
89.9167945931
 21
96.5641983599
  0
LINE
  5
322
100
AcDbEntity
  8
_1
100
AcDbLine
 62
7
  6
CONTINUOUS
 10
71.5902508604
 20
107.0887259912
 11
72.7885506199
 21
106.3423177872
  0
LINE
  5
323
100
AcDbEntity
  8
_1
100
AcDbLine
 62
7
  6
CONTINUOUS
 10
72.523711842
 20
106.2779072582
 11
71.1863093186
 21
107.1122213275
  0
LINE
  5
324
100
AcDbEntity
  8
_1
100
AcDbLine
 62
7
  6
CONTINUOUS
 10
72.5230539575
 20
106.2756131145
 11
71.1863093606
 21
107.1122225744
  0
LINE
  5
325
100
AcDbEntity
  8
_1
100
AcDbLine
 62
7
  6
CONTINUOUS
 10
76.0920919236
 20
104.0321133637
 11
75.0781705607
 21
104.6713008259
  0
LINE
  5
326
100
AcDbEntity
  8
_1
100
AcDbLine
 62
7
  6
CONTINUOUS
 10
76.0915928592
 20
104.0331465164
 11
75.0785137364
 21
104.6733636841
  0
LINE
  5
327
100
AcDbEntity
  8
_1
100
AcDbLine
 62
7
  6
CONTINUOUS
 10
93.6820986171
 20
98.7388250835
 11
93.6849149802
 21
98.5541404117
  0
LINE
  5
328
100
AcDbEntity
  8
_1
100
AcDbLine
 62
7
  6
CONTINUOUS
 10
92.0012446449
 20
97.7683893829
 11
92.0439363726
 21
94.9195582647
  0
LINE
  5
329
100
AcDbEntity
  8
_1
100
AcDbLine
 62
7
  6
CONTINUOUS
 10
89.7418468322
 20
72.9292280501
 11
89.7418468322
 21
27.8419645762
  0
LINE
  5
32A
100
AcDbEntity
  8
_1
100
AcDbLine
 62
7
  6
CONTINUOUS
 10
92.8459444789
 20
98.2560741484
 11
92.8459444789
 21
94.4565291437
  0
LINE
  5
32B
100
AcDbEntity
  8
_1
100
AcDbLine
 62
7
  6
CONTINUOUS
 10
93.6849149802
 20
93.9721388439
 11
93.6849149802
 21
98.5541404117
  0
LINE
  5
32C
100
AcDbEntity
  8
_1
100
AcDbLine
 62
7
  6
CONTINUOUS
 10
85.9519183073
 20
115.51554348
 11
85.6978525281
 21
115.4904146947
  0
LINE
  5
32D
100
AcDbEntity
  8
_1
100
AcDbLine
 62
7
  6
CONTINUOUS
 10
84.9423807354
 20
116.9783731959
 11
85.19627997
 21
117.0032886307
  0
LINE
  5
32E
100
AcDbEntity
  8
_1
100
AcDbLine
 62
7
  6
CONTINUOUS
 10
25.3189998602
 20
133.4594439829
 11
24.3755051322
 21
133.9540834884
  0
LINE
  5
32F
100
AcDbEntity
  8
_1
100
AcDbLine
 62
7
  6
CONTINUOUS
 10
25.4511250086
 20
133.3911089033
 11
24.3758525987
 21
133.9561777544
  0
LINE
  5
330
100
AcDbEntity
  8
_1
100
AcDbLine
 62
7
  6
CONTINUOUS
 10
24.4643057751
 20
134.123465306
 11
25.6615052193
 21
133.4929070937
  0
LINE
  5
331
100
AcDbEntity
  8
_1
100
AcDbLine
 62
7
  6
CONTINUOUS
 10
28.0805155251
 20
131.9988012393
 11
27.9691497653
 21
132.0577056993
  0
LINE
  5
332
100
AcDbEntity
  8
_1
100
AcDbLine
 62
7
  6
CONTINUOUS
 10
25.4500400275
 20
133.3901331795
 11
25.3189998602
 21
133.4594439829
  0
LINE
  5
333
100
AcDbEntity
  8
_1
100
AcDbLine
 62
7
  6
CONTINUOUS
 10
64.9319901703
 20
115.5420927815
 11
60.5839976431
 21
118.0089163133
  0
LINE
  5
334
100
AcDbEntity
  8
_1
100
AcDbLine
 62
7
  6
CONTINUOUS
 10
49.3750106333
 20
121.2415288804
 11
47.8510040801
 21
122.1182379492
  0
LINE
  5
335
100
AcDbEntity
  8
_1
100
AcDbLine
 62
7
  6
CONTINUOUS
 10
54.3187932012
 20
118.3378308179
 11
52.7885543302
 21
119.2213050252
  0
LINE
  5
336
100
AcDbEntity
  8
_1
100
AcDbLine
 62
7
  6
CONTINUOUS
 10
50.1064739188
 20
120.7697880172
 11
49.804381107
 21
120.944199485
  0
LINE
  5
337
100
AcDbEntity
  8
_1
100
AcDbLine
 62
7
  6
CONTINUOUS
 10
49.3750296063
 20
121.1920829912
 11
47.8510623324
 21
122.0719363297
  0
LINE
  5
338
100
AcDbEntity
  8
_1
100
AcDbLine
 62
7
  6
CONTINUOUS
 10
49.1298947869
 20
125.1255429064
 11
45.3659776226
 21
127.2985923334
  0
LINE
  5
339
100
AcDbEntity
  8
_1
100
AcDbLine
 62
7
  6
CONTINUOUS
 10
43.0144554783
 20
128.8725676648
 11
45.6307614995
 21
127.362076851
  0
LINE
  5
33A
100
AcDbEntity
  8
_1
100
AcDbLine
 62
7
  6
CONTINUOUS
 10
49.0602436665
 20
125.3821091916
 11
51.9240380534
 21
123.7287341358
  0
LINE
  5
33B
100
AcDbEntity
  8
_1
100
AcDbLine
 62
7
  6
CONTINUOUS
 10
52.1443020987
 20
122.4997247487
 11
52.4133223589
 21
122.3443274442
  0
LINE
  5
33C
100
AcDbEntity
  8
_1
100
AcDbLine
 62
7
  6
CONTINUOUS
 10
50.10651323
 20
120.8190819653
 11
49.804392952
 21
120.99368616
  0
LINE
  5
33D
100
AcDbEntity
  8
_1
100
AcDbLine
 62
7
  6
CONTINUOUS
 10
52.1442486035
 20
122.4996937775
 11
52.4132686235
 21
122.3432005672
  0
LINE
  5
33E
100
AcDbEntity
  8
_1
100
AcDbLine
 62
7
  6
CONTINUOUS
 10
54.3191939967
 20
118.3652519456
 11
52.7888975441
 21
119.2608304869
  0
LINE
  5
33F
100
AcDbEntity
  8
_1
100
AcDbLine
 62
7
  6
CONTINUOUS
 10
64.7347379518
 20
115.0670307653
 11
64.9713502152
 21
114.9263006661
  0
LINE
  5
340
100
AcDbEntity
  8
_1
100
AcDbLine
 62
7
  6
CONTINUOUS
 10
64.7347596039
 20
115.0690011783
 11
64.9713502152
 21
114.9263006661
  0
LINE
  5
341
100
AcDbEntity
  8
_1
100
AcDbLine
 62
7
  6
CONTINUOUS
 10
36.2703936288
 20
132.77807847
 11
36.271077707
 21
132.7776128917
  0
LINE
  5
342
100
AcDbEntity
  8
_1
100
AcDbLine
 62
7
  6
CONTINUOUS
 10
70.0896912397
 20
113.2725127409
 11
70.0902104214
 21
113.2721262592
  0
LINE
  5
343
100
AcDbEntity
  8
_1
100
AcDbLine
 62
7
  6
CONTINUOUS
 10
63.144554021
 20
122.3897423699
 11
65.1245699575
 21
120.6765588331
  0
LWPOLYLINE
  5
344
100
AcDbEntity
  8
_1
100
AcDbPolyline
 62
7
  6
CONTINUOUS
 90
3
 70
0
 10
70.0896912397
 20
113.2725127409
 10
69.3831162228
 20
114.028039231
 10
69.193949933
 20
114.6729972826
  0
LINE
  5
345
100
AcDbEntity
  8
_1
100
AcDbLine
 62
7
  6
CONTINUOUS
 10
53.3795198792
 20
139.0795590696
 11
53.0577977043
 21
139.4430002813
  0
LINE
  5
346
100
AcDbEntity
  8
_1
100
AcDbLine
 62
7
  6
CONTINUOUS
 10
53.0577977043
 20
139.4844786041
 11
53.3795198792
 21
139.1210373924
  0
LINE
  5
347
100
AcDbEntity
  8
_1
100
AcDbLine
 62
7
  6
CONTINUOUS
 10
86.1676062948
 20
94.1645225825
 11
86.0704994179
 21
94.3442924687
  0
LINE
  5
348
100
AcDbEntity
  8
_1
100
AcDbLine
 62
7
  6
CONTINUOUS
 10
85.2828639443
 20
116.438937346
 11
85.3475011976
 21
116.0231833993
  0
LINE
  5
349
100
AcDbEntity
  8
_1
100
AcDbLine
 62
7
  6
CONTINUOUS
 10
85.4957159216
 20
116.2334368496
 11
85.431079127
 21
116.6491878459
  0
LINE
  5
34A
100
AcDbEntity
  8
_1
100
AcDbLine
 62
7
  6
CONTINUOUS
 10
93.6849149802
 20
98.5541404117
 11
93.6657255242
 21
98.7293721303
  0
LINE
  5
34B
100
AcDbEntity
  8
_1
100
AcDbLine
 62
7
  6
CONTINUOUS
 10
96.259984281
 20
86.8861523139
 11
96.1377185372
 21
90.9302884921
  0
LINE
  5
34C
100
AcDbEntity
  8
_1
100
AcDbLine
 62
7
  6
CONTINUOUS
 10
96.1383456316
 20
90.9706807816
 11
95.6442539856
 21
107.3135568626
  0
LINE
  5
34D
100
AcDbEntity
  8
_1
100
AcDbLine
 62
7
  6
CONTINUOUS
 10
96.4086858053
 20
87.0986239756
 11
96.2864200615
 21
91.1427601538
  0
LINE
  5
34E
100
AcDbEntity
  8
_1
100
AcDbLine
 62
7
  6
CONTINUOUS
 10
96.2870471559
 20
91.1831524433
 11
95.7928649516
 21
107.5290238859
  0
LINE
  5
34F
100
AcDbEntity
  8
_1
100
AcDbLine
 62
7
  6
CONTINUOUS
 10
94.4013075675
 20
21.5376621015
 11
94.4013075675
 21
20.1087828715
  0
LINE
  5
350
100
AcDbEntity
  8
_1
100
AcDbLine
 62
7
  6
CONTINUOUS
 10
94.6283184587
 20
99.2851221028
 11
94.6283184587
 21
93.427476435
  0
LINE
  5
351
100
AcDbEntity
  8
_1
100
AcDbLine
 62
7
  6
CONTINUOUS
 10
94.9528485606
 20
30.8505198681
 11
94.9528485606
 21
75.937783342
  0
LINE
  5
352
100
AcDbEntity
  8
_1
100
AcDbLine
 62
7
  6
CONTINUOUS
 10
95.3028458731
 20
100.453444341
 11
95.3028458731
 21
93.038026716
  0
LINE
  5
353
100
AcDbEntity
  8
_1
100
AcDbLine
 62
7
  6
CONTINUOUS
 10
95.3510807585
 20
23.5148898657
 11
95.3510807585
 21
22.0860106357
  0
LINE
  5
354
100
AcDbEntity
  8
_1
100
AcDbLine
 62
7
  6
CONTINUOUS
 10
96.6640398466
 20
21.4151641639
 11
96.6640398466
 21
86.7353575343
  0
LINE
  5
355
100
AcDbEntity
  8
_1
100
AcDbLine
 62
7
  6
CONTINUOUS
 10
56.9173975602
 20
121.6507632566
 11
57.4519651674
 21
121.5474226601
  0
LINE
  5
356
100
AcDbEntity
  8
_1
100
AcDbLine
 62
7
  6
CONTINUOUS
 10
43.7569207279
 20
131.7099245631
 11
43.0144554783
 21
132.1385773774
  0
LINE
  5
357
100
AcDbEntity
  8
_1
100
AcDbLine
 62
7
  6
CONTINUOUS
 10
51.2522838145
 20
127.3825725652
 11
51.9240380534
 21
126.9947438484
  0
LINE
  5
358
100
AcDbEntity
  8
_1
100
AcDbLine
 62
7
  6
CONTINUOUS
 10
95.3028458731
 20
100.453444341
 11
94.3612869886
 21
101.0356701498
  0
LINE
  5
359
100
AcDbEntity
  8
_1
100
AcDbLine
 62
7
  6
CONTINUOUS
 10
52.8970470393
 20
139.6122634539
 11
52.5768730676
 21
139.949673252
  0
LINE
  5
35A
100
AcDbEntity
  8
_1
100
AcDbLine
 62
7
  6
CONTINUOUS
 10
52.5768730676
 20
139.9911515748
 11
52.9224754624
 21
139.6269444732
  0
LINE
  5
35B
100
AcDbEntity
  8
_1
100
AcDbLine
 62
7
  6
CONTINUOUS
 10
53.8660812138
 20
138.8481698429
 11
52.7536522515
 21
140.093214475
  0
LINE
  5
35C
100
AcDbEntity
  8
_1
100
AcDbLine
 62
7
  6
CONTINUOUS
 10
57.3209301723
 20
140.8428159127
 11
56.2085012101
 21
142.0878605448
  0
LINE
  5
35D
100
AcDbEntity
  8
_1
100
AcDbLine
 62
7
  6
CONTINUOUS
 10
56.8343688378
 20
141.0742051394
 11
56.5126466628
 21
141.4376463511
  0
LINE
  5
35E
100
AcDbEntity
  8
_1
100
AcDbLine
 62
7
  6
CONTINUOUS
 10
56.5126466628
 20
141.4791246739
 11
56.8343688378
 21
141.1156834622
  0
LINE
  5
35F
100
AcDbEntity
  8
_1
100
AcDbLine
 62
7
  6
CONTINUOUS
 10
86.7066651667
 20
18.932308142
 11
87.448659157
 21
21.1980892815
  0
LINE
  5
360
100
AcDbEntity
  8
_1
100
AcDbLine
 62
7
  6
CONTINUOUS
 10
34.3830037968
 20
144.6882885033
 11
34.5709975762
 21
144.5905715599
  0
LWPOLYLINE
  5
361
100
AcDbEntity
  8
_1
100
AcDbPolyline
 62
7
  6
CONTINUOUS
 90
4
 70
0
 10
42.3997526399
 20
140.6391606831
 10
40.1184754746
 20
141.8504887323
 10
37.3107181518
 20
143.3250178536
 10
34.635339508
 20
144.7143564687
  0
LINE
  5
362
100
AcDbEntity
  8
_1
100
AcDbLine
 62
7
  6
CONTINUOUS
 10
43.3151814669
 20
141.0112536104
 11
44.8656485614
 21
140.1592288283
  0
LINE
  5
363
100
AcDbEntity
  8
_1
100
AcDbLine
 62
7
  6
CONTINUOUS
 10
72.3072570334
 20
119.8751534876
 11
67.9592645063
 21
122.3419770195
  0
LINE
  5
364
100
AcDbEntity
  8
_1
100
AcDbLine
 62
7
  6
CONTINUOUS
 10
59.2909612812
 20
129.3594053689
 11
58.9949966341
 21
129.52877244
  0
LINE
  5
365
100
AcDbEntity
  8
_1
100
AcDbLine
 62
7
  6
CONTINUOUS
 10
60.8136294614
 20
128.4852430693
 11
59.2909612812
 21
129.3594053689
  0
LINE
  5
366
100
AcDbEntity
  8
_1
100
AcDbLine
 62
7
  6
CONTINUOUS
 10
43.7569207279
 20
136.9355400328
 11
43.9690536455
 21
136.8130678064
  0
LINE
  5
367
100
AcDbEntity
  8
_1
100
AcDbLine
 62
7
  6
CONTINUOUS
 10
65.7546997784
 20
125.6146215286
 11
64.2250768079
 21
126.4977321897
  0
LINE
  5
368
100
AcDbEntity
  8
_1
100
AcDbLine
 62
7
  6
CONTINUOUS
 10
60.81370388
 20
128.4672500772
 11
58.9950764255
 21
129.5172142348
  0
LINE
  5
369
100
AcDbEntity
  8
_1
100
AcDbLine
 62
7
  6
CONTINUOUS
 10
58.3233221866
 20
131.4650141039
 11
58.9950764255
 21
131.0771853871
  0
LINE
  5
36A
100
AcDbEntity
  8
_1
100
AcDbLine
 62
7
  6
CONTINUOUS
 10
51.9593935396
 20
136.1191588825
 11
51.2522838145
 21
136.5273996371
  0
LINE
  5
36B
100
AcDbEntity
  8
_1
100
AcDbLine
 62
7
  6
CONTINUOUS
 10
44.8785071486
 20
140.2072180623
 11
44.3933194805
 21
140.4873349559
  0
LINE
  5
36C
100
AcDbEntity
  8
_1
100
AcDbLine
 62
7
  6
CONTINUOUS
 10
51.9593935396
 20
137.0989617831
 11
49.3430875566
 21
138.6094525748
  0
LINE
  5
36D
100
AcDbEntity
  8
_1
100
AcDbLine
 62
7
  6
CONTINUOUS
 10
65.7547051341
 20
125.6161839045
 11
64.2250896751
 21
126.5096548579
  0
LINE
  5
36E
100
AcDbEntity
  8
_1
100
AcDbLine
 62
7
  6
CONTINUOUS
 10
85.6978525281
 20
115.4904146948
 11
85.8696240546
 21
115.3837502618
  0
LINE
  5
36F
100
AcDbEntity
  8
_1
100
AcDbLine
 62
7
  6
CONTINUOUS
 10
85.19627997
 20
117.0032886307
 11
85.1967197447
 21
117.0030153956
  0
LWPOLYLINE
  5
370
100
AcDbEntity
  8
_1
100
AcDbPolyline
 62
7
  6
CONTINUOUS
 90
4
 70
0
 10
94.1741037082
 20
110.3404791711
 10
91.4942163092
 20
112.0429192558
 10
88.6822262709
 20
113.8128648908
 10
85.9520273577
 20
115.5154758448
  0
LWPOLYLINE
  5
371
100
AcDbEntity
  8
_1
100
AcDbPolyline
 62
7
  6
CONTINUOUS
 90
4
 70
0
 10
85.9519171982
 20
115.5155426527
 10
85.7571857723
 20
115.6908834134
 10
85.5616369365
 20
116.0104926108
 10
85.4957342105
 20
116.2332740616
  0
LINE
  5
372
100
AcDbEntity
  8
_1
100
AcDbLine
 62
7
  6
CONTINUOUS
 10
56.3518959979
 20
141.6069095237
 11
56.0317220261
 21
141.9443193218
  0
LINE
  5
373
100
AcDbEntity
  8
_1
100
AcDbLine
 62
7
  6
CONTINUOUS
 10
56.0317220261
 20
141.9857976446
 11
56.377324421
 21
141.621590543
  0
LWPOLYLINE
  5
374
100
AcDbEntity
  8
_1
100
AcDbPolyline
 62
7
  6
CONTINUOUS
 90
4
 70
0
 10
95.7928725547
 20
107.5286611687
 10
95.5569689681
 20
108.5950084898
 10
94.9281751353
 20
109.658296108
 10
94.1736058356
 20
110.3407834383
  0
LINE
  5
375
100
AcDbEntity
  8
_1
100
AcDbLine
 62
7
  6
CONTINUOUS
 10
87.317393619
 20
26.0179537769
 11
87.1589808403
 21
25.7088898255
  0
LINE
  5
376
100
AcDbEntity
  8
_1
100
AcDbLine
 62
7
  6
CONTINUOUS
 10
34.3830038557
 20
144.6882871987
 11
34.5710382041
 21
144.5911444964
  0
LINE
  5
377
100
AcDbEntity
  8
_1
100
AcDbLine
 62
7
  6
CONTINUOUS
 10
43.5680258278
 20
141.0368090479
 11
44.3928398232
 21
140.5943495879
  0
LINE
  5
378
100
AcDbEntity
  8
_1
100
AcDbLine
 62
7
  6
CONTINUOUS
 10
43.3151814669
 20
141.0112536104
 11
44.3639792593
 21
140.4485822545
  0
LINE
  5
379
100
AcDbEntity
  8
_1
100
AcDbLine
 62
7
  6
CONTINUOUS
 10
44.3639792593
 20
140.4485822545
 11
44.8650884342
 21
140.1789534829
  0
LINE
  5
37A
100
AcDbEntity
  8
_1
100
AcDbLine
 62
7
  6
CONTINUOUS
 10
43.5680258278
 20
141.0368090479
 11
44.3933194805
 21
140.5832862165
  0
LINE
  5
37B
100
AcDbEntity
  8
_1
100
AcDbLine
 62
7
  6
CONTINUOUS
 10
50.5460682964
 20
138.7771945695
 11
50.7371108063
 21
138.6668986201
  0
LINE
  5
37C
100
AcDbEntity
  8
_1
100
AcDbLine
 62
7
  6
CONTINUOUS
 10
50.5460682964
 20
138.8186728923
 11
50.7371108063
 21
138.7083769429
  0
LINE
  5
37D
100
AcDbEntity
  8
_1
100
AcDbLine
 62
7
  6
CONTINUOUS
 10
49.3430875566
 20
139.6709057432
 11
44.3933194805
 21
142.5285910249
  0
LINE
  5
37E
100
AcDbEntity
  8
_1
100
AcDbLine
 62
7
  6
CONTINUOUS
 10
48.5057348704
 20
140.7310571193
 11
48.5909241473
 21
140.6818741801
  0
LINE
  5
37F
100
AcDbEntity
  8
_1
100
AcDbLine
 62
7
  6
CONTINUOUS
 10
54.2556384805
 20
140.9189031296
 11
55.9113402335
 21
139.9630049021
  0
LINE
  5
380
100
AcDbEntity
  8
_1
100
AcDbLine
 62
7
  6
CONTINUOUS
 10
54.2556384805
 20
140.9603814524
 11
55.9113402335
 21
140.0044832249
  0
LINE
  5
381
100
AcDbEntity
  8
_1
100
AcDbLine
 62
7
  6
CONTINUOUS
 10
55.7202963095
 20
140.3108616783
 11
54.4254526309
 21
141.0584231126
  0
LINE
  5
382
100
AcDbEntity
  8
_1
100
AcDbLine
 62
7
  6
CONTINUOUS
 10
52.0412540565
 20
142.7722778887
 11
52.1264433334
 21
142.7230949494
  0
LINE
  5
383
100
AcDbEntity
  8
_1
100
AcDbLine
 62
7
  6
CONTINUOUS
 10
55.9962437737
 20
140.5437103151
 11
55.8052012637
 21
140.6540062645
  0
LINE
  5
384
100
AcDbEntity
  8
_1
100
AcDbLine
 62
7
  6
CONTINUOUS
 10
85.4822630019
 20
22.9149197553
 11
85.2908498368
 21
22.6436020992
  0
LWPOLYLINE
  5
385
100
AcDbEntity
  8
_1
100
AcDbPolyline
 62
7
  6
CONTINUOUS
 90
3
 70
0
 10
34.6356000651
 20
144.7142176936
 10
33.8803053733
 20
144.9254653483
 10
33.2147774973
 20
144.7647144399
  0
LINE
  5
386
100
AcDbEntity
  8
_1
100
AcDbLine
 62
7
  6
CONTINUOUS
 10
53.7005787508
 20
138.7111391989
 11
51.5437264299
 21
139.3531893232
  0
LINE
  5
387
100
AcDbEntity
  8
_1
100
AcDbLine
 62
7
  6
CONTINUOUS
 10
51.5437264299
 20
139.394667646
 11
53.7005787508
 21
138.7526175217
  0
LINE
  5
388
100
AcDbEntity
  8
_1
100
AcDbLine
 62
7
  6
CONTINUOUS
 10
53.1841670517
 20
139.0388890769
 11
52.5984371607
 21
139.2192682538
  0
LINE
  5
389
100
AcDbEntity
  8
_1
100
AcDbLine
 62
7
  6
CONTINUOUS
 10
52.3513427144
 20
139.2972027957
 11
51.7201739456
 21
139.4965390586
  0
LINE
  5
38A
100
AcDbEntity
  8
_1
100
AcDbLine
 62
7
  6
CONTINUOUS
 10
56.4141259287
 20
142.6918941135
 11
59.0304319118
 21
141.1814033218
  0
LINE
  5
38B
100
AcDbEntity
  8
_1
100
AcDbLine
 62
7
  6
CONTINUOUS
 10
51.4643578527
 20
146.6110325636
 11
56.4141259287
 21
143.7533472819
  0
LINE
  5
38C
100
AcDbEntity
  8
_1
100
AcDbLine
 62
7
  6
CONTINUOUS
 10
72.6104799125
 20
16.9313453465
 11
72.1557293753
 21
16.6687965686
  0
LINE
  5
38D
100
AcDbEntity
  8
_1
100
AcDbLine
 62
7
  6
CONTINUOUS
 10
72.9703234294
 20
16.7095725133
 11
71.8926971815
 21
16.0874084228
  0
LINE
  5
38E
100
AcDbEntity
  8
_1
100
AcDbLine
 62
7
  6
CONTINUOUS
 10
43.5679805973
 20
141.0368332737
 11
43.3151875699
 21
141.0113092657
  0
LINE
  5
38F
100
AcDbEntity
  8
_1
100
AcDbLine
 62
7
  6
CONTINUOUS
 10
57.1554277093
 20
140.7057852687
 11
54.9985753885
 21
141.347835393
  0
LINE
  5
390
100
AcDbEntity
  8
_1
100
AcDbLine
 62
7
  6
CONTINUOUS
 10
54.9985753885
 20
141.3893137158
 11
57.1554277093
 21
140.7472635915
  0
LINE
  5
391
100
AcDbEntity
  8
_1
100
AcDbLine
 62
7
  6
CONTINUOUS
 10
56.6390160102
 20
141.0335351467
 11
56.0532861193
 21
141.2139143236
  0
LINE
  5
392
100
AcDbEntity
  8
_1
100
AcDbLine
 62
7
  6
CONTINUOUS
 10
55.8061916729
 20
141.2918488655
 11
55.1750229041
 21
141.4911851284
  0
LINE
  5
393
100
AcDbEntity
  8
_1
100
AcDbLine
 62
7
  6
CONTINUOUS
 10
83.1725907597
 20
20.7703150472
 11
82.9929863851
 21
20.6666210322
  0
LINE
  5
394
100
AcDbEntity
  8
_1
100
AcDbLine
 62
7
  6
CONTINUOUS
 10
83.1905513467
 20
20.7599457321
 11
83.0109469721
 21
20.656251717
  0
LINE
  5
395
100
AcDbEntity
  8
_1
100
AcDbLine
 62
7
  6
CONTINUOUS
 10
84.3202202875
 20
20.107711886
 11
83.1905513467
 21
19.4555011121
  0
LINE
  5
396
100
AcDbEntity
  8
_1
100
AcDbLine
 62
7
  6
CONTINUOUS
 10
82.9929863851
 20
19.3414376092
 11
81.8453568573
 21
18.6788573474
  0
LINE
  5
397
100
AcDbEntity
  8
_1
100
AcDbLine
 62
7
  6
CONTINUOUS
 10
84.3381808745
 20
20.0973425708
 11
83.1905513467
 21
19.4347623091
  0
LINE
  5
398
100
AcDbEntity
  8
_1
100
AcDbLine
 62
7
  6
CONTINUOUS
 10
83.0109469721
 20
19.331068294
 11
81.8633174443
 21
18.6684880323
  0
LINE
  5
399
100
AcDbEntity
  8
_1
100
AcDbLine
 62
7
  6
CONTINUOUS
 10
84.3381808745
 20
19.8899509569
 11
81.8633174443
 21
18.4610964183
  0
LINE
  5
39A
100
AcDbEntity
  8
_1
100
AcDbLine
 62
7
  6
CONTINUOUS
 10
83.70150443
 20
19.0360586364
 11
82.4640727148
 21
18.3216313671
  0
LINE
  5
39B
100
AcDbEntity
  8
_1
100
AcDbLine
 62
7
  6
CONTINUOUS
 10
83.719465017
 20
19.0256893212
 11
82.4820333019
 21
18.3112620519
  0
LINE
  5
39C
100
AcDbEntity
  8
_1
100
AcDbLine
 62
7
  6
CONTINUOUS
 10
83.719465017
 20
18.8182977072
 11
82.4820333019
 21
18.103870438
  0
LINE
  5
39D
100
AcDbEntity
  8
_1
100
AcDbLine
 62
7
  6
CONTINUOUS
 10
83.3921465012
 20
18.143012204
 11
82.7734306436
 21
17.7857985694
  0
LINE
  5
39E
100
AcDbEntity
  8
_1
100
AcDbLine
 62
7
  6
CONTINUOUS
 10
83.4101070882
 20
18.1326428889
 11
82.7913912306
 21
17.7754292542
  0
LINE
  5
39F
100
AcDbEntity
  8
_1
100
AcDbLine
 62
7
  6
CONTINUOUS
 10
83.4101070882
 20
17.9252512749
 11
82.7913912306
 21
17.5680376403
  0
LINE
  5
3A0
100
AcDbEntity
  8
_1
100
AcDbLine
 62
7
  6
CONTINUOUS
 10
90.0487667822
 20
20.8618598914
 11
90.0044684641
 21
20.8362843982
  0
LINE
  5
3A1
100
AcDbEntity
  8
_1
100
AcDbLine
 62
7
  6
CONTINUOUS
 10
86.7066651667
 20
18.932308142
 11
86.6623668486
 21
18.9067326487
  0
LINE
  5
3A2
100
AcDbEntity
  8
_1
100
AcDbLine
 62
7
  6
CONTINUOUS
 10
82.0671626003
 20
15.8454619215
 11
86.4196006907
 21
18.3583282248
  0
LINE
  5
3A3
100
AcDbEntity
  8
_1
100
AcDbLine
 62
7
  6
CONTINUOUS
 10
90.9986426653
 20
21.0020235608
 11
95.3510807585
 21
23.5148898657
  0
LINE
  5
3A4
100
AcDbEntity
  8
_1
100
AcDbLine
 62
7
  6
CONTINUOUS
 10
34.635339508
 20
144.7143564687
 11
34.3830038556
 21
144.6882871987
  0
LINE
  5
3A5
100
AcDbEntity
  8
_1
100
AcDbLine
 62
7
  6
CONTINUOUS
 10
95.3510807585
 20
22.0860106357
 11
94.4013075675
 21
21.5376621015
  0
LINE
  5
3A6
100
AcDbEntity
  8
_1
100
AcDbLine
 62
7
  6
CONTINUOUS
 10
83.0169357884
 20
14.9649312242
 11
82.0671626003
 21
14.4165826916
  0
LINE
  5
3A7
100
AcDbEntity
  8
_1
100
AcDbLine
 62
7
  6
CONTINUOUS
 10
80.7542035093
 20
12.2296707018
 11
83.0169357884
 21
13.5360519942
  0
LINE
  5
3A8
100
AcDbEntity
  8
_1
100
AcDbLine
 62
7
  6
CONTINUOUS
 10
94.4013075675
 20
20.1087828715
 11
96.6640398466
 21
21.4151641639
  0
ARC
  5
3A9
100
AcDbEntity
  8
_1
100
AcDbCircle
 62
7
  6
CONTINUOUS
 10
-340.3579361532
 20
-556.7913047293
 40
784.5357626074
100
AcDbArc
 50
58.9124663766
 51
59.2916487192
  0
ARC
  5
3AA
100
AcDbEntity
  8
_1
100
AcDbCircle
 62
7
  6
CONTINUOUS
 10
-327.156069938
 20
-549.5741624365
 40
782.7894030697
100
AcDbArc
 50
57.4580118107
 51
58.1543198641
  0
ARC
  5
3AB
100
AcDbEntity
  8
_1
100
AcDbCircle
 62
7
  6
CONTINUOUS
 10
-341.2405642124
 20
-556.9933697217
 40
781.9426719727
100
AcDbArc
 50
57.8219264226
 51
58.0291450923
  0
ARC
  5
3AC
100
AcDbEntity
  8
_1
100
AcDbCircle
 62
7
  6
CONTINUOUS
 10
-341.4777859405
 20
-555.2829212716
 40
780.6075696582
100
AcDbArc
 50
58.1807506833
 51
58.5228671046
  0
ARC
  5
3AD
100
AcDbEntity
  8
_1
100
AcDbCircle
 62
7
  6
CONTINUOUS
 10
-325.1974910414
 20
-544.7473776425
 40
776.4281141552
100
AcDbArc
 50
57.8210870158
 51
58.1339564724
  0
ARC
  5
3AE
100
AcDbEntity
  8
_1
100
AcDbCircle
 62
7
  6
CONTINUOUS
 10
-325.925862351
 20
-540.5636376573
 40
768.6891263608
100
AcDbArc
 50
59.3809550645
 51
59.5924152587
  0
ARC
  5
3AF
100
AcDbEntity
  8
_1
100
AcDbCircle
 62
7
  6
CONTINUOUS
 10
-322.6963785688
 20
-537.6417910269
 40
768.6386574588
100
AcDbArc
 50
58.8861332791
 51
59.6437233056
  0
ARC
  5
3B0
100
AcDbEntity
  8
_1
100
AcDbCircle
 62
7
  6
CONTINUOUS
 10
-328.6647187157
 20
-541.6924670787
 40
767.8930515536
100
AcDbArc
 50
59.3784971076
 51
59.5925267388
  0
ARC
  5
3B1
100
AcDbEntity
  8
_1
100
AcDbCircle
 62
7
  6
CONTINUOUS
 10
-332.2557834189
 20
-540.4697457831
 40
763.8742302261
100
AcDbArc
 50
59.7304854504
 51
59.9631680113
  0
ARC
  5
3B2
100
AcDbEntity
  8
_1
100
AcDbCircle
 62
7
  6
CONTINUOUS
 10
-317.6865281899
 20
-532.8614708613
 40
763.4028821366
100
AcDbArc
 50
57.7821434453
 51
58.1002440397
  0
ARC
  5
3B3
100
AcDbEntity
  8
_1
100
AcDbCircle
 62
7
  6
CONTINUOUS
 10
-330.8024380056
 20
-540.4338997022
 40
763.4028820986
100
AcDbArc
 50
57.7821434453
 51
58.1002440398
  0
ARC
  5
3B4
100
AcDbEntity
  8
_1
100
AcDbCircle
 62
7
  6
CONTINUOUS
 10
-328.7782387839
 20
-537.234288892
 40
761.8076905719
100
AcDbArc
 50
59.2893036903
 51
59.975010064
  0
ARC
  5
3B5
100
AcDbEntity
  8
_1
100
AcDbCircle
 62
7
  6
CONTINUOUS
 10
-319.0009894326
 20
-531.3146880079
 40
761.3114302144
100
AcDbArc
 50
59.7763777712
 51
60.0730660447
  0
ARC
  5
3B6
100
AcDbEntity
  8
_1
100
AcDbCircle
 62
7
  6
CONTINUOUS
 10
-328.0865789943
 20
-534.4218736179
 40
755.635371286
100
AcDbArc
 50
57.7547435906
 51
57.9834976793
  0
ARC
  5
3B7
100
AcDbEntity
  8
_1
100
AcDbCircle
 62
7
  6
CONTINUOUS
 10
-326.2350530042
 20
-531.4799876336
 40
751.4472975909
100
AcDbArc
 50
57.3643179313
 51
58.1040510047
  0
ARC
  5
3B8
100
AcDbEntity
  8
_1
100
AcDbCircle
 62
7
  6
CONTINUOUS
 10
-324.1162250557
 20
-528.1472123728
 40
748.2100665492
100
AcDbArc
 50
57.3638276689
 51
57.6637534514
  0
ARC
  5
3B9
100
AcDbEntity
  8
_1
100
AcDbCircle
 62
7
  6
CONTINUOUS
 10
-320.9537079395
 20
-523.6693172632
 40
746.1478110596
100
AcDbArc
 50
59.9978626774
 51
60.7476362535
  0
ARC
  5
3BA
100
AcDbEntity
  8
_1
100
AcDbCircle
 62
7
  6
CONTINUOUS
 10
-319.6621252537
 20
-521.3662419961
 40
743.5072922886
100
AcDbArc
 50
60.7477487868
 51
61.1329037001
  0
ARC
  5
3BB
100
AcDbEntity
  8
_1
100
AcDbCircle
 62
7
  6
CONTINUOUS
 10
-316.4547212065
 20
-513.245440344
 40
732.3993716887
100
AcDbArc
 50
61.0440837908
 51
61.8714485253
  0
ARC
  5
3BC
100
AcDbEntity
  8
_1
100
AcDbCircle
 62
7
  6
CONTINUOUS
 10
-304.3840560441
 20
-491.0433406652
 40
706.4166617632
100
AcDbArc
 50
61.6473612474
 51
61.8868031761
  0
ARC
  5
3BD
100
AcDbEntity
  8
_1
100
AcDbCircle
 62
7
  6
CONTINUOUS
 10
-295.9069905335
 20
-475.5733936967
 40
688.7438248138
100
AcDbArc
 50
61.941790123
 51
62.1673078105
  0
ARC
  5
3BE
100
AcDbEntity
  8
_1
100
AcDbCircle
 62
7
  6
CONTINUOUS
 10
-280.4347469024
 20
-463.5568012139
 40
683.7136401031
100
AcDbArc
 50
61.952472491
 51
62.2814364707
  0
ARC
  5
3BF
100
AcDbEntity
  8
_1
100
AcDbCircle
 62
7
  6
CONTINUOUS
 10
-275.6639533516
 20
-455.6296115272
 40
675.6557599452
100
AcDbArc
 50
61.9310116592
 51
62.6669976623
  0
ARC
  5
3C0
100
AcDbEntity
  8
_1
100
AcDbCircle
 62
7
  6
CONTINUOUS
 10
-288.0443470216
 20
-462.9712872022
 40
674.9200570617
100
AcDbArc
 50
61.9866833239
 51
62.3200665028
  0
ARC
  5
3C1
100
AcDbEntity
  8
_1
100
AcDbCircle
 62
7
  6
CONTINUOUS
 10
-274.9284371827
 20
-455.3988583234
 40
674.9200570552
100
AcDbArc
 50
61.9866833239
 51
62.3200665028
  0
ARC
  5
3C2
100
AcDbEntity
  8
_1
100
AcDbCircle
 62
7
  6
CONTINUOUS
 10
-288.4810736234
 20
-462.6519565369
 40
673.6622011047
100
AcDbArc
 50
61.9821764307
 51
62.224500902
  0
ARC
  5
3C3
100
AcDbEntity
  8
_1
100
AcDbCircle
 62
7
  6
CONTINUOUS
 10
-288.312419893
 20
-462.3092873464
 40
672.5686411134
100
AcDbArc
 50
61.9714674483
 51
62.267325569
  0
ARC
  5
3C4
100
AcDbEntity
  8
_1
100
AcDbCircle
 62
7
  6
CONTINUOUS
 10
-278.6508793479
 20
-443.9332170754
 40
651.807491721
100
AcDbArc
 50
62.2673657163
 51
62.7773245356
  0
ARC
  5
3C5
100
AcDbEntity
  8
_1
100
AcDbCircle
 62
7
  6
CONTINUOUS
 10
-277.6362864401
 20
-442.0104727435
 40
650.3452272543
100
AcDbArc
 50
62.3294161868
 51
62.7778959812
  0
ARC
  5
3C6
100
AcDbEntity
  8
_1
100
AcDbCircle
 62
7
  6
CONTINUOUS
 10
-720.1175458481
 20
11.5540943783
 40
818.4429504592
100
AcDbArc
 50
5.5039697721
 51
5.6737277902
  0
ARC
  5
3C7
100
AcDbEntity
  8
_1
100
AcDbCircle
 62
7
  6
CONTINUOUS
 10
114.4712686496
 20
38.908708181
 40
54.8880794674
100
AcDbArc
 50
111.2788121429
 51
112.2491378982
  0
ARC
  5
3C8
100
AcDbEntity
  8
_1
100
AcDbCircle
 62
7
  6
CONTINUOUS
 10
91.9166540835
 20
20.772497176
 40
6.7816932325
100
AcDbArc
 50
161.5840824743
 51
164.2567649829
  0
ARC
  5
3C9
100
AcDbEntity
  8
_1
100
AcDbCircle
 62
7
  6
CONTINUOUS
 10
91.6157334066
 20
20.858870019
 40
6.4686258115
100
AcDbArc
 50
164.2699176045
 51
165.6946506184
  0
ARC
  5
3CA
100
AcDbEntity
  8
_1
100
AcDbCircle
 62
7
  6
CONTINUOUS
 10
91.7785394069
 20
21.2957562005
 40
6.3887455531
100
AcDbArc
 50
133.3302269671
 51
136.3091578174
  0
ARC
  5
3CB
100
AcDbEntity
  8
_1
100
AcDbCircle
 62
7
  6
CONTINUOUS
 10
91.5178202402
 20
21.5735690331
 40
6.0077555002
100
AcDbArc
 50
130.991748996
 51
133.3396287754
  0
ARC
  5
3CC
100
AcDbEntity
  8
_1
100
AcDbCircle
 62
7
  6
CONTINUOUS
 10
41.3760500059
 20
132.4953243305
 40
5.0121208821
100
AcDbArc
 50
61.3693331185
 51
61.6643675936
  0
ARC
  5
3CD
100
AcDbEntity
  8
_1
100
AcDbCircle
 62
7
  6
CONTINUOUS
 10
41.4769515285
 20
132.6784801369
 40
4.8030120724
100
AcDbArc
 50
58.7842382944
 51
61.3789086692
  0
ARC
  5
3CE
100
AcDbEntity
  8
_1
100
AcDbCircle
 62
7
  6
CONTINUOUS
 10
72.5024918756
 20
117.1140389674
 40
4.7831809558
100
AcDbArc
 50
233.4125871748
 51
237.7816131982
  0
ARC
  5
3CF
100
AcDbEntity
  8
_1
100
AcDbCircle
 62
7
  6
CONTINUOUS
 10
58.8491203949
 20
125.1678430964
 40
4.0176245082
100
AcDbArc
 50
248.5087925002
 51
251.9212337386
  0
ARC
  5
3D0
100
AcDbEntity
  8
_1
100
AcDbCircle
 62
7
  6
CONTINUOUS
 10
59.1143669573
 20
120.4566243869
 40
3.7989394981
100
AcDbArc
 50
78.0211111351
 51
101.9897386924
  0
ARC
  5
3D1
100
AcDbEntity
  8
_1
100
AcDbCircle
 62
7
  6
CONTINUOUS
 10
41.7895726638
 20
133.1132231394
 40
3.2012813895
100
AcDbArc
 50
50.762800629
 51
56.024206535
  0
ARC
  5
3D2
100
AcDbEntity
  8
_1
100
AcDbCircle
 62
7
  6
CONTINUOUS
 10
90.4408182773
 20
24.218804907
 40
3.1515677857
100
AcDbArc
 50
104.6001810687
 51
107.0558020706
  0
ARC
  5
3D3
100
AcDbEntity
  8
_1
100
AcDbCircle
 62
7
  6
CONTINUOUS
 10
90.3837978627
 20
24.435254126
 40
2.9277348556
100
AcDbArc
 50
101.7307961298
 51
104.5880818156
  0
ARC
  5
3D4
100
AcDbEntity
  8
_1
100
AcDbCircle
 62
7
  6
CONTINUOUS
 10
92.4275259446
 20
107.9811442288
 40
2.7705738025
100
AcDbArc
 50
54.255779559
 51
57.4039175095
  0
ARC
  5
3D5
100
AcDbEntity
  8
_1
100
AcDbCircle
 62
7
  6
CONTINUOUS
 10
58.1645211083
 20
123.3041994985
 40
1.4566095158
100
AcDbArc
 50
224.6469752624
 51
229.0676693453
  0
ARC
  5
3D6
100
AcDbEntity
  8
_1
100
AcDbCircle
 62
7
  6
CONTINUOUS
 10
60.8430065782
 20
122.7797700108
 40
1.4073779309
100
AcDbArc
 50
28.1904597106
 51
33.1404490635
  0
ARC
  5
3D7
100
AcDbEntity
  8
_1
100
AcDbCircle
 62
7
  6
CONTINUOUS
 10
57.6759271008
 20
122.4761900466
 40
0.9161928311
100
AcDbArc
 50
155.0482401216
 51
159.9465284533
  0
ARC
  5
3D8
100
AcDbEntity
  8
_1
100
AcDbCircle
 62
7
  6
CONTINUOUS
 10
57.6189521399
 20
122.2977932139
 40
0.8555782888
100
AcDbArc
 50
160.3678628129
 51
166.1941811599
  0
ARC
  5
3D9
100
AcDbEntity
  8
_1
100
AcDbCircle
 62
7
  6
CONTINUOUS
 10
60.6150500376
 20
122.2996244532
 40
0.850007685
100
AcDbArc
 50
12.8811386657
 51
20.4568101689
  0
ARC
  5
3DA
100
AcDbEntity
  8
_1
100
AcDbCircle
 62
7
  6
CONTINUOUS
 10
57.5776071203
 20
122.3080718505
 40
0.8129749205
100
AcDbArc
 50
166.2023169297
 51
172.7697303059
  0
ARC
  5
3DB
100
AcDbEntity
  8
_1
100
AcDbCircle
 62
7
  6
CONTINUOUS
 10
60.6536364131
 20
122.3085139249
 40
0.8104106293
100
AcDbArc
 50
6.8580225511
 51
12.8766326652
  0
ARC
  5
3DC
100
AcDbEntity
  8
_1
100
AcDbCircle
 62
7
  6
CONTINUOUS
 10
87.6859794341
 20
21.8342434293
 40
0.6790392318
100
AcDbArc
 50
235.4083332973
 51
239.9523892182
  0
ARC
  5
3DD
100
AcDbEntity
  8
_1
100
AcDbCircle
 62
7
  6
CONTINUOUS
 10
84.9291094374
 20
116.5711466337
 40
0.508
100
AcDbArc
 50
8.7582373891
 51
58.1787788197
  0
ARC
  5
3DE
100
AcDbEntity
  8
_1
100
AcDbCircle
 62
7
  6
CONTINUOUS
 10
28.8492586581
 20
132.229239036
 40
0.508
100
AcDbArc
 50
119.9998519061
 51
169.8037722465
  0
ARC
  5
3DF
100
AcDbEntity
  8
_1
100
AcDbCircle
 62
7
  6
CONTINUOUS
 10
43.3284509112
 20
140.5887546814
 40
0.508
100
AcDbArc
 50
61.8351923888
 51
119.9998519061
  0
ARC
  5
3E0
100
AcDbEntity
  8
_1
100
AcDbCircle
 62
7
  6
CONTINUOUS
 10
28.7913747986
 20
132.4139144795
 40
0.4887016621
100
AcDbArc
 50
225.907637995
 51
231.9411493192
  0
ARC
  5
3E1
100
AcDbEntity
  8
_1
100
AcDbCircle
 62
7
  6
CONTINUOUS
 10
52.4241098043
 20
138.3002113885
 40
0.1280933713
100
AcDbArc
 50
10.1853271441
 51
16.3241135057
  0
ARC
  5
3E2
100
AcDbEntity
  8
_1
100
AcDbCircle
 62
7
  6
CONTINUOUS
 10
1148.5818572435
 20
19.8078629067
 40
1067.8077742868
100
AcDbArc
 50
176.4160037521
 51
176.5972368829
  0
ARC
  5
3E3
100
AcDbEntity
  8
_1
100
AcDbCircle
 62
7
  6
CONTINUOUS
 10
345.2494326651
 20
7.2163713243
 40
270.6195462543
100
AcDbArc
 50
160.7393891017
 51
160.9807827808
  0
ARC
  5
3E4
100
AcDbEntity
  8
_1
100
AcDbCircle
 62
7
  6
CONTINUOUS
 10
277.8103044097
 20
191.3634228972
 40
214.5417470694
100
AcDbArc
 50
206.8339741047
 51
207.0334619758
  0
SPLINE
  5
3E5
100
AcDbEntity
  8
_1
100
AcDbSpline
 62
7
  6
CONTINUOUS
 70
0
 71
3
 72
9
 73
5
 74
0
 42
0.0000001
 43
0.0000001
 44
0.0000000001
 40
0.0
 40
0.0
 40
0.0
 40
0.0
 40
0.5029131744
 40
1.0
 40
1.0
 40
1.0
 40
1.0
 10
56.8554401523
 20
122.1093337758
 30
0.0
 10
56.8465237035
 20
122.142481547
 30
0.0
 10
56.8329573922
 20
122.2095943703
 30
0.0
 10
56.8283695021
 20
122.2779236413
 30
0.0
 10
56.828367542
 20
122.3118520184
 30
0.0
  0
SPLINE
  5
3E6
100
AcDbEntity
  8
_1
100
AcDbSpline
 62
7
  6
CONTINUOUS
 70
0
 71
3
 72
17
 73
13
 74
0
 42
0.0000001
 43
0.0000001
 44
0.0000000001
 40
0.0
 40
0.0
 40
0.0
 40
0.0
 40
0.0482175667
 40
0.0969880734
 40
0.1468315099
 40
0.1982120597
 40
0.3069231969
 40
0.4254291672
 40
0.554585894
 40
0.6941872461
 40
0.8432052249
 40
1.0
 40
1.0
 40
1.0
 40
1.0
 10
61.4003658635
 20
122.9340268602
 30
0.0
 10
61.4003639397
 20
122.9675748867
 30
0.0
 10
61.3958775238
 20
123.0351381434
 30
0.0
 10
61.375806349
 20
123.1355812981
 30
0.0
 10
61.3425010852
 20
123.2347737138
 30
0.0
 10
61.279667881
 20
123.3669655474
 30
0.0
 10
61.1669708046
 20
123.5265835715
 30
0.0
 10
60.9875330453
 20
123.699389116
 30
0.0
 10
60.7657009165
 20
123.8540070275
 30
0.0
 10
60.506521821
 20
123.9872402824
 30
0.0
 10
60.215813058
 20
124.0963044455
 30
0.0
 10
60.0095590753
 20
124.150200225
 30
0.0
 10
59.9028417718
 20
124.1728387307
 30
0.0
  0
SPLINE
  5
3E7
100
AcDbEntity
  8
_1
100
AcDbSpline
 62
7
  6
CONTINUOUS
 70
0
 71
3
 72
9
 73
5
 74
0
 42
0.0000001
 43
0.0000001
 44
0.0000000001
 40
0.0
 40
0.0
 40
0.0
 40
0.0
 40
0.4959137607
 40
1.0
 40
1.0
 40
1.0
 40
1.0
 10
61.4003656856
 20
122.3118520183
 30
0.0
 10
61.4003680036
 20
122.2717288766
 30
0.0
 10
61.3939257986
 20
122.1906968123
 30
0.0
 10
61.3749594784
 20
122.1116833535
 30
0.0
 10
61.3625621427
 20
122.0728288839
 30
0.0
  0
SPLINE
  5
3E8
100
AcDbEntity
  8
_1
100
AcDbSpline
 62
7
  6
CONTINUOUS
 70
0
 71
3
 72
15
 73
11
 74
0
 42
0.0000001
 43
0.0000001
 44
0.0000000001
 40
0.0
 40
0.0
 40
0.0
 40
0.0
 40
0.1472361302
 40
0.2894022246
 40
0.4255506844
 40
0.5549331489
 40
0.6770535244
 40
0.7917221098
 40
0.8991680906
 40
1.0
 40
1.0
 40
1.0
 40
1.0
 10
58.3251881614
 20
124.1726902486
 30
0.0
 10
58.245301023
 20
124.1557255804
 30
0.0
 10
58.0893762884
 20
124.1168732549
 30
0.0
 10
57.8650594502
 20
124.0426628429
 30
0.0
 10
57.6565946141
 20
123.9543093396
 30
0.0
 10
57.4666243088
 20
123.852906405
 30
0.0
 10
57.2975494439
 20
123.739687372
 30
0.0
 10
57.1514763344
 20
123.6159951539
 30
0.0
 10
57.0303533814
 20
123.4833163879
 30
0.0
 10
56.9654326802
 20
123.3870770684
 30
0.0
 10
56.9382086377
 20
123.3382208933
 30
0.0
  0
SPLINE
  5
3E9
100
AcDbEntity
  8
_1
100
AcDbSpline
 62
7
  6
CONTINUOUS
 70
0
 71
3
 72
11
 73
7
 74
0
 42
0.0000001
 43
0.0000001
 44
0.0000000001
 40
0.0
 40
0.0
 40
0.0
 40
0.0
 40
0.2327994453
 40
0.4731121618
 40
0.7273211448
 40
1.0
 40
1.0
 40
1.0
 40
1.0
 10
56.8283673641
 20
122.9340268602
 30
0.0
 10
56.8283706422
 20
122.8768620817
 30
0.0
 10
56.8416622291
 20
122.7602960269
 30
0.0
 10
56.9005353595
 20
122.5903457824
 30
0.0
 10
56.9967336426
 20
122.4271182186
 30
0.0
 10
57.0811806351
 20
122.3282411774
 30
0.0
 10
57.1282160783
 20
122.2805866975
 30
0.0
  0
SPLINE
  5
3EA
100
AcDbEntity
  8
_1
100
AcDbSpline
 62
7
  6
CONTINUOUS
 70
0
 71
3
 72
23
 73
19
 74
0
 42
0.0000001
 43
0.0000001
 44
0.0000000001
 40
0.0
 40
0.0
 40
0.0
 40
0.0
 40
0.0529425766
 40
0.1095998629
 40
0.1697563686
 40
0.2330238306
 40
0.2988807461
 40
0.3667060786
 40
0.4358087476
 40
0.5054544084
 40
0.574890879
 40
0.6433729398
 40
0.7101871654
 40
0.7746779347
 40
0.8362753914
 40
0.8945273542
 40
0.9491366542
 40
1.0
 40
1.0
 40
1.0
 40
1.0
 10
57.2101983016
 20
122.2037544694
 30
0.0
 10
57.2658793868
 20
122.1553601689
 30
0.0
 10
57.3883184461
 20
122.0632500674
 30
0.0
 10
57.5931758636
 20
121.944098863
 30
0.0
 10
57.8223693414
 20
121.8409246638
 30
0.0
 10
58.0722188736
 20
121.7553594395
 30
0.0
 10
58.3387640775
 20
121.6887322919
 30
0.0
 10
58.6177448822
 20
121.6421035245
 30
0.0
 10
58.9046949867
 20
121.616217273
 30
0.0
 10
59.1950107245
 20
121.6114891617
 30
0.0
 10
59.4840315982
 20
121.6279938935
 30
0.0
 10
59.7671195306
 20
121.6654665256
 30
0.0
 10
60.0397372444
 20
121.7233069126
 30
0.0
 10
60.2975265735
 20
121.8005965784
 30
0.0
 10
60.5363747326
 20
121.8961122905
 30
0.0
 10
60.7525058255
 20
122.0083857548
 30
0.0
 10
60.9424416252
 20
122.1356586375
 30
0.0
 10
61.0535442601
 20
122.2327230958
 30
0.0
 10
61.1031937057
 20
122.2833021117
 30
0.0
  0
SPLINE
  5
3EB
100
AcDbEntity
  8
_1
100
AcDbSpline
 62
7
  6
CONTINUOUS
 70
0
 71
3
 72
9
 73
5
 74
0
 42
0.0000001
 43
0.0000001
 44
0.0000000001
 40
0.0
 40
0.0
 40
0.0
 40
0.0
 40
0.2611360217
 40
1.0
 40
1.0
 40
1.0
 40
1.0
 10
61.1031937057
 20
122.2833021117
 30
0.0
 10
61.1221047596
 20
122.3025672311
 30
0.0
 10
61.1923326494
 20
122.3784197771
 30
0.0
 10
61.25334472
 20
122.4631099575
 30
0.0
 10
61.2905245899
 20
122.529832827
 30
0.0
  0
SPLINE
  5
3EC
100
AcDbEntity
  8
_1
100
AcDbSpline
 62
7
  6
CONTINUOUS
 70
0
 71
3
 72
17
 73
13
 74
0
 42
0.0000001
 43
0.0000001
 44
0.0000000001
 40
0.0
 40
0.0
 40
0.0
 40
0.0
 40
0.1067825455
 40
0.217208034
 40
0.3335016942
 40
0.393801298
 40
0.4557639567
 40
0.5194177863
 40
0.5844092651
 40
0.7181038563
 40
0.8571174478
 40
1.0
 40
1.0
 40
1.0
 40
1.0
 10
52.796058914
 20
138.337274567
 30
0.0
 10
52.7960589157
 20
138.3512328386
 30
0.0
 10
52.7925656517
 20
138.3797194925
 30
0.0
 10
52.7776880552
 20
138.4210195145
 30
0.0
 10
52.7585119122
 20
138.453437782
 30
0.0
 10
52.7405537037
 20
138.4789391991
 30
0.0
 10
52.7252081003
 20
138.4978117749
 30
0.0
 10
52.708360726
 20
138.5161805273
 30
0.0
 10
52.6841958466
 20
138.5405199076
 30
0.0
 10
52.6513817614
 20
138.5701169738
 30
0.0
 10
52.6083484232
 20
138.603343204
 30
0.0
 10
52.5779947536
 20
138.6242444865
 30
0.0
 10
52.5626210537
 20
138.6348503919
 30
0.0
  0
SPLINE
  5
3ED
100
AcDbEntity
  8
_1
100
AcDbSpline
 62
7
  6
CONTINUOUS
 70
0
 71
3
 72
13
 73
9
 74
0
 42
0.0000001
 43
0.0000001
 44
0.0000000001
 40
0.0
 40
0.0
 40
0.0
 40
0.0
 40
0.2164828937
 40
0.4485118551
 40
0.5752879423
 40
0.7098550706
 40
0.8510522383
 40
1.0
 40
1.0
 40
1.0
 40
1.0
 10
52.5523596083
 20
138.3407270154
 30
0.0
 10
52.5523596056
 20
138.3278754001
 30
0.0
 10
52.5481274686
 20
138.3010299916
 30
0.0
 10
52.531595979
 20
138.2704374254
 30
0.0
 10
52.5123263001
 20
138.2482906242
 30
0.0
 10
52.4945763494
 20
138.232236929
 30
0.0
 10
52.4745845197
 20
138.216798599
 30
0.0
 10
52.4597535649
 20
138.2079911038
 30
0.0
 10
52.4521781735
 20
138.2034303201
 30
0.0
  0
SPLINE
  5
3EE
100
AcDbEntity
  8
_1
100
AcDbSpline
 62
7
  6
CONTINUOUS
 70
0
 71
3
 72
21
 73
17
 74
0
 42
0.0000001
 43
0.0000001
 44
0.0000000001
 40
0.0
 40
0.0
 40
0.0
 40
0.0
 40
0.042825075
 40
0.0874186192
 40
0.1352145932
 40
0.1871383637
 40
0.2435991712
 40
0.3045721258
 40
0.3696879269
 40
0.4383138653
 40
0.5825455922
 40
0.7295839967
 40
0.8015942635
 40
0.8712111014
 40
0.9376033359
 40
1.0
 40
1.0
 40
1.0
 40
1.0
 10
51.3077102678
 20
141.7325300519
 30
0.0
 10
51.3077160442
 20
141.6755960913
 30
0.0
 10
51.2924729219
 20
141.5588843241
 30
0.0
 10
51.2255556872
 20
141.3903543217
 30
0.0
 10
51.1169348092
 20
141.2305934891
 30
0.0
 10
50.9697134286
 20
141.0827678593
 30
0.0
 10
50.787299815
 20
140.94946837
 30
0.0
 10
50.5735688434
 20
140.8332148296
 30
0.0
 10
50.3329782242
 20
140.7362913507
 30
0.0
 10
49.9773604376
 20
140.6338422474
 30
0.0
 10
49.5008927835
 20
140.5670051299
 30
0.0
 10
49.0156975156
 20
140.5803430012
 30
0.0
 10
48.636230594
 20
140.6404765477
 30
0.0
 10
48.3677537664
 20
140.7086227474
 30
0.0
 10
48.119359486
 20
140.7986545831
 30
0.0
 10
47.965349908
 20
140.8745657053
 30
0.0
 10
47.8935096761
 20
140.9160417442
 30
0.0
  0
SPLINE
  5
3EF
100
AcDbEntity
  8
_1
100
AcDbSpline
 62
7
  6
CONTINUOUS
 70
0
 71
3
 72
21
 73
17
 74
0
 42
0.0000001
 43
0.0000001
 44
0.0000000001
 40
0.0
 40
0.0
 40
0.0
 40
0.0
 40
0.042825075
 40
0.0874186192
 40
0.1352145932
 40
0.1871383637
 40
0.2435991712
 40
0.3045721258
 40
0.3696879269
 40
0.4383138653
 40
0.5825455922
 40
0.7295839967
 40
0.8015942635
 40
0.8712111014
 40
0.9376033359
 40
1.0
 40
1.0
 40
1.0
 40
1.0
 10
54.8432294539
 20
143.7737508213
 30
0.0
 10
54.8432352303
 20
143.7168168607
 30
0.0
 10
54.827992108
 20
143.6001050935
 30
0.0
 10
54.7610748733
 20
143.4315750911
 30
0.0
 10
54.6524539953
 20
143.2718142585
 30
0.0
 10
54.5052326147
 20
143.1239886287
 30
0.0
 10
54.3228190011
 20
142.9906891393
 30
0.0
 10
54.1090880294
 20
142.874435599
 30
0.0
 10
53.8684974103
 20
142.7775121201
 30
0.0
 10
53.5128796236
 20
142.6750630167
 30
0.0
 10
53.0364119696
 20
142.6082258993
 30
0.0
 10
52.5512167017
 20
142.6215637705
 30
0.0
 10
52.1717497801
 20
142.6816973171
 30
0.0
 10
51.9032729524
 20
142.7498435167
 30
0.0
 10
51.654878672
 20
142.8398753524
 30
0.0
 10
51.500869094
 20
142.9157864746
 30
0.0
 10
51.4290288621
 20
142.9572625135
 30
0.0
  0
SPLINE
  5
3F0
100
AcDbEntity
  8
_1
100
AcDbSpline
 62
7
  6
CONTINUOUS
 70
0
 71
3
 72
12
 73
8
 74
0
 42
0.0000001
 43
0.0000001
 44
0.0000000001
 40
0.0
 40
0.0
 40
0.0
 40
0.0
 40
0.123463806
 40
0.2475006169
 40
0.4969571754
 40
0.748104995
 40
1.0
 40
1.0
 40
1.0
 40
1.0
 10
57.0678658713
 20
140.8931763382
 30
0.0
 10
57.0503748557
 20
140.8994204657
 30
0.0
 10
57.015313057
 20
140.9119433876
 30
0.0
 10
56.9446133901
 20
140.936234252
 30
0.0
 10
56.8554614552
 20
140.9659252796
 30
0.0
 10
56.7474920627
 20
140.9999309295
 30
0.0
 10
56.6752278403
 20
141.0223784904
 30
0.0
 10
56.6390160102
 20
141.0335351467
 30
0.0
  0
SPLINE
  5
3F1
100
AcDbEntity
  8
_1
100
AcDbSpline
 62
7
  6
CONTINUOUS
 70
0
 71
3
 72
13
 73
9
 74
0
 42
0.0000001
 43
0.0000001
 44
0.0000000001
 40
0.0
 40
0.0
 40
0.0
 40
0.0
 40
0.2893934892
 40
0.5483059712
 40
0.6677422531
 40
0.7817728565
 40
0.8919067518
 40
1.0
 40
1.0
 40
1.0
 40
1.0
 10
51.4290288621
 20
142.9572625135
 30
0.0
 10
51.3412427228
 20
143.0079447181
 30
0.0
 10
51.1820547778
 20
143.1174848684
 30
0.0
 10
51.0192554199
 20
143.2887465604
 30
0.0
 10
50.9276234039
 20
143.4354764928
 30
0.0
 10
50.8791662989
 20
143.5461648062
 30
0.0
 10
50.8498179002
 20
143.6592966626
 30
0.0
 10
50.8432474605
 20
143.735888898
 30
0.0
 10
50.8432436192
 20
143.7737508213
 30
0.0
  0
SPLINE
  5
3F2
100
AcDbEntity
  8
_1
100
AcDbSpline
 62
7
  6
CONTINUOUS
 70
0
 71
3
 72
13
 73
9
 74
0
 42
0.0000001
 43
0.0000001
 44
0.0000000001
 40
0.0
 40
0.0
 40
0.0
 40
0.0
 40
0.2893934892
 40
0.5483059712
 40
0.6677422531
 40
0.7817728565
 40
0.8919067518
 40
1.0
 40
1.0
 40
1.0
 40
1.0
 10
47.8935096761
 20
140.9160417442
 30
0.0
 10
47.8057235368
 20
140.9667239487
 30
0.0
 10
47.6465355917
 20
141.0762640991
 30
0.0
 10
47.4837362339
 20
141.247525791
 30
0.0
 10
47.3921042178
 20
141.3942557234
 30
0.0
 10
47.3436471128
 20
141.5049440368
 30
0.0
 10
47.3142987141
 20
141.6180758933
 30
0.0
 10
47.3077282745
 20
141.6946681287
 30
0.0
 10
47.3077244331
 20
141.7325300519
 30
0.0
  0
SPLINE
  5
3F3
100
AcDbEntity
  8
_1
100
AcDbSpline
 62
7
  6
CONTINUOUS
 70
0
 71
3
 72
14
 73
10
 74
0
 42
0.0000001
 43
0.0000001
 44
0.0000000001
 40
0.0
 40
0.0
 40
0.0
 40
0.0
 40
0.1345250793
 40
0.2652059248
 40
0.3917946805
 40
0.5159414492
 40
0.63833075
 40
0.7594937564
 40
1.0
 40
1.0
 40
1.0
 40
1.0
 10
56.0214540966
 20
140.0680571139
 30
0.0
 10
56.0147324392
 20
140.0779661254
 30
0.0
 10
56.001427579
 20
140.0974704039
 30
0.0
 10
55.9842538229
 20
140.1279143045
 30
0.0
 10
55.971388201
 20
140.1593995369
 30
0.0
 10
55.9611596336
 20
140.1910176544
 30
0.0
 10
55.9533632803
 20
140.2228400857
 30
0.0
 10
55.9464102379
 20
140.2653907591
 30
0.0
 10
55.9444743505
 20
140.2976390464
 30
0.0
 10
55.9444743913
 20
140.3190458098
 30
0.0
  0
SPLINE
  5
3F4
100
AcDbEntity
  8
_1
100
AcDbSpline
 62
7
  6
CONTINUOUS
 70
0
 71
3
 72
14
 73
10
 74
0
 42
0.0000001
 43
0.0000001
 44
0.0000000001
 40
0.0
 40
0.0
 40
0.0
 40
0.0
 40
0.1326134033
 40
0.2614671762
 40
0.3878126106
 40
0.5124272449
 40
0.7578589752
 40
0.8792223407
 40
1.0
 40
1.0
 40
1.0
 40
1.0
 10
55.8052012637
 20
140.6540062645
 30
0.0
 10
55.7980001608
 20
140.6423177501
 30
0.0
 10
55.7837328617
 20
140.6192727046
 30
0.0
 10
55.766710739
 20
140.5828346886
 30
0.0
 10
55.7524230126
 20
140.5461835201
 30
0.0
 10
55.7366482021
 20
140.4972549927
 30
0.0
 10
55.7249880607
 20
140.4475913535
 30
0.0
 10
55.7181049973
 20
140.3975693813
 30
0.0
 10
55.716447463
 20
140.3725050035
 30
0.0
 10
55.7164474431
 20
140.3600015881
 30
0.0
  0
SPLINE
  5
3F5
100
AcDbEntity
  8
_1
100
AcDbSpline
 62
7
  6
CONTINUOUS
 70
0
 71
3
 72
22
 73
18
 74
0
 42
0.0000001
 43
0.0000001
 44
0.0000000001
 40
0.0
 40
0.0
 40
0.0
 40
0.0
 40
0.0562305681
 40
0.1149979084
 40
0.1764663047
 40
0.2400490117
 40
0.3054035626
 40
0.3719092583
 40
0.4390026808
 40
0.5061176705
 40
0.6386228837
 40
0.7032265188
 40
0.7661816595
 40
0.8273867651
 40
0.8868183793
 40
0.9444381874
 40
1.0
 40
1.0
 40
1.0
 40
1.0
 10
52.4521781735
 20
138.2034303201
 30
0.0
 10
52.4429749284
 20
138.1984491524
 30
0.0
 10
52.4241255753
 20
138.1882812303
 30
0.0
 10
52.393815557
 20
138.1754964356
 30
0.0
 10
52.3612367266
 20
138.1649584686
 30
0.0
 10
52.3268065538
 20
138.1564459255
 30
0.0
 10
52.2909043358
 20
138.1504123502
 30
0.0
 10
52.2540180676
 20
138.1468469816
 30
0.0
 10
52.2166568942
 20
138.1458509782
 30
0.0
 10
52.1670108564
 20
138.1467935721
 30
0.0
 10
52.1180175345
 20
138.1523956964
 30
0.0
 10
52.0705310787
 20
138.1618831938
 30
0.0
 10
52.0366426515
 20
138.1712343712
 30
0.0
 10
52.0042139283
 20
138.1820562135
 30
0.0
 10
51.9734497388
 20
138.1945019696
 30
0.0
 10
51.9442081298
 20
138.2078705013
 30
0.0
 10
51.9258674717
 20
138.2182597738
 30
0.0
 10
51.9168632255
 20
138.2233436627
 30
0.0
  0
SPLINE
  5
3F6
100
AcDbEntity
  8
_1
100
AcDbSpline
 62
7
  6
CONTINUOUS
 70
0
 71
3
 72
23
 73
19
 74
0
 42
0.0000001
 43
0.0000001
 44
0.0000000001
 40
0.0
 40
0.0
 40
0.0
 40
0.0
 40
0.0789884538
 40
0.1168020358
 40
0.1532389357
 40
0.2231328381
 40
0.2899726062
 40
0.3541900104
 40
0.4161583409
 40
0.4764346239
 40
0.5357331061
 40
0.5943777317
 40
0.6526731003
 40
0.7108211707
 40
0.7687821269
 40
0.8266525992
 40
0.8844737077
 40
1.0
 40
1.0
 40
1.0
 40
1.0
 10
51.9168632255
 20
138.2233436627
 30
0.0
 10
51.902812097
 20
138.2322230687
 30
0.0
 10
51.8819729447
 20
138.2453074085
 30
0.0
 10
51.8563263663
 20
138.2649068001
 30
0.0
 10
51.8337192942
 20
138.2851648978
 30
0.0
 10
51.8087037665
 20
138.3117467102
 30
0.0
 10
51.7824590271
 20
138.3449762663
 30
0.0
 10
51.7606232241
 20
138.3793151804
 30
0.0
 10
51.743129219
 20
138.4145243278
 30
0.0
 10
51.72984513
 20
138.4503984283
 30
0.0
 10
51.7194021792
 20
138.4864457489
 30
0.0
 10
51.7115002865
 20
138.522706672
 30
0.0
 10
51.7055378042
 20
138.5590686561
 30
0.0
 10
51.6999628445
 20
138.5953488795
 30
0.0
 10
51.6961233785
 20
138.6317690655
 30
0.0
 10
51.693195583
 20
138.6681930024
 30
0.0
 10
51.6898204053
 20
138.7167355527
 30
0.0
 10
51.6887153971
 20
138.7532059832
 30
0.0
 10
51.6880071754
 20
138.7775059708
 30
0.0
  0
SPLINE
  5
3F7
100
AcDbEntity
  8
_1
100
AcDbSpline
 62
7
  6
CONTINUOUS
 70
0
 71
3
 72
22
 73
18
 74
0
 42
0.0000001
 43
0.0000001
 44
0.0000000001
 40
0.0
 40
0.0
 40
0.0
 40
0.0
 40
0.0566931963
 40
0.1134318603
 40
0.1702864354
 40
0.2272799799
 40
0.2844902758
 40
0.3420135517
 40
0.4000290058
 40
0.4588169835
 40
0.5186403412
 40
0.580143568
 40
0.7084030171
 40
0.7759181129
 40
0.8467835746
 40
0.9210182058
 40
1.0
 40
1.0
 40
1.0
 40
1.0
 10
51.6880071754
 20
138.7775059708
 30
0.0
 10
51.6876226179
 20
138.7895922545
 30
0.0
 10
51.6868712048
 20
138.8137760403
 30
0.0
 10
51.6846470136
 20
138.8500384399
 30
0.0
 10
51.6809746606
 20
138.8862447861
 30
0.0
 10
51.6762741221
 20
138.9224334226
 30
0.0
 10
51.6700928721
 20
138.9585471429
 30
0.0
 10
51.6624286925
 20
138.9945993614
 30
0.0
 10
51.6527375826
 20
139.0305255963
 30
0.0
 10
51.6404219559
 20
139.0661531478
 30
0.0
 10
51.6255362566
 20
139.1016268403
 30
0.0
 10
51.5998960567
 20
139.1483590502
 30
0.0
 10
51.568227197
 20
139.1934292517
 30
0.0
 10
51.5305296824
 20
139.2361267872
 30
0.0
 10
51.4968792441
 20
139.2666088036
 30
0.0
 10
51.4593232993
 20
139.2963336676
 30
0.0
 10
51.430984739
 20
139.3127644109
 30
0.0
 10
51.4163658172
 20
139.3211364008
 30
0.0
  0
SPLINE
  5
3F8
100
AcDbEntity
  8
_1
100
AcDbSpline
 62
7
  6
CONTINUOUS
 70
0
 71
3
 72
12
 73
8
 74
0
 42
0.0000001
 43
0.0000001
 44
0.0000000001
 40
0.0
 40
0.0
 40
0.0
 40
0.0
 40
0.123463806
 40
0.2475006169
 40
0.4969571754
 40
0.748104995
 40
1.0
 40
1.0
 40
1.0
 40
1.0
 10
53.6130169127
 20
138.8985302684
 30
0.0
 10
53.5955258971
 20
138.9047743959
 30
0.0
 10
53.5604640985
 20
138.9172973178
 30
0.0
 10
53.4897644315
 20
138.9415881822
 30
0.0
 10
53.4006124967
 20
138.9712792098
 30
0.0
 10
53.2926431042
 20
139.0052848597
 30
0.0
 10
53.2203788817
 20
139.0277324207
 30
0.0
 10
53.1841670517
 20
139.0388890769
 30
0.0
  0
SPLINE
  5
3F9
100
AcDbEntity
  8
_1
100
AcDbSpline
 62
7
  6
CONTINUOUS
 70
0
 71
3
 72
11
 73
7
 74
0
 42
0.0000001
 43
0.0000001
 44
0.0000000001
 40
0.0
 40
0.0
 40
0.0
 40
0.0
 40
0.2560881014
 40
0.5078484062
 40
0.7552712802
 40
1.0
 40
1.0
 40
1.0
 40
1.0
 10
55.9962437737
 20
140.5022319924
 30
0.0
 10
55.9900371688
 20
140.4877953324
 30
0.0
 10
55.977660745
 20
140.4591862882
 30
0.0
 10
55.9626243342
 20
140.4152636844
 30
0.0
 10
55.9524654159
 20
140.3706903089
 30
0.0
 10
55.9482173474
 20
140.3407501917
 30
0.0
 10
55.9467811412
 20
140.3258017749
 30
0.0
  0
SPLINE
  5
3FA
100
AcDbEntity
  8
_1
100
AcDbSpline
 62
7
  6
CONTINUOUS
 70
0
 71
3
 72
13
 73
9
 74
0
 42
0.0000001
 43
0.0000001
 44
0.0000000001
 40
0.0
 40
0.0
 40
0.0
 40
0.0
 40
0.2893934892
 40
0.5483059712
 40
0.6677422531
 40
0.7817728565
 40
0.8919067518
 40
1.0
 40
1.0
 40
1.0
 40
1.0
 10
54.257444211
 20
144.590239129
 30
0.0
 10
54.3452303502
 20
144.5395569245
 30
0.0
 10
54.5044182953
 20
144.4300167741
 30
0.0
 10
54.6672176532
 20
144.2587550822
 30
0.0
 10
54.7588496692
 20
144.1120251498
 30
0.0
 10
54.8073067742
 20
144.0013368364
 30
0.0
 10
54.8366551729
 20
143.8882049799
 30
0.0
 10
54.8432256125
 20
143.8116127445
 30
0.0
 10
54.8432294539
 20
143.7737508213
 30
0.0
  0
SPLINE
  5
3FB
100
AcDbEntity
  8
_1
100
AcDbSpline
 62
7
  6
CONTINUOUS
 70
0
 71
3
 72
13
 73
9
 74
0
 42
0.0000001
 43
0.0000001
 44
0.0000000001
 40
0.0
 40
0.0
 40
0.0
 40
0.0
 40
0.2893934892
 40
0.5483059712
 40
0.6677422531
 40
0.7817728565
 40
0.8919067518
 40
1.0
 40
1.0
 40
1.0
 40
1.0
 10
50.7219250249
 20
142.5490183597
 30
0.0
 10
50.8097111642
 20
142.4983361551
 30
0.0
 10
50.9688991092
 20
142.3887960048
 30
0.0
 10
51.1316984671
 20
142.2175343128
 30
0.0
 10
51.2233304831
 20
142.0708043804
 30
0.0
 10
51.2717875881
 20
141.960116067
 30
0.0
 10
51.3011359869
 20
141.8469842106
 30
0.0
 10
51.3077064265
 20
141.7703919752
 30
0.0
 10
51.3077102678
 20
141.7325300519
 30
0.0
  0
SPLINE
  5
3FC
100
AcDbEntity
  8
_1
100
AcDbSpline
 62
7
  6
CONTINUOUS
 70
0
 71
3
 72
15
 73
11
 74
0
 42
0.0000001
 43
0.0000001
 44
0.0000000001
 40
0.0
 40
0.0
 40
0.0
 40
0.0
 40
0.1066861668
 40
0.2155736339
 40
0.328812686
 40
0.4488818141
 40
0.5761769026
 40
0.7107804096
 40
0.8525358004
 40
1.0
 40
1.0
 40
1.0
 40
1.0
 10
52.796058914
 20
138.2957964287
 30
0.0
 10
52.7960589242
 20
138.2847409255
 30
0.0
 10
52.7939146925
 20
138.2623627532
 30
0.0
 10
52.7849801001
 20
138.2293350334
 30
0.0
 10
52.7700209402
 20
138.1969685422
 30
0.0
 10
52.7484065116
 20
138.1662932682
 30
0.0
 10
52.7216082172
 20
138.1370522927
 30
0.0
 10
52.6900780681
 20
138.1094526968
 30
0.0
 10
52.6544004237
 20
138.0837370121
 30
0.0
 10
52.6287497978
 20
138.0682107453
 30
0.0
 10
52.6156920409
 20
138.0602728888
 30
0.0
  0
SPLINE
  5
3FD
100
AcDbEntity
  8
_1
100
AcDbSpline
 62
7
  6
CONTINUOUS
 70
0
 71
3
 72
15
 73
11
 74
0
 42
0.0000001
 43
0.0000001
 44
0.0000000001
 40
0.0
 40
0.0
 40
0.0
 40
0.0
 40
0.1061804515
 40
0.2177172628
 40
0.3353234946
 40
0.4588181958
 40
0.5878124708
 40
0.7212011646
 40
0.8585940577
 40
1.0
 40
1.0
 40
1.0
 40
1.0
 10
52.5470393585
 20
138.3362146728
 30
0.0
 10
52.5445378269
 20
138.3447163691
 30
0.0
 10
52.5372007363
 20
138.3614823422
 30
0.0
 10
52.5225610088
 20
138.3854104424
 30
0.0
 10
52.5037949559
 20
138.4081871791
 30
0.0
 10
52.4819260973
 20
138.4300557209
 30
0.0
 10
52.4571911941
 20
138.450730298
 30
0.0
 10
52.4304546705
 20
138.4707082501
 30
0.0
 10
52.401859407
 20
138.4898753758
 30
0.0
 10
52.3817568541
 20
138.5016088873
 30
0.0
 10
52.3715799577
 20
138.5075855144
 30
0.0
  0
SPLINE
  5
3FE
100
AcDbEntity
  8
_1
100
AcDbSpline
 62
7
  6
CONTINUOUS
 70
0
 71
3
 72
21
 73
17
 74
0
 42
0.0000001
 43
0.0000001
 44
0.0000000001
 40
0.0
 40
0.0
 40
0.0
 40
0.0
 40
0.042825075
 40
0.0874186192
 40
0.1352145932
 40
0.1871383637
 40
0.2435991712
 40
0.3045721258
 40
0.3696879269
 40
0.4383138653
 40
0.5825455922
 40
0.7295839967
 40
0.8015942635
 40
0.8712111014
 40
0.9376033359
 40
1.0
 40
1.0
 40
1.0
 40
1.0
 10
47.3077244331
 20
141.7325300519
 30
0.0
 10
47.3077186568
 20
141.7894640125
 30
0.0
 10
47.322961779
 20
141.9061757797
 30
0.0
 10
47.3898790137
 20
142.0747057821
 30
0.0
 10
47.4984998917
 20
142.2344666147
 30
0.0
 10
47.6457212724
 20
142.3822922445
 30
0.0
 10
47.8281348859
 20
142.5155917339
 30
0.0
 10
48.0418658576
 20
142.6318452742
 30
0.0
 10
48.2824564768
 20
142.7287687531
 30
0.0
 10
48.6380742634
 20
142.8312178565
 30
0.0
 10
49.1145419175
 20
142.8980549739
 30
0.0
 10
49.5997371853
 20
142.8847171027
 30
0.0
 10
49.979204107
 20
142.8245835561
 30
0.0
 10
50.2476809346
 20
142.7564373565
 30
0.0
 10
50.496075215
 20
142.6664055208
 30
0.0
 10
50.650084793
 20
142.5904943986
 30
0.0
 10
50.7219250249
 20
142.5490183597
 30
0.0
  0
SPLINE
  5
3FF
100
AcDbEntity
  8
_1
100
AcDbSpline
 62
7
  6
CONTINUOUS
 70
0
 71
3
 72
21
 73
17
 74
0
 42
0.0000001
 43
0.0000001
 44
0.0000000001
 40
0.0
 40
0.0
 40
0.0
 40
0.0
 40
0.042825075
 40
0.0874186192
 40
0.1352145932
 40
0.1871383637
 40
0.2435991712
 40
0.3045721258
 40
0.3696879269
 40
0.4383138653
 40
0.5825455922
 40
0.7295839967
 40
0.8015942635
 40
0.8712111014
 40
0.9376033359
 40
1.0
 40
1.0
 40
1.0
 40
1.0
 10
50.8432436192
 20
143.7737508213
 30
0.0
 10
50.8432378428
 20
143.8306847819
 30
0.0
 10
50.8584809651
 20
143.9473965491
 30
0.0
 10
50.9253981998
 20
144.1159265515
 30
0.0
 10
51.0340190778
 20
144.2756873841
 30
0.0
 10
51.1812404584
 20
144.4235130139
 30
0.0
 10
51.363654072
 20
144.5568125032
 30
0.0
 10
51.5773850437
 20
144.6730660436
 30
0.0
 10
51.8179756628
 20
144.7699895225
 30
0.0
 10
52.1735934495
 20
144.8724386258
 30
0.0
 10
52.6500611035
 20
144.9392757433
 30
0.0
 10
53.1352563714
 20
144.925937872
 30
0.0
 10
53.514723293
 20
144.8658043255
 30
0.0
 10
53.7832001207
 20
144.7976581258
 30
0.0
 10
54.031594401
 20
144.7076262901
 30
0.0
 10
54.1856039791
 20
144.6317151679
 30
0.0
 10
54.257444211
 20
144.590239129
 30
0.0
  0
SPLINE
  5
400
100
AcDbEntity
  8
_1
100
AcDbSpline
 62
7
  6
CONTINUOUS
 70
0
 71
3
 72
19
 73
15
 74
0
 42
0.0000001
 43
0.0000001
 44
0.0000000001
 40
0.0
 40
0.0
 40
0.0
 40
0.0
 40
0.1325458889
 40
0.1972456729
 40
0.2608175813
 40
0.3856559709
 40
0.4473711917
 40
0.5090267817
 40
0.5704854857
 40
0.6319084502
 40
0.6932936009
 40
0.754641943
 40
0.8773576424
 40
1.0
 40
1.0
 40
1.0
 40
1.0
 10
51.3739138703
 20
139.0760331687
 30
0.0
 10
51.3811842214
 20
139.0629266369
 30
0.0
 10
51.3920620728
 20
139.0434218118
 30
0.0
 10
51.4038151894
 20
139.0163339748
 30
0.0
 10
51.4130467189
 20
138.9892268608
 30
0.0
 10
51.4198201482
 20
138.9616638525
 30
0.0
 10
51.4235716019
 20
138.9338444657
 30
0.0
 10
51.4267991332
 20
138.9131883811
 30
0.0
 10
51.4286299312
 20
138.8923933002
 30
0.0
 10
51.4305560772
 20
138.8716483928
 30
0.0
 10
51.4322636202
 20
138.8508928067
 30
0.0
 10
51.4339932455
 20
138.8231914231
 30
0.0
 10
51.4367319907
 20
138.7886159227
 30
0.0
 10
51.438199399
 20
138.7609081518
 30
0.0
 10
51.4389234928
 20
138.7470589676
 30
0.0
  0
SPLINE
  5
401
100
AcDbEntity
  8
_1
100
AcDbSpline
 62
7
  6
CONTINUOUS
 70
0
 71
3
 72
19
 73
15
 74
0
 42
0.0000001
 43
0.0000001
 44
0.0000000001
 40
0.0
 40
0.0
 40
0.0
 40
0.0
 40
0.1137613174
 40
0.2278329914
 40
0.342607446
 40
0.4004218913
 40
0.4587093643
 40
0.5178528145
 40
0.5784495352
 40
0.6411875207
 40
0.7063024318
 40
0.8462406274
 40
0.9214024571
 40
1.0
 40
1.0
 40
1.0
 40
1.0
 10
51.4389234928
 20
138.7470589676
 30
0.0
 10
51.4408857737
 20
138.719528425
 30
0.0
 10
51.4449080311
 20
138.6643922035
 30
0.0
 10
51.4546712408
 20
138.5818032453
 30
0.0
 10
51.467185191
 20
138.5133306091
 30
0.0
 10
51.4801343709
 20
138.4588224329
 30
0.0
 10
51.4918208188
 20
138.4179188852
 30
0.0
 10
51.5065513515
 20
138.3772686714
 30
0.0
 10
51.5254686356
 20
138.3371429035
 30
0.0
 10
51.5495745178
 20
138.2982057807
 30
0.0
 10
51.5884254713
 20
138.2460023734
 30
0.0
 10
51.6382922821
 20
138.1990197896
 30
0.0
 10
51.6954468735
 20
138.1563939061
 30
0.0
 10
51.7273999288
 20
138.1370596757
 30
0.0
 10
51.7437323649
 20
138.1272168627
 30
0.0
  0
SPLINE
  5
402
100
AcDbEntity
  8
_1
100
AcDbSpline
 62
7
  6
CONTINUOUS
 70
0
 71
3
 72
21
 73
17
 74
0
 42
0.0000001
 43
0.0000001
 44
0.0000000001
 40
0.0
 40
0.0
 40
0.0
 40
0.0
 40
0.0559836668
 40
0.1139973419
 40
0.1738096446
 40
0.2357310192
 40
0.2991557214
 40
0.3640646389
 40
0.4299572292
 40
0.4966426491
 40
0.6310014987
 40
0.7622756887
 40
0.8252732476
 40
0.885808466
 40
0.9438695734
 40
1.0
 40
1.0
 40
1.0
 40
1.0
 10
51.7437323649
 20
138.1272168627
 30
0.0
 10
51.758597478
 20
138.1189807319
 30
0.0
 10
51.7889057069
 20
138.1022297564
 30
0.0
 10
51.837070131
 20
138.0805971631
 30
0.0
 10
51.8877807216
 20
138.0603645402
 30
0.0
 10
51.9415219317
 20
138.0437615793
 30
0.0
 10
51.9973900548
 20
138.0290289483
 30
0.0
 10
52.0553038301
 20
138.0177984491
 30
0.0
 10
52.1146051437
 20
138.0088751239
 30
0.0
 10
52.1952548467
 20
138.0008466439
 30
0.0
 10
52.2965255134
 20
137.9998156037
 30
0.0
 10
52.3955005821
 20
138.0155519068
 30
0.0
 10
52.4701878325
 20
138.0359014594
 30
0.0
 10
52.5219762953
 20
138.0549794529
 30
0.0
 10
52.5702820768
 20
138.0770030822
 30
0.0
 10
52.6007287175
 20
138.09360133
 30
0.0
 10
52.6156920409
 20
138.1017512116
 30
0.0
  0
SPLINE
  5
403
100
AcDbEntity
  8
_1
100
AcDbSpline
 62
7
  6
CONTINUOUS
 70
0
 71
3
 72
15
 73
11
 74
0
 42
0.0000001
 43
0.0000001
 44
0.0000000001
 40
0.0
 40
0.0
 40
0.0
 40
0.0
 40
0.1474641856
 40
0.2892195689
 40
0.4238230745
 40
0.5511181675
 40
0.6711873057
 40
0.7844263682
 40
0.8933138382
 40
1.0
 40
1.0
 40
1.0
 40
1.0
 10
52.6156920409
 20
138.1017512115
 30
0.0
 10
52.6287497889
 20
138.1096890626
 30
0.0
 10
52.6544003976
 20
138.125215319
 30
0.0
 10
52.6900780215
 20
138.1509309836
 30
0.0
 10
52.721608156
 20
138.1785305576
 30
0.0
 10
52.7484064438
 20
138.207771509
 30
0.0
 10
52.7700208745
 20
138.2384467568
 30
0.0
 10
52.7849800507
 20
138.2708132197
 30
0.0
 10
52.7939146608
 20
138.3038409145
 30
0.0
 10
52.7960589127
 20
138.3262190709
 30
0.0
 10
52.796058914
 20
138.337274567
 30
0.0
  0
SPLINE
  5
404
100
AcDbEntity
  8
_1
100
AcDbSpline
 62
7
  6
CONTINUOUS
 70
0
 71
3
 72
17
 73
13
 74
0
 42
0.0000001
 43
0.0000001
 44
0.0000000001
 40
0.0
 40
0.0
 40
0.0
 40
0.0
 40
0.1452916191
 40
0.2854853479
 40
0.4209835861
 40
0.5501287204
 40
0.6723351898
 40
0.7305492724
 40
0.7872059342
 40
0.8422247953
 40
0.8956512656
 40
1.0
 40
1.0
 40
1.0
 40
1.0
 10
52.3715799577
 20
138.5490638372
 30
0.0
 10
52.3835995526
 20
138.5420050411
 30
0.0
 10
52.4072690552
 20
138.5281858933
 30
0.0
 10
52.4403781792
 20
138.5050068882
 30
0.0
 10
52.4711443796
 20
138.4812446866
 30
0.0
 10
52.498230277
 20
138.4557988352
 30
0.0
 10
52.5177485428
 20
138.4332713397
 30
0.0
 10
52.5302879397
 20
138.4142631355
 30
0.0
 10
52.5382716707
 20
138.400041241
 30
0.0
 10
52.5448017883
 20
138.3855649503
 30
0.0
 10
52.5505746109
 20
138.3659389765
 30
0.0
 10
52.5523596104
 20
138.3507380731
 30
0.0
 10
52.5523596083
 20
138.3407270154
 30
0.0
  0
SPLINE
  5
405
100
AcDbEntity
  8
_1
100
AcDbSpline
 62
7
  6
CONTINUOUS
 70
0
 71
3
 72
11
 73
7
 74
0
 42
0.0000001
 43
0.0000001
 44
0.0000000001
 40
0.0
 40
0.0
 40
0.0
 40
0.0
 40
0.2549580884
 40
0.5069397081
 40
0.7549851701
 40
1.0
 40
1.0
 40
1.0
 40
1.0
 10
56.987197497
 20
140.9210481858
 30
0.0
 10
56.9735456693
 20
140.9333792485
 30
0.0
 10
56.9467723463
 20
140.9583069094
 30
0.0
 10
56.9075797371
 20
140.9961508659
 30
0.0
 10
56.8702107888
 20
141.034813565
 30
0.0
 10
56.8462737286
 20
141.0611353745
 30
0.0
 10
56.8343688378
 20
141.0742051394
 30
0.0
  0
SPLINE
  5
406
100
AcDbEntity
  8
_1
100
AcDbSpline
 62
7
  6
CONTINUOUS
 70
0
 71
3
 72
11
 73
7
 74
0
 42
0.0000001
 43
0.0000001
 44
0.0000000001
 40
0.0
 40
0.0
 40
0.0
 40
0.0
 40
0.2498641756
 40
0.5091071002
 40
0.7636020138
 40
1.0
 40
1.0
 40
1.0
 40
1.0
 10
53.768038841
 20
143.0012701344
 30
0.0
 10
53.5912938179
 20
143.0544854743
 30
0.0
 10
53.2198834277
 20
143.1273140711
 30
0.0
 10
52.6535989708
 20
143.1425105668
 30
0.0
 10
52.1022103775
 20
143.0666854617
 30
0.0
 10
51.7547318709
 20
142.9531842677
 30
0.0
 10
51.596106589
 20
142.8801415162
 30
0.0
  0
SPLINE
  5
407
100
AcDbEntity
  8
_1
100
AcDbSpline
 62
7
  6
CONTINUOUS
 70
0
 71
3
 72
11
 73
7
 74
0
 42
0.0000001
 43
0.0000001
 44
0.0000000001
 40
0.0
 40
0.0
 40
0.0
 40
0.0
 40
0.2549580884
 40
0.5069397081
 40
0.7549851701
 40
1.0
 40
1.0
 40
1.0
 40
1.0
 10
53.5323485384
 20
138.926402116
 30
0.0
 10
53.5186967108
 20
138.9387331787
 30
0.0
 10
53.4919233878
 20
138.9636608396
 30
0.0
 10
53.4527307786
 20
139.0015047961
 30
0.0
 10
53.4153618302
 20
139.0401674952
 30
0.0
 10
53.39142477
 20
139.0664893047
 30
0.0
 10
53.3795198792
 20
139.0795590696
 30
0.0
  0
SPLINE
  5
408
100
AcDbEntity
  8
_1
100
AcDbSpline
 62
7
  6
CONTINUOUS
 70
0
 71
3
 72
11
 73
7
 74
0
 42
0.0000001
 43
0.0000001
 44
0.0000000001
 40
0.0
 40
0.0
 40
0.0
 40
0.0
 40
0.242494651
 40
0.4901880705
 40
0.742564951
 40
1.0
 40
1.0
 40
1.0
 40
1.0
 10
53.3795198792
 20
139.1210373924
 30
0.0
 10
53.3970925995
 20
139.1017452101
 30
0.0
 10
53.4326415645
 20
139.0627473389
 30
0.0
 10
53.4897998827
 20
139.0068630325
 30
0.0
 10
53.5496821702
 20
138.9515233055
 30
0.0
 10
53.591773651
 20
138.9163125844
 30
0.0
 10
53.6130169127
 20
138.8985302684
 30
0.0
  0
SPLINE
  5
409
100
AcDbEntity
  8
_1
100
AcDbSpline
 62
7
  6
CONTINUOUS
 70
0
 71
3
 72
11
 73
7
 74
0
 42
0.0000001
 43
0.0000001
 44
0.0000000001
 40
0.0
 40
0.0
 40
0.0
 40
0.0
 40
0.242494651
 40
0.4901880705
 40
0.742564951
 40
1.0
 40
1.0
 40
1.0
 40
1.0
 10
56.8343688378
 20
141.1156834622
 30
0.0
 10
56.8519415581
 20
141.0963912799
 30
0.0
 10
56.8874905231
 20
141.0573934087
 30
0.0
 10
56.9446488413
 20
141.0015091023
 30
0.0
 10
57.0045311287
 20
140.9461693753
 30
0.0
 10
57.0466226095
 20
140.9109586542
 30
0.0
 10
57.0678658713
 20
140.8931763382
 30
0.0
  0
SPLINE
  5
40A
100
AcDbEntity
  8
_1
100
AcDbSpline
 62
7
  6
CONTINUOUS
 70
0
 71
3
 72
11
 73
7
 74
0
 42
0.0000001
 43
0.0000001
 44
0.0000000001
 40
0.0
 40
0.0
 40
0.0
 40
0.0
 40
0.2498641756
 40
0.5091071002
 40
0.7636020138
 40
1.0
 40
1.0
 40
1.0
 40
1.0
 10
50.232519655
 20
140.9600493651
 30
0.0
 10
50.0557746319
 20
141.013264705
 30
0.0
 10
49.6843642416
 20
141.0860933017
 30
0.0
 10
49.1180797848
 20
141.1012897974
 30
0.0
 10
48.5666911915
 20
141.0254646924
 30
0.0
 10
48.2192126848
 20
140.9119634983
 30
0.0
 10
48.060587403
 20
140.8389207468
 30
0.0
  0
SPLINE
  5
40B
100
AcDbEntity
  8
_1
100
AcDbSpline
 62
7
  6
CONTINUOUS
 70
0
 71
3
 72
19
 73
15
 74
0
 42
0.0000001
 43
0.0000001
 44
0.0000000001
 40
0.0
 40
0.0
 40
0.0
 40
0.0
 40
0.1226423576
 40
0.245358057
 40
0.3067063991
 40
0.3680915498
 40
0.4295145143
 40
0.4909732183
 40
0.5526288083
 40
0.6143440291
 40
0.7391824187
 40
0.8027543271
 40
0.8674541111
 40
1.0
 40
1.0
 40
1.0
 40
1.0
 10
51.4389234928
 20
138.7055806448
 30
0.0
 10
51.438199399
 20
138.719429829
 30
0.0
 10
51.4367319907
 20
138.7471375999
 30
0.0
 10
51.4339932455
 20
138.7817131003
 30
0.0
 10
51.4322636202
 20
138.8094144839
 30
0.0
 10
51.4305560772
 20
138.83017007
 30
0.0
 10
51.4286299312
 20
138.8509149774
 30
0.0
 10
51.4267991332
 20
138.8717100583
 30
0.0
 10
51.4235716019
 20
138.8923661429
 30
0.0
 10
51.4198201482
 20
138.9201855297
 30
0.0
 10
51.4130467189
 20
138.947748538
 30
0.0
 10
51.4038151894
 20
138.974855652
 30
0.0
 10
51.3920620728
 20
139.001943489
 30
0.0
 10
51.3811842214
 20
139.0214483141
 30
0.0
 10
51.3739138703
 20
139.0345548459
 30
0.0
  0
SPLINE
  5
40C
100
AcDbEntity
  8
_1
100
AcDbSpline
 62
7
  6
CONTINUOUS
 70
0
 71
3
 72
19
 73
15
 74
0
 42
0.0000001
 43
0.0000001
 44
0.0000000001
 40
0.0
 40
0.0
 40
0.0
 40
0.0
 40
0.0785975429
 40
0.1537593726
 40
0.2936975682
 40
0.3588124793
 40
0.4215504648
 40
0.4821471855
 40
0.5412906357
 40
0.5995781087
 40
0.657392554
 40
0.7721670086
 40
0.8862386826
 40
1.0
 40
1.0
 40
1.0
 40
1.0
 10
51.7437323649
 20
138.0857385399
 30
0.0
 10
51.7273999288
 20
138.0955813529
 30
0.0
 10
51.6954468735
 20
138.1149155833
 30
0.0
 10
51.6382922821
 20
138.1575414668
 30
0.0
 10
51.5884254713
 20
138.2045240506
 30
0.0
 10
51.5495745178
 20
138.2567274579
 30
0.0
 10
51.5254686356
 20
138.2956645807
 30
0.0
 10
51.5065513515
 20
138.3357903486
 30
0.0
 10
51.4918208188
 20
138.3764405624
 30
0.0
 10
51.4801343709
 20
138.4173441101
 30
0.0
 10
51.467185191
 20
138.4718522863
 30
0.0
 10
51.4546712408
 20
138.5403249225
 30
0.0
 10
51.4449080311
 20
138.6229138807
 30
0.0
 10
51.4408857737
 20
138.6780501023
 30
0.0
 10
51.4389234928
 20
138.7055806448
 30
0.0
  0
SPLINE
  5
40D
100
AcDbEntity
  8
_1
100
AcDbSpline
 62
7
  6
CONTINUOUS
 70
0
 71
3
 72
21
 73
17
 74
0
 42
0.0000001
 43
0.0000001
 44
0.0000000001
 40
0.0
 40
0.0
 40
0.0
 40
0.0
 40
0.0561304266
 40
0.114191534
 40
0.1747267524
 40
0.2377243113
 40
0.3689985013
 40
0.5033573509
 40
0.5700427708
 40
0.6359353611
 40
0.7008442786
 40
0.7642689808
 40
0.8261903554
 40
0.8860026581
 40
0.9440163332
 40
1.0
 40
1.0
 40
1.0
 40
1.0
 10
52.6156920409
 20
138.0602728888
 30
0.0
 10
52.6007287175
 20
138.0521230072
 30
0.0
 10
52.5702820768
 20
138.0355247594
 30
0.0
 10
52.5219762953
 20
138.0135011301
 30
0.0
 10
52.4701878325
 20
137.9944231366
 30
0.0
 10
52.3955005821
 20
137.974073584
 30
0.0
 10
52.2965255134
 20
137.9583372809
 30
0.0
 10
52.1952548467
 20
137.9593683211
 30
0.0
 10
52.1146051437
 20
137.9673968011
 30
0.0
 10
52.0553038301
 20
137.9763201263
 30
0.0
 10
51.9973900548
 20
137.9875506255
 30
0.0
 10
51.9415219317
 20
138.0022832565
 30
0.0
 10
51.8877807216
 20
138.0188862174
 30
0.0
 10
51.837070131
 20
138.0391188403
 30
0.0
 10
51.7889057069
 20
138.0607514336
 30
0.0
 10
51.758597478
 20
138.0775024091
 30
0.0
 10
51.7437323649
 20
138.0857385399
 30
0.0
  0
SPLINE
  5
40E
100
AcDbEntity
  8
_1
100
AcDbSpline
 62
7
  6
CONTINUOUS
 70
0
 71
3
 72
11
 73
7
 74
0
 42
0.0000001
 43
0.0000001
 44
0.0000000001
 40
0.0
 40
0.0
 40
0.0
 40
0.0
 40
0.2447872356
 40
0.4916837382
 40
0.7429180666
 40
1.0
 40
1.0
 40
1.0
 40
1.0
 10
55.9444743913
 20
140.3190458098
 30
0.0
 10
55.9444744273
 20
140.3380038679
 30
0.0
 10
55.9466524343
 20
140.3761149827
 30
0.0
 10
55.9562382397
 20
140.4329578928
 30
0.0
 10
55.9726931178
 20
140.4892610438
 30
0.0
 10
55.9883799129
 20
140.5254188522
 30
0.0
 10
55.9962437737
 20
140.5437103151
 30
0.0
  0
SPLINE
  5
40F
100
AcDbEntity
  8
_1
100
AcDbSpline
 62
7
  6
CONTINUOUS
 70
0
 71
3
 72
11
 73
7
 74
0
 42
0.0000001
 43
0.0000001
 44
0.0000000001
 40
0.0
 40
0.0
 40
0.0
 40
0.0
 40
0.2824872433
 40
0.5419582198
 40
0.7797439551
 40
1.0
 40
1.0
 40
1.0
 40
1.0
 10
42.120839745
 20
33.9454582312
 30
0.0
 10
42.1559518927
 20
33.9251866819
 30
0.0
 10
42.2259004319
 20
33.890484742
 30
0.0
 10
42.3330963005
 20
33.8565557144
 30
0.0
 10
42.4359604806
 20
33.8439557968
 30
0.0
 10
42.5021108533
 20
33.8504590983
 30
0.0
 10
42.5329105249
 20
33.8575798353
 30
0.0
  0
SPLINE
  5
410
100
AcDbEntity
  8
_1
100
AcDbSpline
 62
7
  6
CONTINUOUS
 70
0
 71
3
 72
11
 73
7
 74
0
 42
0.0000001
 43
0.0000001
 44
0.0000000001
 40
0.0
 40
0.0
 40
0.0
 40
0.0
 40
0.2552741991
 40
0.5173969622
 40
0.7703755069
 40
1.0
 40
1.0
 40
1.0
 40
1.0
 10
41.4457425015
 20
34.8810550067
 30
0.0
 10
41.4715924096
 20
34.7841214619
 30
0.0
 10
41.544092411
 20
34.5926746177
 30
0.0
 10
41.6994659643
 20
34.3311496923
 30
0.0
 10
41.8913577198
 20
34.1082083162
 30
0.0
 10
42.0426883369
 20
33.990577947
 30
0.0
 10
42.120839745
 20
33.9454582312
 30
0.0
  0
SPLINE
  5
411
100
AcDbEntity
  8
_1
100
AcDbSpline
 62
7
  6
CONTINUOUS
 70
0
 71
3
 72
11
 73
7
 74
0
 42
0.0000001
 43
0.0000001
 44
0.0000000001
 40
0.0
 40
0.0
 40
0.0
 40
0.0
 40
0.2177825102
 40
0.4509091639
 40
0.7102957096
 40
1.0
 40
1.0
 40
1.0
 40
1.0
 10
20.0334342647
 20
45.6544914119
 30
0.0
 10
19.9747840164
 20
45.6883523893
 30
0.0
 10
19.8650516607
 20
45.7806033029
 30
0.0
 10
19.7482287178
 20
45.9716137454
 30
0.0
 10
19.6788427994
 20
46.2070103118
 30
0.0
 10
19.6651841225
 20
46.378339132
 30
0.0
 10
19.6651841225
 20
46.4684274994
 30
0.0
  0
SPLINE
  5
412
100
AcDbEntity
  8
_1
100
AcDbSpline
 62
7
  6
CONTINUOUS
 70
0
 71
3
 72
11
 73
7
 74
0
 42
0.0000001
 43
0.0000001
 44
0.0000000001
 40
0.0
 40
0.0
 40
0.0
 40
0.0
 40
0.2177839237
 40
0.4509111717
 40
0.7102971901
 40
1.0
 40
1.0
 40
1.0
 40
1.0
 10
37.9940212834
 20
35.2851762471
 30
0.0
 10
38.0526696048
 20
35.2513164186
 30
0.0
 10
38.1874231371
 20
35.2024144446
 30
0.0
 10
38.4112459968
 20
35.1967492059
 30
0.0
 10
38.6497884403
 20
35.2543550678
 30
0.0
 10
38.8049863218
 20
35.3281871749
 30
0.0
 10
38.8830017638
 20
35.3732291425
 30
0.0
  0
SPLINE
  5
413
100
AcDbEntity
  8
_1
100
AcDbSpline
 62
7
  6
CONTINUOUS
 70
0
 71
3
 72
9
 73
5
 74
0
 42
0.0000001
 43
0.0000001
 44
0.0000000001
 40
0.0
 40
0.0
 40
0.0
 40
0.0
 40
0.2380432568
 40
1.0
 40
1.0
 40
1.0
 40
1.0
 10
63.9097120583
 20
21.9603254479
 30
0.0
 10
63.90703921
 20
21.9494037885
 30
0.0
 10
63.89741817
 20
21.9031328304
 30
0.0
 10
63.8938593467
 20
21.8556978341
 30
0.0
 10
63.8938593467
 20
21.8197068319
 30
0.0
  0
SPLINE
  5
414
100
AcDbEntity
  8
_1
100
AcDbSpline
 62
7
  6
CONTINUOUS
 70
0
 71
3
 72
11
 73
7
 74
0
 42
0.0000001
 43
0.0000001
 44
0.0000000001
 40
0.0
 40
0.0
 40
0.0
 40
0.0
 40
0.289702329
 40
0.5490881649
 40
0.7822156415
 40
1.0
 40
1.0
 40
1.0
 40
1.0
 10
71.2577000243
 20
16.1503042571
 30
0.0
 10
71.3134261309
 20
16.1181315023
 30
0.0
 10
71.4242833261
 20
16.0653945613
 30
0.0
 10
71.5946730409
 20
16.024248498
 30
0.0
 10
71.7545484411
 20
16.0282965141
 30
0.0
 10
71.8508019683
 20
16.0632276645
 30
0.0
 10
71.892694013
 20
16.0874139109
 30
0.0
  0
SPLINE
  5
415
100
AcDbEntity
  8
_1
100
AcDbSpline
 62
7
  6
CONTINUOUS
 70
0
 71
3
 72
11
 73
7
 74
0
 42
0.0000001
 43
0.0000001
 44
0.0000000001
 40
0.0
 40
0.0
 40
0.0
 40
0.0
 40
0.2372444228
 40
0.5000010918
 40
0.7627571666
 40
1.0
 40
1.0
 40
1.0
 40
1.0
 10
63.8938593467
 20
20.6091150886
 30
0.0
 10
63.8938593467
 20
20.5796711146
 30
0.0
 10
63.9049060253
 20
20.5175772525
 30
0.0
 10
63.9433969073
 20
20.4303249432
 30
0.0
 10
63.999714414
 20
20.3533651219
 30
0.0
 10
64.047966014
 20
20.3127519616
 30
0.0
 10
64.0734652168
 20
20.298030323
 30
0.0
  0
SPLINE
  5
416
100
AcDbEntity
  8
_1
100
AcDbSpline
 62
7
  6
CONTINUOUS
 70
0
 71
3
 72
11
 73
7
 74
0
 42
0.0000001
 43
0.0000001
 44
0.0000000001
 40
0.0
 40
0.0
 40
0.0
 40
0.0
 40
0.2177833598
 40
0.4509104088
 40
0.7102966711
 40
1.0
 40
1.0
 40
1.0
 40
1.0
 10
71.892694013
 20
16.0874139109
 30
0.0
 10
71.9345869852
 20
16.1116006928
 30
0.0
 10
72.0129670145
 20
16.1774946271
 30
0.0
 10
72.0964118452
 20
16.3139307248
 30
0.0
 10
72.1459731675
 20
16.4820707201
 30
0.0
 10
72.1557293753
 20
16.6044480253
 30
0.0
 10
72.1557293753
 20
16.6687965686
 30
0.0
  0
SPLINE
  5
417
100
AcDbEntity
  8
_1
100
AcDbSpline
 62
7
  6
CONTINUOUS
 70
0
 71
3
 72
11
 73
7
 74
0
 42
0.0000001
 43
0.0000001
 44
0.0000000001
 40
0.0
 40
0.0
 40
0.0
 40
0.0
 40
0.2897042895
 40
0.5490907647
 40
0.7822174449
 40
1.0
 40
1.0
 40
1.0
 40
1.0
 10
37.6257711412
 20
36.0991123345
 30
0.0
 10
37.6257711412
 20
36.0090239672
 30
0.0
 10
37.6394297874
 20
35.8376951662
 30
0.0
 10
37.7088157234
 20
35.6022986136
 30
0.0
 10
37.8256386624
 20
35.4112881825
 30
0.0
 10
37.9353710071
 20
35.3190372043
 30
0.0
 10
37.9940212834
 20
35.2851762471
 30
0.0
  0
SPLINE
  5
418
100
AcDbEntity
  8
_1
100
AcDbSpline
 62
7
  6
CONTINUOUS
 70
0
 71
3
 72
9
 73
5
 74
0
 42
0.0000001
 43
0.0000001
 44
0.0000000001
 40
0.0
 40
0.0
 40
0.0
 40
0.0
 40
0.2342317736
 40
1.0
 40
1.0
 40
1.0
 40
1.0
 10
85.253469821
 20
90.982791234
 30
0.0
 10
85.2150882467
 20
91.0258439739
 30
0.0
 10
85.0423232085
 20
91.201703158
 30
0.0
 10
84.8388738815
 20
91.3457420262
 30
0.0
 10
84.6755723058
 20
91.4400221019
 30
0.0
  0
SPLINE
  5
419
100
AcDbEntity
  8
_1
100
AcDbSpline
 62
7
  6
CONTINUOUS
 70
0
 71
3
 72
9
 73
5
 74
0
 42
0.0000001
 43
0.0000001
 44
0.0000000001
 40
0.0
 40
0.0
 40
0.0
 40
0.0
 40
0.2416912222
 40
1.0
 40
1.0
 40
1.0
 40
1.0
 10
84.6755723058
 20
91.4400221019
 30
0.0
 10
84.6395714539
 20
91.4608067332
 30
0.0
 10
84.4888170105
 20
91.5436687795
 30
0.0
 10
84.3315172345
 20
91.6144321239
 30
0.0
 10
84.2100417838
 20
91.6619159394
 30
0.0
  0
SPLINE
  5
41A
100
AcDbEntity
  8
_1
100
AcDbSpline
 62
7
  6
CONTINUOUS
 70
0
 71
3
 72
9
 73
5
 74
0
 42
0.0000001
 43
0.0000001
 44
0.0000000001
 40
0.0
 40
0.0
 40
0.0
 40
0.0
 40
0.2700344298
 40
1.0
 40
1.0
 40
1.0
 40
1.0
 10
84.1953696009
 20
91.0311066905
 30
0.0
 10
84.2400811019
 20
91.0014439271
 30
0.0
 10
84.4009911387
 20
90.885159155
 30
0.0
 10
84.5430030561
 20
90.73955916
 30
0.0
 10
84.6219644298
 20
90.617890494
 30
0.0
  0
SPLINE
  5
41B
100
AcDbEntity
  8
_1
100
AcDbSpline
 62
7
  6
CONTINUOUS
 70
0
 71
3
 72
21
 73
17
 74
0
 42
0.0000001
 43
0.0000001
 44
0.0000000001
 40
0.0
 40
0.0
 40
0.0
 40
0.0
 40
0.0414691586
 40
0.0851038047
 40
0.1323880352
 40
0.1842116961
 40
0.2408868315
 40
0.3023163581
 40
0.3680489451
 40
0.4373674056
 40
0.5829649314
 40
0.7308870579
 40
0.8030145618
 40
0.8724792196
 40
0.9384139195
 40
1.0
 40
1.0
 40
1.0
 40
1.0
 10
35.2681069162
 20
139.4444968715
 30
0.0
 10
35.2679823271
 20
139.3366435559
 30
0.0
 10
35.237398952
 20
139.1144136955
 30
0.0
 10
35.1055465686
 20
138.7930223094
 30
0.0
 10
34.891342675
 20
138.4866740672
 30
0.0
 10
34.6013776504
 20
138.2010931683
 30
0.0
 10
34.2422952663
 20
137.9410287028
 30
0.0
 10
33.8214289447
 20
137.7118183834
 30
0.0
 10
33.3477199831
 20
137.5177388482
 30
0.0
 10
32.6476794309
 20
137.3077046981
 30
0.0
 10
31.7108275392
 20
137.1599790037
 30
0.0
 10
30.755530252
 20
137.1613242548
 30
0.0
 10
30.0077691877
 20
137.2562909049
 30
0.0
 10
29.4795684233
 20
137.3710825022
 30
0.0
 10
28.9909202825
 20
137.5276570108
 30
0.0
 10
28.6869654321
 20
137.6626056776
 30
0.0
 10
28.5451240279
 20
137.7370141532
 30
0.0
  0
SPLINE
  5
41C
100
AcDbEntity
  8
_1
100
AcDbSpline
 62
7
  6
CONTINUOUS
 70
0
 71
3
 72
23
 73
19
 74
0
 42
0.0000001
 43
0.0000001
 44
0.0000000001
 40
0.0
 40
0.0
 40
0.0
 40
0.0
 40
0.0411413429
 40
0.0845159687
 40
0.1316185942
 40
0.1833455447
 40
0.2400192812
 40
0.3015103327
 40
0.3673439779
 40
0.4367857135
 40
0.5089215867
 40
0.5827166543
 40
0.6570681778
 40
0.7308594223
 40
0.8029970056
 40
0.8724557638
 40
0.9383815563
 40
1.0
 40
1.0
 40
1.0
 40
1.0
 10
26.2486304968
 20
139.2038688665
 30
0.0
 10
26.248615422
 20
139.3418229528
 30
0.0
 10
26.2880196881
 20
139.6264531839
 30
0.0
 10
26.4588460241
 20
140.0376937223
 30
0.0
 10
26.7351831552
 20
140.4302551761
 30
0.0
 10
27.1092102077
 20
140.7969052513
 30
0.0
 10
27.5725410345
 20
141.1314054718
 30
0.0
 10
28.1154726262
 20
141.4273938861
 30
0.0
 10
28.7266417324
 20
141.6789931573
 30
0.0
 10
29.3931683957
 20
141.8809814621
 30
0.0
 10
30.1009071708
 20
142.0290263541
 30
0.0
 10
30.8347773722
 20
142.119828826
 30
0.0
 10
31.5791064984
 20
142.1514238189
 30
0.0
 10
32.3180281593
 20
142.1230189496
 30
0.0
 10
33.0357689176
 20
142.0350701264
 30
0.0
 10
33.7172516701
 20
141.889397331
 30
0.0
 10
34.3477988614
 20
141.6889203568
 30
0.0
 10
34.7399058914
 20
141.5151717182
 30
0.0
 10
34.9228754008
 20
141.4191878808
 30
0.0
  0
SPLINE
  5
41D
100
AcDbEntity
  8
_1
100
AcDbSpline
 62
7
  6
CONTINUOUS
 70
0
 71
3
 72
15
 73
11
 74
0
 42
0.0000001
 43
0.0000001
 44
0.0000000001
 40
0.0
 40
0.0
 40
0.0
 40
0.0
 40
0.1060857259
 40
0.2249007711
 40
0.353710486
 40
0.4886131334
 40
0.625112368
 40
0.7585868749
 40
0.8847262066
 40
1.0
 40
1.0
 40
1.0
 40
1.0
 10
28.0451364387
 20
138.1527240675
 30
0.0
 10
28.2163211459
 20
138.2995450848
 30
0.0
 10
28.6170884796
 20
138.5673288618
 30
0.0
 10
29.3078064497
 20
138.8712776
 30
0.0
 10
30.0937909402
 20
139.0895969039
 30
0.0
 10
30.937927651
 20
139.2116370583
 30
0.0
 10
31.8004751585
 20
139.2316160042
 30
0.0
 10
32.6407274557
 20
139.1482101999
 30
0.0
 10
33.4188570562
 20
138.9654293227
 30
0.0
 10
33.8976278352
 20
138.7723371378
 30
0.0
 10
34.1146557148
 20
138.6585342699
 30
0.0
  0
SPLINE
  5
41E
100
AcDbEntity
  8
_1
100
AcDbSpline
 62
7
  6
CONTINUOUS
 70
0
 71
3
 72
17
 73
13
 74
0
 42
0.0000001
 43
0.0000001
 44
0.0000000001
 40
0.0
 40
0.0
 40
0.0
 40
0.0
 40
0.0419044438
 40
0.0858629319
 40
0.1333335579
 40
0.1852141918
 40
0.3029461624
 40
0.4375273861
 40
0.5828100658
 40
0.7305812786
 40
0.8721698568
 40
1.0
 40
1.0
 40
1.0
 40
1.0
 10
35.658483465
 20
131.9621239895
 30
0.0
 10
35.6584930568
 20
131.9163810561
 30
0.0
 10
35.6457524825
 20
131.8222503935
 30
0.0
 10
35.5903305761
 20
131.6862775084
 30
0.0
 10
35.5005714676
 20
131.5568397427
 30
0.0
 10
35.3314389012
 20
131.3893510646
 30
0.0
 10
35.0438636308
 20
131.2148600942
 30
0.0
 10
34.6308539674
 20
131.0740221487
 30
0.0
 10
34.1672142474
 20
131.00293599
 30
0.0
 10
33.6906628263
 20
131.0075374994
 30
0.0
 10
33.2401724422
 20
131.086994946
 30
0.0
 10
32.9627645193
 20
131.1929644208
 30
0.0
 10
32.8400711699
 20
131.2594295916
 30
0.0
  0
SPLINE
  5
41F
100
AcDbEntity
  8
_1
100
AcDbSpline
 62
7
  6
CONTINUOUS
 70
0
 71
3
 72
11
 73
7
 74
0
 42
0.0000001
 43
0.0000001
 44
0.0000000001
 40
0.0
 40
0.0
 40
0.0
 40
0.0
 40
0.287605834
 40
0.546884693
 40
0.7810560294
 40
1.0
 40
1.0
 40
1.0
 40
1.0
 10
78.6035563638
 20
117.2816579895
 30
0.0
 10
78.530905068
 20
117.3261900823
 30
0.0
 10
78.3990713527
 20
117.4221844864
 30
0.0
 10
78.2421213322
 20
117.5949251521
 30
0.0
 10
78.1430450179
 20
117.7843800738
 30
0.0
 10
78.1199088939
 20
117.9194689077
 30
0.0
 10
78.1198955343
 20
117.9843387766
 30
0.0
  0
SPLINE
  5
420
100
AcDbEntity
  8
_1
100
AcDbSpline
 62
7
  6
CONTINUOUS
 70
0
 71
3
 72
11
 73
7
 74
0
 42
0.0000001
 43
0.0000001
 44
0.0000000001
 40
0.0
 40
0.0
 40
0.0
 40
0.0
 40
0.2922224981
 40
0.5520496284
 40
0.7838780929
 40
1.0
 40
1.0
 40
1.0
 40
1.0
 10
43.5444916204
 20
137.5199838687
 30
0.0
 10
43.4722975464
 20
137.5590821126
 30
0.0
 10
43.3412907474
 20
137.6439943819
 30
0.0
 10
43.1838538488
 20
137.8008767727
 30
0.0
 10
43.0839931571
 20
137.9762359556
 30
0.0
 10
43.0608338604
 20
138.1030267742
 30
0.0
 10
43.0608243115
 20
138.1637474017
 30
0.0
  0
SPLINE
  5
421
100
AcDbEntity
  8
_1
100
AcDbSpline
 62
7
  6
CONTINUOUS
 70
0
 71
3
 72
11
 73
7
 74
0
 42
0.0000001
 43
0.0000001
 44
0.0000000001
 40
0.0
 40
0.0
 40
0.0
 40
0.0
 40
0.2922121834
 40
0.5520379222
 40
0.7838716461
 40
1.0
 40
1.0
 40
1.0
 40
1.0
 10
32.8400711699
 20
131.2594295916
 30
0.0
 10
32.76787618
 20
131.2985389023
 30
0.0
 10
32.63686788
 20
131.3834741977
 30
0.0
 10
32.4794326784
 20
131.5403896667
 30
0.0
 10
32.3795739119
 20
131.7157776926
 30
0.0
 10
32.3564146186
 20
131.8425853006
 30
0.0
 10
32.3564049688
 20
131.9033143768
 30
0.0
  0
SPLINE
  5
422
100
AcDbEntity
  8
_1
100
AcDbSpline
 62
7
  6
CONTINUOUS
 70
0
 71
3
 72
11
 73
7
 74
0
 42
0.0000001
 43
0.0000001
 44
0.0000000001
 40
0.0
 40
0.0
 40
0.0
 40
0.0
 40
0.2875971626
 40
0.5468751236
 40
0.7810508384
 40
1.0
 40
1.0
 40
1.0
 40
1.0
 10
67.8991369074
 20
111.0159757907
 30
0.0
 10
67.8264846448
 20
111.0605191139
 30
0.0
 10
67.6946489849
 20
111.1565359547
 30
0.0
 10
67.5376992206
 20
111.3293086799
 30
0.0
 10
67.4386242421
 20
111.5187926628
 30
0.0
 10
67.4154882534
 20
111.6538987817
 30
0.0
 10
67.4154750047
 20
111.7187772404
 30
0.0
  0
SPLINE
  5
423
100
AcDbEntity
  8
_1
100
AcDbSpline
 62
7
  6
CONTINUOUS
 70
0
 71
3
 72
9
 73
5
 74
0
 42
0.0000001
 43
0.0000001
 44
0.0000000001
 40
0.0
 40
0.0
 40
0.0
 40
0.0
 40
0.2620727205
 40
1.0
 40
1.0
 40
1.0
 40
1.0
 10
93.6887376326
 20
89.7101616262
 30
0.0
 10
92.9906220254
 20
89.4244976434
 30
0.0
 10
90.3504993917
 20
88.2786963152
 30
0.0
 10
87.8088939303
 20
86.8965063435
 30
0.0
 10
86.0367616576
 20
85.7258047799
 30
0.0
  0
SPLINE
  5
424
100
AcDbEntity
  8
_1
100
AcDbSpline
 62
7
  6
CONTINUOUS
 70
0
 71
3
 72
9
 73
5
 74
0
 42
0.0000001
 43
0.0000001
 44
0.0000000001
 40
0.0
 40
0.0
 40
0.0
 40
0.0
 40
0.2551359312
 40
1.0
 40
1.0
 40
1.0
 40
1.0
 10
86.0367616576
 20
85.7258047799
 30
0.0
 10
85.7366865824
 20
85.5275699386
 30
0.0
 10
84.5719483748
 20
84.7335434525
 30
0.0
 10
83.4543825999
 20
83.8697704088
 30
0.0
 10
82.6566636379
 20
83.1870745153
 30
0.0
  0
SPLINE
  5
425
100
AcDbEntity
  8
_1
100
AcDbSpline
 62
7
  6
CONTINUOUS
 70
0
 71
3
 72
9
 73
5
 74
0
 42
0.0000001
 43
0.0000001
 44
0.0000000001
 40
0.0
 40
0.0
 40
0.0
 40
0.0
 40
0.5208725119
 40
1.0
 40
1.0
 40
1.0
 40
1.0
 10
44.096159902
 20
137.3256445592
 30
0.0
 10
43.9964692544
 20
137.3463415145
 30
0.0
 10
43.8072563272
 20
137.3977403366
 30
0.0
 10
43.626846252
 20
137.4753829577
 30
0.0
 10
43.5444916204
 20
137.5199838687
 30
0.0
  0
SPLINE
  5
426
100
AcDbEntity
  8
_1
100
AcDbSpline
 62
7
  6
CONTINUOUS
 70
0
 71
3
 72
17
 73
13
 74
0
 42
0.0000001
 43
0.0000001
 44
0.0000000001
 40
0.0
 40
0.0
 40
0.0
 40
0.0
 40
0.0438966259
 40
0.0892761484
 40
0.1375364635
 40
0.1896228227
 40
0.3064166942
 40
0.4391150779
 40
0.5824545299
 40
0.7289565068
 40
0.8705296307
 40
1.0
 40
1.0
 40
1.0
 40
1.0
 10
81.4219755117
 20
117.9255291135
 30
0.0
 10
81.4219826559
 20
117.8771447472
 30
0.0
 10
81.4095010696
 20
117.7783330749
 30
0.0
 10
81.3543754766
 20
117.6357261651
 30
0.0
 10
81.2647069088
 20
117.5010948514
 30
0.0
 10
81.0962202071
 20
117.3294851298
 30
0.0
 10
80.8084105918
 20
117.1536988531
 30
0.0
 10
80.3941181509
 20
117.0186203815
 30
0.0
 10
79.9294906335
 20
116.960015121
 30
0.0
 10
79.4521212252
 20
116.9827099267
 30
0.0
 10
79.0008962008
 20
117.0843646186
 30
0.0
 10
78.7252253652
 20
117.2070801695
 30
0.0
 10
78.6035563638
 20
117.2816579895
 30
0.0
  0
SPLINE
  5
427
100
AcDbEntity
  8
_1
100
AcDbSpline
 62
7
  6
CONTINUOUS
 70
0
 71
3
 72
17
 73
13
 74
0
 42
0.0000001
 43
0.0000001
 44
0.0000000001
 40
0.0
 40
0.0
 40
0.0
 40
0.0
 40
0.0439006408
 40
0.0892830655
 40
0.1375450327
 40
0.18963187
 40
0.3064239506
 40
0.43911859
 40
0.5824541329
 40
0.7289535105
 40
0.8705265069
 40
1.0
 40
1.0
 40
1.0
 40
1.0
 10
70.717556273
 20
111.6597258058
 30
0.0
 10
70.7175633403
 20
111.6113360045
 30
0.0
 10
70.7050820586
 20
111.5125146674
 30
0.0
 10
70.6499567214
 20
111.3698941352
 30
0.0
 10
70.5602879892
 20
111.2352521095
 30
0.0
 10
70.3918020886
 20
111.0636338207
 30
0.0
 10
70.1039913627
 20
110.8878446694
 30
0.0
 10
69.6896956051
 20
110.7527779158
 30
0.0
 10
69.2250657425
 20
110.6941983375
 30
0.0
 10
68.7476949765
 20
110.7169306327
 30
0.0
 10
68.2964692816
 20
110.8186309764
 30
0.0
 10
68.0208034449
 20
110.9413816664
 30
0.0
 10
67.8991369074
 20
111.0159757907
 30
0.0
  0
SPLINE
  5
428
100
AcDbEntity
  8
_1
100
AcDbSpline
 62
7
  6
CONTINUOUS
 70
0
 71
3
 72
9
 73
5
 74
0
 42
0.0000001
 43
0.0000001
 44
0.0000000001
 40
0.0
 40
0.0
 40
0.0
 40
0.0
 40
0.2471681567
 40
1.0
 40
1.0
 40
1.0
 40
1.0
 10
56.7648666508
 20
122.5105556259
 30
0.0
 10
56.7648672828
 20
122.4935541317
 30
0.0
 10
56.767088564
 20
122.4247820758
 30
0.0
 10
56.7784065006
 20
122.3563435386
 30
0.0
 10
56.7915588497
 20
122.3062580034
 30
0.0
  0
SPLINE
  5
429
100
AcDbEntity
  8
_1
100
AcDbSpline
 62
7
  6
CONTINUOUS
 70
0
 71
3
 72
9
 73
5
 74
0
 42
0.0000001
 43
0.0000001
 44
0.0000000001
 40
0.0
 40
0.0
 40
0.0
 40
0.0
 40
0.2454228085
 40
1.0
 40
1.0
 40
1.0
 40
1.0
 10
56.7915588497
 20
122.3062580034
 30
0.0
 10
56.7962800508
 20
122.2882791709
 30
0.0
 10
56.8179463202
 20
122.2156700969
 30
0.0
 10
56.8490819154
 20
122.1459853995
 30
0.0
 10
56.8767157595
 20
122.0959583333
 30
0.0
  0
SPLINE
  5
42A
100
AcDbEntity
  8
_1
100
AcDbSpline
 62
7
  6
CONTINUOUS
 70
0
 71
3
 72
9
 73
5
 74
0
 42
0.0000001
 43
0.0000001
 44
0.0000000001
 40
0.0
 40
0.0
 40
0.0
 40
0.0
 40
0.2263136637
 40
1.0
 40
1.0
 40
1.0
 40
1.0
 10
56.8767157595
 20
122.0959583333
 30
0.0
 10
56.9059598086
 20
122.0430162246
 30
0.0
 10
57.0561822257
 20
121.8205619624
 30
0.0
 10
57.2744231962
 20
121.6509834761
 30
0.0
 10
57.4530261665
 20
121.5468033792
 30
0.0
  0
SPLINE
  5
42B
100
AcDbEntity
  8
_1
100
AcDbSpline
 62
7
  6
CONTINUOUS
 70
0
 71
3
 72
18
 73
14
 74
0
 42
0.0000001
 43
0.0000001
 44
0.0000000001
 40
0.0
 40
0.0
 40
0.0
 40
0.0
 40
0.0444350481
 40
0.0901969581
 40
0.1386742565
 40
0.190828394
 40
0.3073628108
 40
0.3718455676
 40
0.43973856
 40
0.582542664
 40
0.7286653273
 40
0.8701726817
 40
1.0
 40
1.0
 40
1.0
 40
1.0
 10
86.3866944499
 20
109.7240977831
 30
0.0
 10
86.3865714714
 20
109.606919531
 30
0.0
 10
86.3569129604
 20
109.368145899
 30
0.0
 10
86.2261620905
 20
109.0233270698
 30
0.0
 10
86.0123209632
 20
108.6985599899
 30
0.0
 10
85.6107449185
 20
108.2864748434
 30
0.0
 10
85.0779079983
 20
107.9602217936
 30
0.0
 10
84.4667147898
 20
107.7195103619
 30
0.0
 10
83.7654085381
 20
107.5275803236
 30
0.0
 10
82.8250498684
 20
107.4172750281
 30
0.0
 10
81.6861933952
 20
107.4830210157
 30
0.0
 10
80.6099087376
 20
107.7398036631
 30
0.0
 10
79.9533722891
 20
108.0418406671
 30
0.0
 10
79.6637124098
 20
108.224351061
 30
0.0
  0
SPLINE
  5
42C
100
AcDbEntity
  8
_1
100
AcDbSpline
 62
7
  6
CONTINUOUS
 70
0
 71
3
 72
15
 73
11
 74
0
 42
0.0000001
 43
0.0000001
 44
0.0000000001
 40
0.0
 40
0.0
 40
0.0
 40
0.0
 40
0.103748526
 40
0.2197419751
 40
0.3461807492
 40
0.4797411151
 40
0.6162409925
 40
0.7511965007
 40
0.8803095241
 40
1.0
 40
1.0
 40
1.0
 40
1.0
 10
79.0474843061
 20
108.8192202902
 30
0.0
 10
79.2078574476
 20
108.9805239588
 30
0.0
 10
79.5964188859
 20
109.2745253029
 30
0.0
 10
80.2868070263
 20
109.5990847069
 30
0.0
 10
81.0847537741
 20
109.8196643305
 30
0.0
 10
81.9505133174
 20
109.9253060144
 30
0.0
 10
82.8410987031
 20
109.9108370723
 30
0.0
 10
83.711978743
 20
109.776715446
 30
0.0
 10
84.5192858282
 20
109.5295021072
 30
0.0
 10
85.0112496974
 20
109.2857952623
 30
0.0
 10
85.2332440387
 20
109.1458712062
 30
0.0
  0
SPLINE
  5
42D
100
AcDbEntity
  8
_1
100
AcDbSpline
 62
7
  6
CONTINUOUS
 70
0
 71
3
 72
19
 73
15
 74
0
 42
0.0000001
 43
0.0000001
 44
0.0000000001
 40
0.0
 40
0.0
 40
0.0
 40
0.0
 40
0.0441244792
 40
0.0896337409
 40
0.1379358181
 40
0.1899908713
 40
0.2462808152
 40
0.3068599162
 40
0.3714325139
 40
0.4394376801
 40
0.5824345248
 40
0.728655732
 40
0.8701630771
 40
1.0
 40
1.0
 40
1.0
 40
1.0
 10
77.3672188845
 20
109.9591936829
 30
0.0
 10
77.3672038203
 20
110.1092008561
 30
0.0
 10
77.4053912624
 20
110.4151892181
 30
0.0
 10
77.5748409955
 20
110.8567199267
 30
0.0
 10
77.8506878765
 20
111.273012217
 30
0.0
 10
78.2250442021
 20
111.6555355741
 30
0.0
 10
78.6890377257
 20
111.9975042005
 30
0.0
 10
79.2326674612
 20
112.2925143767
 30
0.0
 10
79.8445580487
 20
112.5347565274
 30
0.0
 10
80.7489235356
 20
112.7848151527
 30
0.0
 10
81.9618790287
 20
112.9334616177
 30
0.0
 10
83.4314450453
 20
112.8554351703
 30
0.0
 10
84.8208246245
 20
112.5301349405
 30
0.0
 10
85.6680147164
 20
112.1418294984
 30
0.0
 10
86.0414637246
 20
111.9065248171
 30
0.0
  0
SPLINE
  5
42E
100
AcDbEntity
  8
_1
100
AcDbSpline
 62
7
  6
CONTINUOUS
 70
0
 71
3
 72
9
 73
5
 74
0
 42
0.0000001
 43
0.0000001
 44
0.0000000001
 40
0.0
 40
0.0
 40
0.0
 40
0.0
 40
0.2477796975
 40
1.0
 40
1.0
 40
1.0
 40
1.0
 10
58.3230587182
 20
132.9153876768
 30
0.0
 10
60.5687221919
 20
131.6461113472
 30
0.0
 10
69.6056147469
 20
126.4771738619
 30
0.0
 10
78.5376373485
 20
121.1251122333
 30
0.0
 10
85.1962374093
 20
117.0033149765
 30
0.0
  0
SPLINE
  5
42F
100
AcDbEntity
  8
_1
100
AcDbSpline
 62
7
  6
CONTINUOUS
 70
0
 71
3
 72
9
 73
5
 74
0
 42
0.0000001
 43
0.0000001
 44
0.0000000001
 40
0.0
 40
0.0
 40
0.0
 40
0.0
 40
0.2631404721
 40
1.0
 40
1.0
 40
1.0
 40
1.0
 10
34.1146557148
 20
138.6585342699
 30
0.0
 10
34.1687403177
 20
138.6301739371
 30
0.0
 10
34.3714236223
 20
138.5171913919
 30
0.0
 10
34.5626491814
 20
138.382563739
 30
0.0
 10
34.6911807375
 20
138.2697639009
 30
0.0
  0
SPLINE
  5
430
100
AcDbEntity
  8
_1
100
AcDbSpline
 62
7
  6
CONTINUOUS
 70
0
 71
3
 72
12
 73
8
 74
0
 42
0.0000001
 43
0.0000001
 44
0.0000000001
 40
0.0
 40
0.0
 40
0.0
 40
0.0
 40
0.2925539816
 40
0.5518544628
 40
0.7832553017
 40
0.8925262303
 40
1.0
 40
1.0
 40
1.0
 40
1.0
 10
34.9228754008
 20
141.4191878808
 30
0.0
 10
35.1448754109
 20
141.3027290624
 30
0.0
 10
35.5476474308
 20
141.0487770174
 30
0.0
 10
36.0321315692
 20
140.5757278657
 30
0.0
 10
36.293184492
 20
140.1222963303
 30
0.0
 10
36.3944762337
 20
139.7500982535
 30
0.0
 10
36.4111406166
 20
139.5639400962
 30
0.0
 10
36.4111504049
 20
139.4718447742
 30
0.0
  0
SPLINE
  5
431
100
AcDbEntity
  8
_1
100
AcDbSpline
 62
7
  6
CONTINUOUS
 70
0
 71
3
 72
12
 73
8
 74
0
 42
0.0000001
 43
0.0000001
 44
0.0000000001
 40
0.0
 40
0.0
 40
0.0
 40
0.0
 40
0.2935878336
 40
0.5532028581
 40
0.7841733739
 40
0.8930250072
 40
1.0
 40
1.0
 40
1.0
 40
1.0
 10
28.5451240279
 20
137.7370141532
 30
0.0
 10
28.3731613518
 20
137.8272239242
 30
0.0
 10
28.0612753949
 20
138.0232524359
 30
0.0
 10
27.6859149226
 20
138.3877656849
 30
0.0
 10
27.4833259013
 20
138.7366981944
 30
0.0
 10
27.4044856161
 20
139.0229064111
 30
0.0
 10
27.3915567421
 20
139.1660007566
 30
0.0
 10
27.391551966
 20
139.2367572848
 30
0.0
  0
SPLINE
  5
432
100
AcDbEntity
  8
_1
100
AcDbSpline
 62
7
  6
CONTINUOUS
 70
0
 71
3
 72
12
 73
8
 74
0
 42
0.0000001
 43
0.0000001
 44
0.0000000001
 40
0.0
 40
0.0
 40
0.0
 40
0.0
 40
0.2858661511
 40
0.5444319467
 40
0.779287256
 40
0.8907396407
 40
1.0
 40
1.0
 40
1.0
 40
1.0
 10
86.0414637246
 20
111.9065248171
 30
0.0
 10
86.2655792982
 20
111.7653129181
 30
0.0
 10
86.6721309857
 20
111.4609101308
 30
0.0
 10
87.1543108111
 20
110.9156976181
 30
0.0
 10
87.4120771388
 20
110.4088055685
 30
0.0
 10
87.5129588082
 20
109.9973594125
 30
0.0
 10
87.529729004
 20
109.7924606798
 30
0.0
 10
87.5297387631
 20
109.6912162206
 30
0.0
  0
SPLINE
  5
433
100
AcDbEntity
  8
_1
100
AcDbSpline
 62
7
  6
CONTINUOUS
 70
0
 71
3
 72
12
 73
8
 74
0
 42
0.0000001
 43
0.0000001
 44
0.0000000001
 40
0.0
 40
0.0
 40
0.0
 40
0.0
 40
0.2867529909
 40
0.5455951758
 40
0.7800774421
 40
0.8911717103
 40
1.0
 40
1.0
 40
1.0
 40
1.0
 10
79.6637124098
 20
108.224351061
 30
0.0
 10
79.4901469236
 20
108.3337120996
 30
0.0
 10
79.1753318909
 20
108.5687926429
 30
0.0
 10
78.8017185096
 20
108.9892473642
 30
0.0
 10
78.6016755782
 20
109.379682714
 30
0.0
 10
78.5231585521
 20
109.6963444026
 30
0.0
 10
78.5101447133
 20
109.853979858
 30
0.0
 10
78.5101397088
 20
109.9318366592
 30
0.0
  0
SPLINE
  5
434
100
AcDbEntity
  8
_1
100
AcDbSpline
 62
7
  6
CONTINUOUS
 70
0
 71
3
 72
9
 73
5
 74
0
 42
0.0000001
 43
0.0000001
 44
0.0000000001
 40
0.0
 40
0.0
 40
0.0
 40
0.0
 40
0.2636590335
 40
1.0
 40
1.0
 40
1.0
 40
1.0
 10
85.2332440387
 20
109.1458712062
 30
0.0
 10
85.2991934098
 20
109.1043030138
 30
0.0
 10
85.5442609721
 20
108.9390001305
 30
0.0
 10
85.7688678199
 20
108.741511181
 30
0.0
 10
85.9121038454
 20
108.5775493938
 30
0.0
  0
SPLINE
  5
435
100
AcDbEntity
  8
_1
100
AcDbSpline
 62
7
  6
CONTINUOUS
 70
0
 71
3
 72
9
 73
5
 74
0
 42
0.0000001
 43
0.0000001
 44
0.0000000001
 40
0.0
 40
0.0
 40
0.0
 40
0.0
 40
0.2455950933
 40
1.0
 40
1.0
 40
1.0
 40
1.0
 10
57.4530261614
 20
121.5468033739
 30
0.0
 10
57.4688715849
 20
121.5375605252
 30
0.0
 10
57.5338557321
 20
121.5007277835
 30
0.0
 10
57.6005961296
 20
121.4670124178
 30
0.0
 10
57.65168397
 20
121.4432387886
 30
0.0
  0
SPLINE
  5
436
100
AcDbEntity
  8
_1
100
AcDbSpline
 62
7
  6
CONTINUOUS
 70
0
 71
3
 72
15
 73
11
 74
0
 42
0.0000001
 43
0.0000001
 44
0.0000000001
 40
0.0
 40
0.0
 40
0.0
 40
0.0
 40
0.1248185126
 40
0.2581600337
 40
0.3962998648
 40
0.5337726326
 40
0.6661493339
 40
0.789967519
 40
0.9015761041
 40
1.0
 40
1.0
 40
1.0
 40
1.0
 10
57.65168397
 20
121.4432387886
 30
0.0
 10
57.7973495882
 20
121.3754535706
 30
0.0
 10
58.1117282177
 20
121.2625886076
 30
0.0
 10
58.6133683467
 20
121.1620735906
 30
0.0
 10
59.1402509724
 20
121.1283608159
 30
0.0
 10
59.6657661598
 20
121.1634141062
 30
0.0
 10
60.1638173577
 20
121.2654790758
 30
0.0
 10
60.6100683439
 20
121.4300360724
 30
0.0
 10
60.9825481694
 20
121.6493365016
 30
0.0
 10
61.1814619928
 20
121.8378465768
 30
0.0
 10
61.2588227433
 20
121.9381747763
 30
0.0
  0
SPLINE
  5
437
100
AcDbEntity
  8
_1
100
AcDbSpline
 62
7
  6
CONTINUOUS
 70
0
 71
3
 72
9
 73
5
 74
0
 42
0.0000001
 43
0.0000001
 44
0.0000000001
 40
0.0
 40
0.0
 40
0.0
 40
0.0
 40
0.2547991378
 40
1.0
 40
1.0
 40
1.0
 40
1.0
 10
61.2588227433
 20
121.9381747763
 30
0.0
 10
61.2682529287
 20
121.9504046671
 30
0.0
 10
61.3043389026
 20
121.9991039428
 30
0.0
 10
61.3365825134
 20
122.0506857949
 30
0.0
 10
61.3578901774
 20
122.0905105862
 30
0.0
  0
SPLINE
  5
438
100
AcDbEntity
  8
_1
100
AcDbSpline
 62
7
  6
CONTINUOUS
 70
0
 71
3
 72
9
 73
5
 74
0
 42
0.0000001
 43
0.0000001
 44
0.0000000001
 40
0.0
 40
0.0
 40
0.0
 40
0.0
 40
0.2572975586
 40
1.0
 40
1.0
 40
1.0
 40
1.0
 10
61.3578901774
 20
122.0905105862
 30
0.0
 10
61.3672269633
 20
122.1079613751
 30
0.0
 10
61.4015154125
 20
122.1768256378
 30
0.0
 10
61.4273980736
 20
122.2499527209
 30
0.0
 10
61.4408512782
 20
122.3054754268
 30
0.0
  0
SPLINE
  5
439
100
AcDbEntity
  8
_1
100
AcDbSpline
 62
7
  6
CONTINUOUS
 70
0
 71
3
 72
9
 73
5
 74
0
 42
0.0000001
 43
0.0000001
 44
0.0000000001
 40
0.0
 40
0.0
 40
0.0
 40
0.0
 40
0.2511262597
 40
1.0
 40
1.0
 40
1.0
 40
1.0
 10
61.4408512782
 20
122.3054754268
 30
0.0
 10
61.444648572
 20
122.3211472338
 30
0.0
 10
61.457976353
 20
122.3839725208
 30
0.0
 10
61.4638693817
 20
122.4483885988
 30
0.0
 10
61.4638665257
 20
122.4964751914
 30
0.0
  0
SPLINE
  5
43A
100
AcDbEntity
  8
_1
100
AcDbSpline
 62
7
  6
CONTINUOUS
 70
0
 71
3
 72
9
 73
5
 74
0
 42
0.0000001
 43
0.0000001
 44
0.0000000001
 40
0.0
 40
0.0
 40
0.0
 40
0.0
 40
0.5055029026
 40
1.0
 40
1.0
 40
1.0
 40
1.0
 10
89.4031899362
 20
95.407294306
 30
0.0
 10
88.9397578537
 20
95.1621538648
 30
0.0
 10
88.031377015
 20
94.6611110923
 30
0.0
 10
87.1430207454
 20
94.1253044056
 30
0.0
 10
86.7091243164
 20
93.8518840798
 30
0.0
  0
SPLINE
  5
43B
100
AcDbEntity
  8
_1
100
AcDbSpline
 62
7
  6
CONTINUOUS
 70
0
 71
3
 72
15
 73
11
 74
0
 42
0.0000001
 43
0.0000001
 44
0.0000000001
 40
0.0
 40
0.0
 40
0.0
 40
0.0
 40
0.1410103617
 40
0.268142248
 40
0.3840528169
 40
0.4940612308
 40
0.6051140952
 40
0.7238286719
 40
0.8548177016
 40
1.0
 40
1.0
 40
1.0
 40
1.0
 10
19.5183830803
 20
135.6771350693
 30
0.0
 10
19.4331279462
 20
135.72098798
 30
0.0
 10
19.2635237096
 20
135.7912026938
 30
0.0
 10
19.0044378139
 20
135.8390999982
 30
0.0
 10
18.7618842698
 20
135.8193159287
 30
0.0
 10
18.5462356071
 20
135.730713824
 30
0.0
 10
18.3696666663
 20
135.5757669661
 30
0.0
 10
18.2389536666
 20
135.3646363708
 30
0.0
 10
18.1575250149
 20
135.1065583158
 30
0.0
 10
18.137053298
 20
134.9187531455
 30
0.0
 10
18.1340703865
 20
134.8200893505
 30
0.0
  0
SPLINE
  5
43C
100
AcDbEntity
  8
_1
100
AcDbSpline
 62
7
  6
CONTINUOUS
 70
0
 71
3
 72
15
 73
11
 74
0
 42
0.0000001
 43
0.0000001
 44
0.0000000001
 40
0.0
 40
0.0
 40
0.0
 40
0.0
 40
0.1361433087
 40
0.2605033809
 40
0.3758883805
 40
0.4874286087
 40
0.6010532497
 40
0.7221764584
 40
0.8546877299
 40
1.0
 40
1.0
 40
1.0
 40
1.0
 10
28.4254673647
 20
131.6745569779
 30
0.0
 10
28.4180804796
 20
131.6340365916
 30
0.0
 10
28.3973804914
 20
131.5574146889
 30
0.0
 10
28.3449838602
 20
131.4553688419
 30
0.0
 10
28.2732805471
 20
131.3751171361
 30
0.0
 10
28.1843296872
 20
131.3202357959
 30
0.0
 10
28.0817484407
 20
131.2929082042
 30
0.0
 10
27.9695113215
 20
131.2936465168
 30
0.0
 10
27.8512522751
 20
131.321512844
 30
0.0
 10
27.7739240649
 20
131.3556033027
 30
0.0
 10
27.7351179762
 20
131.3762613995
 30
0.0
  0
SPLINE
  5
43D
100
AcDbEntity
  8
_1
100
AcDbSpline
 62
7
  6
CONTINUOUS
 70
0
 71
3
 72
9
 73
5
 74
0
 42
0.0000001
 43
0.0000001
 44
0.0000000001
 40
0.0
 40
0.0
 40
0.0
 40
0.0
 40
0.2514044665
 40
1.0
 40
1.0
 40
1.0
 40
1.0
 10
66.1228802385
 20
110.4571742147
 30
0.0
 10
64.6668478143
 20
111.3486178774
 30
0.0
 10
58.8635721021
 20
114.8753505809
 30
0.0
 10
53.0134627501
 20
118.3250583147
 30
0.0
 10
48.608190949
 20
120.8620970324
 30
0.0
  0
SPLINE
  5
43E
100
AcDbEntity
  8
_1
100
AcDbSpline
 62
7
  6
CONTINUOUS
 70
0
 71
3
 72
9
 73
5
 74
0
 42
0.0000001
 43
0.0000001
 44
0.0000000001
 40
0.0
 40
0.0
 40
0.0
 40
0.0
 40
0.2514452585
 40
1.0
 40
1.0
 40
1.0
 40
1.0
 10
48.608190949
 20
120.8620970324
 30
0.0
 10
47.1513458821
 20
121.7011082234
 30
0.0
 10
41.3461337109
 20
125.0181516357
 30
0.0
 10
35.4955301219
 20
128.2557987738
 30
0.0
 10
31.091041297
 20
130.6325870341
 30
0.0
  0
SPLINE
  5
43F
100
AcDbEntity
  8
_1
100
AcDbSpline
 62
7
  6
CONTINUOUS
 70
0
 71
3
 72
11
 73
7
 74
0
 42
0.0000001
 43
0.0000001
 44
0.0000000001
 40
0.0
 40
0.0
 40
0.0
 40
0.0
 40
0.2345710571
 40
0.491676007
 40
0.7532126296
 40
1.0
 40
1.0
 40
1.0
 40
1.0
 10
70.8133988294
 20
106.5055670029
 30
0.0
 10
70.7265197016
 20
106.5596399656
 30
0.0
 10
70.5612492862
 20
106.7005210895
 30
0.0
 10
70.3613811955
 20
106.9638430752
 30
0.0
 10
70.213424675
 20
107.2654071687
 30
0.0
 10
70.1571553828
 20
107.4822122481
 30
0.0
 10
70.1437559864
 20
107.5890366993
 30
0.0
  0
SPLINE
  5
440
100
AcDbEntity
  8
_1
100
AcDbSpline
 62
7
  6
CONTINUOUS
 70
0
 71
3
 72
15
 73
11
 74
0
 42
0.0000001
 43
0.0000001
 44
0.0000000001
 40
0.0
 40
0.0
 40
0.0
 40
0.0
 40
0.1148587353
 40
0.2378792812
 40
0.3668370218
 40
0.4989376321
 40
0.6311851384
 40
0.7605711738
 40
0.8842704113
 40
1.0
 40
1.0
 40
1.0
 40
1.0
 10
80.3520702325
 20
98.8993230272
 30
0.0
 10
80.3520701924
 20
99.0091957204
 30
0.0
 10
80.3331682731
 20
99.2369401568
 30
0.0
 10
80.2577058685
 20
99.5805154327
 30
0.0
 10
80.1358974211
 20
99.9280280571
 30
0.0
 10
79.9726381557
 20
100.267828504
 30
0.0
 10
79.7728147167
 20
100.5879786397
 30
0.0
 10
79.5439041937
 20
100.8779453254
 30
0.0
 10
79.2931519787
 20
101.1273200715
 30
0.0
 10
79.1101983005
 20
101.2666818786
 30
0.0
 10
79.0169717916
 20
101.3263859781
 30
0.0
  0
SPLINE
  5
441
100
AcDbEntity
  8
_1
100
AcDbSpline
 62
7
  6
CONTINUOUS
 70
0
 71
3
 72
14
 73
10
 74
0
 42
0.0000001
 43
0.0000001
 44
0.0000000001
 40
0.0
 40
0.0
 40
0.0
 40
0.0
 40
0.0896385095
 40
0.1860586373
 40
0.2935486382
 40
0.4139132116
 40
0.5469399744
 40
0.6909551191
 40
1.0
 40
1.0
 40
1.0
 40
1.0
 10
43.0608243115
 20
138.1637474017
 30
0.0
 10
43.0608151855
 20
138.2217787201
 30
0.0
 10
43.082029626
 20
138.3429713906
 30
0.0
 10
43.1720049648
 20
138.5130932205
 30
0.0
 10
43.3146457721
 20
138.6695423822
 30
0.0
 10
43.5040689038
 20
138.8083380172
 30
0.0
 10
43.7340105533
 20
138.925841079
 30
0.0
 10
44.0926813273
 20
139.0519482441
 30
0.0
 10
44.3853012514
 20
139.0994912723
 30
0.0
 10
44.5849923977
 20
139.1118531004
 30
0.0
  0
SPLINE
  5
442
100
AcDbEntity
  8
_1
100
AcDbSpline
 62
7
  6
CONTINUOUS
 70
0
 71
3
 72
19
 73
15
 74
0
 42
0.0000001
 43
0.0000001
 44
0.0000000001
 40
0.0
 40
0.0
 40
0.0
 40
0.0
 40
0.0441587214
 40
0.0897007563
 40
0.1380167154
 40
0.1900687735
 40
0.2463640123
 40
0.3069369267
 40
0.4392841624
 40
0.5822433229
 40
0.7284561018
 40
0.869950329
 40
0.9368104581
 40
1.0
 40
1.0
 40
1.0
 40
1.0
 10
78.5101397088
 20
109.9318366592
 30
0.0
 10
78.5101322288
 20
110.0482082712
 30
0.0
 10
78.5397266743
 20
110.2855923173
 30
0.0
 10
78.6712988705
 20
110.6279903832
 30
0.0
 10
78.8849042081
 20
110.9509414283
 30
0.0
 10
79.174879678
 20
111.24775791
 30
0.0
 10
79.534632539
 20
111.512775775
 30
0.0
 10
80.1134296141
 20
111.8266771519
 30
0.0
 10
80.9627965593
 20
112.1019628732
 30
0.0
 10
82.0711143876
 20
112.2374097887
 30
0.0
 10
83.2099596199
 20
112.1760581106
 30
0.0
 10
84.1257784478
 20
111.9613481199
 30
0.0
 10
84.7900874504
 20
111.6923115169
 30
0.0
 10
85.0923552817
 20
111.5286744033
 30
0.0
 10
85.2332440678
 20
111.4399024687
 30
0.0
  0
SPLINE
  5
443
100
AcDbEntity
  8
_1
100
AcDbSpline
 62
7
  6
CONTINUOUS
 70
0
 71
3
 72
10
 73
6
 74
0
 42
0.0000001
 43
0.0000001
 44
0.0000000001
 40
0.0
 40
0.0
 40
0.0
 40
0.0
 40
0.2776491795
 40
0.543125284
 40
1.0
 40
1.0
 40
1.0
 40
1.0
 10
43.7519065337
 20
136.2978167307
 30
0.0
 10
43.7231401847
 20
136.2542621554
 30
0.0
 10
43.6727495604
 20
136.1649575672
 30
0.0
 10
43.6026044368
 20
135.990326311
 30
0.0
 10
43.5781254385
 20
135.8538536006
 30
0.0
 10
43.5785850504
 20
135.7679644662
 30
0.0
  0
SPLINE
  5
444
100
AcDbEntity
  8
_1
100
AcDbSpline
 62
7
  6
CONTINUOUS
 70
0
 71
3
 72
11
 73
7
 74
0
 42
0.0000001
 43
0.0000001
 44
0.0000000001
 40
0.0
 40
0.0
 40
0.0
 40
0.0
 40
0.2633720246
 40
0.5194563066
 40
0.7645025412
 40
1.0
 40
1.0
 40
1.0
 40
1.0
 10
35.8262592982
 20
132.7788453957
 30
0.0
 10
35.8631131099
 20
132.796034894
 30
0.0
 10
35.9387993618
 20
132.824028899
 30
0.0
 10
36.0565440761
 20
132.8420352463
 30
0.0
 10
36.1710320759
 20
132.8292680879
 30
0.0
 10
36.2403071785
 20
132.7984982948
 30
0.0
 10
36.2703936288
 20
132.77807847
 30
0.0
  0
SPLINE
  5
445
100
AcDbEntity
  8
_1
100
AcDbSpline
 62
7
  6
CONTINUOUS
 70
0
 71
3
 72
9
 73
5
 74
0
 42
0.0000001
 43
0.0000001
 44
0.0000000001
 40
0.0
 40
0.0
 40
0.0
 40
0.0
 40
0.243856717
 40
1.0
 40
1.0
 40
1.0
 40
1.0
 10
43.5785850354
 20
135.7679661428
 30
0.0
 10
43.5521593403
 20
135.7858251867
 30
0.0
 10
43.4427707571
 20
135.8575420136
 30
0.0
 10
43.3295605085
 20
135.923378808
 30
0.0
 10
43.2424076319
 20
135.970124083
 30
0.0
  0
SPLINE
  5
446
100
AcDbEntity
  8
_1
100
AcDbSpline
 62
7
  6
CONTINUOUS
 70
0
 71
3
 72
20
 73
16
 74
0
 42
0.0000001
 43
0.0000001
 44
0.0000000001
 40
0.0
 40
0.0
 40
0.0
 40
0.0
 40
0.1277557325
 40
0.2694466221
 40
0.4174651111
 40
0.4913364015
 40
0.563291299
 40
0.632472798
 40
0.6983025185
 40
0.759457017
 40
0.8161217141
 40
0.8676878607
 40
0.9150148274
 40
0.9584464317
 40
1.0
 40
1.0
 40
1.0
 40
1.0
 10
43.2424076559
 20
135.9701224462
 30
0.0
 10
42.9016281586
 20
136.1529027768
 30
0.0
 10
42.1304439584
 20
136.4423804454
 30
0.0
 10
40.8790457177
 20
136.6537875044
 30
0.0
 10
39.7729926808
 20
136.6561389462
 30
0.0
 10
38.8891976373
 20
136.5493685133
 30
0.0
 10
38.2509662163
 20
136.4176676472
 30
0.0
 10
37.650690313
 20
136.235342269
 30
0.0
 10
37.1006849467
 20
136.0088385834
 30
0.0
 10
36.6122241212
 20
135.7407318497
 30
0.0
 10
36.1967037897
 20
135.437595449
 30
0.0
 10
35.8609097515
 20
135.1044211773
 30
0.0
 10
35.6146048646
 20
134.7473844413
 30
0.0
 10
35.4629660173
 20
134.3727066277
 30
0.0
 10
35.4308196324
 20
134.1138946673
 30
0.0
 10
35.4319031861
 20
133.9881210637
 30
0.0
  0
SPLINE
  5
447
100
AcDbEntity
  8
_1
100
AcDbSpline
 62
7
  6
CONTINUOUS
 70
0
 71
3
 72
17
 73
13
 74
0
 42
0.0000001
 43
0.0000001
 44
0.0000000001
 40
0.0
 40
0.0
 40
0.0
 40
0.0
 40
0.0417967556
 40
0.0856664423
 40
0.1330786532
 40
0.1849337481
 40
0.3026975393
 40
0.4373661472
 40
0.5827324061
 40
0.7305497397
 40
0.8721493888
 40
1.0
 40
1.0
 40
1.0
 40
1.0
 10
32.3564049688
 20
131.9033143768
 30
0.0
 10
32.3563977216
 20
131.9489233755
 30
0.0
 10
32.3691526335
 20
132.0428058294
 30
0.0
 10
32.4246026541
 20
132.1784112916
 30
0.0
 10
32.5143796651
 20
132.307535184
 30
0.0
 10
32.6835684741
 20
132.4747569399
 30
0.0
 10
32.9711351042
 20
132.6491621087
 30
0.0
 10
33.3840558306
 20
132.7903865276
 30
0.0
 10
33.8476404364
 20
132.862211135
 30
0.0
 10
34.324186322
 20
132.8584493802
 30
0.0
 10
34.7747190176
 20
132.7796182695
 30
0.0
 10
35.0521508125
 20
132.6738408992
 30
0.0
 10
35.174819745
 20
132.6073889554
 30
0.0
  0
SPLINE
  5
448
100
AcDbEntity
  8
_1
100
AcDbSpline
 62
7
  6
CONTINUOUS
 70
0
 71
3
 72
12
 73
8
 74
0
 42
0.0000001
 43
0.0000001
 44
0.0000000001
 40
0.0
 40
0.0
 40
0.0
 40
0.0
 40
0.1087723047
 40
0.2198103811
 40
0.454257255
 40
0.7131469936
 40
1.0
 40
1.0
 40
1.0
 40
1.0
 10
77.3672208015
 20
108.9211370761
 30
0.0
 10
77.3672305343
 20
108.8207818118
 30
0.0
 10
77.3840092445
 20
108.6175993757
 30
0.0
 10
77.4850462939
 20
108.2093038532
 30
0.0
 10
77.7432943481
 20
107.7059036492
 30
0.0
 10
78.2255491075
 20
107.1639610076
 30
0.0
 10
78.6315849341
 20
106.8606457995
 30
0.0
 10
78.8554926948
 20
106.7195502672
 30
0.0
  0
SPLINE
  5
449
100
AcDbEntity
  8
_1
100
AcDbSpline
 62
7
  6
CONTINUOUS
 70
0
 71
3
 72
20
 73
16
 74
0
 42
0.0000001
 43
0.0000001
 44
0.0000000001
 40
0.0
 40
0.0
 40
0.0
 40
0.0
 40
0.0444479666
 40
0.0902268552
 40
0.1387044798
 40
0.1908343936
 40
0.2471067791
 40
0.3075954926
 40
0.3720313093
 40
0.439877736
 40
0.5825754928
 40
0.7286102109
 40
0.8700434427
 40
0.9368620864
 40
1.0
 40
1.0
 40
1.0
 40
1.0
 10
87.5297387631
 20
109.6912162206
 30
0.0
 10
87.5297533498
 20
109.5398882737
 30
0.0
 10
87.4916388044
 20
109.2314437587
 30
0.0
 10
87.322403361
 20
108.7863094199
 30
0.0
 10
87.0466728871
 20
108.3669207298
 30
0.0
 10
86.672301347
 20
107.9821545551
 30
0.0
 10
86.2081827323
 20
107.63904544
 30
0.0
 10
85.6643611846
 20
107.344143247
 30
0.0
 10
85.052264856
 20
107.1032727576
 30
0.0
 10
84.1476548944
 20
106.8564813529
 30
0.0
 10
82.9340853467
 20
106.7142127029
 30
0.0
 10
81.4654047154
 20
106.800420234
 30
0.0
 10
80.2844081001
 20
107.0825557726
 30
0.0
 10
79.4273227737
 20
107.4314382841
 30
0.0
 10
79.0373614647
 20
107.643134459
 30
0.0
 10
78.8554926948
 20
107.7577272736
 30
0.0
  0
LINE
  5
44A
100
AcDbEntity
  8
_1
100
AcDbLine
 62
7
  6
CONTINUOUS
 10
73.9575365105
 20
120.1281967873
 11
74.4903879495
 21
120.4223798628
  0
SPLINE
  5
44B
100
AcDbEntity
  8
_1
100
AcDbSpline
 62
7
  6
CONTINUOUS
 70
0
 71
3
 72
9
 73
5
 74
0
 42
0.0000001
 43
0.0000001
 44
0.0000000001
 40
0.0
 40
0.0
 40
0.0
 40
0.0
 40
0.2498605687
 40
1.0
 40
1.0
 40
1.0
 40
1.0
 10
93.3067354667
 20
101.941691766
 30
0.0
 10
93.320279133
 20
101.8232971606
 30
0.0
 10
93.3746846765
 20
101.3494775683
 30
0.0
 10
93.4285471825
 20
100.8755947539
 30
0.0
 10
93.4681646719
 20
100.5200288178
 30
0.0
  0
SPLINE
  5
44C
100
AcDbEntity
  8
_1
100
AcDbSpline
 62
7
  6
CONTINUOUS
 70
0
 71
3
 72
9
 73
5
 74
0
 42
0.0000001
 43
0.0000001
 44
0.0000000001
 40
0.0
 40
0.0
 40
0.0
 40
0.0
 40
0.2498733543
 40
1.0
 40
1.0
 40
1.0
 40
1.0
 10
83.4109570635
 20
94.7135319579
 30
0.0
 10
83.4204276751
 20
94.8453212811
 30
0.0
 10
83.4588577309
 20
95.3727077013
 30
0.0
 10
83.4979960747
 20
95.9000419624
 30
0.0
 10
83.5273731383
 20
96.2956079957
 30
0.0
  0
SPLINE
  5
44D
100
AcDbEntity
  8
_1
100
AcDbSpline
 62
7
  6
CONTINUOUS
 70
0
 71
3
 72
15
 73
11
 74
0
 42
0.0000001
 43
0.0000001
 44
0.0000000001
 40
0.0
 40
0.0
 40
0.0
 40
0.0
 40
0.1157820444
 40
0.2395469654
 40
0.3689950557
 40
0.501286374
 40
0.6333998799
 40
0.7623294933
 40
0.8852726721
 40
1.0
 40
1.0
 40
1.0
 40
1.0
 10
79.3953646694
 20
101.9295300173
 30
0.0
 10
79.5119280377
 20
101.8549071316
 30
0.0
 10
79.7407366161
 20
101.680779768
 30
0.0
 10
80.0545360841
 20
101.3693151861
 30
0.0
 10
80.3412389561
 20
101.0072265417
 30
0.0
 10
80.5917641213
 20
100.6075109502
 30
0.0
 10
80.7967419123
 20
100.1833200239
 30
0.0
 10
80.9500295857
 20
99.7495588352
 30
0.0
 10
81.0454772751
 20
99.3207663099
 30
0.0
 10
81.0699267645
 20
99.036493364
 30
0.0
 10
81.0703349873
 20
98.8993510252
 30
0.0
  0
SPLINE
  5
44E
100
AcDbEntity
  8
_1
100
AcDbSpline
 62
7
  6
CONTINUOUS
 70
0
 71
3
 72
15
 73
11
 74
0
 42
0.0000001
 43
0.0000001
 44
0.0000000001
 40
0.0
 40
0.0
 40
0.0
 40
0.0
 40
0.1129559041
 40
0.2342051631
 40
0.3617334353
 40
0.4929946553
 40
0.6252045961
 40
0.7555446574
 40
0.8812568587
 40
1.0
 40
1.0
 40
1.0
 40
1.0
 10
95.6442535521
 20
107.3135566052
 30
0.0
 10
95.6407498207
 20
107.4425497204
 30
0.0
 10
95.6123024785
 20
107.7096310344
 30
0.0
 10
95.5168289951
 20
108.1126164099
 30
0.0
 10
95.3689595039
 20
108.5217465976
 30
0.0
 10
95.1741125187
 20
108.9245441829
 30
0.0
 10
94.9376249637
 20
109.3081622172
 30
0.0
 10
94.6674753172
 20
109.6609749765
 30
0.0
 10
94.3716587177
 20
109.971657355
 30
0.0
 10
94.1561244774
 20
110.1506158218
 30
0.0
 10
94.0460059401
 20
110.2298331133
 30
0.0
  0
SPLINE
  5
44F
100
AcDbEntity
  8
_1
100
AcDbSpline
 62
7
  6
CONTINUOUS
 70
0
 71
3
 72
11
 73
7
 74
0
 42
0.0000001
 43
0.0000001
 44
0.0000000001
 40
0.0
 40
0.0
 40
0.0
 40
0.0
 40
0.2266175682
 40
0.5000007566
 40
0.773383295
 40
1.0
 40
1.0
 40
1.0
 40
1.0
 10
80.3520234838
 20
98.8993490554
 30
0.0
 10
80.4010448198
 20
98.8720518942
 30
0.0
 10
80.5193403854
 20
98.8299380342
 30
0.0
 10
80.7111796265
 20
98.8091553624
 30
0.0
 10
80.9030186396
 20
98.8299390002
 30
0.0
 10
81.0213134248
 20
98.8720536894
 30
0.0
 10
81.0703345542
 20
98.8993507822
 30
0.0
  0
SPLINE
  5
450
100
AcDbEntity
  8
_1
100
AcDbSpline
 62
7
  6
CONTINUOUS
 70
0
 71
3
 72
11
 73
7
 74
0
 42
0.0000001
 43
0.0000001
 44
0.0000000001
 40
0.0
 40
0.0
 40
0.0
 40
0.0
 40
0.2284808029
 40
0.502271578
 40
0.7747374089
 40
1.0
 40
1.0
 40
1.0
 40
1.0
 10
79.3953646695
 20
101.9295300173
 30
0.0
 10
79.3468732534
 20
101.9015883518
 30
0.0
 10
79.2500236727
 20
101.8231353719
 30
0.0
 10
79.1320467647
 20
101.672751641
 30
0.0
 10
79.048241726
 20
101.5018409523
 30
0.0
 10
79.0204225662
 20
101.3814026665
 30
0.0
 10
79.0169684986
 20
101.3263335235
 30
0.0
  0
SPLINE
  5
451
100
AcDbEntity
  8
_1
100
AcDbSpline
 62
7
  6
CONTINUOUS
 70
0
 71
3
 72
9
 73
5
 74
0
 42
0.0000001
 43
0.0000001
 44
0.0000000001
 40
0.0
 40
0.0
 40
0.0
 40
0.0
 40
0.2488269488
 40
1.0
 40
1.0
 40
1.0
 40
1.0
 10
58.9950726316
 20
128.1719607481
 30
0.0
 10
60.1907267479
 20
127.4874672006
 30
0.0
 10
64.9883188849
 20
124.7233790288
 30
0.0
 10
69.7556522046
 20
121.9067893348
 30
0.0
 10
73.3195046244
 20
119.7626174475
 30
0.0
  0
SPLINE
  5
452
100
AcDbEntity
  8
_1
100
AcDbSpline
 62
7
  6
CONTINUOUS
 70
0
 71
3
 72
11
 73
7
 74
0
 42
0.0000001
 43
0.0000001
 44
0.0000000001
 40
0.0
 40
0.0
 40
0.0
 40
0.0
 40
0.2280151005
 40
0.5013082999
 40
0.7738373519
 40
1.0
 40
1.0
 40
1.0
 40
1.0
 10
71.1863093187
 20
107.1122213274
 30
0.0
 10
71.1378723293
 20
107.0842951511
 30
0.0
 10
71.0412917337
 20
107.00558525
 30
0.0
 10
70.9244195395
 20
106.8543012976
 30
0.0
 10
70.8423422939
 20
106.6821489275
 30
0.0
 10
70.8161033294
 20
106.5609575672
 30
0.0
 10
70.8133988304
 20
106.5055670244
 30
0.0
  0
SPLINE
  5
453
100
AcDbEntity
  8
_1
100
AcDbSpline
 62
7
  6
CONTINUOUS
 70
0
 71
3
 72
11
 73
7
 74
0
 42
0.0000001
 43
0.0000001
 44
0.0000000001
 40
0.0
 40
0.0
 40
0.0
 40
0.0
 40
0.231574813
 40
0.5100194544
 40
0.7826675105
 40
1.0
 40
1.0
 40
1.0
 40
1.0
 10
70.8566645334
 20
107.6569448901
 30
0.0
 10
70.8071884182
 20
107.6295143091
 30
0.0
 10
70.6899803856
 20
107.5839648922
 30
0.0
 10
70.501080366
 20
107.5486986319
 30
0.0
 10
70.3124298131
 20
107.5472909833
 30
0.0
 10
70.1935350866
 20
107.5705754697
 30
0.0
 10
70.1437559941
 20
107.5890367036
 30
0.0
  0
SPLINE
  5
454
100
AcDbEntity
  8
_1
100
AcDbSpline
 62
7
  6
CONTINUOUS
 70
0
 71
3
 72
11
 73
7
 74
0
 42
0.0000001
 43
0.0000001
 44
0.0000000001
 40
0.0
 40
0.0
 40
0.0
 40
0.0
 40
0.2477615438
 40
0.5092125533
 40
0.7657159408
 40
1.0
 40
1.0
 40
1.0
 40
1.0
 10
70.8566614991
 20
107.656943277
 30
0.0
 10
70.8626150626
 20
107.603196734
 30
0.0
 10
70.8896100823
 20
107.4942346758
 30
0.0
 10
70.9615379662
 20
107.3422374122
 30
0.0
 10
71.0607918495
 20
107.2101598366
 30
0.0
 10
71.1429098523
 20
107.1392641327
 30
0.0
 10
71.1863063179
 20
107.1122195998
 30
0.0
  0
SPLINE
  5
455
100
AcDbEntity
  8
_1
100
AcDbSpline
 62
7
  6
CONTINUOUS
 70
0
 71
3
 72
11
 73
7
 74
0
 42
0.0000001
 43
0.0000001
 44
0.0000000001
 40
0.0
 40
0.0
 40
0.0
 40
0.0
 40
0.2358944115
 40
0.494047484
 40
0.7553829959
 40
1.0
 40
1.0
 40
1.0
 40
1.0
 10
85.6978555209
 20
115.4904164274
 30
0.0
 10
85.6541941532
 20
115.5174859761
 30
0.0
 10
85.5709312585
 20
115.5874675188
 30
0.0
 10
85.4675622635
 20
115.7165692789
 30
0.0
 10
85.38926045
 20
115.8644041815
 30
0.0
 10
85.3564758932
 20
115.9706746892
 30
0.0
 10
85.3475041959
 20
116.0231852691
 30
0.0
  0
SPLINE
  5
456
100
AcDbEntity
  8
_1
100
AcDbSpline
 62
7
  6
CONTINUOUS
 70
0
 71
3
 72
10
 73
6
 74
0
 42
0.0000001
 43
0.0000001
 44
0.0000000001
 40
0.0
 40
0.0
 40
0.0
 40
0.0
 40
0.2278318588
 40
0.4663717646
 40
1.0
 40
1.0
 40
1.0
 40
1.0
 10
28.3492948621
 20
132.3191627377
 30
0.0
 10
28.3455129088
 20
132.2977998333
 30
0.0
 10
28.3443958507
 20
132.2526410596
 30
0.0
 10
28.3690067848
 20
132.1596417188
 30
0.0
 10
28.4148492154
 20
132.0982947696
 30
0.0
 10
28.4513278457
 20
132.06291963
 30
0.0
  0
SPLINE
  5
457
100
AcDbEntity
  8
_1
100
AcDbSpline
 62
7
  6
CONTINUOUS
 70
0
 71
3
 72
13
 73
9
 74
0
 42
0.0000001
 43
0.0000001
 44
0.0000000001
 40
0.0
 40
0.0
 40
0.0
 40
0.0
 40
0.2332878182
 40
0.3676458984
 40
0.5070678586
 40
0.6453940692
 40
0.7766983129
 40
1.0
 40
1.0
 40
1.0
 40
1.0
 10
77.9214553498
 20
117.1467289941
 30
0.0
 10
77.8430660637
 20
117.110011429
 30
0.0
 10
77.7285316988
 20
117.0318338291
 30
0.0
 10
77.5949566697
 20
116.8990395931
 30
0.0
 10
77.4999396125
 20
116.7786642131
 30
0.0
 10
77.4218142299
 20
116.6479833197
 30
0.0
 10
77.3480069378
 20
116.4804484182
 30
0.0
 10
77.3185345458
 20
116.3495597907
 30
0.0
 10
77.3151842618
 20
116.2667704877
 30
0.0
  0
SPLINE
  5
458
100
AcDbEntity
  8
_1
100
AcDbSpline
 62
7
  6
CONTINUOUS
 70
0
 71
3
 72
11
 73
7
 74
0
 42
0.0000001
 43
0.0000001
 44
0.0000000001
 40
0.0
 40
0.0
 40
0.0
 40
0.0
 40
0.2694531858
 40
0.5278839987
 40
0.770574544
 40
1.0
 40
1.0
 40
1.0
 40
1.0
 10
69.6514861104
 20
113.2733922486
 30
0.0
 10
69.6887789994
 20
113.2908702047
 30
0.0
 10
69.7647739957
 20
113.3193763973
 30
0.0
 10
69.8821805137
 20
113.3379292678
 30
0.0
 10
69.9947183173
 20
113.3252283861
 30
0.0
 10
70.0615384459
 20
113.2934204524
 30
0.0
 10
70.0896912397
 20
113.2725127409
 30
0.0
  0
SPLINE
  5
459
100
AcDbEntity
  8
_1
100
AcDbSpline
 62
7
  6
CONTINUOUS
 70
0
 71
3
 72
9
 73
5
 74
0
 42
0.0000001
 43
0.0000001
 44
0.0000000001
 40
0.0
 40
0.0
 40
0.0
 40
0.0
 40
0.2450618151
 40
1.0
 40
1.0
 40
1.0
 40
1.0
 10
77.3151842739
 20
116.2667706483
 30
0.0
 10
77.290946837
 20
116.2850156
 30
0.0
 10
77.1911235986
 20
116.3582396963
 30
0.0
 10
77.0878148201
 20
116.4266822463
 30
0.0
 10
77.0083156652
 20
116.4758140848
 30
0.0
  0
SPLINE
  5
45A
100
AcDbEntity
  8
_1
100
AcDbSpline
 62
7
  6
CONTINUOUS
 70
0
 71
3
 72
20
 73
16
 74
0
 42
0.0000001
 43
0.0000001
 44
0.0000000001
 40
0.0
 40
0.0
 40
0.0
 40
0.0
 40
0.1295587356
 40
0.2712313457
 40
0.4178389206
 40
0.4906242276
 40
0.561495095
 40
0.6295196358
 40
0.6943781974
 40
0.7547915395
 40
0.8111282434
 40
0.8629230335
 40
0.9111238393
 40
0.9561779163
 40
1.0
 40
1.0
 40
1.0
 40
1.0
 10
77.00831559
 20
116.4758124381
 30
0.0
 10
76.6706423454
 20
116.6845002798
 30
0.0
 10
75.9042475829
 20
117.0274751589
 30
0.0
 10
74.6489119436
 20
117.3092238955
 30
0.0
 10
73.537387138
 20
117.3591514842
 30
0.0
 10
72.6505095862
 20
117.2814475404
 30
0.0
 10
72.0111428348
 20
117.1666537749
 30
0.0
 10
71.409625781
 20
116.9957198894
 30
0.0
 10
70.8587369091
 20
116.7749735767
 30
0.0
 10
70.3694579745
 20
116.5067738216
 30
0.0
 10
69.9535168187
 20
116.1975759745
 30
0.0
 10
69.6177843386
 20
115.8525334331
 30
0.0
 10
69.3725248483
 20
115.47814748
 30
0.0
 10
69.2227573872
 20
115.0817740873
 30
0.0
 10
69.1923585753
 20
114.8077785998
 30
0.0
 10
69.1939389459
 20
114.6735211819
 30
0.0
  0
SPLINE
  5
45B
100
AcDbEntity
  8
_1
100
AcDbSpline
 62
7
  6
CONTINUOUS
 70
0
 71
3
 72
11
 73
7
 74
0
 42
0.0000001
 43
0.0000001
 44
0.0000000001
 40
0.0
 40
0.0
 40
0.0
 40
0.0
 40
0.2197292065
 40
0.453821004
 40
0.7127534792
 40
1.0
 40
1.0
 40
1.0
 40
1.0
 10
43.0744543382
 20
141.0286922778
 30
0.0
 10
43.0904008822
 20
141.0379056374
 30
0.0
 10
43.126770334
 20
141.0514557085
 30
0.0
 10
43.1872067978
 20
141.0543642689
 30
0.0
 10
43.2517321668
 20
141.0406759515
 30
0.0
 10
43.2939607756
 20
141.0222621858
 30
0.0
 10
43.3151921932
 20
141.0109100156
 30
0.0
  0
SPLINE
  5
45C
100
AcDbEntity
  8
_1
100
AcDbSpline
 62
7
  6
CONTINUOUS
 70
0
 71
3
 72
9
 73
5
 74
0
 42
0.0000001
 43
0.0000001
 44
0.0000000001
 40
0.0
 40
0.0
 40
0.0
 40
0.0
 40
0.2512208843
 40
1.0
 40
1.0
 40
1.0
 40
1.0
 10
73.9517043272
 20
120.1181519939
 30
0.0
 10
72.707547103
 20
120.868202148
 30
0.0
 10
67.7467898119
 20
123.8400075171
 30
0.0
 10
62.752811582
 20
126.7563771406
 30
0.0
 10
58.9950327649
 20
128.9077159548
 30
0.0
  0
SPLINE
  5
45D
100
AcDbEntity
  8
_1
100
AcDbSpline
 62
7
  6
CONTINUOUS
 70
0
 71
3
 72
11
 73
7
 74
0
 42
0.0000001
 43
0.0000001
 44
0.0000000001
 40
0.0
 40
0.0
 40
0.0
 40
0.0
 40
0.2221683889
 40
0.4570810119
 40
0.7147330601
 40
1.0
 40
1.0
 40
1.0
 40
1.0
 10
18.6772043505
 20
136.3714944282
 30
0.0
 10
18.7561725605
 20
136.4170522964
 30
0.0
 10
18.9348788581
 20
136.4848241208
 30
0.0
 10
19.2311939614
 20
136.5035747022
 30
0.0
 10
19.5472326999
 20
136.4422997069
 30
0.0
 10
19.7542097505
 20
136.3560553095
 30
0.0
 10
19.8582975208
 20
136.3024941432
 30
0.0
  0
SPLINE
  5
45E
100
AcDbEntity
  8
_1
100
AcDbSpline
 62
7
  6
CONTINUOUS
 70
0
 71
3
 72
23
 73
19
 74
0
 42
0.0000001
 43
0.0000001
 44
0.0000000001
 40
0.0
 40
0.0
 40
0.0
 40
0.0
 40
0.0604154902
 40
0.1146270412
 40
0.1631272914
 40
0.2086584862
 40
0.2539247432
 40
0.302526389
 40
0.3565445452
 40
0.4167336299
 40
0.483435202
 40
0.5549904659
 40
0.6307146813
 40
0.708165021
 40
0.7856745615
 40
0.8614145384
 40
0.9330525238
 40
1.0
 40
1.0
 40
1.0
 40
1.0
 10
56.9173976049
 20
121.6507632479
 30
0.0
 10
56.7811148163
 20
121.7301598467
 30
0.0
 10
56.5336204244
 20
121.9018554239
 30
0.0
 10
56.238395678
 20
122.2139093445
 30
0.0
 10
56.0513834943
 20
122.5589822658
 30
0.0
 10
55.9866902714
 20
122.9241022725
 30
0.0
 10
56.0515463263
 20
123.2894120944
 30
0.0
 10
56.2386451874
 20
123.6334696748
 30
0.0
 10
56.534348129
 20
123.9440741756
 30
0.0
 10
56.9255914478
 20
124.2133618641
 30
0.0
 10
57.3971606672
 20
124.4327152269
 30
0.0
 10
57.9332114648
 20
124.595488758
 30
0.0
 10
58.5127560663
 20
124.6953547638
 30
0.0
 10
59.1153588255
 20
124.7287058376
 30
0.0
 10
59.717929779
 20
124.6941964525
 30
0.0
 10
60.2977025252
 20
124.5929359167
 30
0.0
 10
60.834045345
 20
124.4284759638
 30
0.0
 10
61.1631349558
 20
124.2739350513
 30
0.0
 10
61.3141506647
 20
124.185951412
 30
0.0
  0
SPLINE
  5
45F
100
AcDbEntity
  8
_1
100
AcDbSpline
 62
7
  6
CONTINUOUS
 70
0
 71
3
 72
20
 73
16
 74
0
 42
0.0000001
 43
0.0000001
 44
0.0000000001
 40
0.0
 40
0.0
 40
0.0
 40
0.0
 40
0.0631385216
 40
0.1299546053
 40
0.2713834162
 40
0.4174169664
 40
0.5601173693
 40
0.6279647711
 40
0.6924013918
 40
0.7528887935
 40
0.809160174
 40
0.8612915821
 40
0.9097714621
 40
0.9555501821
 40
1.0
 40
1.0
 40
1.0
 40
1.0
 10
78.8554926948
 20
106.7195502672
 30
0.0
 10
79.0373595091
 20
106.6049468479
 30
0.0
 10
79.4273104993
 20
106.3932372726
 30
0.0
 10
80.2843665179
 20
106.0443182971
 30
0.0
 10
81.465335216
 20
105.7621425142
 30
0.0
 10
82.9340147691
 20
105.6758488261
 30
0.0
 10
84.1476072885
 20
105.8180807836
 30
0.0
 10
85.0522540728
 20
106.0648377241
 30
0.0
 10
85.6643380479
 20
106.3057580617
 30
0.0
 10
86.2081804776
 20
106.6006176591
 30
0.0
 10
86.67230819
 20
106.9437242223
 30
0.0
 10
87.0466655014
 20
107.3285247375
 30
0.0
 10
87.3223949007
 20
107.7479315508
 30
0.0
 10
87.491645225
 20
108.1930797883
 30
0.0
 10
87.5297513531
 20
108.5015346268
 30
0.0
 10
87.5297354794
 20
108.6528702345
 30
0.0
  0
SPLINE
  5
460
100
AcDbEntity
  8
_1
100
AcDbSpline
 62
7
  6
CONTINUOUS
 70
0
 71
3
 72
9
 73
5
 74
0
 42
0.0000001
 43
0.0000001
 44
0.0000000001
 40
0.0
 40
0.0
 40
0.0
 40
0.0
 40
0.2744372254
 40
1.0
 40
1.0
 40
1.0
 40
1.0
 10
61.3141506647
 20
124.185951412
 30
0.0
 10
61.3897323981
 20
124.1419165541
 30
0.0
 10
61.6573928263
 20
123.9696566324
 30
0.0
 10
61.8950878335
 20
123.7428644519
 30
0.0
 10
62.0214505304
 20
123.5491739957
 30
0.0
  0
SPLINE
  5
461
100
AcDbEntity
  8
_1
100
AcDbSpline
 62
7
  6
CONTINUOUS
 70
0
 71
3
 72
19
 73
15
 74
0
 42
0.0000001
 43
0.0000001
 44
0.0000000001
 40
0.0
 40
0.0
 40
0.0
 40
0.0
 40
0.0467646543
 40
0.0917567777
 40
0.136642319
 40
0.1831792158
 40
0.2332736976
 40
0.2872823838
 40
0.3464583408
 40
0.4098695043
 40
0.5493079865
 40
0.6998108006
 40
0.853003513
 40
1.0
 40
1.0
 40
1.0
 40
1.0
 10
62.0834443282
 20
123.4446209931
 30
0.0
 10
62.1276383931
 20
123.3619825821
 30
0.0
 10
62.1975434083
 20
123.1898106143
 30
0.0
 10
62.2355541195
 20
122.9156883229
 30
0.0
 10
62.2016464715
 20
122.6413436167
 30
0.0
 10
62.0974017775
 20
122.3747726297
 30
0.0
 10
61.9270914154
 20
122.1229542176
 30
0.0
 10
61.695119602
 20
121.8899310763
 30
0.0
 10
61.4078928269
 20
121.6810097055
 30
0.0
 10
60.9444215733
 20
121.4315344952
 30
0.0
 10
60.2658078036
 20
121.2098343389
 30
0.0
 10
59.3810449906
 20
121.094082166
 30
0.0
 10
58.474515424
 20
121.1296073197
 30
0.0
 10
57.8823639279
 20
121.2570921585
 30
0.0
 10
57.6023544905
 20
121.3485654856
 30
0.0
  0
SPLINE
  5
462
100
AcDbEntity
  8
_1
100
AcDbSpline
 62
7
  6
CONTINUOUS
 70
0
 71
3
 72
9
 73
5
 74
0
 42
0.0000001
 43
0.0000001
 44
0.0000000001
 40
0.0
 40
0.0
 40
0.0
 40
0.0
 40
0.2568109162
 40
1.0
 40
1.0
 40
1.0
 40
1.0
 10
57.3772297382
 20
121.4295487549
 30
0.0
 10
57.3365738905
 20
121.4455855531
 30
0.0
 10
57.1793595166
 20
121.5107420224
 30
0.0
 10
57.0266808006
 20
121.5870954144
 30
0.0
 10
56.9173976049
 20
121.6507632479
 30
0.0
  0
SPLINE
  5
463
100
AcDbEntity
  8
_1
100
AcDbSpline
 62
7
  6
CONTINUOUS
 70
0
 71
3
 72
12
 73
8
 74
0
 42
0.0000001
 43
0.0000001
 44
0.0000000001
 40
0.0
 40
0.0
 40
0.0
 40
0.0
 40
0.2859734179
 40
0.5445653661
 40
0.77940166
 40
0.8908083973
 40
1.0
 40
1.0
 40
1.0
 40
1.0
 10
85.2332440678
 20
111.4399024687
 30
0.0
 10
85.4069283769
 20
111.3304665615
 30
0.0
 10
85.7220526675
 20
111.094704438
 30
0.0
 10
86.0955412078
 20
110.6721969581
 30
0.0
 10
86.2955431289
 20
110.2797560228
 30
0.0
 10
86.3739838687
 20
109.9611603931
 30
0.0
 10
86.386776713
 20
109.8024810322
 30
0.0
 10
86.3866944499
 20
109.7240977831
 30
0.0
  0
SPLINE
  5
464
100
AcDbEntity
  8
_1
100
AcDbSpline
 62
7
  6
CONTINUOUS
 70
0
 71
3
 72
12
 73
8
 74
0
 42
0.0000001
 43
0.0000001
 44
0.0000000001
 40
0.0
 40
0.0
 40
0.0
 40
0.0
 40
0.2868578865
 40
0.5457390824
 40
0.7801831156
 40
0.8912233753
 40
1.0
 40
1.0
 40
1.0
 40
1.0
 10
78.8554926948
 20
107.7577272736
 30
0.0
 10
78.6315820291
 20
107.8988100632
 30
0.0
 10
78.2255512043
 20
108.2021000566
 30
0.0
 10
77.7433028688
 20
108.7440047602
 30
0.0
 10
77.4850399592
 20
109.2473695306
 30
0.0
 10
77.3840139902
 20
109.6556569099
 30
0.0
 10
77.3672289626
 20
109.8588377844
 30
0.0
 10
77.3672188845
 20
109.9591936829
 30
0.0
  0
SPLINE
  5
465
100
AcDbEntity
  8
_1
100
AcDbSpline
 62
7
  6
CONTINUOUS
 70
0
 71
3
 72
17
 73
13
 74
0
 42
0.0000001
 43
0.0000001
 44
0.0000000001
 40
0.0
 40
0.0
 40
0.0
 40
0.0
 40
0.0437927792
 40
0.0890847525
 40
0.1372856731
 40
0.1893443428
 40
0.30616575
 40
0.4389494969
 40
0.582372095
 40
0.7289208568
 40
0.8705079524
 40
1.0
 40
1.0
 40
1.0
 40
1.0
 10
78.1198955343
 20
117.9843387766
 30
0.0
 10
78.1198855972
 20
118.0325901978
 30
0.0
 10
78.1323675287
 20
118.1311547659
 30
0.0
 10
78.1875004824
 20
118.2734016826
 30
0.0
 10
78.2771697353
 20
118.4077246651
 30
0.0
 10
78.4456910696
 20
118.5790726449
 30
0.0
 10
78.7334768578
 20
118.7547672284
 30
0.0
 10
79.1476705689
 20
118.8902224571
 30
0.0
 10
79.6122526595
 20
118.9495604616
 30
0.0
 10
80.0896409385
 20
118.9277014498
 30
0.0
 10
80.5409351163
 20
118.8266864888
 30
0.0
 10
80.8166390735
 20
118.7041657525
 30
0.0
 10
80.9382818553
 20
118.629604004
 30
0.0
  0
SPLINE
  5
466
100
AcDbEntity
  8
_1
100
AcDbSpline
 62
7
  6
CONTINUOUS
 70
0
 71
3
 72
21
 73
17
 74
0
 42
0.0000001
 43
0.0000001
 44
0.0000000001
 40
0.0
 40
0.0
 40
0.0
 40
0.0
 40
0.0415029767
 40
0.0851786609
 40
0.1324878824
 40
0.1843126998
 40
0.2409880473
 40
0.3024084908
 40
0.3681261132
 40
0.4374309248
 40
0.5829928227
 40
0.7308989982
 40
0.8030263447
 40
0.8724886784
 40
0.9384136366
 40
1.0
 40
1.0
 40
1.0
 40
1.0
 10
36.4111504049
 20
139.4718447742
 30
0.0
 10
36.411165209
 20
139.3325573186
 30
0.0
 10
36.3718474372
 20
139.0454608333
 30
0.0
 10
36.2011970741
 20
138.6305881772
 30
0.0
 10
35.9249896631
 20
138.2349145894
 30
0.0
 10
35.5509647243
 20
137.8660848925
 30
0.0
 10
35.0875941262
 20
137.5305511319
 30
0.0
 10
34.5446293841
 20
137.2347312316
 30
0.0
 10
33.9334040865
 20
136.9844606221
 30
0.0
 10
33.0300932105
 20
136.7141478849
 30
0.0
 10
31.8213726273
 20
136.5236157279
 30
0.0
 10
30.588819555
 20
136.5266617982
 30
0.0
 10
29.6240215088
 20
136.6494955096
 30
0.0
 10
28.9425410366
 20
136.7979484721
 30
0.0
 10
28.3120951209
 20
137.000177102
 30
0.0
 10
27.9199372923
 20
137.1743732347
 30
0.0
 10
27.7369043709
 20
137.2703903373
 30
0.0
  0
SPLINE
  5
467
100
AcDbEntity
  8
_1
100
AcDbSpline
 62
7
  6
CONTINUOUS
 70
0
 71
3
 72
17
 73
13
 74
0
 42
0.0000001
 43
0.0000001
 44
0.0000000001
 40
0.0
 40
0.0
 40
0.0
 40
0.0
 40
0.0437968012
 40
0.0890916794
 40
0.1372942517
 40
0.1893533973
 40
0.3061730087
 40
0.4389530083
 40
0.5823716932
 40
0.7289178503
 40
0.8705048129
 40
1.0
 40
1.0
 40
1.0
 40
1.0
 10
67.4154750047
 20
111.7187772404
 30
0.0
 10
67.4154651503
 20
111.7670340915
 30
0.0
 10
67.4279467794
 20
111.8656083082
 30
0.0
 10
67.4830794625
 20
112.0078688295
 30
0.0
 10
67.5727488643
 20
112.1422025009
 30
0.0
 10
67.7412693684
 20
112.313559011
 30
0.0
 10
68.0290562275
 20
112.4892564013
 30
0.0
 10
68.4432531966
 20
112.6246998426
 30
0.0
 10
68.9078375847
 20
112.6840121068
 30
0.0
 10
69.3852271988
 20
112.662115604
 30
0.0
 10
69.8365219954
 20
112.56105491
 30
0.0
 10
70.1122210221
 20
112.4384992351
 30
0.0
 10
70.2338613337
 20
112.3639211899
 30
0.0
  0
SPLINE
  5
468
100
AcDbEntity
  8
_1
100
AcDbSpline
 62
7
  6
CONTINUOUS
 70
0
 71
3
 72
28
 73
24
 74
0
 42
0.0000001
 43
0.0000001
 44
0.0000000001
 40
0.0
 40
0.0
 40
0.0
 40
0.0
 40
0.0577320682
 40
0.10974968
 40
0.1339284718
 40
0.1572299422
 40
0.2030166153
 40
0.226161424
 40
0.2500839855
 40
0.3012899426
 40
0.3289932905
 40
0.3583009892
 40
0.4212085511
 40
0.4550207311
 40
0.4901348858
 40
0.5630995643
 40
0.6393697556
 40
0.716455805
 40
0.7927632044
 40
0.8665581832
 40
0.9357351523
 40
0.9685792936
 40
1.0
 40
1.0
 40
1.0
 40
1.0
 10
69.6514831364
 20
113.2733908418
 30
0.0
 10
69.44198687
 20
113.4292581114
 30
0.0
 10
69.067890474
 20
113.7612975193
 30
0.0
 10
68.7145036659
 20
114.2621617617
 30
0.0
 10
68.5388581034
 20
114.6783132721
 30
0.0
 10
68.4368618488
 20
115.0890874687
 30
0.0
 10
68.4376371945
 20
115.5151698998
 30
0.0
 10
68.5420129978
 20
115.9235193828
 30
0.0
 10
68.7196749969
 20
116.3327472215
 30
0.0
 10
68.9974894437
 20
116.7137457131
 30
0.0
 10
69.3508991958
 20
117.0531768657
 30
0.0
 10
69.7800490415
 20
117.3863889553
 30
0.0
 10
70.2794979369
 20
117.6682016869
 30
0.0
 10
70.8295467933
 20
117.899175683
 30
0.0
 10
71.4379465875
 20
118.1051007088
 30
0.0
 10
72.2537778756
 20
118.2892168309
 30
0.0
 10
73.27454999
 20
118.3920563372
 30
0.0
 10
74.3155046485
 20
118.3753751057
 30
0.0
 10
75.3365353626
 20
118.2397220204
 30
0.0
 10
76.298898835
 20
117.9896976342
 30
0.0
 10
77.0379471149
 20
117.6877229057
 30
0.0
 10
77.5658711275
 20
117.3940540992
 30
0.0
 10
77.8075461207
 20
117.2317037913
 30
0.0
 10
77.9214583569
 20
117.1467303869
 30
0.0
  0
SPLINE
  5
469
100
AcDbEntity
  8
_1
100
AcDbSpline
 62
7
  6
CONTINUOUS
 70
0
 71
3
 72
31
 73
27
 74
0
 42
0.0000001
 43
0.0000001
 44
0.0000000001
 40
0.0
 40
0.0
 40
0.0
 40
0.0
 40
0.0298264168
 40
0.0581533877
 40
0.0848704231
 40
0.1103205129
 40
0.1349038431
 40
0.1585231689
 40
0.1815704777
 40
0.2046293741
 40
0.2279670017
 40
0.2517547057
 40
0.2764441772
 40
0.3024871206
 40
0.3582064884
 40
0.3883817597
 40
0.4201244377
 40
0.4872542163
 40
0.5593407515
 40
0.6344957008
 40
0.7113713228
 40
0.7881335984
 40
0.8627032189
 40
0.8988217741
 40
0.934039988
 40
1.0
 40
1.0
 40
1.0
 40
1.0
 10
77.921457408
 20
117.1467299423
 30
0.0
 10
78.0269284
 20
117.0680533258
 30
0.0
 10
78.225678823
 20
116.9050893743
 30
0.0
 10
78.4905624229
 20
116.6395443871
 30
0.0
 10
78.7124463676
 20
116.3612027142
 30
0.0
 10
78.8889474655
 20
116.0711290555
 30
0.0
 10
79.0194074864
 20
115.7723524347
 30
0.0
 10
79.1016803789
 20
115.4677232161
 30
0.0
 10
79.1349824164
 20
115.1606268606
 30
0.0
 10
79.1186226983
 20
114.8533739902
 30
0.0
 10
79.0529740329
 20
114.5494669497
 30
0.0
 10
78.9387749732
 20
114.252693216
 30
0.0
 10
78.7775510696
 20
113.9649547204
 30
0.0
 10
78.4948489829
 20
113.5885521814
 30
0.0
 10
78.1283082528
 20
113.2506518296
 30
0.0
 10
77.6993922845
 20
112.957790052
 30
0.0
 10
77.2026429913
 20
112.6782272316
 30
0.0
 10
76.5018320905
 20
112.3911658653
 30
0.0
 10
75.5833542451
 20
112.1554313426
 30
0.0
 10
74.6005088625
 20
112.028466087
 30
0.0
 10
73.5890567827
 20
112.013847191
 30
0.0
 10
72.5852424064
 20
112.1142956188
 30
0.0
 10
71.7747715757
 20
112.2891061179
 30
0.0
 10
71.1611052442
 20
112.4849067019
 30
0.0
 10
70.5969902371
 20
112.7060790742
 30
0.0
 10
70.1984780511
 20
112.9121309782
 30
0.0
 10
69.9523494688
 20
113.0673620887
 30
0.0
  0
SPLINE
  5
46A
100
AcDbEntity
  8
_1
100
AcDbSpline
 62
7
  6
CONTINUOUS
 70
0
 71
3
 72
30
 73
26
 74
0
 42
0.0000001
 43
0.0000001
 44
0.0000000001
 40
0.0
 40
0.0
 40
0.0
 40
0.0
 40
0.0561090534
 40
0.1061823822
 40
0.1293831425
 40
0.1516622999
 40
0.1736402936
 40
0.1956770333
 40
0.2180156229
 40
0.2411447356
 40
0.2656075939
 40
0.2913624055
 40
0.318583495
 40
0.3475494265
 40
0.4102295376
 40
0.4790503664
 40
0.5525299234
 40
0.5907358036
 40
0.6297388631
 40
0.7079652768
 40
0.786220598
 40
0.8617577293
 40
0.8984551538
 40
0.9336978421
 40
1.0
 40
1.0
 40
1.0
 40
1.0
 10
35.8262566468
 20
132.7788441738
 30
0.0
 10
35.6274339638
 20
132.9141114275
 30
0.0
 10
35.2714290349
 20
133.2030432197
 30
0.0
 10
34.9284242912
 20
133.6474554195
 30
0.0
 10
34.7542153131
 20
134.0197297498
 30
0.0
 10
34.6746273109
 20
134.2990750128
 30
0.0
 10
34.6439042116
 20
134.5828969615
 30
0.0
 10
34.6609798055
 20
134.8680880917
 30
0.0
 10
34.7262506877
 20
135.1512950028
 30
0.0
 10
34.8400767116
 20
135.4298290384
 30
0.0
 10
35.0002591178
 20
135.7014273937
 30
0.0
 10
35.2044817267
 20
135.9640976679
 30
0.0
 10
35.451615124
 20
136.214618316
 30
0.0
 10
35.844819946
 20
136.5396643669
 30
0.0
 10
36.4338801566
 20
136.9015089557
 30
0.0
 10
37.2445230955
 20
137.2463178536
 30
0.0
 10
37.9902254599
 20
137.4595782609
 30
0.0
 10
38.624346745
 20
137.5833684351
 30
0.0
 10
39.2843847239
 20
137.6756369149
 30
0.0
 10
40.1224893997
 20
137.7244947149
 30
0.0
 10
41.1175672814
 20
137.6780126391
 30
0.0
 10
41.9260298584
 20
137.5511758133
 30
0.0
 10
42.5393987851
 20
137.3969135229
 30
0.0
 10
43.1039933777
 20
137.2165910815
 30
0.0
 10
43.5048695836
 20
137.0417780921
 30
0.0
 10
43.7549814525
 20
136.9069046493
 30
0.0
  0
SPLINE
  5
46B
100
AcDbEntity
  8
_1
100
AcDbSpline
 62
7
  6
CONTINUOUS
 70
0
 71
3
 72
9
 73
5
 74
0
 42
0.0000001
 43
0.0000001
 44
0.0000000001
 40
0.0
 40
0.0
 40
0.0
 40
0.0
 40
0.2429202267
 40
1.0
 40
1.0
 40
1.0
 40
1.0
 10
43.757223112
 20
132.6475991084
 30
0.0
 10
43.6949527909
 20
132.611895813
 30
0.0
 10
43.4356405934
 20
132.4701299284
 30
0.0
 10
43.1652359675
 20
132.3489482631
 30
0.0
 10
42.95674485
 20
132.267854407
 30
0.0
  0
SPLINE
  5
46C
100
AcDbEntity
  8
_1
100
AcDbSpline
 62
7
  6
CONTINUOUS
 70
0
 71
3
 72
15
 73
11
 74
0
 42
0.0000001
 43
0.0000001
 44
0.0000000001
 40
0.0
 40
0.0
 40
0.0
 40
0.0
 40
0.1221256732
 40
0.2500096891
 40
0.3819130675
 40
0.5139370496
 40
0.6448570387
 40
0.770446214
 40
0.8900018632
 40
1.0
 40
1.0
 40
1.0
 40
1.0
 10
42.95674485
 20
132.267854407
 30
0.0
 10
42.6908349272
 20
132.1644271662
 30
0.0
 10
42.1327542667
 20
131.9869173082
 30
0.0
 10
41.2568614283
 20
131.8092889694
 30
0.0
 10
40.344487369
 20
131.7184048485
 30
0.0
 10
39.4205990834
 20
131.7161250292
 30
0.0
 10
38.5155267172
 20
131.8025390694
 30
0.0
 10
37.6521826779
 20
131.9742881258
 30
0.0
 10
36.859943046
 20
132.2267323196
 30
0.0
 10
36.3716868054
 20
132.4535079266
 30
0.0
 10
36.1478342696
 20
132.5797235429
 30
0.0
  0
SPLINE
  5
46D
100
AcDbEntity
  8
_1
100
AcDbSpline
 62
7
  6
CONTINUOUS
 70
0
 71
3
 72
9
 73
5
 74
0
 42
0.0000001
 43
0.0000001
 44
0.0000000001
 40
0.0
 40
0.0
 40
0.0
 40
0.0
 40
0.2538636613
 40
1.0
 40
1.0
 40
1.0
 40
1.0
 10
36.1478342696
 20
132.5797235429
 30
0.0
 10
36.1199495102
 20
132.5954459116
 30
0.0
 10
36.0107264636
 20
132.6584656934
 30
0.0
 10
35.9040491385
 20
132.7259213053
 30
0.0
 10
35.8262588831
 20
132.7788452171
 30
0.0
  0
SPLINE
  5
46E
100
AcDbEntity
  8
_1
100
AcDbSpline
 62
7
  6
CONTINUOUS
 70
0
 71
3
 72
11
 73
7
 74
0
 42
0.0000001
 43
0.0000001
 44
0.0000000001
 40
0.0
 40
0.0
 40
0.0
 40
0.0
 40
0.2241372755
 40
0.4616167554
 40
0.7174881444
 40
1.0
 40
1.0
 40
1.0
 40
1.0
 10
78.3468302795
 20
114.4931050481
 30
0.0
 10
78.3484287309
 20
114.6518355168
 30
0.0
 10
78.3031200547
 20
114.9808418903
 30
0.0
 10
78.0974776939
 20
115.4514336404
 30
0.0
 10
77.7623317151
 20
115.8921563733
 30
0.0
 10
77.4750367654
 20
116.1464400576
 30
0.0
 10
77.3151842665
 20
116.2667704842
 30
0.0
  0
SPLINE
  5
46F
100
AcDbEntity
  8
_1
100
AcDbSpline
 62
7
  6
CONTINUOUS
 70
0
 71
3
 72
11
 73
7
 74
0
 42
0.0000001
 43
0.0000001
 44
0.0000000001
 40
0.0
 40
0.0
 40
0.0
 40
0.0
 40
0.28729537
 40
0.5464755245
 40
0.7807726824
 40
1.0
 40
1.0
 40
1.0
 40
1.0
 10
80.9382818553
 20
118.629604004
 30
0.0
 10
81.0109567654
 20
118.5850574366
 30
0.0
 10
81.1428566383
 20
118.4889603748
 30
0.0
 10
81.2998245583
 20
118.315893998
 30
0.0
 10
81.3988585292
 20
118.1259747171
 30
0.0
 10
81.4219659073
 20
117.9905742617
 30
0.0
 10
81.4219755117
 20
117.9255291135
 30
0.0
  0
SPLINE
  5
470
100
AcDbEntity
  8
_1
100
AcDbSpline
 62
7
  6
CONTINUOUS
 70
0
 71
3
 72
9
 73
5
 74
0
 42
0.0000001
 43
0.0000001
 44
0.0000000001
 40
0.0
 40
0.0
 40
0.0
 40
0.0
 40
0.2770466608
 40
1.0
 40
1.0
 40
1.0
 40
1.0
 10
34.3830034261
 20
144.6882869506
 30
0.0
 10
34.3161646328
 20
144.7227900735
 30
0.0
 10
34.0695730137
 20
144.8348461107
 30
0.0
 10
33.7923465482
 20
144.893641553
 30
0.0
 10
33.5965987576
 20
144.8791447907
 30
0.0
  0
SPLINE
  5
471
100
AcDbEntity
  8
_1
100
AcDbSpline
 62
7
  6
CONTINUOUS
 70
0
 71
3
 72
9
 73
5
 74
0
 42
0.0000001
 43
0.0000001
 44
0.0000000001
 40
0.0
 40
0.0
 40
0.0
 40
0.0
 40
0.5093030887
 40
1.0
 40
1.0
 40
1.0
 40
1.0
 10
33.5965987576
 20
144.8791447907
 30
0.0
 10
33.5290170375
 20
144.8741397986
 30
0.0
 10
33.3968144292
 20
144.8510017037
 30
0.0
 10
33.2730842971
 20
144.7983541706
 30
0.0
 10
33.2165295663
 20
144.765727648
 30
0.0
  0
SPLINE
  5
472
100
AcDbEntity
  8
_1
100
AcDbSpline
 62
7
  6
CONTINUOUS
 70
0
 71
3
 72
11
 73
7
 74
0
 42
0.0000001
 43
0.0000001
 44
0.0000000001
 40
0.0
 40
0.0
 40
0.0
 40
0.0
 40
0.2918689143
 40
0.5515817851
 40
0.783554627
 40
1.0
 40
1.0
 40
1.0
 40
1.0
 10
35.174819745
 20
132.6073889554
 30
0.0
 10
35.2470315309
 20
132.568270546
 30
0.0
 10
35.3780962053
 20
132.4832414145
 30
0.0
 10
35.5355360102
 20
132.3259971414
 30
0.0
 10
35.6353345992
 20
132.1501390422
 30
0.0
 10
35.6584706941
 20
132.0230278377
 30
0.0
 10
35.658483465
 20
131.9621239895
 30
0.0
  0
SPLINE
  5
473
100
AcDbEntity
  8
_1
100
AcDbSpline
 62
7
  6
CONTINUOUS
 70
0
 71
3
 72
11
 73
7
 74
0
 42
0.0000001
 43
0.0000001
 44
0.0000000001
 40
0.0
 40
0.0
 40
0.0
 40
0.0
 40
0.2872867954
 40
0.5464660819
 40
0.7807675717
 40
1.0
 40
1.0
 40
1.0
 40
1.0
 10
70.2338613337
 20
112.3639211899
 30
0.0
 10
70.3065372269
 20
112.3193633786
 30
0.0
 10
70.4384391188
 20
112.2232439532
 30
0.0
 10
70.5954068999
 20
112.0501455959
 30
0.0
 10
70.6944395092
 20
111.8601972569
 30
0.0
 10
70.717546772
 20
111.7247795358
 30
0.0
 10
70.717556273
 20
111.6597258058
 30
0.0
  0
SPLINE
  5
474
100
AcDbEntity
  8
_1
100
AcDbSpline
 62
7
  6
CONTINUOUS
 70
0
 71
3
 72
12
 73
8
 74
0
 42
0.0000001
 43
0.0000001
 44
0.0000000001
 40
0.0
 40
0.0
 40
0.0
 40
0.0
 40
0.1069080712
 40
0.2156931323
 40
0.4466116644
 40
0.7062876355
 40
1.0
 40
1.0
 40
1.0
 40
1.0
 10
26.248632422
 20
138.165545289
 30
0.0
 10
26.2486420401
 20
138.0743604593
 30
0.0
 10
26.2653117599
 20
137.8899586642
 30
0.0
 10
26.3667638117
 20
137.5209886435
 30
0.0
 10
26.6283169992
 20
137.0711988782
 30
0.0
 10
27.1127949621
 20
136.6015063652
 30
0.0
 10
27.5150551809
 20
136.3485785914
 30
0.0
 10
27.7369043709
 20
136.2322133309
 30
0.0
  0
SPLINE
  5
475
100
AcDbEntity
  8
_1
100
AcDbSpline
 62
7
  6
CONTINUOUS
 70
0
 71
3
 72
11
 73
7
 74
0
 42
0.0000001
 43
0.0000001
 44
0.0000000001
 40
0.0
 40
0.0
 40
0.0
 40
0.0
 40
0.246022518
 40
0.5076041031
 40
0.7651396025
 40
1.0
 40
1.0
 40
1.0
 40
1.0
 10
70.8036716912
 20
108.0794217006
 30
0.0
 10
70.7962118728
 20
108.1325802838
 30
0.0
 10
70.7665681271
 20
108.2404288148
 30
0.0
 10
70.6909001871
 20
108.3903161094
 30
0.0
 10
70.5897596018
 20
108.5212801585
 30
0.0
 10
70.5067285685
 20
108.5914747297
 30
0.0
 10
70.4631759024
 20
108.61847682
 30
0.0
  0
SPLINE
  5
476
100
AcDbEntity
  8
_1
100
AcDbSpline
 62
7
  6
CONTINUOUS
 70
0
 71
3
 72
11
 73
7
 74
0
 42
0.0000001
 43
0.0000001
 44
0.0000000001
 40
0.0
 40
0.0
 40
0.0
 40
0.0
 40
0.2272037707
 40
0.4899638438
 40
0.7580969698
 40
1.0
 40
1.0
 40
1.0
 40
1.0
 10
70.0907631442
 20
108.0115135098
 30
0.0
 10
70.1428019582
 20
107.9922134079
 30
0.0
 10
70.2619513093
 20
107.9696728227
 30
0.0
 10
70.4479289757
 20
107.9715699995
 30
0.0
 10
70.6344461962
 20
108.0058194746
 30
0.0
 10
70.7519899252
 20
108.0507682612
 30
0.0
 10
70.8036716912
 20
108.0794217006
 30
0.0
  0
SPLINE
  5
477
100
AcDbEntity
  8
_1
100
AcDbSpline
 62
7
  6
CONTINUOUS
 70
0
 71
3
 72
9
 73
5
 74
0
 42
0.0000001
 43
0.0000001
 44
0.0000000001
 40
0.0
 40
0.0
 40
0.0
 40
0.0
 40
0.2562076512
 40
1.0
 40
1.0
 40
1.0
 40
1.0
 10
56.8152802743
 20
122.7903497892
 30
0.0
 10
56.8069402163
 20
122.7674728198
 30
0.0
 10
56.7780574693
 20
122.676896159
 30
0.0
 10
56.7648640231
 20
122.5812451145
 30
0.0
 10
56.7648666508
 20
122.5105556259
 30
0.0
  0
SPLINE
  5
478
100
AcDbEntity
  8
_1
100
AcDbSpline
 62
7
  6
CONTINUOUS
 70
0
 71
3
 72
11
 73
7
 74
0
 42
0.0000001
 43
0.0000001
 44
0.0000000001
 40
0.0
 40
0.0
 40
0.0
 40
0.0
 40
0.2359932095
 40
0.498530152
 40
0.7619374619
 40
1.0
 40
1.0
 40
1.0
 40
1.0
 10
70.091020906
 20
108.0116574517
 30
0.0
 10
70.0937357384
 20
108.0694716286
 30
0.0
 10
70.12054909
 20
108.1906657276
 30
0.0
 10
70.2018565711
 20
108.3603048438
 30
0.0
 10
70.3164596724
 20
108.5101229216
 30
0.0
 10
70.4126253916
 20
108.5896634401
 30
0.0
 10
70.4631879733
 20
108.6188572612
 30
0.0
  0
SPLINE
  5
479
100
AcDbEntity
  8
_1
100
AcDbSpline
 62
7
  6
CONTINUOUS
 70
0
 71
3
 72
11
 73
7
 74
0
 42
0.0000001
 43
0.0000001
 44
0.0000000001
 40
0.0
 40
0.0
 40
0.0
 40
0.0
 40
0.2872465208
 40
0.546178996
 40
0.7802707935
 40
1.0
 40
1.0
 40
1.0
 40
1.0
 10
28.83599994
 20
132.6513943702
 30
0.0
 10
28.8147685225
 20
132.6627465403
 30
0.0
 10
28.7725399137
 20
132.6811603061
 30
0.0
 10
28.7080145447
 20
132.6948486235
 30
0.0
 10
28.6475780809
 20
132.6919400631
 30
0.0
 10
28.6112086291
 20
132.678389992
 30
0.0
 10
28.5952620851
 20
132.6691766324
 30
0.0
  0
SPLINE
  5
47A
100
AcDbEntity
  8
_1
100
AcDbSpline
 62
7
  6
CONTINUOUS
 70
0
 71
3
 72
11
 73
7
 74
0
 42
0.0000001
 43
0.0000001
 44
0.0000000001
 40
0.0
 40
0.0
 40
0.0
 40
0.0
 40
0.2356442791
 40
0.4966504617
 40
0.759550235
 40
1.0
 40
1.0
 40
1.0
 40
1.0
 10
28.83598736
 20
132.6517890433
 30
0.0
 10
28.7857048393
 20
132.6226776456
 30
0.0
 10
28.6908442527
 20
132.5419100102
 30
0.0
 10
28.5816043712
 20
132.3879818432
 30
0.0
 10
28.5084740454
 20
132.212661423
 30
0.0
 10
28.4893539509
 20
132.0880387811
 30
0.0
 10
28.4903713381
 20
132.0287609643
 30
0.0
  0
SPLINE
  5
47B
100
AcDbEntity
  8
_1
100
AcDbSpline
 62
7
  6
CONTINUOUS
 70
0
 71
3
 72
11
 73
7
 74
0
 42
0.0000001
 43
0.0000001
 44
0.0000000001
 40
0.0
 40
0.0
 40
0.0
 40
0.0
 40
0.264610503
 40
0.522318801
 40
0.766936563
 40
1.0
 40
1.0
 40
1.0
 40
1.0
 10
28.4254673724
 20
131.6745569822
 30
0.0
 10
28.402014133
 20
131.6929699223
 30
0.0
 10
28.3586206667
 20
131.733313307
 30
0.0
 10
28.3085835826
 20
131.8047680825
 30
0.0
 10
28.2804208639
 20
131.8840080757
 30
0.0
 10
28.2801092345
 20
131.9391500516
 30
0.0
 10
28.2847254792
 20
131.965003912
 30
0.0
  0
SPLINE
  5
47C
100
AcDbEntity
  8
_1
100
AcDbSpline
 62
7
  6
CONTINUOUS
 70
0
 71
3
 72
11
 73
7
 74
0
 42
0.0000001
 43
0.0000001
 44
0.0000000001
 40
0.0
 40
0.0
 40
0.0
 40
0.0
 40
0.2306293289
 40
0.503466134
 40
0.7742657952
 40
1.0
 40
1.0
 40
1.0
 40
1.0
 10
27.7351179758
 20
131.3762614218
 30
0.0
 10
27.7341184252
 20
131.4330776285
 30
0.0
 10
27.7524876707
 20
131.5576056124
 30
0.0
 10
27.8258206383
 20
131.7355360214
 30
0.0
 10
27.937125277
 20
131.8910694518
 30
0.0
 10
28.0323636127
 20
131.9709638254
 30
0.0
 10
28.0805155674
 20
131.9987999437
 30
0.0
  0
SPLINE
  5
47D
100
AcDbEntity
  8
_1
100
AcDbSpline
 62
7
  6
CONTINUOUS
 70
0
 71
3
 72
11
 73
7
 74
0
 42
0.0000001
 43
0.0000001
 44
0.0000000001
 40
0.0
 40
0.0
 40
0.0
 40
0.0
 40
0.2315082653
 40
0.5044033943
 40
0.7747072859
 40
1.0
 40
1.0
 40
1.0
 40
1.0
 10
19.5183847521
 20
135.6770797482
 30
0.0
 10
19.5166569877
 20
135.7341436796
 30
0.0
 10
19.5334690676
 20
135.8592504915
 30
0.0
 10
19.6050434946
 20
136.0382421423
 30
0.0
 10
19.7152328057
 20
136.1945693556
 30
0.0
 10
19.8102046461
 20
136.2746788317
 30
0.0
 10
19.8582975207
 20
136.3024941432
 30
0.0
  0
SPLINE
  5
47E
100
AcDbEntity
  8
_1
100
AcDbSpline
 62
7
  6
CONTINUOUS
 70
0
 71
3
 72
9
 73
5
 74
0
 42
0.0000001
 43
0.0000001
 44
0.0000000001
 40
0.0
 40
0.0
 40
0.0
 40
0.0
 40
0.2488983219
 40
1.0
 40
1.0
 40
1.0
 40
1.0
 10
61.4638665257
 20
122.4964751914
 30
0.0
 10
61.4638651033
 20
122.5204241592
 30
0.0
 10
61.4595641276
 20
122.6166205791
 30
0.0
 10
61.4376652123
 20
122.7118310552
 30
0.0
 10
61.4130148163
 20
122.7797681099
 30
0.0
  0
SPLINE
  5
47F
100
AcDbEntity
  8
_1
100
AcDbSpline
 62
7
  6
CONTINUOUS
 70
0
 71
3
 72
9
 73
5
 74
0
 42
0.0000001
 43
0.0000001
 44
0.0000000001
 40
0.0
 40
0.0
 40
0.0
 40
0.0
 40
0.5391708295
 40
1.0
 40
1.0
 40
1.0
 40
1.0
 10
28.0805125746
 20
131.9987982114
 30
0.0
 10
28.115382584
 20
131.9802613043
 30
0.0
 10
28.1854110497
 20
131.9540943885
 30
0.0
 10
28.2617738697
 20
131.9581699551
 30
0.0
 10
28.2936442442
 20
131.9692846905
 30
0.0
  0
SPLINE
  5
480
100
AcDbEntity
  8
_1
100
AcDbSpline
 62
7
  6
CONTINUOUS
 70
0
 71
3
 72
9
 73
5
 74
0
 42
0.0000001
 43
0.0000001
 44
0.0000000001
 40
0.0
 40
0.0
 40
0.0
 40
0.0
 40
0.5017256209
 40
1.0
 40
1.0
 40
1.0
 40
1.0
 10
70.4631866286
 20
108.6188080294
 30
0.0
 10
67.7829737501
 20
110.2811886965
 30
0.0
 10
62.4212920964
 20
113.5628649842
 30
0.0
 10
57.0206026232
 20
116.7799865918
 30
0.0
 10
54.3191939967
 20
118.3652519456
 30
0.0
  0
LINE
  5
481
100
AcDbEntity
  8
_1
100
AcDbLine
 62
7
  6
CONTINUOUS
 10
49.804392952
 20
120.99368616
 11
49.3750106333
 21
121.2415288804
  0
SPLINE
  5
482
100
AcDbEntity
  8
_1
100
AcDbSpline
 62
7
  6
CONTINUOUS
 70
0
 71
3
 72
9
 73
5
 74
0
 42
0.0000001
 43
0.0000001
 44
0.0000000001
 40
0.0
 40
0.0
 40
0.0
 40
0.0
 40
0.5010358322
 40
1.0
 40
1.0
 40
1.0
 40
1.0
 10
47.8510040801
 20
122.1182379492
 30
0.0
 10
46.2339858965
 20
123.04598119
 30
0.0
 10
42.9998053384
 20
124.8857602119
 30
0.0
 10
39.7510392431
 20
126.699663443
 30
0.0
 10
38.1265750573
 20
127.5984907266
 30
0.0
  0
SPLINE
  5
483
100
AcDbEntity
  8
_1
100
AcDbSpline
 62
7
  6
CONTINUOUS
 70
0
 71
3
 72
21
 73
17
 74
0
 42
0.0000001
 43
0.0000001
 44
0.0000000001
 40
0.0
 40
0.0
 40
0.0
 40
0.0
 40
0.061585226
 40
0.1275066534
 40
0.196965746
 40
0.2690918973
 40
0.4169986177
 40
0.5625662985
 40
0.6318737155
 40
0.6975914254
 40
0.7590135927
 40
0.81568947
 40
0.8675126585
 40
0.9148208868
 40
0.9584971145
 40
1.0
 40
1.0
 40
1.0
 40
1.0
 10
27.7369043709
 20
136.2322133309
 30
0.0
 10
27.919937829
 20
136.1362078597
 30
0.0
 10
28.3120858695
 20
135.9620348064
 30
0.0
 10
28.9425098463
 20
135.7598361264
 30
0.0
 10
29.6239648301
 20
135.6114121429
 30
0.0
 10
30.5887455524
 20
135.4885843866
 30
0.0
 10
31.8213089613
 20
135.4855893807
 30
0.0
 10
33.0300531943
 20
135.6761246616
 30
0.0
 10
33.9333778597
 20
135.9464674276
 30
0.0
 10
34.5446301646
 20
136.1967031377
 30
0.0
 10
35.087585046
 20
136.492553855
 30
0.0
 10
35.5509510406
 20
136.8280891906
 30
0.0
 10
35.9249816529
 20
137.1968978666
 30
0.0
 10
36.2011998629
 20
137.5925532574
 30
0.0
 10
36.37184799
 20
138.0074234556
 30
0.0
 10
36.4111632214
 20
138.2945201861
 30
0.0
 10
36.4111470939
 20
138.4338065872
 30
0.0
  0
SPLINE
  5
484
100
AcDbEntity
  8
_1
100
AcDbSpline
 62
7
  6
CONTINUOUS
 70
0
 71
3
 72
11
 73
7
 74
0
 42
0.0000001
 43
0.0000001
 44
0.0000000001
 40
0.0
 40
0.0
 40
0.0
 40
0.0
 40
0.2478016593
 40
0.49705838
 40
0.7478123201
 40
1.0
 40
1.0
 40
1.0
 40
1.0
 10
58.3230244889
 20
132.7463868486
 30
0.0
 10
60.5475622488
 20
131.4881294586
 30
0.0
 10
64.9972575607
 20
128.942137562
 30
0.0
 10
71.6514442279
 20
125.0422959906
 30
0.0
 10
78.3076707075
 20
121.0571503457
 30
0.0
 10
82.731023655
 20
118.3476138658
 30
0.0
 10
84.9423788817
 20
116.9783236749
 30
0.0
  0
SPLINE
  5
485
100
AcDbEntity
  8
_1
100
AcDbSpline
 62
7
  6
CONTINUOUS
 70
0
 71
3
 72
12
 73
8
 74
0
 42
0.0000001
 43
0.0000001
 44
0.0000000001
 40
0.0
 40
0.0
 40
0.0
 40
0.0
 40
0.2937113457
 40
0.5533792901
 40
0.784305268
 40
0.8930913045
 40
1.0
 40
1.0
 40
1.0
 40
1.0
 10
27.7369043709
 20
137.2703903373
 30
0.0
 10
27.5150522554
 20
137.3867715718
 30
0.0
 10
27.1127909739
 20
137.6397221905
 30
0.0
 10
26.6283154999
 20
138.109455981
 30
0.0
 10
26.366763147
 20
138.5592731904
 30
0.0
 10
26.2653166885
 20
138.9282691389
 30
0.0
 10
26.2486404615
 20
139.1126795441
 30
0.0
 10
26.2486304968
 20
139.2038688665
 30
0.0
  0
SPLINE
  5
486
100
AcDbEntity
  8
_1
100
AcDbSpline
 62
7
  6
CONTINUOUS
 70
0
 71
3
 72
12
 73
8
 74
0
 42
0.0000001
 43
0.0000001
 44
0.0000000001
 40
0.0
 40
0.0
 40
0.0
 40
0.0
 40
0.2926795214
 40
0.5520048654
 40
0.7833848573
 40
0.8926007243
 40
1.0
 40
1.0
 40
1.0
 40
1.0
 10
34.1146556859
 20
140.952565561
 30
0.0
 10
34.2867027905
 20
140.8623114997
 30
0.0
 10
34.598897489
 20
140.6656716299
 30
0.0
 10
34.9741793277
 20
140.2990884052
 30
0.0
 10
35.1767137348
 20
139.9481104136
 30
0.0
 10
35.2554814017
 20
139.6599445808
 30
0.0
 10
35.2681892713
 20
139.5157894306
 30
0.0
 10
35.2681069162
 20
139.4444968715
 30
0.0
  0
SPLINE
  5
487
100
AcDbEntity
  8
_1
100
AcDbSpline
 62
7
  6
CONTINUOUS
 70
0
 71
3
 72
11
 73
7
 74
0
 42
0.0000001
 43
0.0000001
 44
0.0000000001
 40
0.0
 40
0.0
 40
0.0
 40
0.0
 40
0.2348603975
 40
0.4923958969
 40
0.753977482
 40
1.0
 40
1.0
 40
1.0
 40
1.0
 10
84.9423681555
 20
116.9779924654
 30
0.0
 10
84.9859208217
 20
116.9509903752
 30
0.0
 10
85.0689518549
 20
116.8807958039
 30
0.0
 10
85.1700924402
 20
116.7498317548
 30
0.0
 10
85.2457603802
 20
116.5999444602
 30
0.0
 10
85.2754041259
 20
116.4920959293
 30
0.0
 10
85.2828639443
 20
116.438937346
 30
0.0
  0
SPLINE
  5
488
100
AcDbEntity
  8
_1
100
AcDbSpline
 62
7
  6
CONTINUOUS
 70
0
 71
3
 72
11
 73
7
 74
0
 42
0.0000001
 43
0.0000001
 44
0.0000000001
 40
0.0
 40
0.0
 40
0.0
 40
0.0
 40
0.264787013
 40
0.5200188908
 40
0.7651809966
 40
1.0
 40
1.0
 40
1.0
 40
1.0
 10
93.4681646719
 20
100.5200288178
 30
0.0
 10
92.5168785237
 20
100.1294181441
 30
0.0
 10
90.6714851343
 20
99.3048606957
 30
0.0
 10
88.0429367601
 20
97.9135016673
 30
0.0
 10
85.619913977
 20
96.3980866588
 30
0.0
 10
84.1195606331
 20
95.2876164653
 30
0.0
 10
83.4109570635
 20
94.7135319579
 30
0.0
  0
SPLINE
  5
489
100
AcDbEntity
  8
_1
100
AcDbSpline
 62
7
  6
CONTINUOUS
 70
0
 71
3
 72
19
 73
15
 74
0
 42
0.0000001
 43
0.0000001
 44
0.0000000001
 40
0.0
 40
0.0
 40
0.0
 40
0.0
 40
0.0412016891
 40
0.0846377035
 40
0.1317839058
 40
0.1835347126
 40
0.2402454371
 40
0.3017654821
 40
0.4369165263
 40
0.5827636733
 40
0.7308590389
 40
0.8723814536
 40
0.9383531361
 40
1.0
 40
1.0
 40
1.0
 40
1.0
 10
27.391551966
 20
139.2367572848
 30
0.0
 10
27.3915447412
 20
139.3437901162
 30
0.0
 10
27.4220863107
 20
139.5646300466
 30
0.0
 10
27.5547215456
 20
139.8835631202
 30
0.0
 10
27.7686915275
 20
140.1881496199
 30
0.0
 10
28.0584408201
 20
140.4726364055
 30
0.0
 10
28.4176587599
 20
140.7318598224
 30
0.0
 10
28.9968726682
 20
141.0474665991
 30
0.0
 10
29.8437112576
 20
141.3404087102
 30
0.0
 10
30.948550339
 20
141.5200354499
 30
0.0
 10
32.0843638369
 20
141.5225118619
 30
0.0
 10
33.0016534098
 20
141.3739999293
 30
0.0
 10
33.6688354272
 20
141.1615523134
 30
0.0
 10
33.9728398033
 20
141.0269606482
 30
0.0
 10
34.1146556859
 20
140.952565561
 30
0.0
  0
SPLINE
  5
48A
100
AcDbEntity
  8
_1
100
AcDbSpline
 62
7
  6
CONTINUOUS
 70
0
 71
3
 72
10
 73
6
 74
0
 42
0.0000001
 43
0.0000001
 44
0.0000000001
 40
0.0
 40
0.0
 40
0.0
 40
0.0
 40
0.4814503654
 40
0.7363447904
 40
1.0
 40
1.0
 40
1.0
 40
1.0
 10
84.1208859276
 20
88.6356918746
 30
0.0
 10
85.5209498652
 20
89.7054021187
 30
0.0
 10
87.7966037142
 20
91.1712504638
 30
0.0
 10
91.0515753221
 20
92.8462961593
 30
0.0
 10
92.7906753555
 20
93.6097189267
 30
0.0
 10
93.6849149802
 20
93.9721388439
 30
0.0
  0
SPLINE
  5
48B
100
AcDbEntity
  8
_1
100
AcDbSpline
 62
7
  6
CONTINUOUS
 70
0
 71
3
 72
9
 73
5
 74
0
 42
0.0000001
 43
0.0000001
 44
0.0000000001
 40
0.0
 40
0.0
 40
0.0
 40
0.0
 40
0.4825097384
 40
1.0
 40
1.0
 40
1.0
 40
1.0
 10
84.1510686038
 20
89.4909536401
 30
0.0
 10
85.4360190388
 20
90.4666693844
 30
0.0
 10
88.2472058634
 20
92.2976110583
 30
0.0
 10
91.2558222158
 20
93.7740715884
 30
0.0
 10
92.8459444789
 20
94.4565291437
 30
0.0
  0
SPLINE
  5
48C
100
AcDbEntity
  8
_1
100
AcDbSpline
 62
7
  6
CONTINUOUS
 70
0
 71
3
 72
17
 73
13
 74
0
 42
0.0000001
 43
0.0000001
 44
0.0000000001
 40
0.0
 40
0.0
 40
0.0
 40
0.0
 40
0.1286944906
 40
0.27027946
 40
0.4174353075
 40
0.5617789308
 40
0.6954493107
 40
0.8127117995
 40
0.8646778305
 40
0.9125102178
 40
0.9571399561
 40
1.0
 40
1.0
 40
1.0
 40
1.0
 10
82.4653947954
 20
68.7281915847
 30
0.0
 10
82.4653947954
 20
69.0431592777
 30
0.0
 10
82.553499053
 20
69.7054003585
 30
0.0
 10
82.8823954336
 20
70.6777438664
 30
0.0
 10
83.3891302491
 20
71.6144304652
 30
0.0
 10
84.0330345443
 20
72.4386450628
 30
0.0
 10
84.7614828878
 20
73.0838239702
 30
0.0
 10
85.4208457178
 20
73.4442863517
 30
0.0
 10
85.936601229
 20
73.5815871214
 30
0.0
 10
86.2915843232
 20
73.6076182189
 30
0.0
 10
86.6221420851
 20
73.5592544465
 30
0.0
 10
86.8223762709
 20
73.4759867134
 30
0.0
 10
86.9132285069
 20
73.423555532
 30
0.0
  0
SPLINE
  5
48D
100
AcDbEntity
  8
_1
100
AcDbSpline
 62
7
  6
CONTINUOUS
 70
0
 71
3
 72
9
 73
5
 74
0
 42
0.0000001
 43
0.0000001
 44
0.0000000001
 40
0.0
 40
0.0
 40
0.0
 40
0.0
 40
0.4818141671
 40
1.0
 40
1.0
 40
1.0
 40
1.0
 10
85.1736024919
 20
20.7498293327
 30
0.0
 10
85.1736024919
 20
21.0116726475
 30
0.0
 10
85.2184811536
 20
21.5555356025
 30
0.0
 10
85.3353119355
 20
22.0878279026
 30
0.0
 10
85.4113736355
 20
22.3589710125
 30
0.0
  0
SPLINE
  5
48E
100
AcDbEntity
  8
_1
100
AcDbSpline
 62
7
  6
CONTINUOUS
 70
0
 71
3
 72
17
 73
13
 74
0
 42
0.0000001
 43
0.0000001
 44
0.0000000001
 40
0.0
 40
0.0
 40
0.0
 40
0.0
 40
0.1286944906
 40
0.27027946
 40
0.4174353075
 40
0.5617789308
 40
0.6954493107
 40
0.8127117995
 40
0.8646778305
 40
0.9125102178
 40
0.9571399561
 40
1.0
 40
1.0
 40
1.0
 40
1.0
 10
89.7418468322
 20
72.9292280501
 30
0.0
 10
89.7418468322
 20
73.2441957432
 30
0.0
 10
89.8299510898
 20
73.9064368239
 30
0.0
 10
90.1588474704
 20
74.8787803318
 30
0.0
 10
90.6655822859
 20
75.8154669306
 30
0.0
 10
91.3094865812
 20
76.6396815282
 30
0.0
 10
92.0379349246
 20
77.2848604356
 30
0.0
 10
92.6972977546
 20
77.6453228171
 30
0.0
 10
93.2130532659
 20
77.7826235869
 30
0.0
 10
93.56803636
 20
77.8086546843
 30
0.0
 10
93.8985941219
 20
77.760290912
 30
0.0
 10
94.0988283077
 20
77.6770231788
 30
0.0
 10
94.1896805438
 20
77.6245919975
 30
0.0
  0
SPLINE
  5
48F
100
AcDbEntity
  8
_1
100
AcDbSpline
 62
7
  6
CONTINUOUS
 70
0
 71
3
 72
9
 73
5
 74
0
 42
0.0000001
 43
0.0000001
 44
0.0000000001
 40
0.0
 40
0.0
 40
0.0
 40
0.0
 40
0.2404833654
 40
1.0
 40
1.0
 40
1.0
 40
1.0
 10
89.7885495719
 20
27.3018393518
 30
0.0
 10
89.7806848969
 20
27.3446153817
 30
0.0
 10
89.7525255023
 20
27.5233167767
 30
0.0
 10
89.7418468322
 20
27.7046009632
 30
0.0
 10
89.7418468322
 20
27.8419645762
 30
0.0
  0
SPLINE
  5
490
100
AcDbEntity
  8
_1
100
AcDbSpline
 62
7
  6
CONTINUOUS
 70
0
 71
3
 72
9
 73
5
 74
0
 42
0.0000001
 43
0.0000001
 44
0.0000000001
 40
0.0
 40
0.0
 40
0.0
 40
0.0
 40
0.5321389049
 40
1.0
 40
1.0
 40
1.0
 40
1.0
 10
87.629693784
 20
26.0554308216
 30
0.0
 10
87.9178128151
 20
26.3284434522
 30
0.0
 10
88.503914645
 20
26.7973687887
 30
0.0
 10
89.1828111226
 20
27.1294496527
 30
0.0
 10
89.5164541812
 20
27.2317653326
 30
0.0
  0
SPLINE
  5
491
100
AcDbEntity
  8
_1
100
AcDbSpline
 62
7
  6
CONTINUOUS
 70
0
 71
3
 72
9
 73
5
 74
0
 42
0.0000001
 43
0.0000001
 44
0.0000000001
 40
0.0
 40
0.0
 40
0.0
 40
0.0
 40
0.2472691566
 40
1.0
 40
1.0
 40
1.0
 40
1.0
 10
87.3004725522
 20
21.2752454665
 30
0.0
 10
87.2883607626
 20
21.2835973281
 30
0.0
 10
87.2404752166
 20
21.3189453171
 30
0.0
 10
87.1972169444
 20
21.3604968074
 30
0.0
 10
87.1678537586
 20
21.3943145282
 30
0.0
  0
SPLINE
  5
492
100
AcDbEntity
  8
_1
100
AcDbSpline
 62
7
  6
CONTINUOUS
 70
0
 71
3
 72
10
 73
6
 74
0
 42
0.0000001
 43
0.0000001
 44
0.0000000001
 40
0.0
 40
0.0
 40
0.0
 40
0.0
 40
0.4579816862
 40
0.7182171792
 40
1.0
 40
1.0
 40
1.0
 40
1.0
 10
87.1678537586
 20
21.3943145282
 30
0.0
 10
87.0850992086
 20
21.4896233373
 30
0.0
 10
86.9935532183
 20
21.6734206889
 30
0.0
 10
86.937047983
 20
21.943344535
 30
0.0
 10
86.9277120369
 20
22.0931421087
 30
0.0
 10
86.9277120369
 20
22.1708030594
 30
0.0
  0
SPLINE
  5
493
100
AcDbEntity
  8
_1
100
AcDbSpline
 62
7
  6
CONTINUOUS
 70
0
 71
3
 72
11
 73
7
 74
0
 42
0.0000001
 43
0.0000001
 44
0.0000000001
 40
0.0
 40
0.0
 40
0.0
 40
0.0
 40
0.2454044099
 40
0.4808015147
 40
0.7269235515
 40
1.0
 40
1.0
 40
1.0
 40
1.0
 10
85.2905133854
 20
22.6436340273
 30
0.0
 10
85.2826668493
 20
22.6173357972
 30
0.0
 10
85.2737606759
 20
22.5632940239
 30
0.0
 10
85.2897555499
 20
22.4815431981
 30
0.0
 10
85.3378446143
 20
22.4098478173
 30
0.0
 10
85.3849264144
 20
22.3742399773
 30
0.0
 10
85.4113736355
 20
22.3589710125
 30
0.0
  0
SPLINE
  5
494
100
AcDbEntity
  8
_1
100
AcDbSpline
 62
7
  6
CONTINUOUS
 70
0
 71
3
 72
12
 73
8
 74
0
 42
0.0000001
 43
0.0000001
 44
0.0000000001
 40
0.0
 40
0.0
 40
0.0
 40
0.0
 40
0.1082051722
 40
0.2184453955
 40
0.4513988498
 40
0.7104631453
 40
1.0
 40
1.0
 40
1.0
 40
1.0
 10
86.209190602
 20
18.4609446651
 30
0.0
 10
86.1271904617
 20
18.5083093192
 30
0.0
 10
85.9694961701
 20
18.6183171729
 30
0.0
 10
85.686733591
 20
18.8964527342
 30
0.0
 10
85.4067983607
 20
19.3530052668
 30
0.0
 10
85.212010421
 20
20.0146093569
 30
0.0
 10
85.1736024919
 20
20.496439075
 30
0.0
 10
85.1736024919
 20
20.7498293327
 30
0.0
  0
SPLINE
  5
495
100
AcDbEntity
  8
_1
100
AcDbSpline
 62
7
  6
CONTINUOUS
 70
0
 71
3
 72
11
 73
7
 74
0
 42
0.0000001
 43
0.0000001
 44
0.0000000001
 40
0.0
 40
0.0
 40
0.0
 40
0.0
 40
0.2177772137
 40
0.4509147143
 40
0.7102525813
 40
1.0
 40
1.0
 40
1.0
 40
1.0
 10
83.2285637355
 20
21.9541211936
 30
0.0
 10
83.1070079427
 20
22.0242745141
 30
0.0
 10
82.8796109605
 20
22.2154881547
 30
0.0
 10
82.6375086304
 20
22.6112995212
 30
0.0
 10
82.4936655172
 20
23.0991337987
 30
0.0
 10
82.4653947954
 20
23.4541996665
 30
0.0
 10
82.4653947954
 20
23.6409281108
 30
0.0
  0
SPLINE
  5
496
100
AcDbEntity
  8
_1
100
AcDbSpline
 62
7
  6
CONTINUOUS
 70
0
 71
3
 72
10
 73
6
 74
0
 42
0.0000001
 43
0.0000001
 44
0.0000000001
 40
0.0
 40
0.0
 40
0.0
 40
0.0
 40
0.5458757339
 40
0.7790523252
 40
1.0
 40
1.0
 40
1.0
 40
1.0
 10
86.4196006907
 20
18.3583282248
 30
0.0
 10
86.389017986
 20
18.3759847582
 30
0.0
 10
86.3485468891
 20
18.4104174459
 30
0.0
 10
86.3209406532
 20
18.4697639986
 30
0.0
 10
86.3164204723
 20
18.4992260942
 30
0.0
 10
86.3160790167
 20
18.5135155106
 30
0.0
  0
SPLINE
  5
497
100
AcDbEntity
  8
_1
100
AcDbSpline
 62
7
  6
CONTINUOUS
 70
0
 71
3
 72
11
 73
7
 74
0
 42
0.0000001
 43
0.0000001
 44
0.0000000001
 40
0.0
 40
0.0
 40
0.0
 40
0.0
 40
0.2123979199
 40
0.4506645801
 40
0.7149420071
 40
1.0
 40
1.0
 40
1.0
 40
1.0
 10
86.3160790167
 20
18.5135155106
 30
0.0
 10
86.3151600488
 20
18.5519729657
 30
0.0
 10
86.3422224105
 20
18.6335476664
 30
0.0
 10
86.4239720054
 20
18.7349722841
 30
0.0
 10
86.533647736
 20
18.8272512462
 30
0.0
 10
86.6176553999
 20
18.8809186359
 30
0.0
 10
86.6623668486
 20
18.9067326487
 30
0.0
  0
SPLINE
  5
498
100
AcDbEntity
  8
_1
100
AcDbSpline
 62
7
  6
CONTINUOUS
 70
0
 71
3
 72
17
 73
13
 74
0
 42
0.0000001
 43
0.0000001
 44
0.0000000001
 40
0.0
 40
0.0
 40
0.0
 40
0.0
 40
0.1286891333
 40
0.2702803493
 40
0.4174326844
 40
0.5617743804
 40
0.6954465661
 40
0.8127104963
 40
0.8646756522
 40
0.91250911
 40
0.9571392634
 40
1.0
 40
1.0
 40
1.0
 40
1.0
 10
86.9277120369
 20
22.1708030594
 30
0.0
 10
86.9277120369
 20
22.3434023018
 30
0.0
 10
86.9759989975
 20
22.7063184358
 30
0.0
 10
87.1562132002
 20
23.2391808304
 30
0.0
 10
87.4339231388
 20
23.7524925462
 30
0.0
 10
87.7867924137
 20
24.2041679775
 30
0.0
 10
88.1859929769
 20
24.5577243029
 30
0.0
 10
88.5473253304
 20
24.7553056696
 30
0.0
 10
88.8299776779
 20
24.8304921793
 30
0.0
 10
89.0245122181
 20
24.8448186519
 30
0.0
 10
89.2056562387
 20
24.8182722688
 30
0.0
 10
89.3154058356
 20
24.7726708113
 30
0.0
 10
89.3651784068
 20
24.743908885
 30
0.0
  0
SPLINE
  5
499
100
AcDbEntity
  8
_1
100
AcDbSpline
 62
7
  6
CONTINUOUS
 70
0
 71
3
 72
11
 73
7
 74
0
 42
0.0000001
 43
0.0000001
 44
0.0000000001
 40
0.0
 40
0.0
 40
0.0
 40
0.0
 40
0.4781632772
 40
0.7452964771
 40
0.8787684096
 40
1.0
 40
1.0
 40
1.0
 40
1.0
 10
90.0487667822
 20
20.8618598914
 30
0.0
 10
90.1858049462
 20
20.94097844
 30
0.0
 10
90.4186312497
 20
21.0356324165
 30
0.0
 10
90.7105536139
 20
21.0697445813
 30
0.0
 10
90.8827826024
 20
21.0498978095
 30
0.0
 10
90.9638984168
 20
21.0220827082
 30
0.0
 10
90.9986426653
 20
21.0020235608
 30
0.0
  0
SPLINE
  5
49A
100
AcDbEntity
  8
_1
100
AcDbSpline
 62
7
  6
CONTINUOUS
 70
0
 71
3
 72
9
 73
5
 74
0
 42
0.0000001
 43
0.0000001
 44
0.0000000001
 40
0.0
 40
0.0
 40
0.0
 40
0.0
 40
0.5399776649
 40
1.0
 40
1.0
 40
1.0
 40
1.0
 10
89.5521527905
 20
27.0905800475
 30
0.0
 10
89.5414808491
 20
27.1175042404
 30
0.0
 10
89.5253217204
 20
27.168892794
 30
0.0
 10
89.5213318616
 20
27.2234261118
 30
0.0
 10
89.5246164837
 20
27.2478801315
 30
0.0
  0
SPLINE
  5
49B
100
AcDbEntity
  8
_1
100
AcDbSpline
 62
7
  6
CONTINUOUS
 70
0
 71
3
 72
11
 73
7
 74
0
 42
0.0000001
 43
0.0000001
 44
0.0000000001
 40
0.0
 40
0.0
 40
0.0
 40
0.0
 40
0.2675493127
 40
0.5129899153
 40
0.7511908002
 40
1.0
 40
1.0
 40
1.0
 40
1.0
 10
87.629693784
 20
26.0554308216
 30
0.0
 10
87.6034718787
 20
26.0705697032
 30
0.0
 10
87.5489368893
 20
26.0932579759
 30
0.0
 10
87.4622289128
 20
26.0986267428
 30
0.0
 10
87.381788781
 20
26.0720180553
 30
0.0
 10
87.3373160736
 20
26.0379478123
 30
0.0
 10
87.3172063613
 20
26.0182388542
 30
0.0
  0
SPLINE
  5
49C
100
AcDbEntity
  8
_1
100
AcDbSpline
 62
7
  6
CONTINUOUS
 70
0
 71
3
 72
11
 73
7
 74
0
 42
0.0000001
 43
0.0000001
 44
0.0000000001
 40
0.0
 40
0.0
 40
0.0
 40
0.0
 40
0.2277218864
 40
0.4750584155
 40
0.7352443559
 40
1.0
 40
1.0
 40
1.0
 40
1.0
 10
89.7834215939
 20
23.8195378993
 30
0.0
 10
89.7834215939
 20
23.6921082169
 30
0.0
 10
89.7569391943
 20
23.4260163354
 30
0.0
 10
89.6535867128
 20
23.0264415375
 30
0.0
 10
89.4889964162
 20
22.6255487959
 30
0.0
 10
89.3436445911
 20
22.3692284245
 30
0.0
 10
89.2624744738
 20
22.245289792
 30
0.0
  0
SPLINE
  5
49D
100
AcDbEntity
  8
_1
100
AcDbSpline
 62
7
  6
CONTINUOUS
 70
0
 71
3
 72
13
 73
9
 74
0
 42
0.0000001
 43
0.0000001
 44
0.0000000001
 40
0.0
 40
0.0
 40
0.0
 40
0.0
 40
0.2844799212
 40
0.5357353039
 40
0.6530840744
 40
0.7677517815
 40
0.8825330851
 40
1.0
 40
1.0
 40
1.0
 40
1.0
 10
85.1970917683
 20
20.7262868215
 30
0.0
 10
85.2238390923
 20
20.4887052756
 30
0.0
 10
85.3193365899
 20
20.043709758
 30
0.0
 10
85.5841682047
 20
19.5512907626
 30
0.0
 10
85.8668304838
 20
19.2565892008
 30
0.0
 10
86.1060582797
 20
19.0868879994
 30
0.0
 10
86.3736015105
 20
18.9667221339
 30
0.0
 10
86.5647145417
 20
18.9212224918
 30
0.0
 10
86.6623668486
 20
18.9067326487
 30
0.0
  0
SPLINE
  5
49E
100
AcDbEntity
  8
_1
100
AcDbSpline
 62
7
  6
CONTINUOUS
 70
0
 71
3
 72
11
 73
7
 74
0
 42
0.0000001
 43
0.0000001
 44
0.0000000001
 40
0.0
 40
0.0
 40
0.0
 40
0.0
 40
0.247278845
 40
0.5022153114
 40
0.7560137275
 40
1.0
 40
1.0
 40
1.0
 40
1.0
 10
87.1589808403
 20
25.7088898255
 30
0.0
 10
87.0877024961
 20
25.4467573601
 30
0.0
 10
86.9022743361
 20
24.9248341438
 30
0.0
 10
86.5212560887
 20
24.1843136478
 30
0.0
 10
86.0492954293
 20
23.502544071
 30
0.0
 10
85.678343181
 20
23.0976614056
 30
0.0
 10
85.4822630019
 20
22.9149197553
 30
0.0
  0
SPLINE
  5
49F
100
AcDbEntity
  8
_1
100
AcDbSpline
 62
7
  6
CONTINUOUS
 70
0
 71
3
 72
9
 73
5
 74
0
 42
0.0000001
 43
0.0000001
 44
0.0000000001
 40
0.0
 40
0.0
 40
0.0
 40
0.0
 40
0.2317544721
 40
1.0
 40
1.0
 40
1.0
 40
1.0
 10
89.5521527905
 20
27.0905800475
 30
0.0
 10
89.4628286282
 20
27.0808690876
 30
0.0
 10
89.0799315754
 20
27.0155634767
 30
0.0
 10
88.7147278985
 20
26.8658067815
 30
0.0
 10
88.452868848
 20
26.7238832096
 30
0.0
  0
SPLINE
  5
4A0
100
AcDbEntity
  8
_1
100
AcDbSpline
 62
7
  6
CONTINUOUS
 70
0
 71
3
 72
9
 73
5
 74
0
 42
0.0000001
 43
0.0000001
 44
0.0000000001
 40
0.0
 40
0.0
 40
0.0
 40
0.0
 40
0.2748420365
 40
1.0
 40
1.0
 40
1.0
 40
1.0
 10
91.5375340829
 20
24.8322691718
 30
0.0
 10
91.5375340829
 20
24.9643472058
 30
0.0
 10
91.5154567959
 20
25.44355892
 30
0.0
 10
91.3946127356
 20
25.9261616214
 30
0.0
 10
91.2288706289
 20
26.2327054112
 30
0.0
  0
SPLINE
  5
4A1
100
AcDbEntity
  8
_1
100
AcDbSpline
 62
7
  6
CONTINUOUS
 70
0
 71
3
 72
11
 73
7
 74
0
 42
0.0000001
 43
0.0000001
 44
0.0000000001
 40
0.0
 40
0.0
 40
0.0
 40
0.0
 40
0.2622416373
 40
0.5232165667
 40
0.7721733854
 40
1.0
 40
1.0
 40
1.0
 40
1.0
 10
90.0487667822
 20
20.8618598914
 30
0.0
 10
90.2779448799
 20
21.1604962855
 30
0.0
 10
90.6907768753
 20
21.791675282
 30
0.0
 10
91.1602577148
 20
22.8000024304
 30
0.0
 10
91.4596214814
 20
23.8200647004
 30
0.0
 10
91.5375340829
 20
24.5052318009
 30
0.0
 10
91.5375340829
 20
24.8322691718
 30
0.0
  0
SPLINE
  5
4A2
100
AcDbEntity
  8
_1
100
AcDbSpline
 62
7
  6
CONTINUOUS
 70
0
 71
3
 72
11
 73
7
 74
0
 42
0.0000001
 43
0.0000001
 44
0.0000000001
 40
0.0
 40
0.0
 40
0.0
 40
0.0
 40
0.2177795038
 40
0.4509231676
 40
0.7102594079
 40
1.0
 40
1.0
 40
1.0
 40
1.0
 10
94.1896805438
 20
77.6245919975
 30
0.0
 10
94.3112390723
 20
77.5544400944
 30
0.0
 10
94.5386402803
 20
77.363220683
 30
0.0
 10
94.7807404605
 20
76.9674025195
 30
0.0
 10
94.9245831312
 20
76.4795688963
 30
0.0
 10
94.9528485606
 20
76.1245076331
 30
0.0
 10
94.9528485606
 20
75.937783342
 30
0.0
  0
SPLINE
  5
4A3
100
AcDbEntity
  8
_1
100
AcDbSpline
 62
7
  6
CONTINUOUS
 70
0
 71
3
 72
11
 73
7
 74
0
 42
0.0000001
 43
0.0000001
 44
0.0000000001
 40
0.0
 40
0.0
 40
0.0
 40
0.0
 40
0.2177651606
 40
0.4508956102
 40
0.7103690052
 40
1.0
 40
1.0
 40
1.0
 40
1.0
 10
89.3651784068
 20
24.743908885
 30
0.0
 10
89.4317675255
 20
24.7054292309
 30
0.0
 10
89.5564593315
 20
24.6007612828
 30
0.0
 10
89.6891189267
 20
24.3837589097
 30
0.0
 10
89.7678731456
 20
24.1164079761
 30
0.0
 10
89.7834215939
 20
23.9218263184
 30
0.0
 10
89.7834215939
 20
23.8195378993
 30
0.0
  0
SPLINE
  5
4A4
100
AcDbEntity
  8
_1
100
AcDbSpline
 62
7
  6
CONTINUOUS
 70
0
 71
3
 72
11
 73
7
 74
0
 42
0.0000001
 43
0.0000001
 44
0.0000000001
 40
0.0
 40
0.0
 40
0.0
 40
0.0
 40
0.2525524973
 40
0.5281965373
 40
0.7849830038
 40
1.0
 40
1.0
 40
1.0
 40
1.0
 10
92.0068697204
 20
26.1668597226
 30
0.0
 10
91.9489130081
 20
26.2003202891
 30
0.0
 10
91.8142076349
 20
26.2464505826
 30
0.0
 10
91.6069228944
 20
26.2710542286
 30
0.0
 10
91.4083221932
 20
26.2644236546
 30
0.0
 10
91.2844839768
 20
26.2450915903
 30
0.0
 10
91.2288706289
 20
26.2327054112
 30
0.0
  0
SPLINE
  5
4A5
100
AcDbEntity
  8
_1
100
AcDbSpline
 62
7
  6
CONTINUOUS
 70
0
 71
3
 72
9
 73
5
 74
0
 42
0.0000001
 43
0.0000001
 44
0.0000000001
 40
0.0
 40
0.0
 40
0.0
 40
0.0
 40
0.2420120146
 40
1.0
 40
1.0
 40
1.0
 40
1.0
 10
87.6763965237
 20
26.6494834027
 30
0.0
 10
87.6763965237
 20
26.6013869473
 30
0.0
 10
87.6722675752
 20
26.4026599487
 30
0.0
 10
87.6522814423
 20
26.2043670998
 30
0.0
 10
87.629693784
 20
26.0554308216
 30
0.0
  0
SPLINE
  5
4A6
100
AcDbEntity
  8
_1
100
AcDbSpline
 62
7
  6
CONTINUOUS
 70
0
 71
3
 72
11
 73
7
 74
0
 42
0.0000001
 43
0.0000001
 44
0.0000000001
 40
0.0
 40
0.0
 40
0.0
 40
0.0
 40
0.2278442923
 40
0.4749398609
 40
0.7349002618
 40
1.0
 40
1.0
 40
1.0
 40
1.0
 10
92.244640864
 20
24.8322708714
 30
0.0
 10
92.244640864
 20
24.5226884146
 30
0.0
 10
92.1817889443
 20
23.8767146713
 30
0.0
 10
91.9345321588
 20
22.90611914
 30
0.0
 10
91.5413004791
 20
21.9303756796
 30
0.0
 10
91.1931498732
 20
21.305195532
 30
0.0
 10
90.9986426653
 20
21.0020235608
 30
0.0
  0
SPLINE
  5
4A7
100
AcDbEntity
  8
_1
100
AcDbSpline
 62
7
  6
CONTINUOUS
 70
0
 71
3
 72
9
 73
5
 74
0
 42
0.0000001
 43
0.0000001
 44
0.0000000001
 40
0.0
 40
0.0
 40
0.0
 40
0.0
 40
0.2312381499
 40
1.0
 40
1.0
 40
1.0
 40
1.0
 10
92.0068697204
 20
26.1668597226
 30
0.0
 10
92.047065511
 20
26.0699844582
 30
0.0
 10
92.1949797391
 20
25.6402630265
 30
0.0
 10
92.244640864
 20
25.1809604067
 30
0.0
 10
92.244640864
 20
24.8322708714
 30
0.0
  0
SPLINE
  5
4A8
100
AcDbEntity
  8
_1
100
AcDbSpline
 62
7
  6
CONTINUOUS
 70
0
 71
3
 72
15
 73
11
 74
0
 42
0.0000001
 43
0.0000001
 44
0.0000000001
 40
0.0
 40
0.0
 40
0.0
 40
0.0
 40
0.1159492733
 40
0.2416085598
 40
0.3738009863
 40
0.508791326
 40
0.6425325451
 40
0.771094641
 40
0.8910954411
 40
1.0
 40
1.0
 40
1.0
 40
1.0
 10
94.9528485606
 20
30.8505198681
 30
0.0
 10
94.9528485606
 20
30.6266398644
 30
0.0
 10
94.9082082141
 20
30.1596680177
 30
0.0
 10
94.7323473039
 20
29.4574776787
 30
0.0
 10
94.4520494214
 20
28.7504043763
 30
0.0
 10
94.0797897374
 20
28.0695013967
 30
0.0
 10
93.631674024
 20
27.4444916336
 30
0.0
 10
93.1272367868
 20
26.9024573235
 30
0.0
 10
92.5884257994
 20
26.4672563322
 30
0.0
 10
92.2003845518
 20
26.2491321049
 30
0.0
 10
92.0068697204
 20
26.1668597226
 30
0.0
  0
SPLINE
  5
4A9
100
AcDbEntity
  8
_1
100
AcDbSpline
 62
7
  6
CONTINUOUS
 70
0
 71
3
 72
12
 73
8
 74
0
 42
0.0000001
 43
0.0000001
 44
0.0000000001
 40
0.0
 40
0.0
 40
0.0
 40
0.0
 40
0.2963483783
 40
0.5582470615
 40
0.7884720505
 40
0.8955662113
 40
1.0
 40
1.0
 40
1.0
 40
1.0
 10
85.4113736355
 20
22.3589710125
 30
0.0
 10
85.2246459993
 20
22.2227446195
 30
0.0
 10
84.8504222034
 20
21.994102806
 30
0.0
 10
84.2642175462
 20
21.7904809602
 30
0.0
 10
83.788136162
 20
21.766713135
 30
0.0
 10
83.4507001168
 20
21.8451006604
 30
0.0
 10
83.2991113633
 20
21.9134061423
 30
0.0
 10
83.2285637355
 20
21.9541211936
 30
0.0
  0
SPLINE
  5
4AA
100
AcDbEntity
  8
_1
100
AcDbSpline
 62
7
  6
CONTINUOUS
 70
0
 71
3
 72
11
 73
7
 74
0
 42
0.0000001
 43
0.0000001
 44
0.0000000001
 40
0.0
 40
0.0
 40
0.0
 40
0.0
 40
0.2177795038
 40
0.4509231676
 40
0.7102594079
 40
1.0
 40
1.0
 40
1.0
 40
1.0
 10
86.9132285069
 20
73.423555532
 30
0.0
 10
87.0347870355
 20
73.353403629
 30
0.0
 10
87.2621882434
 20
73.1621842176
 30
0.0
 10
87.5042884237
 20
72.7663660541
 30
0.0
 10
87.6481310944
 20
72.2785324309
 30
0.0
 10
87.6763965237
 20
71.9234711676
 30
0.0
 10
87.6763965237
 20
71.7367468766
 30
0.0
  0
ELLIPSE
  5
4AB
100
AcDbEntity
  8
_1
100
AcDbEllipse
 62
7
  6
CONTINUOUS
 10
17.8777596997
 20
114.5978382853
 30
0.0
 11
0.5081547535
 21
0.0000000011
 31
0.0
 40
0.5771661917
 41
3.1241449115
 42
3.9268426846
  0
ELLIPSE
  5
4AC
100
AcDbEntity
  8
_1
100
AcDbEllipse
 62
7
  6
CONTINUOUS
 10
80.7092989923
 20
78.322852811
 30
0.0
 11
0.508
 21
-0.0000000011
 31
0.0
 40
0.5775178928
 41
-2.356038031
 42
-0.7855462907
  0
ELLIPSE
  5
4AD
100
AcDbEntity
  8
_1
100
AcDbEllipse
 62
7
  6
CONTINUOUS
 10
95.9006083958
 20
87.0935070307
 30
0.0
 11
0.5081547535
 21
0.0000000011
 31
0.0
 40
0.5771661917
 41
-0.7852417093
 42
0.017447742
  0
ELLIPSE
  5
4AE
100
AcDbEntity
  8
_1
100
AcDbEllipse
 62
7
  6
CONTINUOUS
 10
80.7092984832
 20
82.437578434
 30
0.0
 11
0.508
 21
-0.0000000011
 31
0.0
 40
0.5775178928
 41
-2.356038031
 42
-0.7855462907
  0
ELLIPSE
  5
4AF
100
AcDbEntity
  8
_1
100
AcDbEllipse
 62
7
  6
CONTINUOUS
 10
95.778342652
 20
91.1376432089
 30
0.0
 11
0.5081547535
 21
0.0000000011
 31
0.0
 40
0.5771661917
 41
-0.7852417093
 42
0.017447742
  0
ELLIPSE
  5
4B0
100
AcDbEntity
  8
_1
100
AcDbEllipse
 62
7
  6
CONTINUOUS
 10
18.0000254436
 20
118.6419750513
 30
0.0
 11
0.5081547535
 21
0.0000000011
 31
0.0
 40
0.5771661917
 41
3.1241449115
 42
3.9268426846
  0
ELLIPSE
  5
4B1
100
AcDbEntity
  8
_1
100
AcDbEllipse
 62
7
  6
CONTINUOUS
 10
80.7111795801
 20
82.4786947179
 30
0.0
 11
0.508
 21
-0.0000000011
 31
0.0
 40
0.5775178928
 41
-2.356038031
 42
-0.7855462907
  0
ELLIPSE
  5
4B2
100
AcDbEntity
  8
_1
100
AcDbEllipse
 62
7
  6
CONTINUOUS
 10
95.7789697464
 20
91.1780354985
 30
0.0
 11
0.5081547535
 21
0.0000000011
 31
0.0
 40
0.5771661917
 41
5.4979435979
 42
6.3006328824
  0
ELLIPSE
  5
4B3
100
AcDbEntity
  8
_1
100
AcDbEllipse
 62
7
  6
CONTINUOUS
 10
17.9993983491
 20
118.6845394073
 30
0.0
 11
0.5081547535
 21
0.0000000011
 31
0.0
 40
0.5771661917
 41
3.1241450786
 42
3.9268426846
  0
ELLIPSE
  5
4B4
100
AcDbEntity
  8
_1
100
AcDbEllipse
 62
7
  6
CONTINUOUS
 10
62.9576386972
 20
-527.3976599384
 30
0.0
 11
-411.4765395341
 21
688.8600942885
 31
0.0
 40
0.5671943254
 41
-0.814439421
 42
-0.8065928295
  0
ELLIPSE
  5
4B5
100
AcDbEntity
  8
_1
100
AcDbEllipse
 62
7
  6
CONTINUOUS
 10
50.8207293984
 20
-534.4048659618
 30
0.0
 11
-390.4596084068
 21
700.9892229724
 31
0.0
 40
0.5873432686
 41
-0.7969750516
 42
-0.7967751805
  0
ENDSEC
  0
SECTION
  2
OBJECTS
  0
DICTIONARY
  5
C
100
AcDbDictionary
280
0
281
1
  3
ACAD_GROUP
350
D
  3
ACAD_MLINESTYLE
350
17
  3
ACAD_LAYOUT
350
1A
  3
ACAD_PLOTSETTINGS
350
19
  3
ACAD_PLOTSTYLENAME
350
E
  0
DICTIONARY
  5
D
102
{ACAD_REACTORS
330
C
102
}
100
AcDbDictionary
280
0
281
1
  0
ACDBDICTIONARYWDFLT
  5
E
102
{ACAD_REACTORS
330
C
102
}
100
AcDbDictionary
281
1
  3
Normal
350
F
100
AcDbDictionaryWithDefault
340
F
  0
DICTIONARY
  5
17
102
{ACAD_REACTORS
330
C
102
}
100
AcDbDictionary
280
0
281
1
  3
Standard
350
18
  0
DICTIONARY
  5
19
102
{ACAD_REACTORS
330
C
102
}
100
AcDbDictionary
281
1
  0
DICTIONARY
  5
1A
102
{ACAD_REACTORS
330
C
102
}
100
AcDbDictionary
281
1
  3
Model
350
4B6
  3
Layout1
350
4B7
  0
ACDBPLACEHOLDER
  5
F
102
{ACAD_REACTORS
330
E
102
}
  0
MLINESTYLE
  5
18
102
{ACAD_REACTORS
330
17
102
}
100
AcDbMlineStyle
  2
STANDARD
 70
0
  3

 62
256
 51
90.0
 52
90.0
 71
2
 49
0.5
 62
256
  6
BYLAYER
 49
-0.5
 62
256
  6
BYLAYER
  0
LAYOUT
  5
4B6
102
{ACAD_REACTORS
330
1A
102
}
100
AcDbPlotSettings
  1

  2
none_device
  4

  6

 40
0.0
 41
0.0
 42
0.0
 43
0.0
 44
210.0
 45
297.0
 46
0.0
 47
0.0
 48
0.0
 49
0.0
140
0.0
141
0.0
142
1.0
143
1.0
 70
1024
 72
1
 73
0
 74
0
  7

 75
0
147
1.0
148
0.0
149
0.0
100
AcDbLayout
  1
Model
 70
0
 71
0
 10
0.0
 20
0.0
 11
210.0
 21
297.0
 12
0.0
 22
0.0
 32
0.0
 14
0.0
 24
0.0
 34
0.0
 15
0.0
 25
0.0
 35
0.0
146
0.0
 13
0.0
 23
0.0
 33
0.0
 16
1.0
 26
0.0
 36
0.0
 17
0.0
 27
1.0
 37
0.0
 76
0
330
211
345
0
346
0
  0
LAYOUT
  5
4B7
102
{ACAD_REACTORS
330
1A
102
}
100
AcDbPlotSettings
  1

  2
none_device
  4

  6

 40
0.0
 41
0.0
 42
0.0
 43
0.0
 44
210.0
 45
297.0
 46
0.0
 47
0.0
 48
0.0
 49
0.0
140
0.0
141
0.0
142
1.0
143
1.0
 70
0
 72
1
 73
0
 74
0
  7

 75
0
147
1.0
148
0.0
149
0.0
100
AcDbLayout
  1
Layout1
 70
0
 71
1
 10
0.0
 20
0.0
 11
210.0
 21
297.0
 12
0.0
 22
0.0
 32
0.0
 14
0.0
 24
0.0
 34
0.0
 15
0.0
 25
0.0
 35
0.0
146
0.0
 13
0.0
 23
0.0
 33
0.0
 16
1.0
 26
0.0
 36
0.0
 17
0.0
 27
1.0
 37
0.0
 76
0
330
212
345
0
346
0
  0
ENDSEC
  0
EOF
