999
DXF file: C:\Users\sesa63760\Dev\_Creo\CAD\MCADID0001834_3D-CAD\drw0001_1.dxf
999
Pro/ENGINEER 2019471 by Parametric Technology Corporation
  0
SECTION
  2
HEADER
  9
$ACADVER
  1
AC1024
  9
$DWGCODEPAGE
  3
ANSI_1252
  9
$EXTMAX
 10
89.7922273564
 20
126.991864404
 30
0.0
  9
$EXTMIN
 10
0.0
 20
0.0
 30
0.0
  9
$LIMMIN
 10
0.0
 20
0.0
  9
$LIMMAX
 10
89.7922273564
 20
126.991864404
  9
$VIEWCTR
 10
44.8961136782
 20
63.495932202
  9
$VIEWSIZE
 40
126.991864404
  9
$CLAYER
  8
0
  9
$LTSCALE
 40
8.2779881982
  9
$CELTYPE
  6
BYLAYER
  9
$DIMSCALE
 40
1.0
  9
$DIMASZ
 40
1.0689550876
  9
$DIMEXO
 40
1.0
  9
$DIMDLI
 40
5.7193373006
  9
$DIMEXE
 40
1.0
  9
$DIMCEN
 40
1.354579887
  9
$DIMLFAC
 40
1.0
  9
$DIMBLK
  1
_FILLED
  9
$DIMALT
 70
0
  9
$DIMALTF
 40
0.0393700787
  9
$DIMTXT
 40
1.4965371226
  9
$DIMTOL
 70
1
  9
$DIMLIM
 70
0
  9
$DIMTFAC
 40
1.0
  9
$DIMTP
 40
0.01
  9
$DIMTM
 40
0.01
  9
$DIMGAP
 40
0.625
  9
$DIMDSEP
 70
46
  9
$AUNITS
 70
0
  9
$PDMODE
 70
3
  9
$PDSIZE
 40
0.3125
  9
$HANDSEED
  5
49B
  9
$TILEMODE
 70
1
  9
$MEASUREMENT
 70
1
  9
$INSUNITS
 70
4
  0
ENDSEC
  0
SECTION
  2
CLASSES
  0
CLASS
  1
ACDBDICTIONARYWDFLT
  2
AcDbDictionaryWithDefault
  3
AutoCAD 2000
 90
0
 91
1
280
0
281
0
  0
CLASS
  1
ACDBPLACEHOLDER
  2
AcDbPlaceHolder
  3
AutoCAD 2000
 90
0
 91
1
280
0
281
0
  0
CLASS
  1
LAYOUT
  2
AcDbLayout
  3
AutoCAD 2000
 90
0
 91
0
280
0
281
0
  0
ENDSEC
  0
SECTION
  2
TABLES
  0
TABLE
  2
VPORT
  5
8
100
AcDbSymbolTable
 70
2
  0
VPORT
  5
1F4
100
AcDbSymbolTableRecord
100
AcDbViewportTableRecord
  2
*ACTIVE
 70
0
 10
0.0
 20
0.0
 11
1.0
 21
1.0
 12
44.8961136782
 22
63.495932202
 13
0.0
 23
0.0
 14
1.0
 24
1.0
 15
0.0
 25
0.0
 16
0.0
 26
0.0
 36
1.0
 17
0.0
 27
0.0
 37
0.0
 40
126.991864404
 41
0.7070707071
 42
50.0
 43
0.0
 44
0.0
 50
0.0
 51
0.0
 71
0
 72
100
 73
1
 74
1
 75
0
 76
0
 77
0
 78
0
  0
ENDTAB
  0
TABLE
  2
LTYPE
  5
5
100
AcDbSymbolTable
 70
6
  0
LTYPE
  5
14
100
AcDbSymbolTableRecord
100
AcDbLinetypeTableRecord
  2
BYBLOCK
 70
0
  3

 72
65
 73
0
 40
0.0
  0
LTYPE
  5
15
100
AcDbSymbolTableRecord
100
AcDbLinetypeTableRecord
  2
BYLAYER
 70
0
  3

 72
65
 73
0
 40
0.0
  0
LTYPE
  5
16
100
AcDbSymbolTableRecord
100
AcDbLinetypeTableRecord
  2
CONTINUOUS
 70
64
  3
Solid line
 72
65
 73
0
 40
0.0
  0
LTYPE
  5
1F5
100
AcDbSymbolTableRecord
100
AcDbLinetypeTableRecord
  2
CENTER
 70
64
  3
____ _ ____ _ ____ _ ____ _ ____ _ ____ _ ____
 72
65
 73
4
 40
0.6
 49
0.375
 74
0
 49
-0.075
 74
0
 49
0.075
 74
0
 49
-0.075
 74
0
  0
LTYPE
  5
1F6
100
AcDbSymbolTableRecord
100
AcDbLinetypeTableRecord
  2
HIDDEN
 70
64
  3
- - - - - - - - - - - - - - - - - - - -
 72
65
 73
2
 40
0.2
 49
0.1
 74
0
 49
-0.1
 74
0
  0
LTYPE
  5
1F7
100
AcDbSymbolTableRecord
100
AcDbLinetypeTableRecord
  2
PHANTOM
 70
64
  3
_____ _ _ _____ _ _ _____ _ _ _____
 72
65
 73
6
 40
0.8
 49
0.45
 74
0
 49
-0.05
 74
0
 49
0.1
 74
0
 49
-0.05
 74
0
 49
0.1
 74
0
 49
-0.05
 74
0
  0
LTYPE
  5
1F8
100
AcDbSymbolTableRecord
100
AcDbLinetypeTableRecord
  2
DOT
 70
64
  3
. . . . . . . . . . . . . . . . . . . .
 72
65
 73
2
 40
0.2
 49
0.1
 74
0
 49
-0.1
 74
0
  0
LTYPE
  5
1F9
100
AcDbSymbolTableRecord
100
AcDbLinetypeTableRecord
  2
DASHED
 70
64
  3
- - - - - - - - - - - - - - - - - - - -
 72
65
 73
2
 40
0.2
 49
0.1
 74
0
 49
-0.1
 74
0
  0
ENDTAB
  0
TABLE
  2
LAYER
  5
2
100
AcDbSymbolTable
 70
36
  0
LAYER
  5
10
100
AcDbSymbolTableRecord
100
AcDbLayerTableRecord
  2
0
 70
0
 62
7
  6
CONTINUOUS
370
-3
390
F
  0
LAYER
  5
1FA
100
AcDbSymbolTableRecord
100
AcDbLayerTableRecord
  2
DEFAULT_1
 70
0
 62
7
  6
CENTER
370
-3
390
F
  0
LAYER
  5
1FB
100
AcDbSymbolTableRecord
100
AcDbLayerTableRecord
  2
DEFAULT_2
 70
0
 62
8
  6
HIDDEN
370
-3
390
F
  0
LAYER
  5
1FC
100
AcDbSymbolTableRecord
100
AcDbLayerTableRecord
  2
DEFAULT_3
 70
0
 62
7
  6
PHANTOM
370
-3
390
F
  0
LAYER
  5
1FD
100
AcDbSymbolTableRecord
100
AcDbLayerTableRecord
  2
00_COMPONENTS
 70
0
 62
7
  6
CONTINUOUS
370
-3
390
F
  0
LAYER
  5
1FE
100
AcDbSymbolTableRecord
100
AcDbLayerTableRecord
  2
01_1_DEFAULT_DATUMS
 70
0
 62
7
  6
CONTINUOUS
370
-3
390
F
  0
LAYER
  5
1FF
100
AcDbSymbolTableRecord
100
AcDbLayerTableRecord
  2
01_PLANES
 70
0
 62
7
  6
CONTINUOUS
370
-3
390
F
  0
LAYER
  5
200
100
AcDbSymbolTableRecord
100
AcDbLayerTableRecord
  2
02_COORD_SYS
 70
0
 62
7
  6
CONTINUOUS
370
-3
390
F
  0
LAYER
  5
201
100
AcDbSymbolTableRecord
100
AcDbLayerTableRecord
  2
03_AXES
 70
0
 62
7
  6
CONTINUOUS
370
-3
390
F
  0
LAYER
  5
202
100
AcDbSymbolTableRecord
100
AcDbLayerTableRecord
  2
04_POINTS
 70
0
 62
7
  6
CONTINUOUS
370
-3
390
F
  0
LAYER
  5
203
100
AcDbSymbolTableRecord
100
AcDbLayerTableRecord
  2
05_CURVES
 70
0
 62
7
  6
CONTINUOUS
370
-3
390
F
  0
LAYER
  5
204
100
AcDbSymbolTableRecord
100
AcDbLayerTableRecord
  2
06_SURFS
 70
0
 62
7
  6
CONTINUOUS
370
-3
390
F
  0
LAYER
  5
205
100
AcDbSymbolTableRecord
100
AcDbLayerTableRecord
  2
07_COSMETICS
 70
0
 62
7
  6
CONTINUOUS
370
-3
390
F
  0
LAYER
  5
206
100
AcDbSymbolTableRecord
100
AcDbLayerTableRecord
  2
10_NOTES
 70
0
 62
7
  6
CONTINUOUS
370
-3
390
F
  0
LAYER
  5
207
100
AcDbSymbolTableRecord
100
AcDbLayerTableRecord
  2
11_NOTES_PUB
 70
0
 62
7
  6
CONTINUOUS
370
-3
390
F
  0
LAYER
  5
208
100
AcDbSymbolTableRecord
100
AcDbLayerTableRecord
  2
13_REF_GTOL
 70
0
 62
7
  6
CONTINUOUS
370
-3
390
F
  0
LAYER
  5
209
100
AcDbSymbolTableRecord
100
AcDbLayerTableRecord
  2
16_MISC
 70
0
 62
7
  6
CONTINUOUS
370
-3
390
F
  0
LAYER
  5
20A
100
AcDbSymbolTableRecord
100
AcDbLayerTableRecord
  2
17_NO_PRINT
 70
0
 62
7
  6
CONTINUOUS
370
-3
390
F
  0
LAYER
  5
20B
100
AcDbSymbolTableRecord
100
AcDbLayerTableRecord
  2
18_DATUM_CAMS_JOINTS
 70
0
 62
7
  6
CONTINUOUS
370
-3
390
F
  0
LAYER
  5
20C
100
AcDbSymbolTableRecord
100
AcDbLayerTableRecord
  2
19_DATUM_FUNCTIONAL
 70
0
 62
7
  6
CONTINUOUS
370
-3
390
F
  0
LAYER
  5
20D
100
AcDbSymbolTableRecord
100
AcDbLayerTableRecord
  2
20_DATUM_KINEMATIC_SCHEME
 70
0
 62
7
  6
CONTINUOUS
370
-3
390
F
  0
ENDTAB
  0
TABLE
  2
STYLE
  5
3
100
AcDbSymbolTable
 70
1
  0
STYLE
  5
11
100
AcDbSymbolTableRecord
100
AcDbTextStyleTableRecord
  2
STANDARD
 70
0
 40
0.0
 41
0.8
 50
0.0
 71
0
 42
0.2
  3
txt
  4

  0
STYLE
  5
20E
100
AcDbSymbolTableRecord
100
AcDbTextStyleTableRecord
  2
TEXTSTYLE_1
 70
0
 40
0.0
 41
0.8
 50
0.0
 71
0
 42
0.2
  3
gdt
  4

  0
ENDTAB
  0
TABLE
  2
VIEW
  5
6
100
AcDbSymbolTable
 70
0
  0
ENDTAB
  0
TABLE
  2
UCS
  5
7
100
AcDbSymbolTable
 70
0
  0
ENDTAB
  0
TABLE
  2
APPID
  5
9
100
AcDbSymbolTable
 70
1
  0
APPID
  5
20F
100
AcDbSymbolTableRecord
100
AcDbRegAppTableRecord
  2
ACAD
 70
0
  0
ENDTAB
  0
TABLE
  2
BLOCK_RECORD
  5
1
100
AcDbSymbolTable
 70
0
  0
BLOCK_RECORD
  5
210
100
AcDbSymbolTableRecord
100
AcDbBlockTableRecord
  2
*Model_Space
  0
BLOCK_RECORD
  5
211
100
AcDbSymbolTableRecord
100
AcDbBlockTableRecord
  2
*Paper_Space
  0
BLOCK_RECORD
  5
212
100
AcDbSymbolTableRecord
100
AcDbBlockTableRecord
  2
_FILLED
  0
ENDTAB
  0
TABLE
  2
DIMSTYLE
  5
A
100
AcDbSymbolTable
 70
1
100
AcDbDimStyleTable
 71
0
  0
DIMSTYLE
105
213
100
AcDbSymbolTableRecord
100
AcDbDimStyleTableRecord
  2
STANDARD
 70
0
  3

  4

 40
1.0
 41
1.0689550876
 42
1.0
 43
0.38
 44
1.0
 45
0.0
 46
0.0
 47
0.01
 48
0.01
140
1.4965371226
141
0.09
142
0.0
143
25.4
144
1.0
145
0.0
146
1.0
147
0.625
 71
1
 72
0
 73
0
 74
0
 75
0
 76
0
 77
1
 78
8
 79
2
170
0
171
1
172
0
173
0
174
0
175
0
176
0
177
0
178
0
270
2
179
2
271
2
272
2
273
2
274
2
275
0
280
0
281
0
282
0
283
1
284
8
285
0
286
0
287
3
288
0
340
11
278
46
341
212
342
212
343
212
344
212
  0
ENDTAB
  0
ENDSEC
  0
SECTION
  2
BLOCKS
  0
BLOCK
  5
20
100
AcDbEntity
  8
0
100
AcDbBlockBegin
  2
*Model_Space
 70
0
 10
0.0
 20
0.0
 30
0.0
  3
*Model_Space
  1

  0
ENDBLK
  5
21
100
AcDbEntity
  8
0
100
AcDbBlockEnd
  0
BLOCK
  5
1C
100
AcDbEntity
  8
0
100
AcDbBlockBegin
  2
*Paper_Space
 70
0
 10
0.0
 20
0.0
 30
0.0
  3
*Paper_Space
  1

  0
ENDBLK
  5
1D
100
AcDbEntity
  8
0
100
AcDbBlockEnd
  0
BLOCK
  5
214
100
AcDbEntity
  8
0
100
AcDbBlockBegin
  2
_FILLED
 70
64
 10
0.0
 20
0.0
  3
_FILLED
  1

  0
SOLID
  5
215
100
AcDbEntity
  8
0
  6
BYBLOCK
 62
0
100
AcDbTrace
 10
0.0
 20
0.0
 11
-1.0
 21
0.25
 12
-1.0
 22
-0.25
 13
-1.0
 23
-0.25
  0
ENDBLK
  5
216
100
AcDbEntity
  8
0
  6
BYBLOCK
 62
0
100
AcDbBlockEnd
  0
ENDSEC
  0
SECTION
  2
ENTITIES
  0
LINE
  5
217
100
AcDbEntity
  8
0
100
AcDbLine
 62
7
  6
CONTINUOUS
 10
10.4181588491
 20
79.7978358329
 11
10.6063717602
 21
80.7758245086
  0
LINE
  5
218
100
AcDbEntity
  8
0
100
AcDbLine
 62
7
  6
CONTINUOUS
 10
10.6613471349
 20
80.656379443
 11
10.4774986064
 21
79.7010688969
  0
LINE
  5
219
100
AcDbEntity
  8
0
100
AcDbLine
 62
7
  6
CONTINUOUS
 10
31.0078301389
 20
97.8350599797
 11
42.1093603832
 21
104.2444931955
  0
LINE
  5
21A
100
AcDbEntity
  8
0
100
AcDbLine
 62
7
  6
CONTINUOUS
 10
42.9544466049
 20
103.7565934757
 11
31.8529163606
 21
97.3471602599
  0
LINE
  5
21B
100
AcDbEntity
  8
0
100
AcDbLine
 62
7
  6
CONTINUOUS
 10
31.0078306806
 20
96.7074487906
 11
24.6705040979
 21
93.0486134224
  0
LINE
  5
21C
100
AcDbEntity
  8
0
100
AcDbLine
 62
7
  6
CONTINUOUS
 10
24.9205029787
 20
93.0238512829
 11
31.0078306995
 21
96.5383506025
  0
LINE
  5
21D
100
AcDbEntity
  8
0
100
AcDbLine
 62
7
  6
CONTINUOUS
 10
31.9377695276
 20
96.8082699191
 11
43.0392997719
 21
103.2177031349
  0
LINE
  5
21E
100
AcDbEntity
  8
0
100
AcDbLine
 62
7
  6
CONTINUOUS
 10
31.9878392568
 20
96.4677632837
 11
43.0893695011
 21
102.8771964995
  0
LINE
  5
21F
100
AcDbEntity
  8
0
100
AcDbLine
 62
7
  6
CONTINUOUS
 10
32.0726924239
 20
95.9288729429
 11
43.1742226682
 21
102.3383061586
  0
LINE
  5
220
100
AcDbEntity
  8
0
100
AcDbLine
 62
7
  6
CONTINUOUS
 10
32.1227621532
 20
95.5883663074
 11
43.2242923975
 21
101.9977995231
  0
LINE
  5
221
100
AcDbEntity
  8
0
100
AcDbLine
 62
7
  6
CONTINUOUS
 10
32.2076153202
 20
95.0494759666
 11
43.3091455644
 21
101.4589091824
  0
LINE
  5
222
100
AcDbEntity
  8
0
100
AcDbLine
 62
7
  6
CONTINUOUS
 10
32.2576850495
 20
94.7089693311
 11
43.3592152938
 21
101.1184025469
  0
LINE
  5
223
100
AcDbEntity
  8
0
100
AcDbLine
 62
7
  6
CONTINUOUS
 10
32.3425382164
 20
94.1700789904
 11
43.4440684607
 21
100.5795122061
  0
LINE
  5
224
100
AcDbEntity
  8
0
100
AcDbLine
 62
7
  6
CONTINUOUS
 10
32.3926079457
 20
93.829572355
 11
43.4941381899
 21
100.2390055708
  0
LINE
  5
225
100
AcDbEntity
  8
0
100
AcDbLine
 62
7
  6
CONTINUOUS
 10
10.70276835
 20
80.911233613
 11
21.380036292
 21
87.0757203365
  0
LINE
  5
226
100
AcDbEntity
  8
0
100
AcDbLine
 62
7
  6
CONTINUOUS
 10
10.8027679023
 20
80.9013287572
 11
21.4800358443
 21
87.0658154807
  0
LINE
  5
227
100
AcDbEntity
  8
0
100
AcDbLine
 62
7
  6
CONTINUOUS
 10
32.4774611127
 20
93.2906820141
 11
43.578991357
 21
99.7001152299
  0
LINE
  5
228
100
AcDbEntity
  8
0
100
AcDbLine
 62
7
  6
CONTINUOUS
 10
32.5275308419
 20
92.9501753788
 11
43.6290610862
 21
99.3596085945
  0
LINE
  5
229
100
AcDbEntity
  8
0
100
AcDbLine
 62
7
  6
CONTINUOUS
 10
15.8816420126
 20
54.1990621886
 11
15.8816420126
 21
76.5233992944
  0
LINE
  5
22A
100
AcDbEntity
  8
0
100
AcDbLine
 62
7
  6
CONTINUOUS
 10
15.9402212452
 20
54.1174133578
 11
15.9402212452
 21
76.3262791037
  0
LINE
  5
22B
100
AcDbEntity
  8
0
100
AcDbLine
 62
7
  6
CONTINUOUS
 10
16.6972634812
 20
77.1716203514
 11
16.6972634812
 21
76.1101672092
  0
LINE
  5
22C
100
AcDbEntity
  8
0
100
AcDbLine
 62
7
  6
CONTINUOUS
 10
16.7301736828
 20
76.033510389
 11
16.7301736828
 21
77.2244428965
  0
LINE
  5
22D
100
AcDbEntity
  8
0
100
AcDbLine
 62
7
  6
CONTINUOUS
 10
16.7887529153
 20
75.8363901983
 11
16.7887529153
 21
77.1427940657
  0
LINE
  5
22E
100
AcDbEntity
  8
0
100
AcDbLine
 62
7
  6
CONTINUOUS
 10
32.612384009
 20
92.4112850379
 11
43.7139142533
 21
98.8207182537
  0
LINE
  5
22F
100
AcDbEntity
  8
0
100
AcDbLine
 62
7
  6
CONTINUOUS
 10
32.6624537383
 20
92.0707784024
 11
43.7639839825
 21
98.4802116182
  0
LINE
  5
230
100
AcDbEntity
  8
0
100
AcDbLine
 62
7
  6
CONTINUOUS
 10
32.7322004625
 20
91.956458697
 11
43.8337307067
 21
98.3658919128
  0
LINE
  5
231
100
AcDbEntity
  8
0
100
AcDbLine
 62
7
  6
CONTINUOUS
 10
31.0078313927
 20
90.3330398636
 11
30.2945368898
 21
89.9212215486
  0
LINE
  5
232
100
AcDbEntity
  8
0
100
AcDbLine
 62
7
  6
CONTINUOUS
 10
30.6480917524
 20
89.3088499627
 11
31.0078314839
 21
89.5165445538
  0
LINE
  5
233
100
AcDbEntity
  8
0
100
AcDbLine
 62
7
  6
CONTINUOUS
 10
15.9402212452
 20
54.1174133578
 11
15.8816463512
 21
54.1990621886
  0
LINE
  5
234
100
AcDbEntity
  8
0
100
AcDbLine
 62
7
  6
CONTINUOUS
 10
36.4104144726
 20
87.5082645642
 11
37.4001992434
 21
88.0803160295
  0
LINE
  5
235
100
AcDbEntity
  8
0
100
AcDbLine
 62
7
  6
CONTINUOUS
 10
46.5219999487
 20
93.346154048
 11
47.5117841156
 21
93.9182074299
  0
LINE
  5
236
100
AcDbEntity
  8
0
100
AcDbLine
 62
7
  6
CONTINUOUS
 10
31.9537342669
 20
86.9657780915
 11
32.0982001572
 21
87.0491850143
  0
LINE
  5
237
100
AcDbEntity
  8
0
100
AcDbLine
 62
7
  6
CONTINUOUS
 10
45.7895814213
 20
94.2630791033
 11
36.6679419213
 21
88.9967295183
  0
LINE
  5
238
100
AcDbEntity
  8
0
100
AcDbLine
 62
7
  6
CONTINUOUS
 10
16.8386842487
 20
77.4165696656
 11
24.4205029787
 21
81.7939086212
  0
LINE
  5
239
100
AcDbEntity
  8
0
100
AcDbLine
 62
7
  6
CONTINUOUS
 10
24.4205029787
 20
81.7799004809
 11
16.8301741305
 21
77.3976482357
  0
LINE
  5
23A
100
AcDbEntity
  8
0
100
AcDbLine
 62
7
  6
CONTINUOUS
 10
45.9173961442
 20
94.1784408608
 11
46.9073415163
 21
94.7499826763
  0
LINE
  5
23B
100
AcDbEntity
  8
0
100
AcDbLine
 62
7
  6
CONTINUOUS
 10
35.8059277863
 20
88.3404743482
 11
36.7958731584
 21
88.9120161636
  0
LINE
  5
23C
100
AcDbEntity
  8
0
100
AcDbLine
 62
7
  6
CONTINUOUS
 10
16.9301736828
 20
77.3877433799
 11
24.4205029787
 21
81.7122612013
  0
LINE
  5
23D
100
AcDbEntity
  8
0
100
AcDbLine
 62
7
  6
CONTINUOUS
 10
37.3034637355
 20
88.2481200483
 11
39.4343419097
 21
89.4783758083
  0
LINE
  5
23E
100
AcDbEntity
  8
0
100
AcDbLine
 62
7
  6
CONTINUOUS
 10
43.7973477012
 20
91.9973433403
 11
46.1766645701
 21
93.3710343584
  0
LINE
  5
23F
100
AcDbEntity
  8
0
100
AcDbLine
 62
7
  6
CONTINUOUS
 10
16.6972634812
 20
76.1101672092
 11
16.7301736828
 21
76.1291678095
  0
LINE
  5
240
100
AcDbEntity
  8
0
100
AcDbLine
 62
7
  6
CONTINUOUS
 10
43.2524715757
 20
91.2489768163
 11
40.0798547434
 21
89.417276568
  0
LINE
  5
241
100
AcDbEntity
  8
0
100
AcDbLine
 62
7
  6
CONTINUOUS
 10
15.8816222988
 20
76.5233955616
 11
15.9402212452
 21
76.3262791037
  0
LINE
  5
242
100
AcDbEntity
  8
0
100
AcDbLine
 62
7
  6
CONTINUOUS
 10
21.1021222387
 20
54.5665660017
 11
21.1021222387
 21
52.6069602006
  0
LINE
  5
243
100
AcDbEntity
  8
0
100
AcDbLine
 62
7
  6
CONTINUOUS
 10
21.4203201431
 20
53.3622252636
 11
21.4203201431
 21
52.6273730882
  0
LINE
  5
244
100
AcDbEntity
  8
0
100
AcDbLine
 62
7
  6
CONTINUOUS
 10
21.9417319819
 20
76.2780098125
 11
21.9417319819
 21
76.6862610211
  0
LINE
  5
245
100
AcDbEntity
  8
0
100
AcDbLine
 62
7
  6
CONTINUOUS
 10
23.9305611393
 20
50.9739971825
 11
23.9305611393
 21
52.9336029837
  0
LINE
  5
246
100
AcDbEntity
  8
0
100
AcDbLine
 62
7
  6
CONTINUOUS
 10
24.4205029787
 20
92.6156000743
 11
24.4205029787
 21
74.2442956889
  0
LINE
  5
247
100
AcDbEntity
  8
0
100
AcDbLine
 62
7
  6
CONTINUOUS
 10
24.5669510601
 20
74.040173612
 11
24.5669510601
 21
92.4114779974
  0
LINE
  5
248
100
AcDbEntity
  8
0
100
AcDbLine
 62
7
  6
CONTINUOUS
 10
26.6175680854
 20
74.7342274815
 11
26.8747004646
 21
75.4022819903
  0
LINE
  5
249
100
AcDbEntity
  8
0
100
AcDbLine
 62
7
  6
CONTINUOUS
 10
38.7380586143
 20
87.3685596781
 11
38.5831404629
 21
87.2791181756
  0
LINE
  5
24A
100
AcDbEntity
  8
0
100
AcDbLine
 62
7
  6
CONTINUOUS
 10
39.5125857033
 20
86.7425148554
 11
40.8207278021
 21
87.4977665401
  0
LINE
  5
24B
100
AcDbEntity
  8
0
100
AcDbLine
 62
7
  6
CONTINUOUS
 10
15.9402212452
 20
54.1174133578
 11
29.9409938031
 21
46.0342464183
  0
LINE
  5
24C
100
AcDbEntity
  8
0
100
AcDbLine
 62
7
  6
CONTINUOUS
 10
55.3969439084
 20
31.3375792556
 11
69.6805603563
 21
23.0911160143
  0
LINE
  5
24D
100
AcDbEntity
  8
0
100
AcDbLine
 62
7
  6
CONTINUOUS
 10
21.1021222387
 20
52.6069602006
 11
23.9305611393
 21
50.9739971825
  0
LINE
  5
24E
100
AcDbEntity
  8
0
100
AcDbLine
 62
7
  6
CONTINUOUS
 10
61.6902204622
 20
29.1739408912
 11
64.5186593628
 21
27.5409778731
  0
LINE
  5
24F
100
AcDbEntity
  8
0
100
AcDbLine
 62
7
  6
CONTINUOUS
 10
21.4203201431
 20
52.6273730882
 11
23.9353558263
 21
51.1753494086
  0
LINE
  5
250
100
AcDbEntity
  8
0
100
AcDbLine
 62
7
  6
CONTINUOUS
 10
62.0084183665
 20
29.1943537787
 11
64.5186593628
 21
27.7450982503
  0
LINE
  5
251
100
AcDbEntity
  8
0
100
AcDbLine
 62
7
  6
CONTINUOUS
 10
31.4966222449
 20
47.0659170272
 11
31.6765487562
 21
46.9620387576
  0
LINE
  5
252
100
AcDbEntity
  8
0
100
AcDbLine
 62
7
  6
CONTINUOUS
 10
16.7301736832
 20
76.0335180385
 11
16.7887529153
 21
75.8363901983
  0
LINE
  5
253
100
AcDbEntity
  8
0
100
AcDbLine
 62
7
  6
CONTINUOUS
 10
26.3700808592
 20
74.2239133137
 11
26.3700808592
 21
75.6936176645
  0
LINE
  5
254
100
AcDbEntity
  8
0
100
AcDbLine
 62
7
  6
CONTINUOUS
 10
26.6175680854
 20
74.7342274815
 11
26.6175680854
 21
74.2443260313
  0
LINE
  5
255
100
AcDbEntity
  8
0
100
AcDbLine
 62
7
  6
CONTINUOUS
 10
28.137855172
 20
74.6730157782
 11
28.137855172
 21
73.2033114274
  0
LINE
  5
256
100
AcDbEntity
  8
0
100
AcDbLine
 62
7
  6
CONTINUOUS
 10
21.4203201431
 20
53.3622252636
 11
21.7517799471
 21
54.1914944342
  0
LINE
  5
257
100
AcDbEntity
  8
0
100
AcDbLine
 62
7
  6
CONTINUOUS
 10
26.3700808592
 20
74.2239133137
 11
26.6175680854
 21
74.3667992774
  0
LINE
  5
258
100
AcDbEntity
  8
0
100
AcDbLine
 62
7
  6
CONTINUOUS
 10
79.8214260825
 20
49.4739284773
 11
79.7214277793
 21
49.4640229004
  0
LINE
  5
259
100
AcDbEntity
  8
0
100
AcDbLine
 62
7
  6
CONTINUOUS
 10
23.9305611393
 20
51.9129697352
 11
21.4203201431
 21
53.3622252636
  0
LINE
  5
25A
100
AcDbEntity
  8
0
100
AcDbLine
 62
7
  6
CONTINUOUS
 10
29.9409938031
 20
48.8920048782
 11
55.3969439084
 21
34.1953377155
  0
LINE
  5
25B
100
AcDbEntity
  8
0
100
AcDbLine
 62
7
  6
CONTINUOUS
 10
64.5186593628
 20
28.969851876
 11
62.0084183665
 21
30.4191074044
  0
LINE
  5
25C
100
AcDbEntity
  8
0
100
AcDbLine
 62
7
  6
CONTINUOUS
 10
64.5186593628
 20
29.5005836742
 11
61.6902204622
 21
31.1335466923
  0
LINE
  5
25D
100
AcDbEntity
  8
0
100
AcDbLine
 62
7
  6
CONTINUOUS
 10
23.9305611393
 20
52.9336029837
 11
21.1021222387
 21
54.5665660017
  0
LINE
  5
25E
100
AcDbEntity
  8
0
100
AcDbLine
 62
7
  6
CONTINUOUS
 10
21.4287403209
 20
76.0930744558
 11
21.2212428751
 21
76.664387016
  0
LINE
  5
25F
100
AcDbEntity
  8
0
100
AcDbLine
 62
7
  6
CONTINUOUS
 10
22.008881378
 20
76.0931241949
 11
21.9417319819
 21
76.2780098125
  0
LINE
  5
260
100
AcDbEntity
  8
0
100
AcDbLine
 62
7
  6
CONTINUOUS
 10
22.0042148796
 20
76.7591746199
 11
22.2461131875
 21
76.0931445342
  0
LINE
  5
261
100
AcDbEntity
  8
0
100
AcDbLine
 62
7
  6
CONTINUOUS
 10
29.811703598
 20
69.7874602978
 11
29.811703598
 21
73.7545010235
  0
LINE
  5
262
100
AcDbEntity
  8
0
100
AcDbLine
 62
7
  6
CONTINUOUS
 10
29.8702828306
 20
69.5903401071
 11
29.8702828306
 21
73.6728521927
  0
LINE
  5
263
100
AcDbEntity
  8
0
100
AcDbLine
 62
7
  6
CONTINUOUS
 10
29.9409849712
 20
89.3088482631
 11
29.9409849712
 21
73.944611612
  0
LINE
  5
264
100
AcDbEntity
  8
0
100
AcDbLine
 62
7
  6
CONTINUOUS
 10
29.9409938031
 20
48.8920048782
 11
29.9409938031
 21
46.0342464183
  0
LINE
  5
265
100
AcDbEntity
  8
0
100
AcDbLine
 62
7
  6
CONTINUOUS
 10
30.2087221901
 20
94.89195814
 11
30.2087221901
 21
93.8403525082
  0
LINE
  5
266
100
AcDbEntity
  8
0
100
AcDbLine
 62
7
  6
CONTINUOUS
 10
30.5066815832
 20
71.8235517546
 11
30.5066815832
 21
67.6715688355
  0
LINE
  5
267
100
AcDbEntity
  8
0
100
AcDbLine
 62
7
  6
CONTINUOUS
 10
30.6480917524
 20
74.3528574656
 11
30.6480917524
 21
89.3088499627
  0
LINE
  5
268
100
AcDbEntity
  8
0
100
AcDbLine
 62
7
  6
CONTINUOUS
 10
30.7895242957
 20
67.8348699988
 11
30.7895242957
 21
71.8357318427
  0
LINE
  5
269
100
AcDbEntity
  8
0
100
AcDbLine
 62
7
  6
CONTINUOUS
 10
31.0078305547
 20
97.8350597397
 11
31.0078315402
 21
89.0131663357
  0
LINE
  5
26A
100
AcDbEntity
  8
0
100
AcDbLine
 62
7
  6
CONTINUOUS
 10
31.0078352083
 20
71.212990439
 11
31.0078353185
 21
70.199167783
  0
LINE
  5
26B
100
AcDbEntity
  8
0
100
AcDbLine
 62
7
  6
CONTINUOUS
 10
31.4455471147
 20
73.932498342
 11
31.4455459501
 21
74.2330650792
  0
LINE
  5
26C
100
AcDbEntity
  8
0
100
AcDbLine
 62
7
  6
CONTINUOUS
 10
31.4966222449
 20
46.9323835568
 11
31.4966222449
 21
47.9938826968
  0
LINE
  5
26D
100
AcDbEntity
  8
0
100
AcDbLine
 62
7
  6
CONTINUOUS
 10
31.7037331477
 20
86.5327647434
 11
31.7037331477
 21
74.121928003
  0
LINE
  5
26E
100
AcDbEntity
  8
0
100
AcDbLine
 62
7
  6
CONTINUOUS
 10
34.025710981
 20
85.0386003451
 11
31.8322134013
 21
74.989663926
  0
LINE
  5
26F
100
AcDbEntity
  8
0
100
AcDbLine
 62
7
  6
CONTINUOUS
 10
32.029557394
 20
73.6509762705
 11
31.0078352083
 21
71.212990439
  0
LINE
  5
270
100
AcDbEntity
  8
0
100
AcDbLine
 62
7
  6
CONTINUOUS
 10
31.7037331477
 20
74.9623286713
 11
29.9117040457
 21
73.9277063627
  0
LINE
  5
271
100
AcDbEntity
  8
0
100
AcDbLine
 62
7
  6
CONTINUOUS
 10
30.011703598
 20
73.9178015069
 11
31.7037331477
 21
74.8946893917
  0
LINE
  5
272
100
AcDbEntity
  8
0
100
AcDbLine
 62
7
  6
CONTINUOUS
 10
31.4455459501
 20
74.2330650792
 11
30.455600578
 21
73.6615232638
  0
LINE
  5
273
100
AcDbEntity
  8
0
100
AcDbLine
 62
7
  6
CONTINUOUS
 10
30.5954578806
 20
73.4417020235
 11
31.4455471147
 21
73.932498342
  0
LINE
  5
274
100
AcDbEntity
  8
0
100
AcDbLine
 62
7
  6
CONTINUOUS
 10
31.4218001615
 20
72.200774305
 11
30.7895242957
 21
71.8357318427
  0
LINE
  5
275
100
AcDbEntity
  8
0
100
AcDbLine
 62
7
  6
CONTINUOUS
 10
62.3679509334
 20
89.6455916003
 11
51.6199726077
 21
83.4402804615
  0
LINE
  5
276
100
AcDbEntity
  8
0
100
AcDbLine
 62
7
  6
CONTINUOUS
 10
51.71997216
 20
83.4303756057
 11
62.4679504857
 21
89.6356867445
  0
LINE
  5
277
100
AcDbEntity
  8
0
100
AcDbLine
 62
7
  6
CONTINUOUS
 10
71.2715451677
 20
42.1360225225
 11
70.0694615789
 21
42.421789351
  0
LINE
  5
278
100
AcDbEntity
  8
0
100
AcDbLine
 62
7
  6
CONTINUOUS
 10
74.0999605165
 20
29.9701082885
 11
73.2514288463
 21
30.4599971939
  0
LINE
  5
279
100
AcDbEntity
  8
0
100
AcDbLine
 62
7
  6
CONTINUOUS
 10
16.7301736828
 20
77.2244428965
 11
16.7887529153
 21
77.1427940657
  0
LINE
  5
27A
100
AcDbEntity
  8
0
100
AcDbLine
 62
7
  6
CONTINUOUS
 10
30.5066815832
 20
71.8235517546
 11
30.3141798106
 21
73.4165739496
  0
LINE
  5
27B
100
AcDbEntity
  8
0
100
AcDbLine
 62
7
  6
CONTINUOUS
 10
30.2087221901
 20
94.89195814
 11
30.216761085
 21
94.8024197434
  0
LINE
  5
27C
100
AcDbEntity
  8
0
100
AcDbLine
 62
7
  6
CONTINUOUS
 10
30.216761085
 20
93.7508141116
 11
30.2091206482
 21
93.8403526184
  0
LINE
  5
27D
100
AcDbEntity
  8
0
100
AcDbLine
 62
7
  6
CONTINUOUS
 10
31.8501812291
 20
73.9178059261
 11
31.8501812291
 21
74.8677787399
  0
LINE
  5
27E
100
AcDbEntity
  8
0
100
AcDbLine
 62
7
  6
CONTINUOUS
 10
31.8501812291
 20
75.0719788376
 11
31.8501812291
 21
86.3286426665
  0
LINE
  5
27F
100
AcDbEntity
  8
0
100
AcDbLine
 62
7
  6
CONTINUOUS
 10
31.9658209165
 20
47.7229968457
 11
31.9658209165
 21
47.0399819013
  0
LINE
  5
280
100
AcDbEntity
  8
0
100
AcDbLine
 62
7
  6
CONTINUOUS
 10
31.5398841442
 20
68.2680878734
 11
30.5066815832
 21
67.6715688355
  0
LINE
  5
281
100
AcDbEntity
  8
0
100
AcDbLine
 62
7
  6
CONTINUOUS
 10
31.6765487562
 20
46.9620387576
 11
31.9658209165
 21
47.0399819013
  0
LINE
  5
282
100
AcDbEntity
  8
0
100
AcDbLine
 62
7
  6
CONTINUOUS
 10
76.5748239468
 20
45.1978536765
 11
75.372740358
 21
45.483620505
  0
LINE
  5
283
100
AcDbEntity
  8
0
100
AcDbLine
 62
7
  6
CONTINUOUS
 10
24.5669510601
 20
74.040173612
 11
24.4205138251
 21
74.2442956889
  0
LINE
  5
284
100
AcDbEntity
  8
0
100
AcDbLine
 62
7
  6
CONTINUOUS
 10
21.183430455
 20
76.7185037043
 11
21.2212428751
 21
76.664387016
  0
LINE
  5
285
100
AcDbEntity
  8
0
100
AcDbLine
 62
7
  6
CONTINUOUS
 10
21.9681170708
 20
76.8134701574
 11
22.0042148796
 21
76.7591746199
  0
LINE
  5
286
100
AcDbEntity
  8
0
100
AcDbLine
 62
7
  6
CONTINUOUS
 10
29.8117035984
 20
69.7874679473
 11
29.8702828306
 21
69.5903401071
  0
LINE
  5
287
100
AcDbEntity
  8
0
100
AcDbLine
 62
7
  6
CONTINUOUS
 10
31.8322134013
 20
74.989663926
 11
32.029557394
 21
73.6509762705
  0
LINE
  5
288
100
AcDbEntity
  8
0
100
AcDbLine
 62
7
  6
CONTINUOUS
 10
30.7895242957
 20
71.8357318427
 11
30.5954578806
 21
73.4417020235
  0
LINE
  5
289
100
AcDbEntity
  8
0
100
AcDbLine
 62
7
  6
CONTINUOUS
 10
31.4471292745
 20
73.9055541819
 11
31.6013606759
 21
72.6292332307
  0
LINE
  5
28A
100
AcDbEntity
  8
0
100
AcDbLine
 62
7
  6
CONTINUOUS
 10
31.7087586952
 20
74.0811025678
 11
31.7038500262
 21
74.1219281094
  0
LINE
  5
28B
100
AcDbEntity
  8
0
100
AcDbLine
 62
7
  6
CONTINUOUS
 10
44.1372958531
 20
90.8764917455
 11
43.8917760829
 21
89.7517070255
  0
LINE
  5
28C
100
AcDbEntity
  8
0
100
AcDbLine
 62
7
  6
CONTINUOUS
 10
33.5808519515
 20
68.5367312124
 11
33.481562794
 21
68.4794069327
  0
LINE
  5
28D
100
AcDbEntity
  8
0
100
AcDbLine
 62
7
  6
CONTINUOUS
 10
67.8419843968
 20
86.5330570101
 11
57.0940060711
 21
80.3277458713
  0
LINE
  5
28E
100
AcDbEntity
  8
0
100
AcDbLine
 62
7
  6
CONTINUOUS
 10
57.2354280162
 20
80.082797237
 11
67.9834063418
 21
86.2881083758
  0
LINE
  5
28F
100
AcDbEntity
  8
0
100
AcDbLine
 62
7
  6
CONTINUOUS
 10
61.7255373825
 20
81.5320442301
 11
63.4932969755
 21
82.5526546147
  0
LINE
  5
290
100
AcDbEntity
  8
0
100
AcDbLine
 62
7
  6
CONTINUOUS
 10
67.0288161616
 20
84.5938753841
 11
68.0419843965
 21
85.178846777
  0
LINE
  5
291
100
AcDbEntity
  8
0
100
AcDbLine
 62
7
  6
CONTINUOUS
 10
58.1900181964
 20
79.4908234607
 11
56.9525853037
 21
78.7763926897
  0
LINE
  5
292
100
AcDbEntity
  8
0
100
AcDbLine
 62
7
  6
CONTINUOUS
 10
78.1001543004
 20
33.2593934299
 11
76.5748239468
 21
34.1400233976
  0
LINE
  5
293
100
AcDbEntity
  8
0
100
AcDbLine
 62
7
  6
CONTINUOUS
 10
79.4032392956
 20
33.0319394425
 11
78.5547076254
 21
33.5218283479
  0
LINE
  5
294
100
AcDbEntity
  8
0
100
AcDbLine
 62
7
  6
CONTINUOUS
 10
78.5547076254
 20
33.6851100141
 11
76.5748239468
 21
34.8281705295
  0
LINE
  5
295
100
AcDbEntity
  8
0
100
AcDbLine
 62
7
  6
CONTINUOUS
 10
73.2514288463
 20
36.9920165309
 11
74.0999605165
 21
36.5021276255
  0
LINE
  5
296
100
AcDbEntity
  8
0
100
AcDbLine
 62
7
  6
CONTINUOUS
 10
78.5547076254
 20
34.6649317319
 11
78.0597308178
 21
34.9507002601
  0
LINE
  5
297
100
AcDbEntity
  8
0
100
AcDbLine
 62
7
  6
CONTINUOUS
 10
76.5748239468
 20
36.5428287417
 11
78.0597308178
 21
35.6855367545
  0
LINE
  5
298
100
AcDbEntity
  8
0
100
AcDbLine
 62
7
  6
CONTINUOUS
 10
68.8320286862
 20
41.70735858
 11
69.6805603563
 21
41.2174696745
  0
LINE
  5
299
100
AcDbEntity
  8
0
100
AcDbLine
 62
7
  6
CONTINUOUS
 10
69.9634030688
 20
41.3807708378
 11
69.1148713986
 21
41.8706597432
  0
LINE
  5
29A
100
AcDbEntity
  8
0
100
AcDbLine
 62
7
  6
CONTINUOUS
 10
29.811703598
 20
73.7545010235
 11
29.8702828306
 21
73.6728521927
  0
LINE
  5
29B
100
AcDbEntity
  8
0
100
AcDbLine
 62
7
  6
CONTINUOUS
 10
62.220517134
 20
80.8380332477
 11
64.6953805643
 21
82.2668877863
  0
LINE
  5
29C
100
AcDbEntity
  8
0
100
AcDbLine
 62
7
  6
CONTINUOUS
 10
59.3921017852
 20
79.2050566322
 11
57.8011169739
 21
78.2865037843
  0
LINE
  5
29D
100
AcDbEntity
  8
0
100
AcDbLine
 62
7
  6
CONTINUOUS
 10
67.5237959131
 20
83.8998644017
 11
68.8905357756
 21
84.6889237348
  0
LINE
  5
29E
100
AcDbEntity
  8
0
100
AcDbLine
 62
7
  6
CONTINUOUS
 10
47.8308663165
 20
58.4861622616
 11
47.9808623911
 21
58.4713106139
  0
LINE
  5
29F
100
AcDbEntity
  8
0
100
AcDbLine
 62
7
  6
CONTINUOUS
 10
63.7408386651
 20
45.9530958799
 11
68.8320286862
 21
43.0137624474
  0
LINE
  5
2A0
100
AcDbEntity
  8
0
100
AcDbLine
 62
7
  6
CONTINUOUS
 10
68.9734494536
 20
43.2587117616
 11
64.0236813776
 21
46.1163970432
  0
LINE
  5
2A1
100
AcDbEntity
  8
0
100
AcDbLine
 62
7
  6
CONTINUOUS
 10
30.5066815832
 20
67.6715688355
 11
51.5785513926
 21
55.5059943508
  0
LINE
  5
2A2
100
AcDbEntity
  8
0
100
AcDbLine
 62
7
  6
CONTINUOUS
 10
78.5547076254
 20
40.053847685
 11
79.4032392956
 21
39.5639587796
  0
LINE
  5
2A3
100
AcDbEntity
  8
0
100
AcDbLine
 62
7
  6
CONTINUOUS
 10
15.9402212452
 20
76.3262791037
 11
16.7887529153
 21
75.8363901983
  0
LINE
  5
2A4
100
AcDbEntity
  8
0
100
AcDbLine
 62
7
  6
CONTINUOUS
 10
30.7895242957
 20
67.8348699988
 11
51.51997216
 21
55.8664111066
  0
LINE
  5
2A5
100
AcDbEntity
  8
0
100
AcDbLine
 62
7
  6
CONTINUOUS
 10
10.4774986064
 20
79.7010688969
 11
16.6972634812
 21
76.1101672092
  0
LINE
  5
2A6
100
AcDbEntity
  8
0
100
AcDbLine
 62
7
  6
CONTINUOUS
 10
44.2481770425
 20
60.5545820845
 11
47.8308663165
 21
58.4861622616
  0
LINE
  5
2A7
100
AcDbEntity
  8
0
100
AcDbLine
 62
7
  6
CONTINUOUS
 10
43.0225237183
 20
66.525485472
 11
43.0225237183
 21
60.7723084473
  0
LINE
  5
2A8
100
AcDbEntity
  8
0
100
AcDbLine
 62
7
  6
CONTINUOUS
 10
43.6824904399
 20
65.4920191072
 11
43.6824904399
 21
60.7178777064
  0
LINE
  5
2A9
100
AcDbEntity
  8
0
100
AcDbLine
 62
7
  6
CONTINUOUS
 10
44.2481770425
 20
60.5545820845
 11
44.2481770425
 21
64.2273084084
  0
LINE
  5
2AA
100
AcDbEntity
  8
0
100
AcDbLine
 62
7
  6
CONTINUOUS
 10
45.744892333
 20
62.1808039842
 11
45.744892333
 21
61.9358532591
  0
LINE
  5
2AB
100
AcDbEntity
  8
0
100
AcDbLine
 62
7
  6
CONTINUOUS
 10
21.4203201431
 20
52.7906707497
 11
21.1021222387
 21
52.6069602006
  0
LINE
  5
2AC
100
AcDbEntity
  8
0
100
AcDbLine
 62
7
  6
CONTINUOUS
 10
67.0288161616
 20
77.3270038717
 11
66.675264243
 21
77.1228817947
  0
LINE
  5
2AD
100
AcDbEntity
  8
0
100
AcDbLine
 62
7
  6
CONTINUOUS
 10
61.7255373825
 20
74.2651727176
 11
61.3719854639
 21
74.0610506407
  0
LINE
  5
2AE
100
AcDbEntity
  8
0
100
AcDbLine
 62
7
  6
CONTINUOUS
 10
45.5450936219
 20
62.0779471942
 11
45.4266897183
 21
62.078726848
  0
LINE
  5
2AF
100
AcDbEntity
  8
0
100
AcDbLine
 62
7
  6
CONTINUOUS
 10
43.6824904399
 20
60.7178777064
 11
43.0225237183
 21
60.7723084473
  0
LINE
  5
2B0
100
AcDbEntity
  8
0
100
AcDbLine
 62
7
  6
CONTINUOUS
 10
48.3171127299
 20
58.6953188387
 11
51.51997216
 21
56.8461889175
  0
LINE
  5
2B1
100
AcDbEntity
  8
0
100
AcDbLine
 62
7
  6
CONTINUOUS
 10
10.6613471349
 20
80.656379443
 11
16.6972634812
 21
77.1716203514
  0
LINE
  5
2B2
100
AcDbEntity
  8
0
100
AcDbLine
 62
7
  6
CONTINUOUS
 10
16.7887529153
 20
77.1427940657
 11
29.8702828306
 21
69.5903401071
  0
LINE
  5
2B3
100
AcDbEntity
  8
0
100
AcDbLine
 62
7
  6
CONTINUOUS
 10
16.8386842487
 20
77.4165696656
 11
10.8027679023
 21
80.9013287572
  0
LINE
  5
2B4
100
AcDbEntity
  8
0
100
AcDbLine
 62
7
  6
CONTINUOUS
 10
29.811703598
 20
69.9507568629
 11
16.9301736828
 21
77.3877433799
  0
LINE
  5
2B5
100
AcDbEntity
  8
0
100
AcDbLine
 62
7
  6
CONTINUOUS
 10
45.0024274159
 20
61.8337803557
 11
47.8308663165
 21
60.2008173376
  0
LINE
  5
2B6
100
AcDbEntity
  8
0
100
AcDbLine
 62
7
  6
CONTINUOUS
 10
68.1602388253
 20
48.5046253434
 11
67.3117071551
 21
48.9945142488
  0
LINE
  5
2B7
100
AcDbEntity
  8
0
100
AcDbLine
 62
7
  6
CONTINUOUS
 10
65.3318234764
 20
50.3825098082
 11
66.8167303475
 21
49.525217821
  0
LINE
  5
2B8
100
AcDbEntity
  8
0
100
AcDbLine
 62
7
  6
CONTINUOUS
 10
47.9904889008
 20
60.4364593069
 11
45.8691597254
 21
61.6611815704
  0
LINE
  5
2B9
100
AcDbEntity
  8
0
100
AcDbLine
 62
7
  6
CONTINUOUS
 10
29.811703598
 20
71.0121828247
 11
24.5669510601
 21
74.040173612
  0
LINE
  5
2BA
100
AcDbEntity
  8
0
100
AcDbLine
 62
7
  6
CONTINUOUS
 10
45.4266897183
 20
62.078726848
 11
45.7272097577
 21
61.9052254475
  0
LINE
  5
2BB
100
AcDbEntity
  8
0
100
AcDbLine
 62
7
  6
CONTINUOUS
 10
48.2380899746
 20
60.4556008732
 11
48.2551286189
 21
60.4457638299
  0
LINE
  5
2BC
100
AcDbEntity
  8
0
100
AcDbLine
 62
7
  6
CONTINUOUS
 10
47.8662215084
 20
60.7111309955
 11
45.744892333
 21
61.9358532591
  0
LINE
  5
2BD
100
AcDbEntity
  8
0
100
AcDbLine
 62
7
  6
CONTINUOUS
 10
48.3551269222
 20
60.4556694068
 11
48.3137059581
 21
60.4795832706
  0
LINE
  5
2BE
100
AcDbEntity
  8
0
100
AcDbLine
 62
7
  6
CONTINUOUS
 10
45.744892333
 20
61.962654957
 11
45.5451114481
 21
62.0779958953
  0
LINE
  5
2BF
100
AcDbEntity
  8
0
100
AcDbLine
 62
7
  6
CONTINUOUS
 10
33.5391851396
 20
69.0584938446
 11
32.2825241578
 21
69.7840109873
  0
LINE
  5
2C0
100
AcDbEntity
  8
0
100
AcDbLine
 62
7
  6
CONTINUOUS
 10
47.8662215084
 20
60.9560817207
 11
45.744892333
 21
62.1808039842
  0
LINE
  5
2C1
100
AcDbEntity
  8
0
100
AcDbLine
 62
7
  6
CONTINUOUS
 10
28.137855172
 20
73.2033114274
 11
26.3700808592
 21
74.2239133137
  0
LINE
  5
2C2
100
AcDbEntity
  8
0
100
AcDbLine
 62
7
  6
CONTINUOUS
 10
26.6175680854
 20
74.2443260313
 11
28.137855172
 21
73.3666077292
  0
LINE
  5
2C3
100
AcDbEntity
  8
0
100
AcDbLine
 62
7
  6
CONTINUOUS
 10
48.3965493863
 20
62.0787672532
 11
46.2752202109
 21
63.3034895168
  0
LINE
  5
2C4
100
AcDbEntity
  8
0
100
AcDbLine
 62
7
  6
CONTINUOUS
 10
26.6175680854
 20
74.7342274815
 11
28.137855172
 21
73.8565091795
  0
LINE
  5
2C5
100
AcDbEntity
  8
0
100
AcDbLine
 62
7
  6
CONTINUOUS
 10
48.3459028507
 20
58.7451665455
 11
48.3155875774
 21
58.7660187744
  0
LINE
  5
2C6
100
AcDbEntity
  8
0
100
AcDbLine
 62
7
  6
CONTINUOUS
 10
24.4205029787
 20
92.6156000743
 11
24.5669510601
 21
92.4114779974
  0
LINE
  5
2C7
100
AcDbEntity
  8
0
100
AcDbLine
 62
7
  6
CONTINUOUS
 10
43.0225237183
 20
66.525485472
 11
43.68249044
 21
65.4920191071
  0
LINE
  5
2C8
100
AcDbEntity
  8
0
100
AcDbLine
 62
7
  6
CONTINUOUS
 10
43.0225237183
 20
66.525485472
 11
36.4104407982
 21
87.5081810229
  0
LINE
  5
2C9
100
AcDbEntity
  8
0
100
AcDbLine
 62
7
  6
CONTINUOUS
 10
45.0024274159
 20
61.8337803557
 11
44.2481770425
 21
64.2273084084
  0
LINE
  5
2CA
100
AcDbEntity
  8
0
100
AcDbLine
 62
7
  6
CONTINUOUS
 10
37.4000242218
 20
88.0808713838
 11
45.6049580059
 21
62.0434442506
  0
LINE
  5
2CB
100
AcDbEntity
  8
0
100
AcDbLine
 62
7
  6
CONTINUOUS
 10
47.8662215084
 20
60.7111309955
 11
47.8662215084
 21
60.9560817207
  0
LINE
  5
2CC
100
AcDbEntity
  8
0
100
AcDbLine
 62
7
  6
CONTINUOUS
 10
48.0429992341
 20
59.8333943861
 11
48.0429992341
 21
58.6086407603
  0
LINE
  5
2CD
100
AcDbEntity
  8
0
100
AcDbLine
 62
7
  6
CONTINUOUS
 10
48.3965493863
 20
60.5274126607
 11
48.3965493863
 21
62.0787672532
  0
LINE
  5
2CE
100
AcDbEntity
  8
0
100
AcDbLine
 62
7
  6
CONTINUOUS
 10
48.4672615364
 20
60.0783408784
 11
48.4672615364
 21
59.2618384613
  0
LINE
  5
2CF
100
AcDbEntity
  8
0
100
AcDbLine
 62
7
  6
CONTINUOUS
 10
48.5258395914
 20
59.3434866122
 11
48.5258395914
 21
60.1599890293
  0
LINE
  5
2D0
100
AcDbEntity
  8
0
100
AcDbLine
 62
7
  6
CONTINUOUS
 10
45.744892333
 20
62.1808039842
 11
46.2752202109
 21
63.3034895168
  0
LINE
  5
2D1
100
AcDbEntity
  8
0
100
AcDbLine
 62
7
  6
CONTINUOUS
 10
48.3965493863
 20
62.0787672532
 11
47.8662215084
 21
60.9560817207
  0
LINE
  5
2D2
100
AcDbEntity
  8
0
100
AcDbLine
 62
7
  6
CONTINUOUS
 10
61.3719854639
 20
72.1014448396
 11
59.3921017852
 21
70.958365288
  0
LINE
  5
2D3
100
AcDbEntity
  8
0
100
AcDbLine
 62
7
  6
CONTINUOUS
 10
45.0024274159
 20
61.8337803557
 11
45.4266897183
 21
62.078726848
  0
LINE
  5
2D4
100
AcDbEntity
  8
0
100
AcDbLine
 62
7
  6
CONTINUOUS
 10
73.8817043913
 20
68.0084455322
 11
73.781706088
 21
67.9985399553
  0
LINE
  5
2D5
100
AcDbEntity
  8
0
100
AcDbLine
 62
7
  6
CONTINUOUS
 10
65.3318234764
 20
60.6705395774
 11
64.1297398876
 21
60.9563064058
  0
LINE
  5
2D6
100
AcDbEntity
  8
0
100
AcDbLine
 62
7
  6
CONTINUOUS
 10
26.3700808592
 20
75.6936176645
 11
28.137855172
 21
74.6730157782
  0
LINE
  5
2D7
100
AcDbEntity
  8
0
100
AcDbLine
 62
7
  6
CONTINUOUS
 10
29.8702828306
 20
73.6728521927
 11
30.3141798106
 21
73.4165739496
  0
LINE
  5
2D8
100
AcDbEntity
  8
0
100
AcDbLine
 62
7
  6
CONTINUOUS
 10
30.455600578
 20
73.6615232638
 11
30.011703598
 21
73.9178015069
  0
LINE
  5
2D9
100
AcDbEntity
  8
0
100
AcDbLine
 62
7
  6
CONTINUOUS
 10
31.4471292745
 20
73.9055541819
 11
31.9941895275
 21
73.5897159428
  0
LINE
  5
2DA
100
AcDbEntity
  8
0
100
AcDbLine
 62
7
  6
CONTINUOUS
 10
44.1842344309
 20
66.5519494519
 11
51.51997216
 21
62.3167551122
  0
LINE
  5
2DB
100
AcDbEntity
  8
0
100
AcDbLine
 62
7
  6
CONTINUOUS
 10
31.8501812291
 20
73.9178059261
 11
32.003249915
 21
73.8294336783
  0
LINE
  5
2DC
100
AcDbEntity
  8
0
100
AcDbLine
 62
7
  6
CONTINUOUS
 10
44.0898800504
 20
66.8513723809
 11
51.51997216
 21
62.5617037466
  0
LINE
  5
2DD
100
AcDbEntity
  8
0
100
AcDbLine
 62
7
  6
CONTINUOUS
 10
31.7087586952
 20
74.0811025678
 11
31.4455459501
 21
74.2330650792
  0
LINE
  5
2DE
100
AcDbEntity
  8
0
100
AcDbLine
 62
7
  6
CONTINUOUS
 10
73.4635176044
 20
51.5664564974
 11
72.6149859342
 21
52.0563454028
  0
LINE
  5
2DF
100
AcDbEntity
  8
0
100
AcDbLine
 62
7
  6
CONTINUOUS
 10
79.8628497243
 20
48.0759708821
 11
80.7113813945
 21
47.5860819767
  0
LINE
  5
2E0
100
AcDbEntity
  8
0
100
AcDbLine
 62
7
  6
CONTINUOUS
 10
80.7699594494
 20
47.6199010041
 11
79.9214277792
 21
48.1097899095
  0
LINE
  5
2E1
100
AcDbEntity
  8
0
100
AcDbLine
 62
7
  6
CONTINUOUS
 10
67.3117071551
 20
55.5265335858
 11
68.1602388253
 21
55.0366446804
  0
LINE
  5
2E2
100
AcDbEntity
  8
0
100
AcDbLine
 62
7
  6
CONTINUOUS
 10
31.7037331477
 20
86.5327647434
 11
31.8501812291
 21
86.3286426665
  0
LINE
  5
2E3
100
AcDbEntity
  8
0
100
AcDbLine
 62
7
  6
CONTINUOUS
 10
51.5199721604
 20
55.703122191
 11
51.5785513926
 21
55.5059943508
  0
LINE
  5
2E4
100
AcDbEntity
  8
0
100
AcDbLine
 62
7
  6
CONTINUOUS
 10
51.51997216
 20
55.7031145415
 11
51.51997216
 21
83.2670751222
  0
LINE
  5
2E5
100
AcDbEntity
  8
0
100
AcDbLine
 62
7
  6
CONTINUOUS
 10
51.5785513926
 20
55.5059943508
 11
51.5785513926
 21
83.1854262915
  0
LINE
  5
2E6
100
AcDbEntity
  8
0
100
AcDbLine
 62
7
  6
CONTINUOUS
 10
47.9808623911
 20
58.4713106139
 11
48.0429992341
 21
58.6086407604
  0
LINE
  5
2E7
100
AcDbEntity
  8
0
100
AcDbLine
 62
7
  6
CONTINUOUS
 10
48.1919745212
 20
58.5931891727
 11
48.3155875774
 21
58.7660187742
  0
LINE
  5
2E8
100
AcDbEntity
  8
0
100
AcDbLine
 62
7
  6
CONTINUOUS
 10
48.4672615364
 20
60.0783408784
 11
48.5258395914
 21
60.1599890293
  0
LINE
  5
2E9
100
AcDbEntity
  8
0
100
AcDbLine
 62
7
  6
CONTINUOUS
 10
48.5258395914
 20
59.3434866122
 11
48.4672615364
 21
59.2618384613
  0
LINE
  5
2EA
100
AcDbEntity
  8
0
100
AcDbLine
 62
7
  6
CONTINUOUS
 10
67.9834063418
 20
86.2881083758
 11
68.0419843968
 21
86.3697565267
  0
LWPOLYLINE
  5
2EB
100
AcDbEntity
  8
0
100
AcDbPolyline
 62
7
  6
CONTINUOUS
 90
3
 70
0
 10
48.1919754922
 20
58.5931561528
 10
48.3052700043
 20
58.6880782204
 10
48.3458766752
 20
58.7451405805
  0
LINE
  5
2EC
100
AcDbEntity
  8
0
100
AcDbLine
 62
7
  6
CONTINUOUS
 10
48.2551286189
 20
60.4457638299
 11
47.8308663165
 21
60.2008173376
  0
LINE
  5
2ED
100
AcDbEntity
  8
0
100
AcDbLine
 62
7
  6
CONTINUOUS
 10
48.2904838107
 20
60.4661760376
 11
48.3965493863
 21
60.5274126607
  0
LINE
  5
2EE
100
AcDbEntity
  8
0
100
AcDbLine
 62
7
  6
CONTINUOUS
 10
66.675264243
 20
70.5908624577
 11
64.6953805643
 21
69.4477829061
  0
LINE
  5
2EF
100
AcDbEntity
  8
0
100
AcDbLine
 62
7
  6
CONTINUOUS
 10
61.3719854639
 20
67.5290313036
 11
59.3921017852
 21
66.3859517521
  0
LINE
  5
2F0
100
AcDbEntity
  8
0
100
AcDbLine
 62
7
  6
CONTINUOUS
 10
48.0429992341
 20
59.8333943861
 11
48.4672615364
 21
60.0783408784
  0
LINE
  5
2F1
100
AcDbEntity
  8
0
100
AcDbLine
 62
7
  6
CONTINUOUS
 10
62.220517134
 20
67.0391423982
 11
64.6953805643
 21
68.4679969368
  0
LINE
  5
2F2
100
AcDbEntity
  8
0
100
AcDbLine
 62
7
  6
CONTINUOUS
 10
67.5237959131
 20
70.1009735523
 11
68.8905160666
 21
70.890067022
  0
LINE
  5
2F3
100
AcDbEntity
  8
0
100
AcDbLine
 62
7
  6
CONTINUOUS
 10
59.3921017852
 20
65.4061657827
 11
57.8011169739
 21
64.4876129348
  0
LINE
  5
2F4
100
AcDbEntity
  8
0
100
AcDbLine
 62
7
  6
CONTINUOUS
 10
48.3155875773
 20
58.766018774
 11
48.0429992341
 21
58.6086407603
  0
LINE
  5
2F5
100
AcDbEntity
  8
0
100
AcDbLine
 62
7
  6
CONTINUOUS
 10
48.1919745212
 20
58.5931891727
 11
47.980865645
 21
58.4713049779
  0
LINE
  5
2F6
100
AcDbEntity
  8
0
100
AcDbLine
 62
7
  6
CONTINUOUS
 10
31.4966222449
 20
46.9323835568
 11
29.9409938031
 21
46.0342464183
  0
LINE
  5
2F7
100
AcDbEntity
  8
0
100
AcDbLine
 62
7
  6
CONTINUOUS
 10
31.9658209165
 20
47.0399819013
 11
32.5573376658
 21
47.3814922172
  0
LINE
  5
2F8
100
AcDbEntity
  8
0
100
AcDbLine
 62
7
  6
CONTINUOUS
 10
70.6351022555
 20
63.7323707314
 11
69.4330186667
 21
64.0181375599
  0
LINE
  5
2F9
100
AcDbEntity
  8
0
100
AcDbLine
 62
7
  6
CONTINUOUS
 10
74.7716597032
 20
52.3217081821
 11
79.7214277793
 21
49.4640229004
  0
LINE
  5
2FA
100
AcDbEntity
  8
0
100
AcDbLine
 62
7
  6
CONTINUOUS
 10
79.8214260825
 20
49.4739284773
 11
74.8302377582
 21
52.3555272095
  0
LINE
  5
2FB
100
AcDbEntity
  8
0
100
AcDbLine
 62
7
  6
CONTINUOUS
 10
62.8923069949
 20
60.2418756348
 11
63.7408386651
 21
59.7519867294
  0
LINE
  5
2FC
100
AcDbEntity
  8
0
100
AcDbLine
 62
7
  6
CONTINUOUS
 10
64.0236813776
 20
59.9152878927
 11
63.1751497074
 21
60.4051767981
  0
LINE
  5
2FD
100
AcDbEntity
  8
0
100
AcDbLine
 62
7
  6
CONTINUOUS
 10
57.8011169739
 20
64.4876129348
 11
62.8923069949
 21
61.5482795022
  0
LINE
  5
2FE
100
AcDbEntity
  8
0
100
AcDbLine
 62
7
  6
CONTINUOUS
 10
63.0337277624
 20
61.7932288164
 11
58.0839596863
 21
64.6509140981
  0
LINE
  5
2FF
100
AcDbEntity
  8
0
100
AcDbLine
 62
7
  6
CONTINUOUS
 10
31.6717275726
 20
87.4940381533
 11
34.025710981
 21
85.0386003451
  0
LINE
  5
300
100
AcDbEntity
  8
0
100
AcDbLine
 62
7
  6
CONTINUOUS
 10
74.0999605165
 20
36.5021276255
 11
73.6049807649
 21
37.1961386079
  0
LINE
  5
301
100
AcDbEntity
  8
0
100
AcDbLine
 62
7
  6
CONTINUOUS
 10
55.3969439084
 20
34.1953377155
 11
55.3969439084
 21
31.3375792556
  0
LINE
  5
302
100
AcDbEntity
  8
0
100
AcDbLine
 62
7
  6
CONTINUOUS
 10
73.781706088
 20
67.9985399553
 11
63.0337277624
 21
61.7932288164
  0
LINE
  5
303
100
AcDbEntity
  8
0
100
AcDbLine
 62
7
  6
CONTINUOUS
 10
63.1751497074
 20
61.5482801821
 11
73.923128033
 21
67.7535913209
  0
LINE
  5
304
100
AcDbEntity
  8
0
100
AcDbLine
 62
7
  6
CONTINUOUS
 10
30.011703598
 20
73.9178015069
 11
29.9117040457
 21
73.9277063627
  0
LINE
  5
305
100
AcDbEntity
  8
0
100
AcDbLine
 62
7
  6
CONTINUOUS
 10
16.9301736828
 20
77.3877433799
 11
16.8301741305
 21
77.3976482357
  0
LINE
  5
306
100
AcDbEntity
  8
0
100
AcDbLine
 62
7
  6
CONTINUOUS
 10
21.4800358443
 20
87.0658154807
 11
24.4205029787
 21
85.3681743948
  0
LINE
  5
307
100
AcDbEntity
  8
0
100
AcDbLine
 62
7
  6
CONTINUOUS
 10
21.5800341476
 20
87.0757210576
 11
24.4205029787
 21
85.435812713
  0
LINE
  5
308
100
AcDbEntity
  8
0
100
AcDbLine
 62
7
  6
CONTINUOUS
 10
72.6149859342
 20
58.5883647398
 11
73.4635176044
 21
58.0984758344
  0
LINE
  5
309
100
AcDbEntity
  8
0
100
AcDbLine
 62
7
  6
CONTINUOUS
 10
48.4915206665
 20
87.0961033297
 11
46.5220274826
 21
93.3460666721
  0
LINE
  5
30A
100
AcDbEntity
  8
0
100
AcDbLine
 62
7
  6
CONTINUOUS
 10
47.511609094
 20
93.9187627841
 11
49.9217789487
 21
86.2703620063
  0
LINE
  5
30B
100
AcDbEntity
  8
0
100
AcDbLine
 62
7
  6
CONTINUOUS
 10
56.9525853037
 20
80.0827965571
 11
56.9525853037
 21
78.7763926897
  0
LINE
  5
30C
100
AcDbEntity
  8
0
100
AcDbLine
 62
7
  6
CONTINUOUS
 10
57.2354280162
 20
78.939693853
 11
57.2354280162
 21
80.082797237
  0
LINE
  5
30D
100
AcDbEntity
  8
0
100
AcDbLine
 62
7
  6
CONTINUOUS
 10
57.2972182392
 20
81.9940494346
 11
57.2972182392
 21
82.4023006432
  0
LINE
  5
30E
100
AcDbEntity
  8
0
100
AcDbLine
 62
7
  6
CONTINUOUS
 10
57.8011169739
 20
78.2865037843
 11
57.8011169739
 21
64.4876129348
  0
LINE
  5
30F
100
AcDbEntity
  8
0
100
AcDbLine
 62
7
  6
CONTINUOUS
 10
58.0839596863
 20
64.6509140981
 11
58.0839596863
 21
78.4498049476
  0
LINE
  5
310
100
AcDbEntity
  8
0
100
AcDbLine
 62
7
  6
CONTINUOUS
 10
59.3921017852
 20
65.4061657827
 11
59.3921017852
 21
79.2050566322
  0
LINE
  5
311
100
AcDbEntity
  8
0
100
AcDbLine
 62
7
  6
CONTINUOUS
 10
67.6652590737
 20
62.9975271752
 11
69.4330186667
 21
64.0181375599
  0
LINE
  5
312
100
AcDbEntity
  8
0
100
AcDbLine
 62
7
  6
CONTINUOUS
 10
72.9685378528
 20
66.0593583292
 11
73.9817060877
 21
66.6443297221
  0
LINE
  5
313
100
AcDbEntity
  8
0
100
AcDbLine
 62
7
  6
CONTINUOUS
 10
64.1297398876
 20
60.9563064058
 11
62.8923069949
 21
60.2418756348
  0
LINE
  5
314
100
AcDbEntity
  8
0
100
AcDbLine
 62
7
  6
CONTINUOUS
 10
68.1602388253
 20
62.3035161928
 11
70.6351022555
 21
63.7323707314
  0
LINE
  5
315
100
AcDbEntity
  8
0
100
AcDbLine
 62
7
  6
CONTINUOUS
 10
65.3318234764
 20
60.6705395774
 11
63.7408386651
 21
59.7519867294
  0
LINE
  5
316
100
AcDbEntity
  8
0
100
AcDbLine
 62
7
  6
CONTINUOUS
 10
73.4635176044
 20
65.3653473469
 11
74.8302574668
 21
66.15440668
  0
LINE
  5
317
100
AcDbEntity
  8
0
100
AcDbLine
 62
7
  6
CONTINUOUS
 10
62.220517134
 20
67.0391423982
 11
61.3719854639
 21
67.5290313036
  0
LINE
  5
318
100
AcDbEntity
  8
0
100
AcDbLine
 62
7
  6
CONTINUOUS
 10
59.3921017852
 20
68.9170268631
 11
60.8770086563
 21
68.0597348759
  0
LINE
  5
319
100
AcDbEntity
  8
0
100
AcDbLine
 62
7
  6
CONTINUOUS
 10
31.8501812291
 20
86.3286426665
 11
33.9526520767
 21
85.1148080172
  0
LINE
  5
31A
100
AcDbEntity
  8
0
100
AcDbLine
 62
7
  6
CONTINUOUS
 10
39.3092173002
 20
82.0222636062
 11
51.51997216
 21
74.9725404869
  0
LINE
  5
31B
100
AcDbEntity
  8
0
100
AcDbLine
 62
7
  6
CONTINUOUS
 10
51.51997216
 20
75.78903245
 11
38.9947040409
 21
83.0203357763
  0
LINE
  5
31C
100
AcDbEntity
  8
0
100
AcDbLine
 62
7
  6
CONTINUOUS
 10
24.5669510601
 20
92.4114779974
 11
29.9409849712
 21
89.3088482631
  0
LINE
  5
31D
100
AcDbEntity
  8
0
100
AcDbLine
 62
7
  6
CONTINUOUS
 10
73.6049807649
 20
44.4630101203
 11
74.0999605165
 21
43.768999138
  0
LINE
  5
31E
100
AcDbEntity
  8
0
100
AcDbLine
 62
7
  6
CONTINUOUS
 10
68.1602388253
 20
55.0366446804
 11
67.6652590737
 21
55.7306556627
  0
LINE
  5
31F
100
AcDbEntity
  8
0
100
AcDbLine
 62
7
  6
CONTINUOUS
 10
79.4032392956
 20
39.5639587796
 11
78.908259544
 21
40.2579697619
  0
LINE
  5
320
100
AcDbEntity
  8
0
100
AcDbLine
 62
7
  6
CONTINUOUS
 10
62.4786381177
 20
63.9000285717
 11
62.5164508237
 21
63.8459095833
  0
LINE
  5
321
100
AcDbEntity
  8
0
100
AcDbLine
 62
7
  6
CONTINUOUS
 10
73.721638588
 20
48.4273426709
 11
73.7594512941
 21
48.3732236825
  0
LINE
  5
322
100
AcDbEntity
  8
0
100
AcDbLine
 62
7
  6
CONTINUOUS
 10
60.8770086563
 20
71.8156715523
 11
60.8770086563
 21
67.2432580164
  0
LINE
  5
323
100
AcDbEntity
  8
0
100
AcDbLine
 62
7
  6
CONTINUOUS
 10
61.3719854639
 20
72.1014448396
 11
61.3719854639
 21
74.0610506407
  0
LINE
  5
324
100
AcDbEntity
  8
0
100
AcDbLine
 62
7
  6
CONTINUOUS
 10
61.6902204622
 20
31.1335466923
 11
61.6902204622
 21
29.1739408912
  0
LINE
  5
325
100
AcDbEntity
  8
0
100
AcDbLine
 62
7
  6
CONTINUOUS
 10
61.7255373825
 20
74.2651727176
 11
61.7255373825
 21
81.5320442301
  0
LINE
  5
326
100
AcDbEntity
  8
0
100
AcDbLine
 62
7
  6
CONTINUOUS
 10
62.0084183665
 20
30.4191074044
 11
62.0084183665
 21
29.1943537787
  0
LINE
  5
327
100
AcDbEntity
  8
0
100
AcDbLine
 62
7
  6
CONTINUOUS
 10
62.220517134
 20
80.8380332477
 11
62.220517134
 21
67.0391423982
  0
LINE
  5
328
100
AcDbEntity
  8
0
100
AcDbLine
 62
7
  6
CONTINUOUS
 10
62.8923069949
 20
61.5482795022
 11
62.8923069949
 21
60.2418756348
  0
LINE
  5
329
100
AcDbEntity
  8
0
100
AcDbLine
 62
7
  6
CONTINUOUS
 10
63.1751497074
 20
60.4051767981
 11
63.1751497074
 21
61.5482801821
  0
LINE
  5
32A
100
AcDbEntity
  8
0
100
AcDbLine
 62
7
  6
CONTINUOUS
 10
63.2369399304
 20
63.4595323798
 11
63.2369399304
 21
63.8677835883
  0
LINE
  5
32B
100
AcDbEntity
  8
0
100
AcDbLine
 62
7
  6
CONTINUOUS
 10
63.7408386651
 20
59.7519867294
 11
63.7408386651
 21
45.9530958799
  0
LINE
  5
32C
100
AcDbEntity
  8
0
100
AcDbLine
 62
7
  6
CONTINUOUS
 10
72.9685378528
 20
58.7924868168
 11
72.6149859342
 21
58.5883647398
  0
LINE
  5
32D
100
AcDbEntity
  8
0
100
AcDbLine
 62
7
  6
CONTINUOUS
 10
67.6652590737
 20
55.7306556627
 11
67.3117071551
 21
55.5265335858
  0
LINE
  5
32E
100
AcDbEntity
  8
0
100
AcDbLine
 62
7
  6
CONTINUOUS
 10
59.3921017852
 20
79.2050566322
 11
58.1900181964
 21
79.4908234607
  0
LINE
  5
32F
100
AcDbEntity
  8
0
100
AcDbLine
 62
7
  6
CONTINUOUS
 10
30.2945368898
 20
89.9212215486
 11
24.9205029787
 21
93.0238512829
  0
LINE
  5
330
100
AcDbEntity
  8
0
100
AcDbLine
 62
7
  6
CONTINUOUS
 10
67.5237959131
 20
70.1009735523
 11
66.675264243
 21
70.5908624577
  0
LINE
  5
331
100
AcDbEntity
  8
0
100
AcDbLine
 62
7
  6
CONTINUOUS
 10
73.923128033
 20
66.610487937
 11
74.7716597032
 21
66.1205990315
  0
LINE
  5
332
100
AcDbEntity
  8
0
100
AcDbLine
 62
7
  6
CONTINUOUS
 10
74.8302377582
 20
66.154418059
 11
73.981706088
 21
66.6443069644
  0
LINE
  5
333
100
AcDbEntity
  8
0
100
AcDbLine
 62
7
  6
CONTINUOUS
 10
61.3719854639
 20
74.0610506407
 11
62.220517134
 21
73.5711617353
  0
LINE
  5
334
100
AcDbEntity
  8
0
100
AcDbLine
 62
7
  6
CONTINUOUS
 10
38.5831404629
 20
87.2791181756
 11
39.5125857033
 21
86.7425148554
  0
LINE
  5
335
100
AcDbEntity
  8
0
100
AcDbLine
 62
7
  6
CONTINUOUS
 10
39.1760915752
 20
87.8196968932
 11
40.0016148587
 21
87.3430916926
  0
LINE
  5
336
100
AcDbEntity
  8
0
100
AcDbLine
 62
7
  6
CONTINUOUS
 10
68.831938012
 20
70.8562252369
 11
73.781706088
 21
67.9985399553
  0
LINE
  5
337
100
AcDbEntity
  8
0
100
AcDbLine
 62
7
  6
CONTINUOUS
 10
73.8817043913
 20
68.0084455322
 11
68.890516067
 21
70.8900442644
  0
LINE
  5
338
100
AcDbEntity
  8
0
100
AcDbLine
 62
7
  6
CONTINUOUS
 10
39.9771577238
 20
89.5035408094
 11
40.0798547555
 21
89.4172765769
  0
LINE
  5
339
100
AcDbEntity
  8
0
100
AcDbLine
 62
7
  6
CONTINUOUS
 10
43.4358512269
 20
91.6081679542
 11
44.1372958531
 21
90.8764917455
  0
LINE
  5
33A
100
AcDbEntity
  8
0
100
AcDbLine
 62
7
  6
CONTINUOUS
 10
51.51997216
 20
83.2670751222
 11
51.5785513926
 21
83.1854262915
  0
LINE
  5
33B
100
AcDbEntity
  8
0
100
AcDbLine
 62
7
  6
CONTINUOUS
 10
67.6652590737
 20
62.9975271752
 11
68.1602388253
 21
62.3035161928
  0
LINE
  5
33C
100
AcDbEntity
  8
0
100
AcDbLine
 62
7
  6
CONTINUOUS
 10
78.908259544
 20
47.5248412744
 11
79.4032392956
 21
46.830830292
  0
LINE
  5
33D
100
AcDbEntity
  8
0
100
AcDbLine
 62
7
  6
CONTINUOUS
 10
63.2633250436
 20
63.9949925179
 11
63.2994228282
 21
63.9406971872
  0
LINE
  5
33E
100
AcDbEntity
  8
0
100
AcDbLine
 62
7
  6
CONTINUOUS
 10
74.5063255139
 20
48.522306617
 11
74.5424232985
 21
48.4680112863
  0
LINE
  5
33F
100
AcDbEntity
  8
0
100
AcDbLine
 62
7
  6
CONTINUOUS
 10
76.5748239468
 20
34.1114500258
 11
76.9687872936
 21
33.0960712818
  0
LINE
  5
340
100
AcDbEntity
  8
0
100
AcDbLine
 62
7
  6
CONTINUOUS
 10
62.7239482695
 20
63.2745970231
 11
62.5164508237
 21
63.8459095833
  0
LINE
  5
341
100
AcDbEntity
  8
0
100
AcDbLine
 62
7
  6
CONTINUOUS
 10
63.3040893266
 20
63.2746467621
 11
63.2369399304
 21
63.4595323798
  0
LINE
  5
342
100
AcDbEntity
  8
0
100
AcDbLine
 62
7
  6
CONTINUOUS
 10
56.7842265783
 20
81.8091140779
 11
56.5767291325
 21
82.3804266382
  0
LINE
  5
343
100
AcDbEntity
  8
0
100
AcDbLine
 62
7
  6
CONTINUOUS
 10
63.2994228282
 20
63.9406971872
 11
63.5413211361
 21
63.2746671015
  0
LINE
  5
344
100
AcDbEntity
  8
0
100
AcDbLine
 62
7
  6
CONTINUOUS
 10
57.3643676353
 20
81.809163817
 11
57.2972182392
 21
81.9940494346
  0
LINE
  5
345
100
AcDbEntity
  8
0
100
AcDbLine
 62
7
  6
CONTINUOUS
 10
57.359701137
 20
82.475214242
 11
57.6015994448
 21
81.8091841563
  0
LINE
  5
346
100
AcDbEntity
  8
0
100
AcDbLine
 62
7
  6
CONTINUOUS
 10
64.0236813776
 20
46.1163970432
 11
64.0236813776
 21
59.9152878927
  0
LINE
  5
347
100
AcDbEntity
  8
0
100
AcDbLine
 62
7
  6
CONTINUOUS
 10
64.5186593628
 20
27.5409778731
 11
64.5186593628
 21
29.5005836742
  0
LINE
  5
348
100
AcDbEntity
  8
0
100
AcDbLine
 62
7
  6
CONTINUOUS
 10
64.6953805643
 20
68.4679969368
 11
64.6953805643
 21
82.2668877863
  0
LINE
  5
349
100
AcDbEntity
  8
0
100
AcDbLine
 62
7
  6
CONTINUOUS
 10
65.3318234764
 20
46.8716487279
 11
65.3318234764
 21
60.6705395774
  0
LINE
  5
34A
100
AcDbEntity
  8
0
100
AcDbLine
 62
7
  6
CONTINUOUS
 10
66.675264243
 20
70.5908624577
 11
66.675264243
 21
77.1228817947
  0
LINE
  5
34B
100
AcDbEntity
  8
0
100
AcDbLine
 62
7
  6
CONTINUOUS
 10
66.8167303475
 20
53.2811544974
 11
66.8167303475
 21
48.7087409615
  0
LINE
  5
34C
100
AcDbEntity
  8
0
100
AcDbLine
 62
7
  6
CONTINUOUS
 10
67.0288161616
 20
77.3270038717
 11
67.0288161616
 21
84.5938753841
  0
LINE
  5
34D
100
AcDbEntity
  8
0
100
AcDbLine
 62
7
  6
CONTINUOUS
 10
67.3117071551
 20
53.5669277847
 11
67.3117071551
 21
55.5265335858
  0
LINE
  5
34E
100
AcDbEntity
  8
0
100
AcDbLine
 62
7
  6
CONTINUOUS
 10
67.5237959131
 20
83.8998644017
 11
67.5237959131
 21
70.1009735523
  0
LINE
  5
34F
100
AcDbEntity
  8
0
100
AcDbLine
 62
7
  6
CONTINUOUS
 10
73.923128033
 20
67.7535913209
 11
73.981706088
 21
67.8352394718
  0
LINE
  5
350
100
AcDbEntity
  8
0
100
AcDbLine
 62
7
  6
CONTINUOUS
 10
67.3117071551
 20
53.5669277847
 11
65.3318234764
 21
52.4238482331
  0
LINE
  5
351
100
AcDbEntity
  8
0
100
AcDbLine
 62
7
  6
CONTINUOUS
 10
67.9419827001
 20
86.5429625871
 11
67.8419843968
 21
86.5330570101
  0
LINE
  5
352
100
AcDbEntity
  8
0
100
AcDbLine
 62
7
  6
CONTINUOUS
 10
51.71997216
 20
83.4303756057
 11
51.6199726077
 21
83.4402804615
  0
LINE
  5
353
100
AcDbEntity
  8
0
100
AcDbLine
 62
7
  6
CONTINUOUS
 10
32.2037331477
 20
86.941015952
 11
31.9537342669
 21
86.9657780915
  0
LINE
  5
354
100
AcDbEntity
  8
0
100
AcDbLine
 62
7
  6
CONTINUOUS
 10
56.9525853037
 20
78.7763926897
 11
57.8011169739
 21
78.2865037843
  0
LINE
  5
355
100
AcDbEntity
  8
0
100
AcDbLine
 62
7
  6
CONTINUOUS
 10
58.0839596863
 20
78.4498049476
 11
57.2354280162
 21
78.939693853
  0
LINE
  5
356
100
AcDbEntity
  8
0
100
AcDbLine
 62
7
  6
CONTINUOUS
 10
40.0798547219
 20
89.4172766062
 11
39.8684755552
 21
89.5393136111
  0
LINE
  5
357
100
AcDbEntity
  8
0
100
AcDbLine
 62
7
  6
CONTINUOUS
 10
51.5785513926
 20
83.1854262915
 11
56.9525853037
 21
80.0827965571
  0
LINE
  5
358
100
AcDbEntity
  8
0
100
AcDbLine
 62
7
  6
CONTINUOUS
 10
57.0940060711
 20
80.3277458713
 11
51.71997216
 21
83.4303756057
  0
LINE
  5
359
100
AcDbEntity
  8
0
100
AcDbLine
 62
7
  6
CONTINUOUS
 10
42.6884315611
 20
90.2773467967
 11
53.0753970515
 21
84.2805651401
  0
LINE
  5
35A
100
AcDbEntity
  8
0
100
AcDbLine
 62
7
  6
CONTINUOUS
 10
42.7619526474
 20
90.4039961334
 11
53.2218403995
 21
84.3651137418
  0
LINE
  5
35B
100
AcDbEntity
  8
0
100
AcDbLine
 62
7
  6
CONTINUOUS
 10
62.220517134
 20
73.5711617353
 11
61.7255373825
 21
74.2651727176
  0
LINE
  5
35C
100
AcDbEntity
  8
0
100
AcDbLine
 62
7
  6
CONTINUOUS
 10
73.4635176044
 20
58.0984758344
 11
72.9685378528
 21
58.7924868168
  0
LINE
  5
35D
100
AcDbEntity
  8
0
100
AcDbLine
 62
7
  6
CONTINUOUS
 10
56.5389164264
 20
82.4345456266
 11
56.5767291325
 21
82.3804266382
  0
LINE
  5
35E
100
AcDbEntity
  8
0
100
AcDbLine
 62
7
  6
CONTINUOUS
 10
57.3236033523
 20
82.5295095727
 11
57.359701137
 21
82.475214242
  0
LINE
  5
35F
100
AcDbEntity
  8
0
100
AcDbLine
 62
7
  6
CONTINUOUS
 10
73.9673469466
 20
47.8008147206
 11
73.7594512941
 21
48.3732236825
  0
LINE
  5
360
100
AcDbEntity
  8
0
100
AcDbLine
 62
7
  6
CONTINUOUS
 10
74.5468299993
 20
47.8026761743
 11
74.4799404008
 21
47.9868464789
  0
LINE
  5
361
100
AcDbEntity
  8
0
100
AcDbLine
 62
7
  6
CONTINUOUS
 10
67.6652590737
 20
55.7306556627
 11
67.6652590737
 21
62.9975271752
  0
LINE
  5
362
100
AcDbEntity
  8
0
100
AcDbLine
 62
7
  6
CONTINUOUS
 10
67.9834063418
 20
86.2881083758
 11
67.9834063418
 21
85.1450049918
  0
LINE
  5
363
100
AcDbEntity
  8
0
100
AcDbLine
 62
7
  6
CONTINUOUS
 10
68.0419843968
 20
85.1788240193
 11
68.0419843968
 21
86.3697565267
  0
LINE
  5
364
100
AcDbEntity
  8
0
100
AcDbLine
 62
7
  6
CONTINUOUS
 10
68.1602388253
 20
62.3035161928
 11
68.1602388253
 21
48.5046253434
  0
LINE
  5
365
100
AcDbEntity
  8
0
100
AcDbLine
 62
7
  6
CONTINUOUS
 10
68.831938012
 20
84.6551160864
 11
68.831938012
 21
70.8562252369
  0
LINE
  5
366
100
AcDbEntity
  8
0
100
AcDbLine
 62
7
  6
CONTINUOUS
 10
68.8320286862
 20
43.0137624474
 11
68.8320286862
 21
41.70735858
  0
LINE
  5
367
100
AcDbEntity
  8
0
100
AcDbLine
 62
7
  6
CONTINUOUS
 10
68.890516067
 20
70.8900442643
 11
68.890516067
 21
84.6889351138
  0
LINE
  5
368
100
AcDbEntity
  8
0
100
AcDbLine
 62
7
  6
CONTINUOUS
 10
69.1148713986
 20
41.8706597432
 11
69.1148713986
 21
43.0137631272
  0
LINE
  5
369
100
AcDbEntity
  8
0
100
AcDbLine
 62
7
  6
CONTINUOUS
 10
69.6805603563
 20
41.2174696745
 11
69.6805603563
 21
23.0911160143
  0
LINE
  5
36A
100
AcDbEntity
  8
0
100
AcDbLine
 62
7
  6
CONTINUOUS
 10
69.9634030688
 20
23.0911166941
 11
69.9634030688
 21
41.3807708378
  0
LINE
  5
36B
100
AcDbEntity
  8
0
100
AcDbLine
 62
7
  6
CONTINUOUS
 10
70.6351022555
 20
49.9334798819
 11
70.6351022555
 21
63.7323707314
  0
LINE
  5
36C
100
AcDbEntity
  8
0
100
AcDbLine
 62
7
  6
CONTINUOUS
 10
72.6149859342
 20
52.0563454028
 11
70.6351022555
 21
50.9132658512
  0
LINE
  5
36D
100
AcDbEntity
  8
0
100
AcDbLine
 62
7
  6
CONTINUOUS
 10
67.3117071551
 20
48.9945142488
 11
65.3318234764
 21
47.8514346972
  0
LINE
  5
36E
100
AcDbEntity
  8
0
100
AcDbLine
 62
7
  6
CONTINUOUS
 10
68.1602388253
 20
48.5046253434
 11
70.6351022555
 21
49.9334798819
  0
LINE
  5
36F
100
AcDbEntity
  8
0
100
AcDbLine
 62
7
  6
CONTINUOUS
 10
73.4635176044
 20
51.5664564974
 11
74.8302377579
 21
52.3555499672
  0
LINE
  5
370
100
AcDbEntity
  8
0
100
AcDbLine
 62
7
  6
CONTINUOUS
 10
65.3318234764
 20
46.8716487279
 11
63.7408386651
 21
45.9530958799
  0
LINE
  5
371
100
AcDbEntity
  8
0
100
AcDbLine
 62
7
  6
CONTINUOUS
 10
62.4679504857
 20
89.6356867445
 11
62.567948789
 21
89.6455923214
  0
LINE
  5
372
100
AcDbEntity
  8
0
100
AcDbLine
 62
7
  6
CONTINUOUS
 10
64.6953805643
 20
82.2668877863
 11
63.4932969755
 21
82.5526546147
  0
LINE
  5
373
100
AcDbEntity
  8
0
100
AcDbLine
 62
7
  6
CONTINUOUS
 10
66.675264243
 20
77.1228817947
 11
67.5237959131
 21
76.6329928893
  0
LINE
  5
374
100
AcDbEntity
  8
0
100
AcDbLine
 62
7
  6
CONTINUOUS
 10
31.8529163606
 20
97.3471602599
 11
31.0078305547
 21
97.8350597397
  0
LINE
  5
375
100
AcDbEntity
  8
0
100
AcDbLine
 62
7
  6
CONTINUOUS
 10
61.7255373825
 20
81.5320442301
 11
62.220517134
 21
80.8380332477
  0
LINE
  5
376
100
AcDbEntity
  8
0
100
AcDbLine
 62
7
  6
CONTINUOUS
 10
72.9685378528
 20
66.0593583292
 11
73.4635176044
 21
65.3653473469
  0
LINE
  5
377
100
AcDbEntity
  8
0
100
AcDbLine
 62
7
  6
CONTINUOUS
 10
67.5237959131
 20
76.6329928893
 11
67.0288161616
 21
77.3270038717
  0
LINE
  5
378
100
AcDbEntity
  8
0
100
AcDbLine
 62
7
  6
CONTINUOUS
 10
74.5424232985
 20
48.4680112863
 11
74.783792737
 21
47.8034373617
  0
LINE
  5
379
100
AcDbEntity
  8
0
100
AcDbLine
 62
7
  6
CONTINUOUS
 10
71.2715451677
 20
28.337131673
 11
71.2715451677
 21
42.1360225225
  0
LINE
  5
37A
100
AcDbEntity
  8
0
100
AcDbLine
 62
7
  6
CONTINUOUS
 10
72.6149859342
 20
52.0563454028
 11
72.6149859342
 21
58.5883647398
  0
LINE
  5
37B
100
AcDbEntity
  8
0
100
AcDbLine
 62
7
  6
CONTINUOUS
 10
72.9685378528
 20
58.7924868168
 11
72.9685378528
 21
66.0593583292
  0
LINE
  5
37C
100
AcDbEntity
  8
0
100
AcDbLine
 62
7
  6
CONTINUOUS
 10
73.2514288463
 20
30.4599971939
 11
73.2514288463
 21
36.9920165309
  0
LINE
  5
37D
100
AcDbEntity
  8
0
100
AcDbLine
 62
7
  6
CONTINUOUS
 10
73.4635176044
 20
65.3653473469
 11
73.4635176044
 21
51.5664564974
  0
LINE
  5
37E
100
AcDbEntity
  8
0
100
AcDbLine
 62
7
  6
CONTINUOUS
 10
73.6049807649
 20
37.1961386079
 11
73.6049807649
 21
44.4630101203
  0
LINE
  5
37F
100
AcDbEntity
  8
0
100
AcDbLine
 62
7
  6
CONTINUOUS
 10
73.923128033
 20
67.7535913209
 11
73.923128033
 21
66.610487937
  0
LINE
  5
380
100
AcDbEntity
  8
0
100
AcDbLine
 62
7
  6
CONTINUOUS
 10
73.981706088
 20
66.6443069644
 11
73.981706088
 21
67.8352394718
  0
LINE
  5
381
100
AcDbEntity
  8
0
100
AcDbLine
 62
7
  6
CONTINUOUS
 10
74.0999605165
 20
43.768999138
 11
74.0999605165
 21
29.9701082885
  0
LINE
  5
382
100
AcDbEntity
  8
0
100
AcDbLine
 62
7
  6
CONTINUOUS
 10
74.4799404008
 20
47.9868464789
 11
74.4799404008
 21
48.3950976875
  0
LINE
  5
383
100
AcDbEntity
  8
0
100
AcDbLine
 62
7
  6
CONTINUOUS
 10
21.4800358443
 20
87.0658154807
 11
21.5800341476
 21
87.0757210576
  0
LINE
  5
384
100
AcDbEntity
  8
0
100
AcDbLine
 62
7
  6
CONTINUOUS
 10
24.9205029787
 20
93.0238512829
 11
24.6705040979
 21
93.0486134224
  0
LINE
  5
385
100
AcDbEntity
  8
0
100
AcDbLine
 62
7
  6
CONTINUOUS
 10
62.3679509334
 20
89.6455916003
 11
62.4679504857
 21
89.6356867445
  0
LINE
  5
386
100
AcDbEntity
  8
0
100
AcDbLine
 62
7
  6
CONTINUOUS
 10
74.7716597032
 20
66.1205990315
 11
74.7716597032
 21
52.3217081821
  0
LINE
  5
387
100
AcDbEntity
  8
0
100
AcDbLine
 62
7
  6
CONTINUOUS
 10
74.8302377582
 20
52.3555272095
 11
74.8302377582
 21
66.154418059
  0
LINE
  5
388
100
AcDbEntity
  8
0
100
AcDbLine
 62
7
  6
CONTINUOUS
 10
76.5748239468
 20
31.398962827
 11
76.5748239468
 21
45.1978536765
  0
LINE
  5
389
100
AcDbEntity
  8
0
100
AcDbLine
 62
7
  6
CONTINUOUS
 10
76.9687872936
 20
32.606202283
 11
76.9687872936
 21
33.0960712818
  0
LINE
  5
38A
100
AcDbEntity
  8
0
100
AcDbLine
 62
7
  6
CONTINUOUS
 10
78.0597308178
 20
37.8084685966
 11
78.0597308178
 21
34.9507002601
  0
LINE
  5
38B
100
AcDbEntity
  8
0
100
AcDbLine
 62
7
  6
CONTINUOUS
 10
62.0084183665
 20
30.4191074044
 11
62.2382323193
 21
30.8171590567
  0
LINE
  5
38C
100
AcDbEntity
  8
0
100
AcDbLine
 62
7
  6
CONTINUOUS
 10
79.7214277793
 20
49.4640229004
 11
68.9734494536
 21
43.2587117616
  0
LINE
  5
38D
100
AcDbEntity
  8
0
100
AcDbLine
 62
7
  6
CONTINUOUS
 10
69.1148713986
 20
43.0137631272
 11
79.8628497243
 21
49.2190742661
  0
LINE
  5
38E
100
AcDbEntity
  8
0
100
AcDbLine
 62
7
  6
CONTINUOUS
 10
73.6049807649
 20
44.4630101203
 11
75.372740358
 21
45.483620505
  0
LINE
  5
38F
100
AcDbEntity
  8
0
100
AcDbLine
 62
7
  6
CONTINUOUS
 10
78.908259544
 20
47.5248412744
 11
79.9214277789
 21
48.1098126672
  0
LINE
  5
390
100
AcDbEntity
  8
0
100
AcDbLine
 62
7
  6
CONTINUOUS
 10
68.8320286862
 20
41.70735858
 11
70.0694615789
 21
42.421789351
  0
LINE
  5
391
100
AcDbEntity
  8
0
100
AcDbLine
 62
7
  6
CONTINUOUS
 10
74.0999605165
 20
43.768999138
 11
76.5748239468
 21
45.1978536765
  0
LINE
  5
392
100
AcDbEntity
  8
0
100
AcDbLine
 62
7
  6
CONTINUOUS
 10
69.6805603563
 20
41.2174696745
 11
71.2715451677
 21
42.1360225225
  0
LINE
  5
393
100
AcDbEntity
  8
0
100
AcDbLine
 62
7
  6
CONTINUOUS
 10
79.4032392956
 20
46.830830292
 11
80.769979158
 21
47.6198896251
  0
LINE
  5
394
100
AcDbEntity
  8
0
100
AcDbLine
 62
7
  6
CONTINUOUS
 10
67.9834063418
 20
85.1450049918
 11
68.831938012
 21
84.6551160864
  0
LINE
  5
395
100
AcDbEntity
  8
0
100
AcDbLine
 62
7
  6
CONTINUOUS
 10
68.890516067
 20
84.6889351139
 11
68.0419843968
 21
85.1788240193
  0
LINE
  5
396
100
AcDbEntity
  8
0
100
AcDbLine
 62
7
  6
CONTINUOUS
 10
62.4679504857
 20
89.6356867445
 11
67.8419843968
 21
86.5330570101
  0
LINE
  5
397
100
AcDbEntity
  8
0
100
AcDbLine
 62
7
  6
CONTINUOUS
 10
67.9419827001
 20
86.5429625871
 11
62.567948789
 21
89.6455923214
  0
LINE
  5
398
100
AcDbEntity
  8
0
100
AcDbLine
 62
7
  6
CONTINUOUS
 10
67.0288161616
 20
84.5938753841
 11
67.5237959131
 21
83.8998644017
  0
LINE
  5
399
100
AcDbEntity
  8
0
100
AcDbLine
 62
7
  6
CONTINUOUS
 10
78.5547076254
 20
33.5218283479
 11
78.5547076254
 21
34.6649317319
  0
LINE
  5
39A
100
AcDbEntity
  8
0
100
AcDbLine
 62
7
  6
CONTINUOUS
 10
78.5547076254
 20
38.0942418839
 11
78.5547076254
 21
40.053847685
  0
LINE
  5
39B
100
AcDbEntity
  8
0
100
AcDbLine
 62
7
  6
CONTINUOUS
 10
78.908259544
 20
40.2579697619
 11
78.908259544
 21
47.5248412744
  0
LINE
  5
39C
100
AcDbEntity
  8
0
100
AcDbLine
 62
7
  6
CONTINUOUS
 10
79.4032392956
 20
46.830830292
 11
79.4032392956
 21
33.0319394425
  0
LINE
  5
39D
100
AcDbEntity
  8
0
100
AcDbLine
 62
7
  6
CONTINUOUS
 10
79.8628497243
 20
49.2190742661
 11
79.8628497243
 21
48.0759708821
  0
LINE
  5
39E
100
AcDbEntity
  8
0
100
AcDbLine
 62
7
  6
CONTINUOUS
 10
79.9214277793
 20
48.1097899095
 11
79.9214277793
 21
49.300722417
  0
LINE
  5
39F
100
AcDbEntity
  8
0
100
AcDbLine
 62
7
  6
CONTINUOUS
 10
80.7113813945
 20
47.5860819767
 11
80.7113813945
 21
29.296427833
  0
LINE
  5
3A0
100
AcDbEntity
  8
0
100
AcDbLine
 62
7
  6
CONTINUOUS
 10
80.7699594494
 20
29.3780759839
 11
80.7699594494
 21
47.6199010041
  0
LINE
  5
3A1
100
AcDbEntity
  8
0
100
AcDbLine
 62
7
  6
CONTINUOUS
 10
79.8628497243
 20
49.2190742661
 11
79.9214277793
 21
49.300722417
  0
LINE
  5
3A2
100
AcDbEntity
  8
0
100
AcDbLine
 62
7
  6
CONTINUOUS
 10
42.9544466049
 20
103.7565934757
 11
42.1093607989
 21
104.2444929555
  0
LINE
  5
3A3
100
AcDbEntity
  8
0
100
AcDbLine
 62
7
  6
CONTINUOUS
 10
78.908259544
 20
40.2579697619
 11
78.5547076254
 21
40.053847685
  0
LINE
  5
3A4
100
AcDbEntity
  8
0
100
AcDbLine
 62
7
  6
CONTINUOUS
 10
73.6049807649
 20
37.1961386079
 11
73.2514288463
 21
36.9920165309
  0
LINE
  5
3A5
100
AcDbEntity
  8
0
100
AcDbLine
 62
7
  6
CONTINUOUS
 10
62.0084183665
 20
29.3576514403
 11
61.6902204622
 21
29.1739408912
  0
LINE
  5
3A6
100
AcDbEntity
  8
0
100
AcDbLine
 62
7
  6
CONTINUOUS
 10
78.5547076254
 20
38.0942418839
 11
76.5748239468
 21
36.9511623323
  0
LINE
  5
3A7
100
AcDbEntity
  8
0
100
AcDbLine
 62
7
  6
CONTINUOUS
 10
76.9687872936
 20
33.0960712818
 11
76.5748239468
 21
32.8686177951
  0
LINE
  5
3A8
100
AcDbEntity
  8
0
100
AcDbLine
 62
7
  6
CONTINUOUS
 10
71.2715451677
 20
29.3169176423
 11
73.2514288463
 21
30.4599971939
  0
LINE
  5
3A9
100
AcDbEntity
  8
0
100
AcDbLine
 62
7
  6
CONTINUOUS
 10
76.5748239468
 20
32.3787487964
 11
78.5547076254
 21
33.5218283479
  0
LINE
  5
3AA
100
AcDbEntity
  8
0
100
AcDbLine
 62
7
  6
CONTINUOUS
 10
71.2715451677
 20
28.337131673
 11
74.0999605165
 21
29.9701082885
  0
LINE
  5
3AB
100
AcDbEntity
  8
0
100
AcDbLine
 62
7
  6
CONTINUOUS
 10
76.5748239468
 20
31.398962827
 11
79.4032392956
 21
33.0319394425
  0
LINE
  5
3AC
100
AcDbEntity
  8
0
100
AcDbLine
 62
7
  6
CONTINUOUS
 10
80.7699551108
 20
29.3780759839
 11
80.7113813945
 21
29.296427833
  0
LINE
  5
3AD
100
AcDbEntity
  8
0
100
AcDbLine
 62
7
  6
CONTINUOUS
 10
69.9634030688
 20
23.0911166941
 11
80.7113813945
 21
29.296427833
  0
ARC
  5
3AE
100
AcDbEntity
  8
0
100
AcDbCircle
 62
7
  6
CONTINUOUS
 10
33.7185706109
 20
69.7828617534
 40
1.457633648
100
AcDbArc
 50
200.930502507
 51
202.4304457118
  0
ARC
  5
3AF
100
AcDbEntity
  8
0
100
AcDbCircle
 62
7
  6
CONTINUOUS
 10
33.5929218312
 20
69.6417159624
 40
1.2739897954
100
AcDbArc
 50
224.7744293954
 51
225.6187219208
  0
ARC
  5
3B0
100
AcDbEntity
  8
0
100
AcDbCircle
 62
7
  6
CONTINUOUS
 10
33.1791517777
 20
68.8175555092
 40
0.3455716559
100
AcDbArc
 50
319.7011905851
 51
324.0104864271
  0
ARC
  5
3B1
100
AcDbEntity
  8
0
100
AcDbCircle
 62
7
  6
CONTINUOUS
 10
40.2151513451
 20
94.2146454734
 40
6.3094644472
100
AcDbArc
 50
235.7916075722
 51
237.1810471278
  0
ARC
  5
3B2
100
AcDbEntity
  8
0
100
AcDbCircle
 62
7
  6
CONTINUOUS
 10
22.0546784995
 20
72.0091153188
 40
4.2703884032
100
AcDbArc
 50
91.5155795891
 51
96.8731237887
  0
ARC
  5
3B3
100
AcDbEntity
  8
0
100
AcDbCircle
 62
7
  6
CONTINUOUS
 10
22.0328102056
 20
72.2027208868
 40
4.0755574219
100
AcDbArc
 50
96.893618964
 51
99.2098916854
  0
ARC
  5
3B4
100
AcDbEntity
  8
0
100
AcDbCircle
 62
7
  6
CONTINUOUS
 10
21.9652828197
 20
73.5249720896
 40
3.2263790105
100
AcDbArc
 50
103.3330730757
 51
103.5571555506
  0
ARC
  5
3B5
100
AcDbEntity
  8
0
100
AcDbCircle
 62
7
  6
CONTINUOUS
 10
31.7087221901
 20
94.89195814
 40
1.5
100
AcDbArc
 50
117.8391788199
 51
180.0
  0
ARC
  5
3B6
100
AcDbEntity
  8
0
100
AcDbCircle
 62
7
  6
CONTINUOUS
 10
43.1666721078
 20
98.037354049
 40
0.7435753508
100
AcDbArc
 50
26.2210414441
 51
36.5538904424
  0
ARC
  5
3B7
100
AcDbEntity
  8
0
100
AcDbCircle
 62
7
  6
CONTINUOUS
 10
32.0651418635
 20
91.6279208332
 40
0.7435753508
100
AcDbArc
 50
26.2210414448
 51
36.5538904432
  0
ARC
  5
3B8
100
AcDbEntity
  8
0
100
AcDbCircle
 62
7
  6
CONTINUOUS
 10
24.9205029787
 20
92.6156000743
 40
0.5
100
AcDbArc
 50
119.9998519061
 51
180.0
  0
ARC
  5
3B9
100
AcDbEntity
  8
0
100
AcDbCircle
 62
7
  6
CONTINUOUS
 10
32.2037331477
 20
86.5327647434
 40
0.5
100
AcDbArc
 50
119.9998519061
 51
180.0
  0
ARC
  5
3BA
100
AcDbEntity
  8
0
100
AcDbCircle
 62
7
  6
CONTINUOUS
 10
38.5143113445
 20
87.6114141859
 40
0.3394905998
100
AcDbArc
 50
300.0648981187
 51
312.3037531395
  0
ARC
  5
3BB
100
AcDbEntity
  8
0
100
AcDbCircle
 62
7
  6
CONTINUOUS
 10
17.031962008
 20
77.1420080498
 40
0.3384820272
100
AcDbArc
 50
140.6711033603
 51
150.0478166677
  0
ARC
  5
3BC
100
AcDbEntity
  8
0
100
AcDbCircle
 62
7
  6
CONTINUOUS
 10
17.0102003238
 20
77.1595020436
 40
0.3105618362
100
AcDbArc
 50
137.6795831725
 51
140.6231431424
  0
ARC
  5
3BD
100
AcDbEntity
  8
0
100
AcDbCircle
 62
7
  6
CONTINUOUS
 10
21.4800358443
 20
86.9025149972
 40
0.2
100
AcDbArc
 50
60.0005612632
 51
119.9998519061
  0
ARC
  5
3BE
100
AcDbEntity
  8
0
100
AcDbCircle
 62
7
  6
CONTINUOUS
 10
10.8027679023
 20
80.7380282738
 40
0.2
100
AcDbArc
 50
119.9998519061
 51
169.1066673361
  0
ARC
  5
3BF
100
AcDbEntity
  8
0
100
AcDbCircle
 62
7
  6
CONTINUOUS
 10
16.9301736828
 20
77.2244428965
 40
0.2
100
AcDbArc
 50
119.9998519061
 51
180.0
  0
ARC
  5
3C0
100
AcDbEntity
  8
0
100
AcDbCircle
 62
7
  6
CONTINUOUS
 10
30.011703598
 20
73.7545010235
 40
0.2
100
AcDbArc
 50
119.9998519061
 51
180.0
  0
ARC
  5
3C1
100
AcDbEntity
  8
0
100
AcDbCircle
 62
7
  6
CONTINUOUS
 10
63.3498864481
 20
59.1906378861
 40
4.2703884032
100
AcDbArc
 50
91.5155795891
 51
96.8731237887
  0
ARC
  5
3C2
100
AcDbEntity
  8
0
100
AcDbCircle
 62
7
  6
CONTINUOUS
 10
74.5928869184
 20
43.7179519853
 40
4.2703884031
100
AcDbArc
 50
91.5155795891
 51
96.8731237887
  0
ARC
  5
3C3
100
AcDbEntity
  8
0
100
AcDbCircle
 62
7
  6
CONTINUOUS
 10
63.3280181542
 20
59.384243454
 40
4.0755574219
100
AcDbArc
 50
96.893618964
 51
99.2098916854
  0
ARC
  5
3C4
100
AcDbEntity
  8
0
100
AcDbCircle
 62
7
  6
CONTINUOUS
 10
74.5710186245
 20
43.9115575532
 40
4.0755574219
100
AcDbArc
 50
96.893618964
 51
99.2098916853
  0
ARC
  5
3C5
100
AcDbEntity
  8
0
100
AcDbCircle
 62
7
  6
CONTINUOUS
 10
74.5034912395
 20
45.2338087524
 40
3.2263790142
100
AcDbArc
 50
103.3330730759
 51
103.5571555505
  0
ARC
  5
3C6
100
AcDbEntity
  8
0
100
AcDbCircle
 62
7
  6
CONTINUOUS
 10
63.2604907688
 20
60.7064946548
 40
3.2263790126
100
AcDbArc
 50
103.3330730758
 51
103.5571555505
  0
ARC
  5
3C7
100
AcDbEntity
  8
0
100
AcDbCircle
 62
7
  6
CONTINUOUS
 10
73.9526085635
 20
46.2535499856
 40
2.1402659838
100
AcDbArc
 50
123.28536211
 51
124.9319306953
  0
ARC
  5
3C8
100
AcDbEntity
  8
0
100
AcDbCircle
 62
7
  6
CONTINUOUS
 10
47.2979199116
 20
59.3734090351
 40
1.1851457324
100
AcDbArc
 50
329.169329542
 51
338.1265882768
  0
ARC
  5
3C9
100
AcDbEntity
  8
0
100
AcDbCircle
 62
7
  6
CONTINUOUS
 10
47.9604467915
 20
60.0305771859
 40
0.5135280177
100
AcDbArc
 50
22.8333789802
 51
30.5343966659
  0
ARC
  5
3CA
100
AcDbEntity
  8
0
100
AcDbCircle
 62
7
  6
CONTINUOUS
 10
48.1594200879
 20
60.1455547182
 40
0.3682868933
100
AcDbArc
 50
20.4999144484
 51
39.2377552174
  0
ARC
  5
3CB
100
AcDbEntity
  8
0
100
AcDbCircle
 62
7
  6
CONTINUOUS
 10
48.0688905775
 20
60.1351076846
 40
0.3624230637
100
AcDbArc
 50
50.2377567652
 51
53.7601642266
  0
ARC
  5
3CC
100
AcDbEntity
  8
0
100
AcDbCircle
 62
7
  6
CONTINUOUS
 10
48.1704625465
 20
60.1500586928
 40
0.3563665782
100
AcDbArc
 50
16.3268518602
 51
20.4433825911
  0
ARC
  5
3CD
100
AcDbEntity
  8
0
100
AcDbCircle
 62
7
  6
CONTINUOUS
 10
79.7214277793
 20
49.300722417
 40
0.2
100
AcDbArc
 50
0.0
 51
60.0005612632
  0
ARC
  5
3CE
100
AcDbEntity
  8
0
100
AcDbCircle
 62
7
  6
CONTINUOUS
 10
73.781706088
 20
67.8352394718
 40
0.2
100
AcDbArc
 50
0.0
 51
60.0005612632
  0
ARC
  5
3CF
100
AcDbEntity
  8
0
100
AcDbCircle
 62
7
  6
CONTINUOUS
 10
49.3174985981
 20
99.4518692816
 40
6.2745313069
100
AcDbArc
 50
235.7877724491
 51
237.1946269827
  0
ARC
  5
3D0
100
AcDbEntity
  8
0
100
AcDbCircle
 62
7
  6
CONTINUOUS
 10
57.4101647568
 20
77.725154941
 40
4.2703884032
100
AcDbArc
 50
91.5155795891
 51
96.8731237887
  0
ARC
  5
3D1
100
AcDbEntity
  8
0
100
AcDbCircle
 62
7
  6
CONTINUOUS
 10
57.3882964629
 20
77.918760509
 40
4.0755574218
100
AcDbArc
 50
96.8936189639
 51
99.2098916854
  0
ARC
  5
3D2
100
AcDbEntity
  8
0
100
AcDbCircle
 62
7
  6
CONTINUOUS
 10
57.3207690793
 20
79.2410117022
 40
3.2263790203
100
AcDbArc
 50
103.3330730761
 51
103.5571555503
  0
ARC
  5
3D3
100
AcDbEntity
  8
0
100
AcDbCircle
 62
7
  6
CONTINUOUS
 10
51.71997216
 20
83.2670751222
 40
0.2
100
AcDbArc
 50
119.9998519061
 51
180.0
  0
ARC
  5
3D4
100
AcDbEntity
  8
0
100
AcDbCircle
 62
7
  6
CONTINUOUS
 10
67.8419843968
 20
86.3697565267
 40
0.2
100
AcDbArc
 50
0.0
 51
60.0005612632
  0
ARC
  5
3D5
100
AcDbEntity
  8
0
100
AcDbCircle
 62
7
  6
CONTINUOUS
 10
62.4679504857
 20
89.4723862611
 40
0.2
100
AcDbArc
 50
60.0005612631
 51
119.9998519061
  0
SPLINE
  5
3D6
100
AcDbEntity
  8
0
100
AcDbSpline
 62
7
  6
CONTINUOUS
 70
0
 71
3
 72
9
 73
5
 74
0
 42
0.0000001
 43
0.0000001
 44
0.0000000001
 40
0.0
 40
0.0
 40
0.0
 40
0.0
 40
0.253955877
 40
1.0
 40
1.0
 40
1.0
 40
1.0
 10
32.2603445779
 20
69.8739177031
 30
0.0
 10
32.2621202656
 20
69.8827064481
 30
0.0
 10
32.2715404838
 20
69.9168099666
 30
0.0
 10
32.2885435364
 20
69.9485649575
 30
0.0
 10
32.303931284
 20
69.9699432102
 30
0.0
  0
SPLINE
  5
3D7
100
AcDbEntity
  8
0
100
AcDbSpline
 62
7
  6
CONTINUOUS
 70
0
 71
3
 72
17
 73
13
 74
0
 42
0.0000001
 43
0.0000001
 44
0.0000000001
 40
0.0
 40
0.0
 40
0.0
 40
0.0
 40
0.1193157581
 40
0.2523721617
 40
0.3942771474
 40
0.5367635573
 40
0.6714483259
 40
0.7925623559
 40
0.8479388159
 40
0.9002586367
 40
0.9505064251
 40
1.0
 40
1.0
 40
1.0
 40
1.0
 10
32.2603706651
 20
69.8738931036
 30
0.0
 10
32.2435399474
 20
69.7895209198
 30
0.0
 10
32.2396937257
 20
69.6044948066
 30
0.0
 10
32.3032610469
 20
69.3254614356
 30
0.0
 10
32.4265420901
 20
69.0488767993
 30
0.0
 10
32.5988663724
 20
68.7984792603
 30
0.0
 10
32.8053271008
 20
68.5961918828
 30
0.0
 10
33.0004502906
 20
68.4788653189
 30
0.0
 10
33.1592007142
 20
68.4309977488
 30
0.0
 10
33.2733944655
 20
68.4196236242
 30
0.0
 10
33.3831337201
 20
68.4340145986
 30
0.0
 10
33.4506559233
 20
68.4615629491
 30
0.0
 10
33.481562794
 20
68.4794069327
 30
0.0
  0
SPLINE
  5
3D8
100
AcDbEntity
  8
0
100
AcDbSpline
 62
7
  6
CONTINUOUS
 70
0
 71
3
 72
17
 73
13
 74
0
 42
0.0000001
 43
0.0000001
 44
0.0000000001
 40
0.0
 40
0.0
 40
0.0
 40
0.0
 40
0.0428555697
 40
0.087482561
 40
0.1353084298
 40
0.1872735732
 40
0.3045314897
 40
0.4381937926
 40
0.5825432957
 40
0.7297070365
 40
0.871325156
 40
1.0
 40
1.0
 40
1.0
 40
1.0
 10
32.3608791622
 20
70.2572003518
 30
0.0
 10
32.3879945619
 20
70.2728567716
 30
0.0
 10
32.4477485967
 20
70.2977581508
 30
0.0
 10
32.5464272861
 20
70.3121514819
 30
0.0
 10
32.6523911637
 20
70.3044214585
 30
0.0
 10
32.8063435271
 20
70.263400287
 30
0.0
 10
33.0031786524
 20
70.1558295574
 30
0.0
 10
33.2206508459
 20
69.9632393582
 30
0.0
 10
33.4128726613
 20
69.7171893528
 30
0.0
 10
33.5642078188
 20
69.4375562286
 30
0.0
 10
33.6623567283
 20
69.1472573026
 30
0.0
 10
33.6886753464
 20
68.9495558928
 30
0.0
 10
33.6886753464
 20
68.8555443835
 30
0.0
  0
SPLINE
  5
3D9
100
AcDbEntity
  8
0
100
AcDbSpline
 62
7
  6
CONTINUOUS
 70
0
 71
3
 72
11
 73
7
 74
0
 42
0.0000001
 43
0.0000001
 44
0.0000000001
 40
0.0
 40
0.0
 40
0.0
 40
0.0
 40
0.2177442246
 40
0.4508817658
 40
0.7104588047
 40
1.0
 40
1.0
 40
1.0
 40
1.0
 10
45.8691765112
 20
61.6612106445
 30
0.0
 10
45.849388396
 20
61.6726350703
 30
0.0
 10
45.8123273295
 20
61.7037204715
 30
0.0
 10
45.7729034236
 20
61.768209172
 30
0.0
 10
45.7495315216
 20
61.8476558425
 30
0.0
 10
45.744892333
 20
61.9054699437
 30
0.0
 10
45.744892333
 20
61.9358532591
 30
0.0
  0
SPLINE
  5
3DA
100
AcDbEntity
  8
0
100
AcDbSpline
 62
7
  6
CONTINUOUS
 70
0
 71
3
 72
11
 73
7
 74
0
 42
0.0000001
 43
0.0000001
 44
0.0000000001
 40
0.0
 40
0.0
 40
0.0
 40
0.0
 40
0.2177456295
 40
0.4508837762
 40
0.7104602913
 40
1.0
 40
1.0
 40
1.0
 40
1.0
 10
47.9905056863
 20
60.4364883811
 30
0.0
 10
48.0102931514
 20
60.4250643447
 30
0.0
 10
48.0557429987
 20
60.408512446
 30
0.0
 10
48.1313009287
 20
60.4066150779
 30
0.0
 10
48.2117863682
 20
60.4260969288
 30
0.0
 10
48.2641722259
 20
60.4509851277
 30
0.0
 10
48.2904838107
 20
60.4661760376
 30
0.0
  0
SPLINE
  5
3DB
100
AcDbEntity
  8
0
100
AcDbSpline
 62
7
  6
CONTINUOUS
 70
0
 71
3
 72
9
 73
5
 74
0
 42
0.0000001
 43
0.0000001
 44
0.0000000001
 40
0.0
 40
0.0
 40
0.0
 40
0.0
 40
0.2393581082
 40
1.0
 40
1.0
 40
1.0
 40
1.0
 10
20.4015393303
 20
76.4307195
 30
0.0
 10
20.4599946588
 20
76.4626326947
 30
0.0
 10
20.7096116725
 20
76.5860140001
 30
0.0
 10
20.977050017
 20
76.6716634553
 30
0.0
 10
21.183414609
 20
76.7186323719
 30
0.0
  0
SPLINE
  5
3DC
100
AcDbEntity
  8
0
100
AcDbSpline
 62
7
  6
CONTINUOUS
 70
0
 71
3
 72
9
 73
5
 74
0
 42
0.0000001
 43
0.0000001
 44
0.0000000001
 40
0.0
 40
0.0
 40
0.0
 40
0.0
 40
0.2453601496
 40
1.0
 40
1.0
 40
1.0
 40
1.0
 10
15.8875658731
 20
76.5761029139
 30
0.0
 10
15.8865201794
 20
76.5718866491
 30
0.0
 10
15.8829063949
 20
76.5545421933
 30
0.0
 10
15.8816395461
 20
76.5367593109
 30
0.0
 10
15.8816436895
 20
76.5233987152
 30
0.0
  0
SPLINE
  5
3DD
100
AcDbEntity
  8
0
100
AcDbSpline
 62
7
  6
CONTINUOUS
 70
0
 71
3
 72
11
 73
7
 74
0
 42
0.0000001
 43
0.0000001
 44
0.0000000001
 40
0.0
 40
0.0
 40
0.0
 40
0.0
 40
0.261764367
 40
0.5190738736
 40
0.7663576153
 40
1.0
 40
1.0
 40
1.0
 40
1.0
 10
21.9680981972
 20
76.813629666
 30
0.0
 10
22.1239236521
 20
76.8169823651
 30
0.0
 10
22.4335820161
 20
76.8060702197
 30
0.0
 10
22.8858095963
 20
76.7378440056
 30
0.0
 10
23.3102582665
 20
76.6192750697
 30
0.0
 10
23.5740719904
 20
76.5046847642
 30
0.0
 10
23.6966557171
 20
76.4389067127
 30
0.0
  0
SPLINE
  5
3DE
100
AcDbEntity
  8
0
100
AcDbSpline
 62
7
  6
CONTINUOUS
 70
0
 71
3
 72
9
 73
5
 74
0
 42
0.0000001
 43
0.0000001
 44
0.0000000001
 40
0.0
 40
0.0
 40
0.0
 40
0.0
 40
0.5445584945
 40
1.0
 40
1.0
 40
1.0
 40
1.0
 10
31.8501812291
 20
73.9178059261
 30
0.0
 10
31.8155387252
 20
73.9378063325
 30
0.0
 10
31.7555868262
 20
73.9824799274
 30
0.0
 10
31.7167947194
 20
74.0486267931
 30
0.0
 10
31.7087586952
 20
74.0811025678
 30
0.0
  0
SPLINE
  5
3DF
100
AcDbEntity
  8
0
100
AcDbSpline
 62
7
  6
CONTINUOUS
 70
0
 71
3
 72
9
 73
5
 74
0
 42
0.0000001
 43
0.0000001
 44
0.0000000001
 40
0.0
 40
0.0
 40
0.0
 40
0.0
 40
0.2529499981
 40
1.0
 40
1.0
 40
1.0
 40
1.0
 10
39.1760915752
 20
87.8196968932
 30
0.0
 10
39.1425277599
 20
87.7783286197
 30
0.0
 10
39.0068727652
 20
87.6172196723
 30
0.0
 10
38.8592226078
 20
87.4661640541
 30
0.0
 10
38.742809214
 20
87.360331349
 30
0.0
  0
SPLINE
  5
3E0
100
AcDbEntity
  8
0
100
AcDbSpline
 62
7
  6
CONTINUOUS
 70
0
 71
3
 72
9
 73
5
 74
0
 42
0.0000001
 43
0.0000001
 44
0.0000000001
 40
0.0
 40
0.0
 40
0.0
 40
0.0
 40
0.2539207001
 40
1.0
 40
1.0
 40
1.0
 40
1.0
 10
41.3097569565
 20
88.0983433779
 30
0.0
 10
41.272527684
 20
88.0443384501
 30
0.0
 10
41.1218088728
 20
87.8345215749
 30
0.0
 10
40.9543960237
 20
87.6366109045
 30
0.0
 10
40.8207278021
 20
87.4977665401
 30
0.0
  0
SPLINE
  5
3E1
100
AcDbEntity
  8
0
100
AcDbSpline
 62
7
  6
CONTINUOUS
 70
0
 71
3
 72
11
 73
7
 74
0
 42
0.0000001
 43
0.0000001
 44
0.0000000001
 40
0.0
 40
0.0
 40
0.0
 40
0.0
 40
0.2820752197
 40
0.5461307944
 40
0.7865906486
 40
1.0
 40
1.0
 40
1.0
 40
1.0
 10
43.2524715486
 20
91.2489767592
 30
0.0
 10
43.0772593226
 20
90.9480824347
 30
0.0
 10
42.7406669882
 20
90.3639934278
 30
0.0
 10
42.2502134354
 20
89.5259578439
 30
0.0
 10
41.7837891244
 20
88.772301376
 30
0.0
 10
41.467052619
 20
88.3096573123
 30
0.0
 10
41.3097569756
 20
88.098343417
 30
0.0
  0
SPLINE
  5
3E2
100
AcDbEntity
  8
0
100
AcDbSpline
 62
7
  6
CONTINUOUS
 70
0
 71
3
 72
10
 73
6
 74
0
 42
0.0000001
 43
0.0000001
 44
0.0000000001
 40
0.0
 40
0.0
 40
0.0
 40
0.0
 40
0.2662478002
 40
0.5283450204
 40
1.0
 40
1.0
 40
1.0
 40
1.0
 10
43.2524715878
 20
91.2489768253
 30
0.0
 10
43.2839750922
 20
91.3260558355
 30
0.0
 10
43.351680263
 20
91.4772930894
 30
0.0
 10
43.5069117312
 20
91.7479497842
 30
0.0
 10
43.6696004529
 20
91.9235887797
 30
0.0
 10
43.7973472867
 20
91.9973432254
 30
0.0
  0
SPLINE
  5
3E3
100
AcDbEntity
  8
0
100
AcDbSpline
 62
7
  6
CONTINUOUS
 70
0
 71
3
 72
11
 73
7
 74
0
 42
0.0000001
 43
0.0000001
 44
0.0000000001
 40
0.0
 40
0.0
 40
0.0
 40
0.0
 40
0.2733340351
 40
0.5301190099
 40
0.7716420852
 40
1.0
 40
1.0
 40
1.0
 40
1.0
 10
39.4343423293
 20
89.4783761748
 30
0.0
 10
39.4790842055
 20
89.5042076788
 30
0.0
 10
39.5718049462
 20
89.544917967
 30
0.0
 10
39.7170238075
 20
89.5700704831
 30
0.0
 10
39.8553874936
 20
89.5573994543
 30
0.0
 10
39.9395836846
 20
89.5247987247
 30
0.0
 10
39.9769515509
 20
89.5031971073
 30
0.0
  0
SPLINE
  5
3E4
100
AcDbEntity
  8
0
100
AcDbSpline
 62
7
  6
CONTINUOUS
 70
0
 71
3
 72
11
 73
7
 74
0
 42
0.0000001
 43
0.0000001
 44
0.0000000001
 40
0.0
 40
0.0
 40
0.0
 40
0.0
 40
0.2319753041
 40
0.483812827
 40
0.7440734365
 40
1.0
 40
1.0
 40
1.0
 40
1.0
 10
46.9070993282
 20
94.7501388179
 30
0.0
 10
46.9750538555
 20
94.7063193757
 30
0.0
 10
47.1063363206
 20
94.5983638591
 30
0.0
 10
47.2753196601
 20
94.4002021783
 30
0.0
 10
47.4154394964
 20
94.1708872916
 30
0.0
 10
47.4847649724
 20
94.0038341067
 30
0.0
 10
47.511609094
 20
93.9187627841
 30
0.0
  0
SPLINE
  5
3E5
100
AcDbEntity
  8
0
100
AcDbSpline
 62
7
  6
CONTINUOUS
 70
0
 71
3
 72
11
 73
7
 74
0
 42
0.0000001
 43
0.0000001
 44
0.0000000001
 40
0.0
 40
0.0
 40
0.0
 40
0.0
 40
0.262380561
 40
0.5212334645
 40
0.7692092205
 40
1.0
 40
1.0
 40
1.0
 40
1.0
 10
43.8337307067
 20
98.3658919128
 30
0.0
 10
44.0191756261
 20
97.9895662894
 30
0.0
 10
44.4335689064
 20
97.2637140366
 30
0.0
 10
45.1693246467
 20
96.2743126564
 30
0.0
 10
45.9898527122
 20
95.4225859447
 30
0.0
 10
46.5969400885
 20
94.9500915863
 30
0.0
 10
46.9070993282
 20
94.7501388179
 30
0.0
  0
SPLINE
  5
3E6
100
AcDbEntity
  8
0
100
AcDbSpline
 62
7
  6
CONTINUOUS
 70
0
 71
3
 72
9
 73
5
 74
0
 42
0.0000001
 43
0.0000001
 44
0.0000000001
 40
0.0
 40
0.0
 40
0.0
 40
0.0
 40
0.4755858471
 40
1.0
 40
1.0
 40
1.0
 40
1.0
 10
43.6808561331
 20
98.7137292516
 30
0.0
 10
43.6808561331
 20
98.6739954662
 30
0.0
 10
43.6988651946
 20
98.5905150376
 30
0.0
 10
43.7384519624
 20
98.5158166236
 30
0.0
 10
43.7639839826
 20
98.4802116181
 30
0.0
  0
SPLINE
  5
3E7
100
AcDbEntity
  8
0
100
AcDbSpline
 62
7
  6
CONTINUOUS
 70
0
 71
3
 72
9
 73
5
 74
0
 42
0.0000001
 43
0.0000001
 44
0.0000000001
 40
0.0
 40
0.0
 40
0.0
 40
0.0
 40
0.222494832
 40
1.0
 40
1.0
 40
1.0
 40
1.0
 10
43.7139142533
 20
98.8207182537
 30
0.0
 10
43.7084077798
 20
98.8143598254
 30
0.0
 10
43.6871574769
 20
98.7826844061
 30
0.0
 10
43.6808561331
 20
98.7431226107
 30
0.0
 10
43.6808561331
 20
98.7137292516
 30
0.0
  0
SPLINE
  5
3E8
100
AcDbEntity
  8
0
100
AcDbSpline
 62
7
  6
CONTINUOUS
 70
0
 71
3
 72
9
 73
5
 74
0
 42
0.0000001
 43
0.0000001
 44
0.0000000001
 40
0.0
 40
0.0
 40
0.0
 40
0.0
 40
0.5413125256
 40
1.0
 40
1.0
 40
1.0
 40
1.0
 10
43.7652971968
 20
98.9870135486
 30
0.0
 10
43.7652971968
 20
98.9551138153
 30
0.0
 10
43.7587412869
 20
98.8957046121
 30
0.0
 10
43.7316097821
 20
98.8411516129
 30
0.0
 10
43.7139142533
 20
98.8207182537
 30
0.0
  0
SPLINE
  5
3E9
100
AcDbEntity
  8
0
100
AcDbSpline
 62
7
  6
CONTINUOUS
 70
0
 71
3
 72
9
 73
5
 74
0
 42
0.0000001
 43
0.0000001
 44
0.0000000001
 40
0.0
 40
0.0
 40
0.0
 40
0.0
 40
0.5239946799
 40
1.0
 40
1.0
 40
1.0
 40
1.0
 10
43.6290610861
 20
99.3596085947
 30
0.0
 10
43.6708469601
 20
99.3033171781
 30
0.0
 10
43.7356377616
 20
99.1843489084
 30
0.0
 10
43.7652971968
 20
99.0506985402
 30
0.0
 10
43.7652971968
 20
98.9870135486
 30
0.0
  0
SPLINE
  5
3EA
100
AcDbEntity
  8
0
100
AcDbSpline
 62
7
  6
CONTINUOUS
 70
0
 71
3
 72
9
 73
5
 74
0
 42
0.0000001
 43
0.0000001
 44
0.0000000001
 40
0.0
 40
0.0
 40
0.0
 40
0.0
 40
0.4755858471
 40
1.0
 40
1.0
 40
1.0
 40
1.0
 10
43.5459332368
 20
99.5931262279
 30
0.0
 10
43.5459332368
 20
99.5533924426
 30
0.0
 10
43.5639422982
 20
99.469912014
 30
0.0
 10
43.6035290659
 20
99.3952136001
 30
0.0
 10
43.6290610861
 20
99.3596085947
 30
0.0
  0
SPLINE
  5
3EB
100
AcDbEntity
  8
0
100
AcDbSpline
 62
7
  6
CONTINUOUS
 70
0
 71
3
 72
9
 73
5
 74
0
 42
0.0000001
 43
0.0000001
 44
0.0000000001
 40
0.0
 40
0.0
 40
0.0
 40
0.0
 40
0.222494832
 40
1.0
 40
1.0
 40
1.0
 40
1.0
 10
43.578991357
 20
99.7001152299
 30
0.0
 10
43.5734848835
 20
99.6937568016
 30
0.0
 10
43.5522345806
 20
99.6620813824
 30
0.0
 10
43.5459332368
 20
99.622519587
 30
0.0
 10
43.5459332368
 20
99.5931262279
 30
0.0
  0
SPLINE
  5
3EC
100
AcDbEntity
  8
0
100
AcDbSpline
 62
7
  6
CONTINUOUS
 70
0
 71
3
 72
9
 73
5
 74
0
 42
0.0000001
 43
0.0000001
 44
0.0000000001
 40
0.0
 40
0.0
 40
0.0
 40
0.0
 40
0.5413125256
 40
1.0
 40
1.0
 40
1.0
 40
1.0
 10
43.6303743005
 20
99.8664105249
 30
0.0
 10
43.6303743005
 20
99.8345107915
 30
0.0
 10
43.6238183906
 20
99.7751015884
 30
0.0
 10
43.5966868858
 20
99.7205485892
 30
0.0
 10
43.578991357
 20
99.7001152299
 30
0.0
  0
SPLINE
  5
3ED
100
AcDbEntity
  8
0
100
AcDbSpline
 62
7
  6
CONTINUOUS
 70
0
 71
3
 72
9
 73
5
 74
0
 42
0.0000001
 43
0.0000001
 44
0.0000000001
 40
0.0
 40
0.0
 40
0.0
 40
0.0
 40
0.5239946799
 40
1.0
 40
1.0
 40
1.0
 40
1.0
 10
43.4941381899
 20
100.2390055708
 30
0.0
 10
43.5359240639
 20
100.1827141542
 30
0.0
 10
43.6007148654
 20
100.0637458845
 30
0.0
 10
43.6303743005
 20
99.9300955164
 30
0.0
 10
43.6303743005
 20
99.8664105249
 30
0.0
  0
SPLINE
  5
3EE
100
AcDbEntity
  8
0
100
AcDbSpline
 62
7
  6
CONTINUOUS
 70
0
 71
3
 72
9
 73
5
 74
0
 42
0.0000001
 43
0.0000001
 44
0.0000000001
 40
0.0
 40
0.0
 40
0.0
 40
0.0
 40
0.4755858471
 40
1.0
 40
1.0
 40
1.0
 40
1.0
 10
43.4110103405
 20
100.4725232041
 30
0.0
 10
43.4110103405
 20
100.4327894188
 30
0.0
 10
43.429019402
 20
100.3493089902
 30
0.0
 10
43.4686061697
 20
100.2746105762
 30
0.0
 10
43.4941381899
 20
100.2390055708
 30
0.0
  0
SPLINE
  5
3EF
100
AcDbEntity
  8
0
100
AcDbSpline
 62
7
  6
CONTINUOUS
 70
0
 71
3
 72
9
 73
5
 74
0
 42
0.0000001
 43
0.0000001
 44
0.0000000001
 40
0.0
 40
0.0
 40
0.0
 40
0.0
 40
0.222494832
 40
1.0
 40
1.0
 40
1.0
 40
1.0
 10
43.4440684607
 20
100.5795122061
 30
0.0
 10
43.4385619872
 20
100.5731537778
 30
0.0
 10
43.4173116843
 20
100.5414783586
 30
0.0
 10
43.4110103405
 20
100.5019165632
 30
0.0
 10
43.4110103405
 20
100.4725232041
 30
0.0
  0
SPLINE
  5
3F0
100
AcDbEntity
  8
0
100
AcDbSpline
 62
7
  6
CONTINUOUS
 70
0
 71
3
 72
9
 73
5
 74
0
 42
0.0000001
 43
0.0000001
 44
0.0000000001
 40
0.0
 40
0.0
 40
0.0
 40
0.0
 40
0.5413125256
 40
1.0
 40
1.0
 40
1.0
 40
1.0
 10
43.4954514042
 20
100.7458075011
 30
0.0
 10
43.4954514042
 20
100.7139077678
 30
0.0
 10
43.4888954943
 20
100.6544985646
 30
0.0
 10
43.4617639895
 20
100.5999455654
 30
0.0
 10
43.4440684607
 20
100.5795122061
 30
0.0
  0
SPLINE
  5
3F1
100
AcDbEntity
  8
0
100
AcDbSpline
 62
7
  6
CONTINUOUS
 70
0
 71
3
 72
9
 73
5
 74
0
 42
0.0000001
 43
0.0000001
 44
0.0000000001
 40
0.0
 40
0.0
 40
0.0
 40
0.0
 40
0.52399468
 40
1.0
 40
1.0
 40
1.0
 40
1.0
 10
43.3592152938
 20
101.1184025468
 30
0.0
 10
43.4010011677
 20
101.0621111303
 30
0.0
 10
43.4657919691
 20
100.9431428606
 30
0.0
 10
43.4954514042
 20
100.8094924926
 30
0.0
 10
43.4954514042
 20
100.7458075011
 30
0.0
  0
SPLINE
  5
3F2
100
AcDbEntity
  8
0
100
AcDbSpline
 62
7
  6
CONTINUOUS
 70
0
 71
3
 72
9
 73
5
 74
0
 42
0.0000001
 43
0.0000001
 44
0.0000000001
 40
0.0
 40
0.0
 40
0.0
 40
0.0
 40
0.4755858471
 40
1.0
 40
1.0
 40
1.0
 40
1.0
 10
43.2760874442
 20
101.3519201804
 30
0.0
 10
43.2760874442
 20
101.312186395
 30
0.0
 10
43.2940965058
 20
101.2287059663
 30
0.0
 10
43.3336832736
 20
101.1540075523
 30
0.0
 10
43.3592152938
 20
101.1184025468
 30
0.0
  0
SPLINE
  5
3F3
100
AcDbEntity
  8
0
100
AcDbSpline
 62
7
  6
CONTINUOUS
 70
0
 71
3
 72
9
 73
5
 74
0
 42
0.0000001
 43
0.0000001
 44
0.0000000001
 40
0.0
 40
0.0
 40
0.0
 40
0.0
 40
0.222494832
 40
1.0
 40
1.0
 40
1.0
 40
1.0
 10
43.3091455644
 20
101.4589091824
 30
0.0
 10
43.3036390909
 20
101.4525507541
 30
0.0
 10
43.282388788
 20
101.4208753349
 30
0.0
 10
43.2760874442
 20
101.3813135395
 30
0.0
 10
43.2760874442
 20
101.3519201804
 30
0.0
  0
SPLINE
  5
3F4
100
AcDbEntity
  8
0
100
AcDbSpline
 62
7
  6
CONTINUOUS
 70
0
 71
3
 72
9
 73
5
 74
0
 42
0.0000001
 43
0.0000001
 44
0.0000000001
 40
0.0
 40
0.0
 40
0.0
 40
0.0
 40
0.5413125256
 40
1.0
 40
1.0
 40
1.0
 40
1.0
 10
43.3605285079
 20
101.6252044774
 30
0.0
 10
43.3605285079
 20
101.593304744
 30
0.0
 10
43.3539725981
 20
101.5338955409
 30
0.0
 10
43.3268410933
 20
101.4793425417
 30
0.0
 10
43.3091455644
 20
101.4589091824
 30
0.0
  0
SPLINE
  5
3F5
100
AcDbEntity
  8
0
100
AcDbSpline
 62
7
  6
CONTINUOUS
 70
0
 71
3
 72
9
 73
5
 74
0
 42
0.0000001
 43
0.0000001
 44
0.0000000001
 40
0.0
 40
0.0
 40
0.0
 40
0.0
 40
0.52399468
 40
1.0
 40
1.0
 40
1.0
 40
1.0
 10
43.2242923975
 20
101.997799523
 30
0.0
 10
43.2660782715
 20
101.9415081065
 30
0.0
 10
43.3308690728
 20
101.8225398369
 30
0.0
 10
43.3605285079
 20
101.6888894689
 30
0.0
 10
43.3605285079
 20
101.6252044774
 30
0.0
  0
SPLINE
  5
3F6
100
AcDbEntity
  8
0
100
AcDbSpline
 62
7
  6
CONTINUOUS
 70
0
 71
3
 72
9
 73
5
 74
0
 42
0.0000001
 43
0.0000001
 44
0.0000000001
 40
0.0
 40
0.0
 40
0.0
 40
0.0
 40
0.4755858471
 40
1.0
 40
1.0
 40
1.0
 40
1.0
 10
43.141164548
 20
102.2313171566
 30
0.0
 10
43.141164548
 20
102.1915833712
 30
0.0
 10
43.1591736095
 20
102.1081029425
 30
0.0
 10
43.1987603773
 20
102.0334045285
 30
0.0
 10
43.2242923975
 20
101.997799523
 30
0.0
  0
SPLINE
  5
3F7
100
AcDbEntity
  8
0
100
AcDbSpline
 62
7
  6
CONTINUOUS
 70
0
 71
3
 72
9
 73
5
 74
0
 42
0.0000001
 43
0.0000001
 44
0.0000000001
 40
0.0
 40
0.0
 40
0.0
 40
0.0
 40
0.222494832
 40
1.0
 40
1.0
 40
1.0
 40
1.0
 10
43.1742226682
 20
102.3383061586
 30
0.0
 10
43.1687161947
 20
102.3319477303
 30
0.0
 10
43.1474658918
 20
102.3002723111
 30
0.0
 10
43.141164548
 20
102.2607105157
 30
0.0
 10
43.141164548
 20
102.2313171566
 30
0.0
  0
SPLINE
  5
3F8
100
AcDbEntity
  8
0
100
AcDbSpline
 62
7
  6
CONTINUOUS
 70
0
 71
3
 72
9
 73
5
 74
0
 42
0.0000001
 43
0.0000001
 44
0.0000000001
 40
0.0
 40
0.0
 40
0.0
 40
0.0
 40
0.5413125256
 40
1.0
 40
1.0
 40
1.0
 40
1.0
 10
43.2256056117
 20
102.5046014536
 30
0.0
 10
43.2256056117
 20
102.4727017203
 30
0.0
 10
43.2190497018
 20
102.4132925171
 30
0.0
 10
43.191918197
 20
102.3587395179
 30
0.0
 10
43.1742226682
 20
102.3383061586
 30
0.0
  0
SPLINE
  5
3F9
100
AcDbEntity
  8
0
100
AcDbSpline
 62
7
  6
CONTINUOUS
 70
0
 71
3
 72
9
 73
5
 74
0
 42
0.0000001
 43
0.0000001
 44
0.0000000001
 40
0.0
 40
0.0
 40
0.0
 40
0.0
 40
0.5239946799
 40
1.0
 40
1.0
 40
1.0
 40
1.0
 10
43.0893695011
 20
102.8771964995
 30
0.0
 10
43.131155375
 20
102.820905083
 30
0.0
 10
43.1959461765
 20
102.7019368133
 30
0.0
 10
43.2256056117
 20
102.5682864452
 30
0.0
 10
43.2256056117
 20
102.5046014536
 30
0.0
  0
SPLINE
  5
3FA
100
AcDbEntity
  8
0
100
AcDbSpline
 62
7
  6
CONTINUOUS
 70
0
 71
3
 72
9
 73
5
 74
0
 42
0.0000001
 43
0.0000001
 44
0.0000000001
 40
0.0
 40
0.0
 40
0.0
 40
0.0
 40
0.4755858471
 40
1.0
 40
1.0
 40
1.0
 40
1.0
 10
43.0062416517
 20
103.1107141329
 30
0.0
 10
43.0062416517
 20
103.0709803475
 30
0.0
 10
43.0242507132
 20
102.9874999189
 30
0.0
 10
43.0638374809
 20
102.912801505
 30
0.0
 10
43.0893695011
 20
102.8771964995
 30
0.0
  0
SPLINE
  5
3FB
100
AcDbEntity
  8
0
100
AcDbSpline
 62
7
  6
CONTINUOUS
 70
0
 71
3
 72
9
 73
5
 74
0
 42
0.0000001
 43
0.0000001
 44
0.0000000001
 40
0.0
 40
0.0
 40
0.0
 40
0.0
 40
0.222494832
 40
1.0
 40
1.0
 40
1.0
 40
1.0
 10
43.0392997719
 20
103.2177031349
 30
0.0
 10
43.0337932984
 20
103.2113447066
 30
0.0
 10
43.0125429955
 20
103.1796692873
 30
0.0
 10
43.0062416517
 20
103.140107492
 30
0.0
 10
43.0062416517
 20
103.1107141329
 30
0.0
  0
SPLINE
  5
3FC
100
AcDbEntity
  8
0
100
AcDbSpline
 62
7
  6
CONTINUOUS
 70
0
 71
3
 72
9
 73
5
 74
0
 42
0.0000001
 43
0.0000001
 44
0.0000000001
 40
0.0
 40
0.0
 40
0.0
 40
0.0
 40
0.5413125256
 40
1.0
 40
1.0
 40
1.0
 40
1.0
 10
43.0906827154
 20
103.3839984299
 30
0.0
 10
43.0906827154
 20
103.3520986965
 30
0.0
 10
43.0841268055
 20
103.2926894934
 30
0.0
 10
43.0569953007
 20
103.2381364942
 30
0.0
 10
43.0392997719
 20
103.2177031349
 30
0.0
  0
SPLINE
  5
3FD
100
AcDbEntity
  8
0
100
AcDbSpline
 62
7
  6
CONTINUOUS
 70
0
 71
3
 72
9
 73
5
 74
0
 42
0.0000001
 43
0.0000001
 44
0.0000000001
 40
0.0
 40
0.0
 40
0.0
 40
0.0
 40
0.5239946799
 40
1.0
 40
1.0
 40
1.0
 40
1.0
 10
42.9544466049
 20
103.7565934757
 30
0.0
 10
42.9962324788
 20
103.7003020591
 30
0.0
 10
43.0610232803
 20
103.5813337895
 30
0.0
 10
43.0906827154
 20
103.4476834214
 30
0.0
 10
43.0906827154
 20
103.3839984299
 30
0.0
  0
SPLINE
  5
3FE
100
AcDbEntity
  8
0
100
AcDbSpline
 62
7
  6
CONTINUOUS
 70
0
 71
3
 72
11
 73
7
 74
0
 42
0.0000001
 43
0.0000001
 44
0.0000000001
 40
0.0
 40
0.0
 40
0.0
 40
0.0
 40
0.2291769801
 40
0.4814125601
 40
0.743395572
 40
1.0
 40
1.0
 40
1.0
 40
1.0
 10
31.0078315402
 20
89.0131663357
 30
0.0
 10
31.0078315402
 20
88.8838889659
 30
0.0
 10
31.044299254
 20
88.6120245988
 30
0.0
 10
31.1801750659
 20
88.2131534778
 30
0.0
 10
31.3892684827
 20
87.8296576757
 30
0.0
 10
31.5715559672
 20
87.5985270576
 30
0.0
 10
31.6717275726
 20
87.4940381533
 30
0.0
  0
SPLINE
  5
3FF
100
AcDbEntity
  8
0
100
AcDbSpline
 62
7
  6
CONTINUOUS
 70
0
 71
3
 72
15
 73
11
 74
0
 42
0.0000001
 43
0.0000001
 44
0.0000000001
 40
0.0
 40
0.0
 40
0.0
 40
0.0
 40
0.114147475
 40
0.2373368133
 40
0.3669776533
 40
0.5000010761
 40
0.6330243494
 40
0.7626647533
 40
0.8858534037
 40
1.0
 40
1.0
 40
1.0
 40
1.0
 10
31.0078353185
 20
70.199167783
 30
0.0
 10
31.0078353185
 20
70.0286971201
 30
0.0
 10
31.0390819166
 20
69.6739242259
 30
0.0
 10
31.1635337536
 20
69.1387185843
 30
0.0
 10
31.3629928155
 20
68.5966101203
 30
0.0
 10
31.6298551774
 20
68.0679692772
 30
0.0
 10
31.9542423558
 20
67.5725413283
 30
0.0
 10
32.3239936155
 20
67.1287538461
 30
0.0
 10
32.7252695599
 20
66.7533771134
 30
0.0
 10
33.016888387
 20
66.5489340145
 30
0.0
 10
33.1645200103
 20
66.4637007853
 30
0.0
  0
SPLINE
  5
400
100
AcDbEntity
  8
0
100
AcDbSpline
 62
7
  6
CONTINUOUS
 70
0
 71
3
 72
10
 73
6
 74
0
 42
0.0000001
 43
0.0000001
 44
0.0000000001
 40
0.0
 40
0.0
 40
0.0
 40
0.0
 40
0.2808243745
 40
0.5409349472
 40
1.0
 40
1.0
 40
1.0
 40
1.0
 10
33.6886753464
 20
68.8555443835
 30
0.0
 10
33.6886753464
 20
68.8143249335
 30
0.0
 10
33.6838342033
 20
68.734721798
 30
0.0
 10
33.6545816766
 20
68.5907914517
 30
0.0
 10
33.6073256879
 20
68.4923436259
 30
0.0
 10
33.5644569608
 20
68.440357487
 30
0.0
  0
SPLINE
  5
401
100
AcDbEntity
  8
0
100
AcDbSpline
 62
7
  6
CONTINUOUS
 70
0
 71
3
 72
9
 73
5
 74
0
 42
0.0000001
 43
0.0000001
 44
0.0000000001
 40
0.0
 40
0.0
 40
0.0
 40
0.0
 40
0.2551937273
 40
1.0
 40
1.0
 40
1.0
 40
1.0
 10
33.5644569608
 20
68.440357487
 30
0.0
 10
33.5570654109
 20
68.4313938866
 30
0.0
 10
33.5266624173
 20
68.397485924
 30
0.0
 10
33.4901950366
 20
68.3689737981
 30
0.0
 10
33.4608295931
 20
68.3520190346
 30
0.0
  0
SPLINE
  5
402
100
AcDbEntity
  8
0
100
AcDbSpline
 62
7
  6
CONTINUOUS
 70
0
 71
3
 72
9
 73
5
 74
0
 42
0.0000001
 43
0.0000001
 44
0.0000000001
 40
0.0
 40
0.0
 40
0.0
 40
0.0
 40
0.4753214489
 40
1.0
 40
1.0
 40
1.0
 40
1.0
 10
44.2481770425
 20
60.5545820845
 30
0.0
 10
44.1669155381
 20
60.6014973746
 30
0.0
 10
43.9814513297
 20
60.6754043159
 30
0.0
 10
43.7857156101
 20
60.7093642128
 30
0.0
 10
43.6824904399
 20
60.7178777064
 30
0.0
  0
SPLINE
  5
403
100
AcDbEntity
  8
0
100
AcDbSpline
 62
7
  6
CONTINUOUS
 70
0
 71
3
 72
11
 73
7
 74
0
 42
0.0000001
 43
0.0000001
 44
0.0000000001
 40
0.0
 40
0.0
 40
0.0
 40
0.0
 40
0.2319748677
 40
0.4838123273
 40
0.7440731543
 40
1.0
 40
1.0
 40
1.0
 40
1.0
 10
36.7955084854
 20
88.9122512667
 30
0.0
 10
36.863459767
 20
88.8684260641
 30
0.0
 10
36.9947493746
 20
88.7604795994
 30
0.0
 10
37.1637319214
 20
88.5623132757
 30
0.0
 10
37.3038539218
 20
88.3329980656
 30
0.0
 10
37.3731798892
 20
88.165943375
 30
0.0
 10
37.4000242218
 20
88.0808713838
 30
0.0
  0
SPLINE
  5
404
100
AcDbEntity
  8
0
100
AcDbSpline
 62
7
  6
CONTINUOUS
 70
0
 71
3
 72
9
 73
5
 74
0
 42
0.0000001
 43
0.0000001
 44
0.0000000001
 40
0.0
 40
0.0
 40
0.0
 40
0.0
 40
0.2301935161
 40
1.0
 40
1.0
 40
1.0
 40
1.0
 10
48.3965493863
 20
60.3641121773
 30
0.0
 10
48.4029734708
 20
60.3601330304
 30
0.0
 10
48.4293161764
 20
60.3403979851
 30
0.0
 10
48.4487079976
 20
60.3117338447
 30
0.0
 10
48.4577104608
 20
60.2881211364
 30
0.0
  0
SPLINE
  5
405
100
AcDbEntity
  8
0
100
AcDbSpline
 62
7
  6
CONTINUOUS
 70
0
 71
3
 72
9
 73
5
 74
0
 42
0.0000001
 43
0.0000001
 44
0.0000000001
 40
0.0
 40
0.0
 40
0.0
 40
0.0
 40
0.2652913951
 40
1.0
 40
1.0
 40
1.0
 40
1.0
 10
48.4577104608
 20
60.2881211364
 30
0.0
 10
48.4592092512
 20
60.2841899346
 30
0.0
 10
48.4642276904
 20
60.2691421606
 30
0.0
 10
48.466897676
 20
60.253283864
 30
0.0
 10
48.4672603588
 20
60.2416378601
 30
0.0
  0
SPLINE
  5
406
100
AcDbEntity
  8
0
100
AcDbSpline
 62
7
  6
CONTINUOUS
 70
0
 71
3
 72
18
 73
14
 74
0
 42
0.0000001
 43
0.0000001
 44
0.0000000001
 40
0.0
 40
0.0
 40
0.0
 40
0.0
 40
0.1286585538
 40
0.2702079607
 40
0.4173278027
 40
0.5616316029
 40
0.6952660325
 40
0.7562716512
 40
0.8127630549
 40
0.864711743
 40
0.9125345558
 40
0.9571501792
 40
1.0
 40
1.0
 40
1.0
 40
1.0
 10
59.2860235505
 20
82.2056664296
 30
0.0
 10
59.0898552374
 20
82.0924092773
 30
0.0
 10
58.6457049668
 20
81.9091500294
 30
0.0
 10
57.9218583699
 20
81.7643410011
 30
0.0
 10
57.1561222841
 20
81.7431757037
 30
0.0
 10
56.4116590465
 20
81.8477169871
 30
0.0
 10
55.8411331882
 20
82.0382771947
 30
0.0
 10
55.4517563845
 20
82.2499311844
 30
0.0
 10
55.2100478619
 20
82.4265637626
 30
0.0
 10
55.0150134638
 20
82.622454404
 30
0.0
 10
54.8710490083
 20
82.8341070916
 30
0.0
 10
54.7824181818
 20
83.0574251783
 30
0.0
 10
54.7621846553
 20
83.2120633152
 30
0.0
 10
54.7621949632
 20
83.2875043988
 30
0.0
  0
SPLINE
  5
407
100
AcDbEntity
  8
0
100
AcDbSpline
 62
7
  6
CONTINUOUS
 70
0
 71
3
 72
18
 73
14
 74
0
 42
0.0000001
 43
0.0000001
 44
0.0000000001
 40
0.0
 40
0.0
 40
0.0
 40
0.0
 40
0.1286585538
 40
0.2702079607
 40
0.4173278027
 40
0.5616316029
 40
0.6952660325
 40
0.7562716512
 40
0.8127630549
 40
0.864711743
 40
0.9125345558
 40
0.9571501792
 40
1.0
 40
1.0
 40
1.0
 40
1.0
 10
23.9305372932
 20
76.4896268075
 30
0.0
 10
23.7343689801
 20
76.3763696551
 30
0.0
 10
23.2902187095
 20
76.1931104073
 30
0.0
 10
22.5663721126
 20
76.048301379
 30
0.0
 10
21.8006360267
 20
76.0271360816
 30
0.0
 10
21.0561727892
 20
76.1316773649
 30
0.0
 10
20.4856469309
 20
76.3222375726
 30
0.0
 10
20.0962701271
 20
76.5338915623
 30
0.0
 10
19.8545616046
 20
76.7105241405
 30
0.0
 10
19.6595272064
 20
76.9064147819
 30
0.0
 10
19.515562751
 20
77.1180674695
 30
0.0
 10
19.4269319244
 20
77.3413855562
 30
0.0
 10
19.4066983979
 20
77.4960236931
 30
0.0
 10
19.4067087058
 20
77.5714647767
 30
0.0
  0
SPLINE
  5
408
100
AcDbEntity
  8
0
100
AcDbSpline
 62
7
  6
CONTINUOUS
 70
0
 71
3
 72
9
 73
5
 74
0
 42
0.0000001
 43
0.0000001
 44
0.0000000001
 40
0.0
 40
0.0
 40
0.0
 40
0.0
 40
0.2308412223
 40
1.0
 40
1.0
 40
1.0
 40
1.0
 10
24.4896036057
 20
76.9649970213
 30
0.0
 10
24.4556528795
 20
76.9195928969
 30
0.0
 10
24.2959651462
 20
76.7323112292
 30
0.0
 10
24.0941320724
 20
76.5840777335
 30
0.0
 10
23.9305372932
 20
76.4896268075
 30
0.0
  0
SPLINE
  5
409
100
AcDbEntity
  8
0
100
AcDbSpline
 62
7
  6
CONTINUOUS
 70
0
 71
3
 72
9
 73
5
 74
0
 42
0.0000001
 43
0.0000001
 44
0.0000000001
 40
0.0
 40
0.0
 40
0.0
 40
0.0
 40
0.2393984137
 40
1.0
 40
1.0
 40
1.0
 40
1.0
 10
72.9418547323
 20
48.1407051233
 30
0.0
 10
73.0001835446
 20
48.1724754906
 30
0.0
 10
73.2491835992
 20
48.2953017957
 30
0.0
 10
73.5158600449
 20
48.3806370489
 30
0.0
 10
73.7216230279
 20
48.4274690383
 30
0.0
  0
SPLINE
  5
40A
100
AcDbEntity
  8
0
100
AcDbSpline
 62
7
  6
CONTINUOUS
 70
0
 71
3
 72
11
 73
7
 74
0
 42
0.0000001
 43
0.0000001
 44
0.0000000001
 40
0.0
 40
0.0
 40
0.0
 40
0.0
 40
0.2617546938
 40
0.5190591055
 40
0.7663455897
 40
1.0
 40
1.0
 40
1.0
 40
1.0
 10
74.5063066161
 20
48.5224663325
 30
0.0
 10
74.662069894
 20
48.5258176938
 30
0.0
 10
74.9716069497
 20
48.5149166598
 30
0.0
 10
75.4236675313
 20
48.4467478035
 30
0.0
 10
75.8479819898
 20
48.328274099
 30
0.0
 10
76.1117299857
 20
48.213775709
 30
0.0
 10
76.2342927051
 20
48.1480499117
 30
0.0
  0
SPLINE
  5
40B
100
AcDbEntity
  8
0
100
AcDbSpline
 62
7
  6
CONTINUOUS
 70
0
 71
3
 72
12
 73
8
 74
0
 42
0.0000001
 43
0.0000001
 44
0.0000000001
 40
0.0
 40
0.0
 40
0.0
 40
0.0
 40
0.3952950567
 40
0.6983940507
 40
0.8103721772
 40
0.8959500874
 40
1.0
 40
1.0
 40
1.0
 40
1.0
 10
57.2972182392
 20
82.4023006432
 30
0.0
 10
57.2972182392
 20
82.4200203716
 30
0.0
 10
57.2981453591
 20
82.4513631455
 30
0.0
 10
57.3018859474
 20
82.487474481
 30
0.0
 10
57.3075172192
 20
82.509472627
 30
0.0
 10
57.3120647951
 20
82.5217105012
 30
0.0
 10
57.3189223762
 20
82.5295613745
 30
0.0
 10
57.3235855288
 20
82.5296603321
 30
0.0
  0
SPLINE
  5
40C
100
AcDbEntity
  8
0
100
AcDbSpline
 62
7
  6
CONTINUOUS
 70
0
 71
3
 72
11
 73
7
 74
0
 42
0.0000001
 43
0.0000001
 44
0.0000000001
 40
0.0
 40
0.0
 40
0.0
 40
0.0
 40
0.2177827477
 40
0.4509152641
 40
0.7103063952
 40
1.0
 40
1.0
 40
1.0
 40
1.0
 10
60.0621705946
 20
83.2875044593
 30
0.0
 10
60.0621568036
 20
83.1865708389
 30
0.0
 10
60.0248788713
 20
82.9761908123
 30
0.0
 10
59.8653815258
 20
82.6830624906
 30
0.0
 10
59.6132539086
 20
82.4180963855
 30
0.0
 10
59.402297539
 20
82.2727968474
 30
0.0
 10
59.2860235505
 20
82.2056664296
 30
0.0
  0
SPLINE
  5
40D
100
AcDbEntity
  8
0
100
AcDbSpline
 62
7
  6
CONTINUOUS
 70
0
 71
3
 72
18
 73
14
 74
0
 42
0.0000001
 43
0.0000001
 44
0.0000000001
 40
0.0
 40
0.0
 40
0.0
 40
0.0
 40
0.0428471062
 40
0.0874607367
 40
0.1352819149
 40
0.1872298257
 40
0.243719446
 40
0.3047237535
 40
0.4383540717
 40
0.5826581257
 40
0.7297840182
 40
0.871340059
 40
1.0
 40
1.0
 40
1.0
 40
1.0
 10
77.2448959074
 20
49.2803014683
 30
0.0
 10
77.2449016113
 20
49.2048654044
 30
0.0
 10
77.2246804541
 20
49.050235126
 30
0.0
 10
77.1360462774
 20
48.8269308261
 30
0.0
 10
76.9921033092
 20
48.6152747185
 30
0.0
 10
76.7970694729
 20
48.4193942248
 30
0.0
 10
76.5553787176
 20
48.2427517508
 30
0.0
 10
76.1660126908
 20
48.0311056548
 30
0.0
 10
75.5955050644
 20
47.8405308089
 30
0.0
 10
74.8510409425
 20
47.735977646
 30
0.0
 10
74.0852841499
 20
47.7571300523
 30
0.0
 10
73.3614138074
 20
47.9019374055
 30
0.0
 10
72.9172503903
 20
48.0851978684
 30
0.0
 10
72.7210797719
 20
48.1984544656
 30
0.0
  0
SPLINE
  5
40E
100
AcDbEntity
  8
0
100
AcDbSpline
 62
7
  6
CONTINUOUS
 70
0
 71
3
 72
11
 73
7
 74
0
 42
0.0000001
 43
0.0000001
 44
0.0000000001
 40
0.0
 40
0.0
 40
0.0
 40
0.0
 40
0.2177827477
 40
0.4509152641
 40
0.7103063952
 40
1.0
 40
1.0
 40
1.0
 40
1.0
 10
66.0018922859
 20
64.7529874045
 30
0.0
 10
66.0018784948
 20
64.6520537841
 30
0.0
 10
65.9646005626
 20
64.4416737575
 30
0.0
 10
65.805103217
 20
64.1485454357
 30
0.0
 10
65.5529755998
 20
63.8835793306
 30
0.0
 10
65.3420192303
 20
63.7382797926
 30
0.0
 10
65.2257452418
 20
63.6711493747
 30
0.0
  0
SPLINE
  5
40F
100
AcDbEntity
  8
0
100
AcDbSpline
 62
7
  6
CONTINUOUS
 70
0
 71
3
 72
9
 73
5
 74
0
 42
0.0000001
 43
0.0000001
 44
0.0000000001
 40
0.0
 40
0.0
 40
0.0
 40
0.0
 40
0.2393581082
 40
1.0
 40
1.0
 40
1.0
 40
1.0
 10
61.6967472789
 20
63.6122420673
 30
0.0
 10
61.7552026073
 20
63.644155262
 30
0.0
 10
62.0048196211
 20
63.7675365673
 30
0.0
 10
62.2722579655
 20
63.8531860226
 30
0.0
 10
62.4786225576
 20
63.9001549391
 30
0.0
  0
SPLINE
  5
410
100
AcDbEntity
  8
0
100
AcDbSpline
 62
7
  6
CONTINUOUS
 70
0
 71
3
 72
11
 73
7
 74
0
 42
0.0000001
 43
0.0000001
 44
0.0000000001
 40
0.0
 40
0.0
 40
0.0
 40
0.0
 40
0.261764367
 40
0.5190738736
 40
0.7663576153
 40
1.0
 40
1.0
 40
1.0
 40
1.0
 10
63.2633061457
 20
63.9951522333
 30
0.0
 10
63.4191316007
 20
63.9985049324
 30
0.0
 10
63.7287899647
 20
63.987592787
 30
0.0
 10
64.1810175449
 20
63.9193665729
 30
0.0
 10
64.605466215
 20
63.800797637
 30
0.0
 10
64.869279939
 20
63.6862073315
 30
0.0
 10
64.9918636656
 20
63.62042928
 30
0.0
  0
SPLINE
  5
411
100
AcDbEntity
  8
0
100
AcDbSpline
 62
7
  6
CONTINUOUS
 70
0
 71
3
 72
11
 73
7
 74
0
 42
0.0000001
 43
0.0000001
 44
0.0000000001
 40
0.0
 40
0.0
 40
0.0
 40
0.0
 40
0.2372428732
 40
0.4999994739
 40
0.7627563609
 40
1.0
 40
1.0
 40
1.0
 40
1.0
 10
69.9634030688
 20
23.0911166941
 30
0.0
 10
69.9433250717
 20
23.0795247263
 30
0.0
 10
69.8966337721
 20
23.0626113807
 30
0.0
 10
69.8219819349
 20
23.0545072806
 30
0.0
 10
69.7473299851
 20
23.0626110401
 30
0.0
 10
69.7006385019
 20
23.0795241537
 30
0.0
 10
69.6805603563
 20
23.0911160143
 30
0.0
  0
SPLINE
  5
412
100
AcDbEntity
  8
0
100
AcDbSpline
 62
7
  6
CONTINUOUS
 70
0
 71
3
 72
9
 73
5
 74
0
 42
0.0000001
 43
0.0000001
 44
0.0000000001
 40
0.0
 40
0.0
 40
0.0
 40
0.0
 40
0.2393581082
 40
1.0
 40
1.0
 40
1.0
 40
1.0
 10
55.7570255877
 20
82.1467591221
 30
0.0
 10
55.8154809161
 20
82.1786723168
 30
0.0
 10
56.0650979299
 20
82.3020536222
 30
0.0
 10
56.3325362743
 20
82.3877030774
 30
0.0
 10
56.5389008664
 20
82.434671994
 30
0.0
  0
SPLINE
  5
413
100
AcDbEntity
  8
0
100
AcDbSpline
 62
7
  6
CONTINUOUS
 70
0
 71
3
 72
11
 73
7
 74
0
 42
0.0000001
 43
0.0000001
 44
0.0000000001
 40
0.0
 40
0.0
 40
0.0
 40
0.0
 40
0.261764367
 40
0.5190738736
 40
0.7663576153
 40
1.0
 40
1.0
 40
1.0
 40
1.0
 10
57.3235844545
 20
82.5296692882
 30
0.0
 10
57.4794099094
 20
82.5330219873
 30
0.0
 10
57.7890682735
 20
82.5221098418
 30
0.0
 10
58.2412958537
 20
82.4538836277
 30
0.0
 10
58.6657445238
 20
82.3353146919
 30
0.0
 10
58.9295582477
 20
82.2207243863
 30
0.0
 10
59.0521419744
 20
82.1549463348
 30
0.0
  0
SPLINE
  5
414
100
AcDbEntity
  8
0
100
AcDbSpline
 62
7
  6
CONTINUOUS
 70
0
 71
3
 72
9
 73
5
 74
0
 42
0.0000001
 43
0.0000001
 44
0.0000000001
 40
0.0
 40
0.0
 40
0.0
 40
0.0
 40
0.2468518884
 40
1.0
 40
1.0
 40
1.0
 40
1.0
 10
48.3551269222
 20
60.4556694068
 30
0.0
 10
48.3635762103
 20
60.4507913184
 30
0.0
 10
48.3967896501
 20
60.4292944097
 30
0.0
 10
48.4258147813
 20
60.4015454539
 30
0.0
 10
48.4446685409
 20
60.3785108424
 30
0.0
  0
SPLINE
  5
415
100
AcDbEntity
  8
0
100
AcDbSpline
 62
7
  6
CONTINUOUS
 70
0
 71
3
 72
9
 73
5
 74
0
 42
0.0000001
 43
0.0000001
 44
0.0000000001
 40
0.0
 40
0.0
 40
0.0
 40
0.0
 40
0.2529495976
 40
1.0
 40
1.0
 40
1.0
 40
1.0
 10
48.5124581618
 20
60.2502392159
 30
0.0
 10
48.5146235141
 20
60.2428427046
 30
0.0
 10
48.5222211671
 20
60.2133350273
 30
0.0
 10
48.5258395914
 20
60.1827504122
 30
0.0
 10
48.5258395914
 20
60.1599890293
 30
0.0
  0
SPLINE
  5
416
100
AcDbEntity
  8
0
100
AcDbSpline
 62
7
  6
CONTINUOUS
 70
0
 71
3
 72
9
 73
5
 74
0
 42
0.0000001
 43
0.0000001
 44
0.0000000001
 40
0.0
 40
0.0
 40
0.0
 40
0.0
 40
0.4828809567
 40
1.0
 40
1.0
 40
1.0
 40
1.0
 10
48.5258395914
 20
59.3434866122
 30
0.0
 10
48.5258395914
 20
59.2420485144
 30
0.0
 10
48.4889697472
 20
59.0316934497
 30
0.0
 10
48.4015761588
 20
58.8384459957
 30
0.0
 10
48.3459028507
 20
58.7451665455
 30
0.0
  0
SPLINE
  5
417
100
AcDbEntity
  8
0
100
AcDbSpline
 62
7
  6
CONTINUOUS
 70
0
 71
3
 72
11
 73
7
 74
0
 42
0.0000001
 43
0.0000001
 44
0.0000000001
 40
0.0
 40
0.0
 40
0.0
 40
0.0
 40
0.2340279423
 40
0.4734685225
 40
0.7270162886
 40
1.0
 40
1.0
 40
1.0
 40
1.0
 10
39.5240994906
 20
89.5067514913
 30
0.0
 10
39.5717607353
 20
89.3752054068
 30
0.0
 10
39.6308394559
 20
89.0937057807
 30
0.0
 10
39.5957085
 20
88.6551649975
 30
0.0
 10
39.4422889332
 20
88.2191335206
 30
0.0
 10
39.2743589431
 20
87.9500005191
 30
0.0
 10
39.1760915533
 20
87.8196968557
 30
0.0
  0
SPLINE
  5
418
100
AcDbEntity
  8
0
100
AcDbSpline
 62
7
  6
CONTINUOUS
 70
0
 71
3
 72
12
 73
8
 74
0
 42
0.0000001
 43
0.0000001
 44
0.0000000001
 40
0.0
 40
0.0
 40
0.0
 40
0.0
 40
0.3952950567
 40
0.6983940507
 40
0.8103721772
 40
0.8959500874
 40
1.0
 40
1.0
 40
1.0
 40
1.0
 10
63.2369399304
 20
63.8677835883
 30
0.0
 10
63.2369399304
 20
63.8855033168
 30
0.0
 10
63.2378670503
 20
63.9168460906
 30
0.0
 10
63.2416076387
 20
63.9529574261
 30
0.0
 10
63.2472389104
 20
63.9749555722
 30
0.0
 10
63.2517864863
 20
63.9871934464
 30
0.0
 10
63.2586440674
 20
63.9950443197
 30
0.0
 10
63.26330722
 20
63.9951432772
 30
0.0
  0
SPLINE
  5
419
100
AcDbEntity
  8
0
100
AcDbSpline
 62
7
  6
CONTINUOUS
 70
0
 71
3
 72
18
 73
14
 74
0
 42
0.0000001
 43
0.0000001
 44
0.0000000001
 40
0.0
 40
0.0
 40
0.0
 40
0.0
 40
0.1286585538
 40
0.2702079607
 40
0.4173278027
 40
0.5616316029
 40
0.6952660325
 40
0.7562716512
 40
0.8127630549
 40
0.864711743
 40
0.9125345558
 40
0.9571501792
 40
1.0
 40
1.0
 40
1.0
 40
1.0
 10
65.2257452418
 20
63.6711493747
 30
0.0
 10
65.0295769287
 20
63.5578922224
 30
0.0
 10
64.5854266581
 20
63.3746329745
 30
0.0
 10
63.8615800612
 20
63.2298239462
 30
0.0
 10
63.0958439753
 20
63.2086586488
 30
0.0
 10
62.3513807378
 20
63.3131999322
 30
0.0
 10
61.7808548795
 20
63.5037601399
 30
0.0
 10
61.3914780757
 20
63.7154141296
 30
0.0
 10
61.1497695532
 20
63.8920467077
 30
0.0
 10
60.954735155
 20
64.0879373492
 30
0.0
 10
60.8107706996
 20
64.2995900367
 30
0.0
 10
60.722139873
 20
64.5229081235
 30
0.0
 10
60.7019063465
 20
64.6775462603
 30
0.0
 10
60.7019166544
 20
64.752987344
 30
0.0
  0
SPLINE
  5
41A
100
AcDbEntity
  8
0
100
AcDbSpline
 62
7
  6
CONTINUOUS
 70
0
 71
3
 72
11
 73
7
 74
0
 42
0.0000001
 43
0.0000001
 44
0.0000000001
 40
0.0
 40
0.0
 40
0.0
 40
0.0
 40
0.2897036169
 40
0.5490920547
 40
0.7822205729
 40
1.0
 40
1.0
 40
1.0
 40
1.0
 10
72.7210797719
 20
48.1984544656
 30
0.0
 10
72.6047996834
 20
48.2655872872
 30
0.0
 10
72.3938370264
 20
48.4108893527
 30
0.0
 10
72.1417021255
 20
48.6758596374
 30
0.0
 10
71.9822129701
 20
48.9689894129
 30
0.0
 10
71.9449216053
 20
49.1793680099
 30
0.0
 10
71.9449139735
 20
49.2803014785
 30
0.0
  0
SPLINE
  5
41B
100
AcDbEntity
  8
0
100
AcDbSpline
 62
7
  6
CONTINUOUS
 70
0
 71
3
 72
12
 73
8
 74
0
 42
0.0000001
 43
0.0000001
 44
0.0000000001
 40
0.0
 40
0.0
 40
0.0
 40
0.0
 40
0.3952952958
 40
0.6983937295
 40
0.8103718303
 40
0.8959498621
 40
1.0
 40
1.0
 40
1.0
 40
1.0
 10
21.9417319819
 20
76.6862610211
 30
0.0
 10
21.9417319819
 20
76.7039807568
 30
0.0
 10
21.9426590729
 20
76.7353235107
 30
0.0
 10
21.9463996732
 20
76.771434825
 30
0.0
 10
21.9520309513
 20
76.7934329416
 30
0.0
 10
21.9565785367
 20
76.8056708274
 30
0.0
 10
21.963436113
 20
76.8135217109
 30
0.0
 10
21.9680992744
 20
76.8136206864
 30
0.0
  0
SPLINE
  5
41C
100
AcDbEntity
  8
0
100
AcDbSpline
 62
7
  6
CONTINUOUS
 70
0
 71
3
 72
12
 73
8
 74
0
 42
0.0000001
 43
0.0000001
 44
0.0000000001
 40
0.0
 40
0.0
 40
0.0
 40
0.0
 40
0.3952950567
 40
0.6983940507
 40
0.8103721771
 40
0.8959500874
 40
1.0
 40
1.0
 40
1.0
 40
1.0
 10
74.4799404008
 20
48.3950976875
 30
0.0
 10
74.4799404008
 20
48.4128174159
 30
0.0
 10
74.4808675207
 20
48.4441601898
 30
0.0
 10
74.484608109
 20
48.4802715253
 30
0.0
 10
74.4902393807
 20
48.5022696713
 30
0.0
 10
74.4947869567
 20
48.5145075455
 30
0.0
 10
74.5016445377
 20
48.5223584188
 30
0.0
 10
74.5063076904
 20
48.5224573764
 30
0.0
  0
SPLINE
  5
41D
100
AcDbEntity
  8
0
100
AcDbSpline
 62
7
  6
CONTINUOUS
 70
0
 71
3
 72
11
 73
7
 74
0
 42
0.0000001
 43
0.0000001
 44
0.0000000001
 40
0.0
 40
0.0
 40
0.0
 40
0.0
 40
0.23721727
 40
0.499998382
 40
0.7627803746
 40
1.0
 40
1.0
 40
1.0
 40
1.0
 10
30.455600578
 20
73.6615232638
 30
0.0
 10
30.4355246191
 20
73.6499324727
 30
0.0
 10
30.3975293497
 20
73.6179559602
 30
0.0
 10
30.3531827954
 20
73.5573552574
 30
0.0
 10
30.32287459
 20
73.4886492935
 30
0.0
 10
30.3141798106
 20
73.4397558658
 30
0.0
 10
30.3141798106
 20
73.4165739496
 30
0.0
  0
SPLINE
  5
41E
100
AcDbEntity
  8
0
100
AcDbSpline
 62
7
  6
CONTINUOUS
 70
0
 71
3
 72
11
 73
7
 74
0
 42
0.0000001
 43
0.0000001
 44
0.0000000001
 40
0.0
 40
0.0
 40
0.0
 40
0.0
 40
0.2456520333
 40
0.5085848881
 40
0.766892294
 40
1.0
 40
1.0
 40
1.0
 40
1.0
 10
30.5954578806
 20
73.4417020235
 30
0.0
 10
30.5928232149
 20
73.4635048406
 30
0.0
 10
30.5810396979
 20
73.507933908
 30
0.0
 10
30.5501094092
 20
73.5696031213
 30
0.0
 10
30.5081520038
 20
73.6229476055
 30
0.0
 10
30.4736486129
 20
73.6511034617
 30
0.0
 10
30.455600578
 20
73.6615232638
 30
0.0
  0
SPLINE
  5
41F
100
AcDbEntity
  8
0
100
AcDbSpline
 62
7
  6
CONTINUOUS
 70
0
 71
3
 72
11
 73
7
 74
0
 42
0.0000001
 43
0.0000001
 44
0.0000000001
 40
0.0
 40
0.0
 40
0.0
 40
0.0
 40
0.2281149986
 40
0.4904726821
 40
0.7579517101
 40
1.0
 40
1.0
 40
1.0
 40
1.0
 10
30.3141798106
 20
73.4165739496
 30
0.0
 10
30.3346105679
 20
73.4083172347
 30
0.0
 10
30.3816159818
 20
73.398302887
 30
0.0
 10
30.455196032
 20
73.3982406254
 30
0.0
 10
30.5289178928
 20
73.4117306321
 30
0.0
 10
30.5752083966
 20
73.4300110483
 30
0.0
 10
30.5954578806
 20
73.4417020235
 30
0.0
  0
SPLINE
  5
420
100
AcDbEntity
  8
0
100
AcDbSpline
 62
7
  6
CONTINUOUS
 70
0
 71
3
 72
9
 73
5
 74
0
 42
0.0000001
 43
0.0000001
 44
0.0000000001
 40
0.0
 40
0.0
 40
0.0
 40
0.0
 40
0.4744377155
 40
1.0
 40
1.0
 40
1.0
 40
1.0
 10
29.8702828306
 20
73.6728521927
 30
0.0
 10
29.8702828306
 20
73.6960341089
 30
0.0
 10
29.8789687869
 20
73.7449122538
 30
0.0
 10
29.8988640886
 20
73.7899979335
 30
0.0
 10
29.9117040143
 20
73.8122374608
 30
0.0
  0
SPLINE
  5
421
100
AcDbEntity
  8
0
100
AcDbSpline
 62
7
  6
CONTINUOUS
 70
0
 71
3
 72
9
 73
5
 74
0
 42
0.0000001
 43
0.0000001
 44
0.0000000001
 40
0.0
 40
0.0
 40
0.0
 40
0.0
 40
0.255502651
 40
1.0
 40
1.0
 40
1.0
 40
1.0
 10
29.9117040143
 20
73.8122374608
 30
0.0
 10
29.9154948692
 20
73.8188034504
 30
0.0
 10
29.9311763203
 20
73.8439964781
 30
0.0
 10
29.9501177857
 20
73.8672261276
 30
0.0
 10
29.9659701243
 20
73.8826132512
 30
0.0
  0
SPLINE
  5
422
100
AcDbEntity
  8
0
100
AcDbSpline
 62
7
  6
CONTINUOUS
 70
0
 71
3
 72
9
 73
5
 74
0
 42
0.0000001
 43
0.0000001
 44
0.0000000001
 40
0.0
 40
0.0
 40
0.0
 40
0.0
 40
0.2629554435
 40
1.0
 40
1.0
 40
1.0
 40
1.0
 10
29.9659701243
 20
73.8826132512
 30
0.0
 10
29.9696043471
 20
73.8861408213
 30
0.0
 10
29.9837820152
 20
73.8991735057
 30
0.0
 10
29.9994094689
 20
73.9107035306
 30
0.0
 10
30.011703598
 20
73.9178015069
 30
0.0
  0
SPLINE
  5
423
100
AcDbEntity
  8
0
100
AcDbSpline
 62
7
  6
CONTINUOUS
 70
0
 71
3
 72
9
 73
5
 74
0
 42
0.0000001
 43
0.0000001
 44
0.0000000001
 40
0.0
 40
0.0
 40
0.0
 40
0.0
 40
0.4744377155
 40
1.0
 40
1.0
 40
1.0
 40
1.0
 10
16.7887529153
 20
77.1427940657
 30
0.0
 10
16.7887529153
 20
77.1659759819
 30
0.0
 10
16.7974388716
 20
77.2148541268
 30
0.0
 10
16.8173341733
 20
77.2599398065
 30
0.0
 10
16.8301740991
 20
77.2821793338
 30
0.0
  0
SPLINE
  5
424
100
AcDbEntity
  8
0
100
AcDbSpline
 62
7
  6
CONTINUOUS
 70
0
 71
3
 72
9
 73
5
 74
0
 42
0.0000001
 43
0.0000001
 44
0.0000000001
 40
0.0
 40
0.0
 40
0.0
 40
0.0
 40
0.255502651
 40
1.0
 40
1.0
 40
1.0
 40
1.0
 10
16.8301740991
 20
77.2821793338
 30
0.0
 10
16.8339649539
 20
77.2887453234
 30
0.0
 10
16.8496464051
 20
77.3139383511
 30
0.0
 10
16.8685878705
 20
77.3371680006
 30
0.0
 10
16.8844402091
 20
77.3525551241
 30
0.0
  0
SPLINE
  5
425
100
AcDbEntity
  8
0
100
AcDbSpline
 62
7
  6
CONTINUOUS
 70
0
 71
3
 72
9
 73
5
 74
0
 42
0.0000001
 43
0.0000001
 44
0.0000000001
 40
0.0
 40
0.0
 40
0.0
 40
0.0
 40
0.2629554435
 40
1.0
 40
1.0
 40
1.0
 40
1.0
 10
16.8844402091
 20
77.3525551241
 30
0.0
 10
16.8880744319
 20
77.3560826942
 30
0.0
 10
16.9022520999
 20
77.3691153787
 30
0.0
 10
16.9178795537
 20
77.3806454035
 30
0.0
 10
16.9301736828
 20
77.3877433799
 30
0.0
  0
SPLINE
  5
426
100
AcDbEntity
  8
0
100
AcDbSpline
 62
7
  6
CONTINUOUS
 70
0
 71
3
 72
9
 73
5
 74
0
 42
0.0000001
 43
0.0000001
 44
0.0000000001
 40
0.0
 40
0.0
 40
0.0
 40
0.0
 40
0.2338987195
 40
1.0
 40
1.0
 40
1.0
 40
1.0
 10
16.8386842487
 20
77.4165696656
 30
0.0
 10
16.8335847891
 20
77.4136255089
 30
0.0
 10
16.812391816
 20
77.3999913308
 30
0.0
 10
16.7935626702
 20
77.3828524636
 30
0.0
 10
16.7805736269
 20
77.3685958843
 30
0.0
  0
SPLINE
  5
427
100
AcDbEntity
  8
0
100
AcDbSpline
 62
7
  6
CONTINUOUS
 70
0
 71
3
 72
9
 73
5
 74
0
 42
0.0000001
 43
0.0000001
 44
0.0000000001
 40
0.0
 40
0.0
 40
0.0
 40
0.0
 40
0.2557012025
 40
1.0
 40
1.0
 40
1.0
 40
1.0
 10
16.7386868343
 20
77.311004367
 30
0.0
 10
16.734822655
 20
77.304311375
 30
0.0
 10
16.7206025356
 20
77.2776403099
 30
0.0
 10
16.7098407102
 20
77.2490562132
 30
0.0
 10
16.7044718953
 20
77.2272103458
 30
0.0
  0
SPLINE
  5
428
100
AcDbEntity
  8
0
100
AcDbSpline
 62
7
  6
CONTINUOUS
 70
0
 71
3
 72
9
 73
5
 74
0
 42
0.0000001
 43
0.0000001
 44
0.0000000001
 40
0.0
 40
0.0
 40
0.0
 40
0.0
 40
0.2627306837
 40
1.0
 40
1.0
 40
1.0
 40
1.0
 10
16.7044718953
 20
77.2272103458
 30
0.0
 10
16.7032987771
 20
77.222436893
 30
0.0
 10
16.6993173667
 20
77.2041590317
 30
0.0
 10
16.6972634812
 20
77.1854141006
 30
0.0
 10
16.6972634812
 20
77.1716203514
 30
0.0
  0
SPLINE
  5
429
100
AcDbEntity
  8
0
100
AcDbSpline
 62
7
  6
CONTINUOUS
 70
0
 71
3
 72
11
 73
7
 74
0
 42
0.0000001
 43
0.0000001
 44
0.0000000001
 40
0.0
 40
0.0
 40
0.0
 40
0.0
 40
0.2979108509
 40
0.5634593267
 40
0.7951395859
 40
1.0
 40
1.0
 40
1.0
 40
1.0
 10
30.9901348634
 20
93.0801997061
 30
0.0
 10
30.8888536396
 20
93.1121039732
 30
0.0
 10
30.7014111089
 20
93.1875319027
 30
0.0
 10
30.4622250484
 20
93.3437451766
 30
0.0
 10
30.2913046321
 20
93.5311494183
 30
0.0
 10
30.2297001454
 20
93.6789491403
 30
0.0
 10
30.216761085
 20
93.7508141116
 30
0.0
  0
SPLINE
  5
42A
100
AcDbEntity
  8
0
100
AcDbSpline
 62
7
  6
CONTINUOUS
 70
0
 71
3
 72
15
 73
11
 74
0
 42
0.0000001
 43
0.0000001
 44
0.0000000001
 40
0.0
 40
0.0
 40
0.0
 40
0.0
 40
0.1201848946
 40
0.2513100772
 40
0.3889205561
 40
0.5277855701
 40
0.6624982589
 40
0.7881715277
 40
0.9011610036
 40
1.0
 40
1.0
 40
1.0
 40
1.0
 10
20.1828557499
 20
78.6533028064
 30
0.0
 10
20.3432171234
 20
78.7458869359
 30
0.0
 10
20.7001310384
 20
78.9029273003
 30
0.0
 10
21.2831754594
 20
79.0502069267
 30
0.0
 10
21.9101002635
 20
79.1138413526
 30
0.0
 10
22.5452020325
 20
79.0901907488
 30
0.0
 10
23.1527171346
 20
78.9806235655
 30
0.0
 10
23.698799984
 20
78.7909484813
 30
0.0
 10
24.1532139257
 20
78.531587712
 30
0.0
 10
24.3943138864
 20
78.3041600691
 30
0.0
 10
24.486043714
 20
78.182606498
 30
0.0
  0
SPLINE
  5
42B
100
AcDbEntity
  8
0
100
AcDbSpline
 62
7
  6
CONTINUOUS
 70
0
 71
3
 72
11
 73
7
 74
0
 42
0.0000001
 43
0.0000001
 44
0.0000000001
 40
0.0
 40
0.0
 40
0.0
 40
0.0
 40
0.2372196254
 40
0.500001618
 40
0.76278273
 40
1.0
 40
1.0
 40
1.0
 40
1.0
 10
24.5669510601
 20
92.4114779974
 30
0.0
 10
24.5669510601
 20
92.4694327879
 30
0.0
 10
24.5886880086
 20
92.5916663571
 30
0.0
 10
24.664458522
 20
92.763431267
 30
0.0
 10
24.7753249079
 20
92.9149330238
 30
0.0
 10
24.8703130813
 20
92.9948743051
 30
0.0
 10
24.9205029787
 20
93.0238512829
 30
0.0
  0
SPLINE
  5
42C
100
AcDbEntity
  8
0
100
AcDbSpline
 62
7
  6
CONTINUOUS
 70
0
 71
3
 72
11
 73
7
 74
0
 42
0.0000001
 43
0.0000001
 44
0.0000000001
 40
0.0
 40
0.0
 40
0.0
 40
0.0
 40
0.2177827477
 40
0.4509152641
 40
0.7103063952
 40
1.0
 40
1.0
 40
1.0
 40
1.0
 10
19.4067087058
 20
77.5714647767
 30
0.0
 10
19.4067224969
 20
77.6723983971
 30
0.0
 10
19.4440004291
 20
77.8827784237
 30
0.0
 10
19.6034977747
 20
78.1759067454
 30
0.0
 10
19.8556253919
 20
78.4408728505
 30
0.0
 10
20.0665817614
 20
78.5861723886
 30
0.0
 10
20.1828557499
 20
78.6533028064
 30
0.0
  0
SPLINE
  5
42D
100
AcDbEntity
  8
0
100
AcDbSpline
 62
7
  6
CONTINUOUS
 70
0
 71
3
 72
9
 73
5
 74
0
 42
0.0000001
 43
0.0000001
 44
0.0000000001
 40
0.0
 40
0.0
 40
0.0
 40
0.0
 40
0.50970302
 40
1.0
 40
1.0
 40
1.0
 40
1.0
 10
45.7895814213
 20
94.2630791033
 30
0.0
 10
45.8807574274
 20
94.1245264905
 30
0.0
 10
46.0367463299
 20
93.8370001956
 30
0.0
 10
46.141422369
 20
93.5266395849
 30
0.0
 10
46.1766645767
 20
93.371034398
 30
0.0
  0
SPLINE
  5
42E
100
AcDbEntity
  8
0
100
AcDbSpline
 62
7
  6
CONTINUOUS
 70
0
 71
3
 72
11
 73
7
 74
0
 42
0.0000001
 43
0.0000001
 44
0.0000000001
 40
0.0
 40
0.0
 40
0.0
 40
0.0
 40
0.2558411116
 40
0.5160747041
 40
0.7679438807
 40
1.0
 40
1.0
 40
1.0
 40
1.0
 10
46.5220274826
 20
93.3460666721
 30
0.0
 10
46.4952183958
 20
93.4311319486
 30
0.0
 10
46.4260753079
 20
93.5982418485
 30
0.0
 10
46.2860944365
 20
93.8276667753
 30
0.0
 10
46.1172060602
 20
94.0259848489
 30
0.0
 10
45.9860071837
 20
94.1341539515
 30
0.0
 10
45.9180388942
 20
94.1780265799
 30
0.0
  0
SPLINE
  5
42F
100
AcDbEntity
  8
0
100
AcDbSpline
 62
7
  6
CONTINUOUS
 70
0
 71
3
 72
11
 73
7
 74
0
 42
0.0000001
 43
0.0000001
 44
0.0000000001
 40
0.0
 40
0.0
 40
0.0
 40
0.0
 40
0.2238884922
 40
0.4596807307
 40
0.7167183571
 40
1.0
 40
1.0
 40
1.0
 40
1.0
 10
33.4815446798
 20
68.4794383064
 30
0.0
 10
33.5098089585
 20
68.4957583974
 30
0.0
 10
33.5631224915
 20
68.5381712025
 30
0.0
 10
33.6241455265
 20
68.62438775
 30
0.0
 10
33.6660641711
 20
68.7304245193
 30
0.0
 10
33.680108489
 20
68.8084178822
 30
0.0
 10
33.6843132203
 20
68.8494990025
 30
0.0
  0
SPLINE
  5
430
100
AcDbEntity
  8
0
100
AcDbSpline
 62
7
  6
CONTINUOUS
 70
0
 71
3
 72
9
 73
5
 74
0
 42
0.0000001
 43
0.0000001
 44
0.0000000001
 40
0.0
 40
0.0
 40
0.0
 40
0.0
 40
0.4736121729
 40
1.0
 40
1.0
 40
1.0
 40
1.0
 10
48.3551267394
 20
60.4556690902
 30
0.0
 10
48.3466955007
 20
60.4605335087
 30
0.0
 10
48.3263674659
 20
60.4667641255
 30
0.0
 10
48.3054691836
 20
60.4646464875
 30
0.0
 10
48.2949483513
 20
60.4621259753
 30
0.0
  0
SPLINE
  5
431
100
AcDbEntity
  8
0
100
AcDbSpline
 62
7
  6
CONTINUOUS
 70
0
 71
3
 72
9
 73
5
 74
0
 42
0.0000001
 43
0.0000001
 44
0.0000000001
 40
0.0
 40
0.0
 40
0.0
 40
0.0
 40
0.2362939676
 40
1.0
 40
1.0
 40
1.0
 40
1.0
 10
48.2949483513
 20
60.4621259753
 30
0.0
 10
48.2916442295
 20
60.4613343954
 30
0.0
 10
48.277806039
 20
60.4573845279
 30
0.0
 10
48.2646385995
 20
60.451254387
 30
0.0
 10
48.2551286189
 20
60.4457638299
 30
0.0
  0
SPLINE
  5
432
100
AcDbEntity
  8
0
100
AcDbSpline
 62
7
  6
CONTINUOUS
 70
0
 71
3
 72
9
 73
5
 74
0
 42
0.0000001
 43
0.0000001
 44
0.0000000001
 40
0.0
 40
0.0
 40
0.0
 40
0.0
 40
0.2477407452
 40
1.0
 40
1.0
 40
1.0
 40
1.0
 10
38.6843895535
 20
87.3175991588
 30
0.0
 10
38.6766248533
 20
87.3131161421
 30
0.0
 10
38.6445646033
 20
87.2962817593
 30
0.0
 10
38.6097780351
 20
87.2847424988
 30
0.0
 10
38.5831404629
 20
87.2791181756
 30
0.0
  0
SPLINE
  5
433
100
AcDbEntity
  8
0
100
AcDbSpline
 62
7
  6
CONTINUOUS
 70
0
 71
3
 72
10
 73
6
 74
0
 42
0.0000001
 43
0.0000001
 44
0.0000000001
 40
0.0
 40
0.0
 40
0.0
 40
0.0
 40
0.2183506757
 40
0.4525849643
 40
1.0
 40
1.0
 40
1.0
 40
1.0
 10
21.3800281933
 20
87.0757343615
 30
0.0
 10
21.3866217592
 20
87.0795430041
 30
0.0
 10
21.4017941715
 20
87.0850645355
 30
0.0
 10
21.4371022634
 20
87.0858510621
 30
0.0
 10
21.4635033784
 20
87.0753602883
 30
0.0
 10
21.4800358443
 20
87.0658154807
 30
0.0
  0
SPLINE
  5
434
100
AcDbEntity
  8
0
100
AcDbSpline
 62
7
  6
CONTINUOUS
 70
0
 71
3
 72
9
 73
5
 74
0
 42
0.0000001
 43
0.0000001
 44
0.0000000001
 40
0.0
 40
0.0
 40
0.0
 40
0.0
 40
0.4760053201
 40
1.0
 40
1.0
 40
1.0
 40
1.0
 10
31.9891524711
 20
96.9745652141
 30
0.0
 10
31.9891524711
 20
97.0382502056
 30
0.0
 10
31.959493036
 20
97.1719005737
 30
0.0
 10
31.8947022346
 20
97.2908688434
 30
0.0
 10
31.8529163606
 20
97.3471602599
 30
0.0
  0
SPLINE
  5
435
100
AcDbEntity
  8
0
100
AcDbSpline
 62
7
  6
CONTINUOUS
 70
0
 71
3
 72
9
 73
5
 74
0
 42
0.0000001
 43
0.0000001
 44
0.0000000001
 40
0.0
 40
0.0
 40
0.0
 40
0.0
 40
0.4586874744
 40
1.0
 40
1.0
 40
1.0
 40
1.0
 10
31.9377695276
 20
96.8082699191
 30
0.0
 10
31.9554650565
 20
96.8287032784
 30
0.0
 10
31.9825965612
 20
96.8832562776
 30
0.0
 10
31.9891524711
 20
96.9426654807
 30
0.0
 10
31.9891524711
 20
96.9745652141
 30
0.0
  0
SPLINE
  5
436
100
AcDbEntity
  8
0
100
AcDbSpline
 62
7
  6
CONTINUOUS
 70
0
 71
3
 72
9
 73
5
 74
0
 42
0.0000001
 43
0.0000001
 44
0.0000000001
 40
0.0
 40
0.0
 40
0.0
 40
0.0
 40
0.283844504
 40
1.0
 40
1.0
 40
1.0
 40
1.0
 10
31.9047114074
 20
96.7012809171
 30
0.0
 10
31.9047114074
 20
96.7119907201
 30
0.0
 10
31.9068895722
 20
96.7494717677
 30
0.0
 10
31.9200800091
 20
96.7878435001
 30
0.0
 10
31.9377695276
 20
96.8082699191
 30
0.0
  0
SPLINE
  5
437
100
AcDbEntity
  8
0
100
AcDbSpline
 62
7
  6
CONTINUOUS
 70
0
 71
3
 72
9
 73
5
 74
0
 42
0.0000001
 43
0.0000001
 44
0.0000000001
 40
0.0
 40
0.0
 40
0.0
 40
0.0
 40
0.5244141529
 40
1.0
 40
1.0
 40
1.0
 40
1.0
 10
31.9878392568
 20
96.4677632837
 30
0.0
 10
31.9623072366
 20
96.5033682892
 30
0.0
 10
31.9227204689
 20
96.5780667031
 30
0.0
 10
31.9047114074
 20
96.6615471317
 30
0.0
 10
31.9047114074
 20
96.7012809171
 30
0.0
  0
SPLINE
  5
438
100
AcDbEntity
  8
0
100
AcDbSpline
 62
7
  6
CONTINUOUS
 70
0
 71
3
 72
14
 73
10
 74
0
 42
0.0000001
 43
0.0000001
 44
0.0000000001
 40
0.0
 40
0.0
 40
0.0
 40
0.0
 40
0.2716501273
 40
0.3994742916
 40
0.5228735615
 40
0.6431230918
 40
0.7617326231
 40
0.8802367489
 40
1.0
 40
1.0
 40
1.0
 40
1.0
 10
40.0016148775
 20
87.343091732
 30
0.0
 10
40.1075464226
 20
87.5118049004
 30
0.0
 10
40.2388438457
 20
87.7778286981
 30
0.0
 10
40.337498664
 20
88.1494003003
 30
0.0
 10
40.3690749446
 20
88.4210236083
 30
0.0
 10
40.3593884865
 20
88.687581572
 30
0.0
 10
40.3078879624
 20
88.9457293208
 30
0.0
 10
40.215679122
 20
89.1918027064
 30
0.0
 10
40.128938362
 20
89.3444449
 30
0.0
 10
40.0798547219
 20
89.4172766062
 30
0.0
  0
SPLINE
  5
439
100
AcDbEntity
  8
0
100
AcDbSpline
 62
7
  6
CONTINUOUS
 70
0
 71
3
 72
9
 73
5
 74
0
 42
0.0000001
 43
0.0000001
 44
0.0000000001
 40
0.0
 40
0.0
 40
0.0
 40
0.0
 40
0.4760053201
 40
1.0
 40
1.0
 40
1.0
 40
1.0
 10
32.1240753674
 20
96.0951682378
 30
0.0
 10
32.1240753674
 20
96.1588532294
 30
0.0
 10
32.0944159323
 20
96.2925035975
 30
0.0
 10
32.0296251308
 20
96.4114718672
 30
0.0
 10
31.9878392568
 20
96.4677632837
 30
0.0
  0
SPLINE
  5
43A
100
AcDbEntity
  8
0
100
AcDbSpline
 62
7
  6
CONTINUOUS
 70
0
 71
3
 72
9
 73
5
 74
0
 42
0.0000001
 43
0.0000001
 44
0.0000000001
 40
0.0
 40
0.0
 40
0.0
 40
0.0
 40
0.4586874744
 40
1.0
 40
1.0
 40
1.0
 40
1.0
 10
32.0726924239
 20
95.9288729429
 30
0.0
 10
32.0903879527
 20
95.9493063021
 30
0.0
 10
32.1175194575
 20
96.0038593013
 30
0.0
 10
32.1240753674
 20
96.0632685045
 30
0.0
 10
32.1240753674
 20
96.0951682378
 30
0.0
  0
SPLINE
  5
43B
100
AcDbEntity
  8
0
100
AcDbSpline
 62
7
  6
CONTINUOUS
 70
0
 71
3
 72
9
 73
5
 74
0
 42
0.0000001
 43
0.0000001
 44
0.0000000001
 40
0.0
 40
0.0
 40
0.0
 40
0.0
 40
0.283844504
 40
1.0
 40
1.0
 40
1.0
 40
1.0
 10
32.0396343037
 20
95.8218839408
 30
0.0
 10
32.0396343037
 20
95.8325937439
 30
0.0
 10
32.0418124685
 20
95.8700747914
 30
0.0
 10
32.0550029054
 20
95.9084465238
 30
0.0
 10
32.0726924239
 20
95.9288729429
 30
0.0
  0
SPLINE
  5
43C
100
AcDbEntity
  8
0
100
AcDbSpline
 62
7
  6
CONTINUOUS
 70
0
 71
3
 72
9
 73
5
 74
0
 42
0.0000001
 43
0.0000001
 44
0.0000000001
 40
0.0
 40
0.0
 40
0.0
 40
0.0
 40
0.2879796438
 40
1.0
 40
1.0
 40
1.0
 40
1.0
 10
33.5391851396
 20
69.0584938446
 30
0.0
 10
33.5447859807
 20
69.0150327485
 30
0.0
 10
33.555042453
 20
68.8643120691
 30
0.0
 10
33.5224560834
 20
68.7021300106
 30
0.0
 10
33.4587622913
 20
68.6144847579
 30
0.0
  0
SPLINE
  5
43D
100
AcDbEntity
  8
0
100
AcDbSpline
 62
7
  6
CONTINUOUS
 70
0
 71
3
 72
14
 73
10
 74
0
 42
0.0000001
 43
0.0000001
 44
0.0000000001
 40
0.0
 40
0.0
 40
0.0
 40
0.0
 40
0.1032816137
 40
0.2052823244
 40
0.3114135264
 40
0.4260598646
 40
0.5519959474
 40
0.6901532795
 40
1.0
 40
1.0
 40
1.0
 40
1.0
 10
33.4427129797
 20
68.5940487707
 30
0.0
 10
33.4239163532
 20
68.5718983274
 30
0.0
 10
33.3805046883
 20
68.5324959942
 30
0.0
 10
33.3003866372
 20
68.4942035419
 30
0.0
 10
33.2096890528
 20
68.4794744597
 30
0.0
 10
33.1117044647
 20
68.4877935006
 30
0.0
 10
33.0090509813
 20
68.5185459423
 30
0.0
 10
32.8638214713
 20
68.5902714134
 30
0.0
 10
32.764145171
 20
68.6702375671
 30
0.0
 10
32.701855349
 20
68.7311938467
 30
0.0
  0
SPLINE
  5
43E
100
AcDbEntity
  8
0
100
AcDbSpline
 62
7
  6
CONTINUOUS
 70
0
 71
3
 72
9
 73
5
 74
0
 42
0.0000001
 43
0.0000001
 44
0.0000000001
 40
0.0
 40
0.0
 40
0.0
 40
0.0
 40
0.4944851519
 40
1.0
 40
1.0
 40
1.0
 40
1.0
 10
32.6885354095
 20
68.7444226998
 30
0.0
 10
32.6212062343
 20
68.8122812929
 30
0.0
 10
32.4997317583
 20
68.9644976589
 30
0.0
 10
32.4084994919
 20
69.136350951
 30
0.0
 10
32.3712165532
 20
69.2266847179
 30
0.0
  0
SPLINE
  5
43F
100
AcDbEntity
  8
0
100
AcDbSpline
 62
7
  6
CONTINUOUS
 70
0
 71
3
 72
9
 73
5
 74
0
 42
0.0000001
 43
0.0000001
 44
0.0000000001
 40
0.0
 40
0.0
 40
0.0
 40
0.0
 40
0.5335490529
 40
1.0
 40
1.0
 40
1.0
 40
1.0
 10
32.3571197564
 20
69.2621435739
 30
0.0
 10
32.3233668448
 20
69.3504083251
 30
0.0
 10
32.2756842035
 20
69.5223522471
 30
0.0
 10
32.2701573693
 20
69.7023274826
 30
0.0
 10
32.2825241578
 20
69.7840109873
 30
0.0
  0
SPLINE
  5
440
100
AcDbEntity
  8
0
100
AcDbSpline
 62
7
  6
CONTINUOUS
 70
0
 71
3
 72
11
 73
7
 74
0
 42
0.0000001
 43
0.0000001
 44
0.0000000001
 40
0.0
 40
0.0
 40
0.0
 40
0.0
 40
0.2258416669
 40
0.4674820161
 40
0.7279466313
 40
1.0
 40
1.0
 40
1.0
 40
1.0
 10
33.5391851396
 20
69.0584938446
 30
0.0
 10
33.5464598347
 20
69.0542938924
 30
0.0
 10
33.5651897329
 20
69.0512193027
 30
0.0
 10
33.5903738789
 20
69.0635159959
 30
0.0
 10
33.6114248572
 20
69.0834218446
 30
0.0
 10
33.6229073582
 20
69.099713472
 30
0.0
 10
33.6281361763
 20
69.1083766621
 30
0.0
  0
SPLINE
  5
441
100
AcDbEntity
  8
0
100
AcDbSpline
 62
7
  6
CONTINUOUS
 70
0
 71
3
 72
9
 73
5
 74
0
 42
0.0000001
 43
0.0000001
 44
0.0000000001
 40
0.0
 40
0.0
 40
0.0
 40
0.0
 40
0.2475662465
 40
1.0
 40
1.0
 40
1.0
 40
1.0
 10
33.6281361763
 20
69.1083766621
 30
0.0
 10
33.6317695309
 20
69.1143964627
 30
0.0
 10
33.645215732
 20
69.1394498745
 30
0.0
 10
33.65436608
 20
69.1666800517
 30
0.0
 10
33.6591987808
 20
69.1874968573
 30
0.0
  0
SPLINE
  5
442
100
AcDbEntity
  8
0
100
AcDbSpline
 62
7
  6
CONTINUOUS
 70
0
 71
3
 72
11
 73
7
 74
0
 42
0.0000001
 43
0.0000001
 44
0.0000000001
 40
0.0
 40
0.0
 40
0.0
 40
0.0
 40
0.2254551005
 40
0.4727040568
 40
0.7337606423
 40
1.0
 40
1.0
 40
1.0
 40
1.0
 10
32.2825241578
 20
69.7840109873
 30
0.0
 10
32.2761467635
 20
69.7876928943
 30
0.0
 10
32.2650281334
 20
69.7995449731
 30
0.0
 10
32.2576006115
 20
69.8228008582
 30
0.0
 10
32.2563489525
 20
69.8482395327
 30
0.0
 10
32.2586224152
 20
69.8653938798
 30
0.0
 10
32.2603445779
 20
69.8739177031
 30
0.0
  0
SPLINE
  5
443
100
AcDbEntity
  8
0
100
AcDbSpline
 62
7
  6
CONTINUOUS
 70
0
 71
3
 72
9
 73
5
 74
0
 42
0.0000001
 43
0.0000001
 44
0.0000000001
 40
0.0
 40
0.0
 40
0.0
 40
0.0
 40
0.518283953
 40
1.0
 40
1.0
 40
1.0
 40
1.0
 10
62.5041783658
 20
63.8429756578
 30
0.0
 10
62.3780180956
 20
63.8125539782
 30
0.0
 10
62.137812446
 20
63.7393031381
 30
0.0
 10
61.9095248298
 20
63.6337500885
 30
0.0
 10
61.804785143
 20
63.5739274593
 30
0.0
  0
SPLINE
  5
444
100
AcDbEntity
  8
0
100
AcDbSpline
 62
7
  6
CONTINUOUS
 70
0
 71
3
 72
9
 73
5
 74
0
 42
0.0000001
 43
0.0000001
 44
0.0000000001
 40
0.0
 40
0.0
 40
0.0
 40
0.0
 40
0.5244141529
 40
1.0
 40
1.0
 40
1.0
 40
1.0
 10
32.1227621533
 20
95.5883663073
 30
0.0
 10
32.097230133
 20
95.6239713127
 30
0.0
 10
32.0576433652
 20
95.6986697267
 30
0.0
 10
32.0396343037
 20
95.7821501554
 30
0.0
 10
32.0396343037
 20
95.8218839408
 30
0.0
  0
SPLINE
  5
445
100
AcDbEntity
  8
0
100
AcDbSpline
 62
7
  6
CONTINUOUS
 70
0
 71
3
 72
11
 73
7
 74
0
 42
0.0000001
 43
0.0000001
 44
0.0000000001
 40
0.0
 40
0.0
 40
0.0
 40
0.0
 40
0.2285425517
 40
0.4751001174
 40
0.7345915871
 40
1.0
 40
1.0
 40
1.0
 40
1.0
 10
64.8955287167
 20
63.5759029603
 30
0.0
 10
64.7859530296
 20
63.6381765238
 30
0.0
 10
64.5464288735
 20
63.7474832343
 30
0.0
 10
64.156709195
 20
63.8620293114
 30
0.0
 10
63.7357170745
 20
63.9300264763
 30
0.0
 10
63.4457744908
 20
63.9427134129
 30
0.0
 10
63.2994228282
 20
63.9406971872
 30
0.0
  0
SPLINE
  5
446
100
AcDbEntity
  8
0
100
AcDbSpline
 62
7
  6
CONTINUOUS
 70
0
 71
3
 72
9
 73
5
 74
0
 42
0.0000001
 43
0.0000001
 44
0.0000000001
 40
0.0
 40
0.0
 40
0.0
 40
0.0
 40
0.47600532
 40
1.0
 40
1.0
 40
1.0
 40
1.0
 10
32.2589982637
 20
95.2157712616
 30
0.0
 10
32.2589982637
 20
95.2794562531
 30
0.0
 10
32.2293388286
 20
95.4131066211
 30
0.0
 10
32.1645480272
 20
95.5320748907
 30
0.0
 10
32.1227621533
 20
95.5883663073
 30
0.0
  0
SPLINE
  5
447
100
AcDbEntity
  8
0
100
AcDbSpline
 62
7
  6
CONTINUOUS
 70
0
 71
3
 72
9
 73
5
 74
0
 42
0.0000001
 43
0.0000001
 44
0.0000000001
 40
0.0
 40
0.0
 40
0.0
 40
0.0
 40
0.4586874744
 40
1.0
 40
1.0
 40
1.0
 40
1.0
 10
32.2076153202
 20
95.0494759666
 30
0.0
 10
32.225310849
 20
95.0699093259
 30
0.0
 10
32.2524423538
 20
95.1244623251
 30
0.0
 10
32.2589982637
 20
95.1838715282
 30
0.0
 10
32.2589982637
 20
95.2157712616
 30
0.0
  0
SPLINE
  5
448
100
AcDbEntity
  8
0
100
AcDbSpline
 62
7
  6
CONTINUOUS
 70
0
 71
3
 72
9
 73
5
 74
0
 42
0.0000001
 43
0.0000001
 44
0.0000000001
 40
0.0
 40
0.0
 40
0.0
 40
0.0
 40
0.283844504
 40
1.0
 40
1.0
 40
1.0
 40
1.0
 10
32.1745572
 20
94.9424869646
 30
0.0
 10
32.1745572
 20
94.9531967676
 30
0.0
 10
32.1767353648
 20
94.9906778152
 30
0.0
 10
32.1899258017
 20
95.0290495476
 30
0.0
 10
32.2076153202
 20
95.0494759666
 30
0.0
  0
SPLINE
  5
449
100
AcDbEntity
  8
0
100
AcDbSpline
 62
7
  6
CONTINUOUS
 70
0
 71
3
 72
9
 73
5
 74
0
 42
0.0000001
 43
0.0000001
 44
0.0000000001
 40
0.0
 40
0.0
 40
0.0
 40
0.0
 40
0.5244141529
 40
1.0
 40
1.0
 40
1.0
 40
1.0
 10
32.2576850495
 20
94.708969331
 30
0.0
 10
32.2321530293
 20
94.7445743365
 30
0.0
 10
32.1925662615
 20
94.8192727505
 30
0.0
 10
32.1745572
 20
94.9027531792
 30
0.0
 10
32.1745572
 20
94.9424869646
 30
0.0
  0
SPLINE
  5
44A
100
AcDbEntity
  8
0
100
AcDbSpline
 62
7
  6
CONTINUOUS
 70
0
 71
3
 72
9
 73
5
 74
0
 42
0.0000001
 43
0.0000001
 44
0.0000000001
 40
0.0
 40
0.0
 40
0.0
 40
0.0
 40
0.47600532
 40
1.0
 40
1.0
 40
1.0
 40
1.0
 10
32.39392116
 20
94.3363742853
 30
0.0
 10
32.39392116
 20
94.4000592769
 30
0.0
 10
32.3642617249
 20
94.5337096448
 30
0.0
 10
32.2994709235
 20
94.6526779145
 30
0.0
 10
32.2576850495
 20
94.708969331
 30
0.0
  0
SPLINE
  5
44B
100
AcDbEntity
  8
0
100
AcDbSpline
 62
7
  6
CONTINUOUS
 70
0
 71
3
 72
9
 73
5
 74
0
 42
0.0000001
 43
0.0000001
 44
0.0000000001
 40
0.0
 40
0.0
 40
0.0
 40
0.0
 40
0.4586874744
 40
1.0
 40
1.0
 40
1.0
 40
1.0
 10
32.3425382164
 20
94.1700789904
 30
0.0
 10
32.3602337453
 20
94.1905123496
 30
0.0
 10
32.3873652501
 20
94.2450653488
 30
0.0
 10
32.39392116
 20
94.304474552
 30
0.0
 10
32.39392116
 20
94.3363742853
 30
0.0
  0
SPLINE
  5
44C
100
AcDbEntity
  8
0
100
AcDbSpline
 62
7
  6
CONTINUOUS
 70
0
 71
3
 72
9
 73
5
 74
0
 42
0.0000001
 43
0.0000001
 44
0.0000000001
 40
0.0
 40
0.0
 40
0.0
 40
0.0
 40
0.283844504
 40
1.0
 40
1.0
 40
1.0
 40
1.0
 10
32.3094800963
 20
94.0630899884
 30
0.0
 10
32.3094800963
 20
94.0737997914
 30
0.0
 10
32.3116582611
 20
94.1112808389
 30
0.0
 10
32.3248486979
 20
94.1496525713
 30
0.0
 10
32.3425382164
 20
94.1700789904
 30
0.0
  0
SPLINE
  5
44D
100
AcDbEntity
  8
0
100
AcDbSpline
 62
7
  6
CONTINUOUS
 70
0
 71
3
 72
9
 73
5
 74
0
 42
0.0000001
 43
0.0000001
 44
0.0000000001
 40
0.0
 40
0.0
 40
0.0
 40
0.0
 40
0.5244141529
 40
1.0
 40
1.0
 40
1.0
 40
1.0
 10
32.3926079457
 20
93.829572355
 30
0.0
 10
32.3670759255
 20
93.8651773604
 30
0.0
 10
32.3274891577
 20
93.9398757744
 30
0.0
 10
32.3094800963
 20
94.023356203
 30
0.0
 10
32.3094800963
 20
94.0630899884
 30
0.0
  0
SPLINE
  5
44E
100
AcDbEntity
  8
0
100
AcDbSpline
 62
7
  6
CONTINUOUS
 70
0
 71
3
 72
9
 73
5
 74
0
 42
0.0000001
 43
0.0000001
 44
0.0000000001
 40
0.0
 40
0.0
 40
0.0
 40
0.0
 40
0.4760053201
 40
1.0
 40
1.0
 40
1.0
 40
1.0
 10
32.5288440562
 20
93.4569773091
 30
0.0
 10
32.5288440562
 20
93.5206623007
 30
0.0
 10
32.4991846211
 20
93.6543126687
 30
0.0
 10
32.4343938196
 20
93.7732809384
 30
0.0
 10
32.3926079457
 20
93.829572355
 30
0.0
  0
SPLINE
  5
44F
100
AcDbEntity
  8
0
100
AcDbSpline
 62
7
  6
CONTINUOUS
 70
0
 71
3
 72
9
 73
5
 74
0
 42
0.0000001
 43
0.0000001
 44
0.0000000001
 40
0.0
 40
0.0
 40
0.0
 40
0.0
 40
0.4586874744
 40
1.0
 40
1.0
 40
1.0
 40
1.0
 10
32.4774611127
 20
93.2906820141
 30
0.0
 10
32.4951566416
 20
93.3111153734
 30
0.0
 10
32.5222881463
 20
93.3656683726
 30
0.0
 10
32.5288440562
 20
93.4250775757
 30
0.0
 10
32.5288440562
 20
93.4569773091
 30
0.0
  0
SPLINE
  5
450
100
AcDbEntity
  8
0
100
AcDbSpline
 62
7
  6
CONTINUOUS
 70
0
 71
3
 72
9
 73
5
 74
0
 42
0.0000001
 43
0.0000001
 44
0.0000000001
 40
0.0
 40
0.0
 40
0.0
 40
0.0
 40
0.283844504
 40
1.0
 40
1.0
 40
1.0
 40
1.0
 10
32.4444029925
 20
93.1836930121
 30
0.0
 10
32.4444029925
 20
93.1944028151
 30
0.0
 10
32.4465811573
 20
93.2318838627
 30
0.0
 10
32.4597715942
 20
93.2702555951
 30
0.0
 10
32.4774611127
 20
93.2906820141
 30
0.0
  0
SPLINE
  5
451
100
AcDbEntity
  8
0
100
AcDbSpline
 62
7
  6
CONTINUOUS
 70
0
 71
3
 72
9
 73
5
 74
0
 42
0.0000001
 43
0.0000001
 44
0.0000000001
 40
0.0
 40
0.0
 40
0.0
 40
0.0
 40
0.5244141529
 40
1.0
 40
1.0
 40
1.0
 40
1.0
 10
32.5275308418
 20
92.950175379
 30
0.0
 10
32.5019988216
 20
92.9857803844
 30
0.0
 10
32.462412054
 20
93.0604787983
 30
0.0
 10
32.4444029925
 20
93.1439592268
 30
0.0
 10
32.4444029925
 20
93.1836930121
 30
0.0
  0
SPLINE
  5
452
100
AcDbEntity
  8
0
100
AcDbSpline
 62
7
  6
CONTINUOUS
 70
0
 71
3
 72
11
 73
7
 74
0
 42
0.0000001
 43
0.0000001
 44
0.0000000001
 40
0.0
 40
0.0
 40
0.0
 40
0.0
 40
0.2895411595
 40
0.5491183966
 40
0.7822559144
 40
1.0
 40
1.0
 40
1.0
 40
1.0
 10
47.8662215084
 20
60.7111309955
 30
0.0
 10
47.8662215084
 20
60.6807476844
 30
0.0
 10
47.8708607333
 20
60.622933573
 30
0.0
 10
47.8942325982
 20
60.5434868751
 30
0.0
 10
47.9336565369
 20
60.4789981929
 30
0.0
 10
47.9707175779
 20
60.4479127889
 30
0.0
 10
47.9905056863
 20
60.4364883811
 30
0.0
  0
SPLINE
  5
453
100
AcDbEntity
  8
0
100
AcDbSpline
 62
7
  6
CONTINUOUS
 70
0
 71
3
 72
9
 73
5
 74
0
 42
0.0000001
 43
0.0000001
 44
0.0000000001
 40
0.0
 40
0.0
 40
0.0
 40
0.0
 40
0.4760053201
 40
1.0
 40
1.0
 40
1.0
 40
1.0
 10
32.6637669525
 20
92.5775803328
 30
0.0
 10
32.6637669525
 20
92.6412653245
 30
0.0
 10
32.6341075173
 20
92.7749156926
 30
0.0
 10
32.5693167158
 20
92.8938839624
 30
0.0
 10
32.5275308418
 20
92.950175379
 30
0.0
  0
SPLINE
  5
454
100
AcDbEntity
  8
0
100
AcDbSpline
 62
7
  6
CONTINUOUS
 70
0
 71
3
 72
9
 73
5
 74
0
 42
0.0000001
 43
0.0000001
 44
0.0000000001
 40
0.0
 40
0.0
 40
0.0
 40
0.0
 40
0.4744377155
 40
1.0
 40
1.0
 40
1.0
 40
1.0
 10
10.6613471349
 20
80.656379443
 30
0.0
 10
10.6613471349
 20
80.6795613592
 30
0.0
 10
10.6700330912
 20
80.7284395041
 30
0.0
 10
10.6899283929
 20
80.7735251838
 30
0.0
 10
10.7027683187
 20
80.7957647111
 30
0.0
  0
SPLINE
  5
455
100
AcDbEntity
  8
0
100
AcDbSpline
 62
7
  6
CONTINUOUS
 70
0
 71
3
 72
9
 73
5
 74
0
 42
0.0000001
 43
0.0000001
 44
0.0000000001
 40
0.0
 40
0.0
 40
0.0
 40
0.0
 40
0.255502651
 40
1.0
 40
1.0
 40
1.0
 40
1.0
 10
10.7027683187
 20
80.7957647111
 30
0.0
 10
10.7065591735
 20
80.8023307007
 30
0.0
 10
10.7222406247
 20
80.8275237284
 30
0.0
 10
10.7411820901
 20
80.8507533779
 30
0.0
 10
10.7570344286
 20
80.8661405014
 30
0.0
  0
SPLINE
  5
456
100
AcDbEntity
  8
0
100
AcDbSpline
 62
7
  6
CONTINUOUS
 70
0
 71
3
 72
9
 73
5
 74
0
 42
0.0000001
 43
0.0000001
 44
0.0000000001
 40
0.0
 40
0.0
 40
0.0
 40
0.0
 40
0.2629554435
 40
1.0
 40
1.0
 40
1.0
 40
1.0
 10
10.7570344286
 20
80.8661405014
 30
0.0
 10
10.7606686514
 20
80.8696680715
 30
0.0
 10
10.7748463195
 20
80.882700756
 30
0.0
 10
10.7904737733
 20
80.8942307808
 30
0.0
 10
10.8027679023
 20
80.9013287572
 30
0.0
  0
SPLINE
  5
457
100
AcDbEntity
  8
0
100
AcDbSpline
 62
7
  6
CONTINUOUS
 70
0
 71
3
 72
10
 73
6
 74
0
 42
0.0000001
 43
0.0000001
 44
0.0000000001
 40
0.0
 40
0.0
 40
0.0
 40
0.0
 40
0.5474150357
 40
0.7816493243
 40
1.0
 40
1.0
 40
1.0
 40
1.0
 10
10.8027679023
 20
80.9013287572
 30
0.0
 10
10.7862354365
 20
80.9108735649
 30
0.0
 10
10.7598343215
 20
80.9213643387
 30
0.0
 10
10.7245262296
 20
80.9205778121
 30
0.0
 10
10.7093538173
 20
80.9150562807
 30
0.0
 10
10.7027602514
 20
80.911247638
 30
0.0
  0
SPLINE
  5
458
100
AcDbEntity
  8
0
100
AcDbSpline
 62
7
  6
CONTINUOUS
 70
0
 71
3
 72
11
 73
7
 74
0
 42
0.0000001
 43
0.0000001
 44
0.0000000001
 40
0.0
 40
0.0
 40
0.0
 40
0.0
 40
0.2047031306
 40
0.4362923828
 40
0.7019399586
 40
1.0
 40
1.0
 40
1.0
 40
1.0
 10
30.216761085
 20
94.8024197434
 30
0.0
 10
30.2297603237
 20
94.7302205352
 30
0.0
 10
30.2918006582
 20
94.5817193403
 30
0.0
 10
30.4640505608
 20
94.3937207077
 30
0.0
 10
30.7049430445
 20
94.2371745987
 30
0.0
 10
30.8937198901
 20
94.1618769842
 30
0.0
 10
30.9956872454
 20
94.1300576367
 30
0.0
  0
SPLINE
  5
459
100
AcDbEntity
  8
0
100
AcDbSpline
 62
7
  6
CONTINUOUS
 70
0
 71
3
 72
9
 73
5
 74
0
 42
0.0000001
 43
0.0000001
 44
0.0000000001
 40
0.0
 40
0.0
 40
0.0
 40
0.0
 40
0.4586874744
 40
1.0
 40
1.0
 40
1.0
 40
1.0
 10
32.612384009
 20
92.4112850379
 30
0.0
 10
32.6300795378
 20
92.4317183971
 30
0.0
 10
32.6572110426
 20
92.4862713963
 30
0.0
 10
32.6637669525
 20
92.5456805995
 30
0.0
 10
32.6637669525
 20
92.5775803328
 30
0.0
  0
SPLINE
  5
45A
100
AcDbEntity
  8
0
100
AcDbSpline
 62
7
  6
CONTINUOUS
 70
0
 71
3
 72
9
 73
5
 74
0
 42
0.0000001
 43
0.0000001
 44
0.0000000001
 40
0.0
 40
0.0
 40
0.0
 40
0.0
 40
0.283844504
 40
1.0
 40
1.0
 40
1.0
 40
1.0
 10
32.5793258888
 20
92.3042960359
 30
0.0
 10
32.5793258888
 20
92.3150058389
 30
0.0
 10
32.5815040536
 20
92.3524868864
 30
0.0
 10
32.5946944905
 20
92.3908586189
 30
0.0
 10
32.612384009
 20
92.4112850379
 30
0.0
  0
SPLINE
  5
45B
100
AcDbEntity
  8
0
100
AcDbSpline
 62
7
  6
CONTINUOUS
 70
0
 71
3
 72
18
 73
14
 74
0
 42
0.0000001
 43
0.0000001
 44
0.0000000001
 40
0.0
 40
0.0
 40
0.0
 40
0.0
 40
0.1286585538
 40
0.2702079607
 40
0.4173278027
 40
0.5616316029
 40
0.6952660325
 40
0.7562716512
 40
0.8127630549
 40
0.864711743
 40
0.9125345558
 40
0.9571501792
 40
1.0
 40
1.0
 40
1.0
 40
1.0
 10
61.4780636985
 20
65.8348253737
 30
0.0
 10
61.6742320116
 20
65.948082526
 30
0.0
 10
62.1183822822
 20
66.1313417739
 30
0.0
 10
62.8422288791
 20
66.2761508022
 30
0.0
 10
63.607964965
 20
66.2973160996
 30
0.0
 10
64.3524282025
 20
66.1927748162
 30
0.0
 10
64.9229540608
 20
66.0022146085
 30
0.0
 10
65.3123308646
 20
65.7905606188
 30
0.0
 10
65.5540393871
 20
65.6139280407
 30
0.0
 10
65.7490737853
 20
65.4180373992
 30
0.0
 10
65.8930382407
 20
65.2063847117
 30
0.0
 10
65.9816690673
 20
64.9830666249
 30
0.0
 10
66.0019025937
 20
64.8284284881
 30
0.0
 10
66.0018922859
 20
64.7529874045
 30
0.0
  0
SPLINE
  5
45C
100
AcDbEntity
  8
0
100
AcDbSpline
 62
7
  6
CONTINUOUS
 70
0
 71
3
 72
9
 73
5
 74
0
 42
0.0000001
 43
0.0000001
 44
0.0000000001
 40
0.0
 40
0.0
 40
0.0
 40
0.0
 40
0.2364409047
 40
1.0
 40
1.0
 40
1.0
 40
1.0
 10
73.781706088
 20
67.9985399553
 30
0.0
 10
73.7856503453
 20
67.9962627888
 30
0.0
 10
73.801972352
 20
67.986012118
 30
0.0
 10
73.816885304
 20
67.9735966027
 30
0.0
 10
73.8274392084
 20
67.9633526319
 30
0.0
  0
SPLINE
  5
45D
100
AcDbEntity
  8
0
100
AcDbSpline
 62
7
  6
CONTINUOUS
 70
0
 71
3
 72
9
 73
5
 74
0
 42
0.0000001
 43
0.0000001
 44
0.0000000001
 40
0.0
 40
0.0
 40
0.0
 40
0.0
 40
0.2430466145
 40
1.0
 40
1.0
 40
1.0
 40
1.0
 10
73.8274392084
 20
67.9633526319
 30
0.0
 10
73.8326148258
 20
67.9583290056
 30
0.0
 10
73.8531013053
 20
67.9368361581
 30
0.0
 10
73.8704746216
 20
67.9124304734
 30
0.0
 10
73.8817065044
 20
67.8929763899
 30
0.0
  0
SPLINE
  5
45E
100
AcDbEntity
  8
0
100
AcDbSpline
 62
7
  6
CONTINUOUS
 70
0
 71
3
 72
9
 73
5
 74
0
 42
0.0000001
 43
0.0000001
 44
0.0000000001
 40
0.0
 40
0.0
 40
0.0
 40
0.0
 40
0.2555022621
 40
1.0
 40
1.0
 40
1.0
 40
1.0
 10
73.8817065044
 20
67.8929763899
 30
0.0
 10
73.8854974858
 20
67.8864102539
 30
0.0
 10
73.8994749057
 20
67.8602324932
 30
0.0
 10
73.9101217876
 20
67.8322130647
 30
0.0
 10
73.9155212393
 20
67.8107903525
 30
0.0
  0
SPLINE
  5
45F
100
AcDbEntity
  8
0
100
AcDbSpline
 62
7
  6
CONTINUOUS
 70
0
 71
3
 72
9
 73
5
 74
0
 42
0.0000001
 43
0.0000001
 44
0.0000000001
 40
0.0
 40
0.0
 40
0.0
 40
0.0
 40
0.2629546114
 40
1.0
 40
1.0
 40
1.0
 40
1.0
 10
73.9155212393
 20
67.8107903525
 30
0.0
 10
73.9167590194
 20
67.8058793711
 30
0.0
 10
73.9209565856
 20
67.7870852649
 30
0.0
 10
73.923128033
 20
67.7677869863
 30
0.0
 10
73.923128033
 20
67.7535913209
 30
0.0
  0
SPLINE
  5
460
100
AcDbEntity
  8
0
100
AcDbSpline
 62
7
  6
CONTINUOUS
 70
0
 71
3
 72
11
 73
7
 74
0
 42
0.0000001
 43
0.0000001
 44
0.0000000001
 40
0.0
 40
0.0
 40
0.0
 40
0.0
 40
0.23721727
 40
0.499998382
 40
0.7627803746
 40
1.0
 40
1.0
 40
1.0
 40
1.0
 10
63.0337277624
 20
61.7932288164
 30
0.0
 10
63.0136518034
 20
61.7816380253
 30
0.0
 10
62.9756565341
 20
61.7496615128
 30
0.0
 10
62.9313099797
 20
61.6890608101
 30
0.0
 10
62.9010017743
 20
61.6203548461
 30
0.0
 10
62.8923069949
 20
61.5714614184
 30
0.0
 10
62.8923069949
 20
61.5482795022
 30
0.0
  0
SPLINE
  5
461
100
AcDbEntity
  8
0
100
AcDbSpline
 62
7
  6
CONTINUOUS
 70
0
 71
3
 72
11
 73
7
 74
0
 42
0.0000001
 43
0.0000001
 44
0.0000000001
 40
0.0
 40
0.0
 40
0.0
 40
0.0
 40
0.2372193634
 40
0.5000010919
 40
0.762782226
 40
1.0
 40
1.0
 40
1.0
 40
1.0
 10
63.1751497074
 20
61.5482801821
 30
0.0
 10
63.1751497074
 20
61.5714620859
 30
0.0
 10
63.1664548564
 20
61.6203554917
 30
0.0
 10
63.136146378
 20
61.6890613391
 30
0.0
 10
63.0917994258
 20
61.7496618483
 30
0.0
 10
63.053803859
 20
61.7816381389
 30
0.0
 10
63.0337277624
 20
61.7932288164
 30
0.0
  0
SPLINE
  5
462
100
AcDbEntity
  8
0
100
AcDbSpline
 62
7
  6
CONTINUOUS
 70
0
 71
3
 72
11
 73
7
 74
0
 42
0.0000001
 43
0.0000001
 44
0.0000000001
 40
0.0
 40
0.0
 40
0.0
 40
0.0
 40
0.2372185796
 40
0.5000005262
 40
0.7627821863
 40
1.0
 40
1.0
 40
1.0
 40
1.0
 10
62.8923069949
 20
61.5482795022
 30
0.0
 10
62.9123831246
 20
61.5366888056
 30
0.0
 10
62.9590734676
 20
61.5197725152
 30
0.0
 10
63.0337285735
 20
61.5116677389
 30
0.0
 10
63.1083835667
 20
61.5197728559
 30
0.0
 10
63.1550737261
 20
61.5366893781
 30
0.0
 10
63.1751497074
 20
61.5482801821
 30
0.0
  0
SPLINE
  5
463
100
AcDbEntity
  8
0
100
AcDbSpline
 62
7
  6
CONTINUOUS
 70
0
 71
3
 72
9
 73
5
 74
0
 42
0.0000001
 43
0.0000001
 44
0.0000000001
 40
0.0
 40
0.0
 40
0.0
 40
0.0
 40
0.5244141529
 40
1.0
 40
1.0
 40
1.0
 40
1.0
 10
32.6624537383
 20
92.0707784024
 30
0.0
 10
32.6369217181
 20
92.1063834078
 30
0.0
 10
32.5973349503
 20
92.1810818218
 30
0.0
 10
32.5793258888
 20
92.2645622505
 30
0.0
 10
32.5793258888
 20
92.3042960359
 30
0.0
  0
SPLINE
  5
464
100
AcDbEntity
  8
0
100
AcDbSpline
 62
7
  6
CONTINUOUS
 70
0
 71
3
 72
11
 73
7
 74
0
 42
0.0000001
 43
0.0000001
 44
0.0000000001
 40
0.0
 40
0.0
 40
0.0
 40
0.0
 40
0.2285425517
 40
0.4751001174
 40
0.7345915871
 40
1.0
 40
1.0
 40
1.0
 40
1.0
 10
23.6003207681
 20
76.394380393
 30
0.0
 10
23.4907450811
 20
76.4566539565
 30
0.0
 10
23.2512209249
 20
76.565960667
 30
0.0
 10
22.8615012464
 20
76.6805067441
 30
0.0
 10
22.4405091259
 20
76.748503909
 30
0.0
 10
22.1505665422
 20
76.7611908457
 30
0.0
 10
22.0042148796
 20
76.7591746199
 30
0.0
  0
SPLINE
  5
465
100
AcDbEntity
  8
0
100
AcDbSpline
 62
7
  6
CONTINUOUS
 70
0
 71
3
 72
11
 73
7
 74
0
 42
0.0000001
 43
0.0000001
 44
0.0000000001
 40
0.0
 40
0.0
 40
0.0
 40
0.0
 40
0.23721727
 40
0.499998382
 40
0.7627803746
 40
1.0
 40
1.0
 40
1.0
 40
1.0
 10
68.9734494536
 20
43.2587117616
 30
0.0
 10
68.9533734947
 20
43.2471209704
 30
0.0
 10
68.9153782253
 20
43.2151444579
 30
0.0
 10
68.8710316709
 20
43.1545437552
 30
0.0
 10
68.8407234656
 20
43.0858377913
 30
0.0
 10
68.8320286862
 20
43.0369443635
 30
0.0
 10
68.8320286862
 20
43.0137624474
 30
0.0
  0
SPLINE
  5
466
100
AcDbEntity
  8
0
100
AcDbSpline
 62
7
  6
CONTINUOUS
 70
0
 71
3
 72
11
 73
7
 74
0
 42
0.0000001
 43
0.0000001
 44
0.0000000001
 40
0.0
 40
0.0
 40
0.0
 40
0.0
 40
0.2372193634
 40
0.5000010919
 40
0.762782226
 40
1.0
 40
1.0
 40
1.0
 40
1.0
 10
69.1148713986
 20
43.0137631272
 30
0.0
 10
69.1148713986
 20
43.036945031
 30
0.0
 10
69.1061765476
 20
43.0858384368
 30
0.0
 10
69.0758680692
 20
43.1545442842
 30
0.0
 10
69.031521117
 20
43.2151447935
 30
0.0
 10
68.9935255502
 20
43.247121084
 30
0.0
 10
68.9734494536
 20
43.2587117616
 30
0.0
  0
SPLINE
  5
467
100
AcDbEntity
  8
0
100
AcDbSpline
 62
7
  6
CONTINUOUS
 70
0
 71
3
 72
11
 73
7
 74
0
 42
0.0000001
 43
0.0000001
 44
0.0000000001
 40
0.0
 40
0.0
 40
0.0
 40
0.0
 40
0.2372185796
 40
0.5000005262
 40
0.7627821863
 40
1.0
 40
1.0
 40
1.0
 40
1.0
 10
68.8320286862
 20
43.0137624474
 30
0.0
 10
68.8521048158
 20
43.0021717507
 30
0.0
 10
68.8987951589
 20
42.9852554604
 30
0.0
 10
68.9734502647
 20
42.977150684
 30
0.0
 10
69.048105258
 20
42.985255801
 30
0.0
 10
69.0947954174
 20
43.0021723232
 30
0.0
 10
69.1148713986
 20
43.0137631272
 30
0.0
  0
SPLINE
  5
468
100
AcDbEntity
  8
0
100
AcDbSpline
 62
7
  6
CONTINUOUS
 70
0
 71
3
 72
11
 73
7
 74
0
 42
0.0000001
 43
0.0000001
 44
0.0000000001
 40
0.0
 40
0.0
 40
0.0
 40
0.0
 40
0.2897036169
 40
0.5490920547
 40
0.7822205729
 40
1.0
 40
1.0
 40
1.0
 40
1.0
 10
76.4687301091
 20
50.3621484811
 30
0.0
 10
76.5850101976
 20
50.2950156595
 30
0.0
 10
76.7959728546
 20
50.1497135941
 30
0.0
 10
77.0481077555
 20
49.8847433093
 30
0.0
 10
77.2075969108
 20
49.5916135338
 30
0.0
 10
77.2448882757
 20
49.3812349369
 30
0.0
 10
77.2448959074
 20
49.2803014683
 30
0.0
  0
SPLINE
  5
469
100
AcDbEntity
  8
0
100
AcDbSpline
 62
7
  6
CONTINUOUS
 70
0
 71
3
 72
9
 73
5
 74
0
 42
0.0000001
 43
0.0000001
 44
0.0000000001
 40
0.0
 40
0.0
 40
0.0
 40
0.0
 40
0.2364409047
 40
1.0
 40
1.0
 40
1.0
 40
1.0
 10
79.7214277793
 20
49.4640229004
 30
0.0
 10
79.7253720365
 20
49.4617457339
 30
0.0
 10
79.7416940433
 20
49.4514950631
 30
0.0
 10
79.7566069952
 20
49.4390795479
 30
0.0
 10
79.7671608997
 20
49.4288355771
 30
0.0
  0
SPLINE
  5
46A
100
AcDbEntity
  8
0
100
AcDbSpline
 62
7
  6
CONTINUOUS
 70
0
 71
3
 72
9
 73
5
 74
0
 42
0.0000001
 43
0.0000001
 44
0.0000000001
 40
0.0
 40
0.0
 40
0.0
 40
0.0
 40
0.2430466145
 40
1.0
 40
1.0
 40
1.0
 40
1.0
 10
79.7671608997
 20
49.4288355771
 30
0.0
 10
79.772336517
 20
49.4238119507
 30
0.0
 10
79.7928229966
 20
49.4023191033
 30
0.0
 10
79.8101963129
 20
49.3779134185
 30
0.0
 10
79.8214281956
 20
49.358459335
 30
0.0
  0
SPLINE
  5
46B
100
AcDbEntity
  8
0
100
AcDbSpline
 62
7
  6
CONTINUOUS
 70
0
 71
3
 72
9
 73
5
 74
0
 42
0.0000001
 43
0.0000001
 44
0.0000000001
 40
0.0
 40
0.0
 40
0.0
 40
0.0
 40
0.2555022621
 40
1.0
 40
1.0
 40
1.0
 40
1.0
 10
79.8214281956
 20
49.358459335
 30
0.0
 10
79.825219177
 20
49.351893199
 30
0.0
 10
79.8391965969
 20
49.3257154384
 30
0.0
 10
79.8498434788
 20
49.2976960098
 30
0.0
 10
79.8552429306
 20
49.2762732976
 30
0.0
  0
SPLINE
  5
46C
100
AcDbEntity
  8
0
100
AcDbSpline
 62
7
  6
CONTINUOUS
 70
0
 71
3
 72
9
 73
5
 74
0
 42
0.0000001
 43
0.0000001
 44
0.0000000001
 40
0.0
 40
0.0
 40
0.0
 40
0.0
 40
0.2629546114
 40
1.0
 40
1.0
 40
1.0
 40
1.0
 10
79.8552429306
 20
49.2762732976
 30
0.0
 10
79.8564807107
 20
49.2713623162
 30
0.0
 10
79.8606782769
 20
49.2525682101
 30
0.0
 10
79.8628497243
 20
49.2332699314
 30
0.0
 10
79.8628497243
 20
49.2190742661
 30
0.0
  0
SPLINE
  5
46D
100
AcDbEntity
  8
0
100
AcDbSpline
 62
7
  6
CONTINUOUS
 70
0
 71
3
 72
9
 73
5
 74
0
 42
0.0000001
 43
0.0000001
 44
0.0000000001
 40
0.0
 40
0.0
 40
0.0
 40
0.0
 40
0.518283953
 40
1.0
 40
1.0
 40
1.0
 40
1.0
 10
21.2089704172
 20
76.6614530905
 30
0.0
 10
21.082810147
 20
76.6310314109
 30
0.0
 10
20.8426044974
 20
76.5577805708
 30
0.0
 10
20.6143168812
 20
76.4522275212
 30
0.0
 10
20.5095771944
 20
76.392404892
 30
0.0
  0
SPLINE
  5
46E
100
AcDbEntity
  8
0
100
AcDbSpline
 62
7
  6
CONTINUOUS
 70
0
 71
3
 72
11
 73
7
 74
0
 42
0.0000001
 43
0.0000001
 44
0.0000000001
 40
0.0
 40
0.0
 40
0.0
 40
0.0
 40
0.2307821985
 40
0.4787543793
 40
0.7376115627
 40
1.0
 40
1.0
 40
1.0
 40
1.0
 10
35.8066621652
 20
88.3399407574
 30
0.0
 10
35.4964237449
 20
88.5399346835
 30
0.0
 10
34.8890904924
 20
89.0124212193
 30
0.0
 10
34.0682609107
 20
89.8643075845
 30
0.0
 10
33.332234408
 20
90.8539517652
 30
0.0
 10
32.9177024969
 20
91.5800171693
 30
0.0
 10
32.7322004625
 20
91.956458697
 30
0.0
  0
SPLINE
  5
46F
100
AcDbEntity
  8
0
100
AcDbSpline
 62
7
  6
CONTINUOUS
 70
0
 71
3
 72
11
 73
7
 74
0
 42
0.0000001
 43
0.0000001
 44
0.0000000001
 40
0.0
 40
0.0
 40
0.0
 40
0.0
 40
0.2558380938
 40
0.5160710343
 40
0.7679481133
 40
1.0
 40
1.0
 40
1.0
 40
1.0
 10
36.4104407982
 20
87.5081810229
 30
0.0
 10
36.3836393554
 20
87.5932216511
 30
0.0
 10
36.3145204311
 20
87.7602862214
 30
0.0
 10
36.1745872261
 20
87.9896507667
 30
0.0
 10
36.0057852848
 20
88.1879543475
 30
0.0
 10
35.8746020861
 20
88.2960683043
 30
0.0
 10
35.8066621652
 20
88.3399407574
 30
0.0
  0
SPLINE
  5
470
100
AcDbEntity
  8
0
100
AcDbSpline
 62
7
  6
CONTINUOUS
 70
0
 71
3
 72
9
 73
5
 74
0
 42
0.0000001
 43
0.0000001
 44
0.0000000001
 40
0.0
 40
0.0
 40
0.0
 40
0.0
 40
0.259984784
 40
1.0
 40
1.0
 40
1.0
 40
1.0
 10
32.133033951
 20
69.7536740434
 30
0.0
 10
32.133033951
 20
69.7687896786
 30
0.0
 10
32.1343270093
 20
69.8269141676
 30
0.0
 10
32.1409140284
 20
69.884988379
 30
0.0
 10
32.1493829869
 20
69.9271714605
 30
0.0
  0
SPLINE
  5
471
100
AcDbEntity
  8
0
100
AcDbSpline
 62
7
  6
CONTINUOUS
 70
0
 71
3
 72
9
 73
5
 74
0
 42
0.0000001
 43
0.0000001
 44
0.0000000001
 40
0.0
 40
0.0
 40
0.0
 40
0.0
 40
0.2581056744
 40
1.0
 40
1.0
 40
1.0
 40
1.0
 10
32.1493829869
 20
69.9271714605
 30
0.0
 10
32.151285883
 20
69.9366496057
 30
0.0
 10
32.1593668512
 20
69.9732220525
 30
0.0
 10
32.1703893122
 20
70.0091733943
 30
0.0
 10
32.1804407507
 20
70.0350792024
 30
0.0
  0
SPLINE
  5
472
100
AcDbEntity
  8
0
100
AcDbSpline
 62
7
  6
CONTINUOUS
 70
0
 71
3
 72
9
 73
5
 74
0
 42
0.0000001
 43
0.0000001
 44
0.0000000001
 40
0.0
 40
0.0
 40
0.0
 40
0.0
 40
0.2638001059
 40
1.0
 40
1.0
 40
1.0
 40
1.0
 10
32.1804407507
 20
70.0350792024
 30
0.0
 10
32.1865356923
 20
70.0507878386
 30
0.0
 10
32.2121910909
 20
70.1092642131
 30
0.0
 10
32.2491329171
 20
70.1631665388
 30
0.0
 10
32.2822772005
 20
70.1965225537
 30
0.0
  0
SPLINE
  5
473
100
AcDbEntity
  8
0
100
AcDbSpline
 62
7
  6
CONTINUOUS
 70
0
 71
3
 72
9
 73
5
 74
0
 42
0.0000001
 43
0.0000001
 44
0.0000000001
 40
0.0
 40
0.0
 40
0.0
 40
0.0
 40
0.2528203808
 40
1.0
 40
1.0
 40
1.0
 40
1.0
 10
32.2822772005
 20
70.1965225537
 30
0.0
 10
32.2881852472
 20
70.2024683421
 30
0.0
 10
32.3122998627
 20
70.2252317308
 30
0.0
 10
32.3394265401
 20
70.2448136173
 30
0.0
 10
32.3608791622
 20
70.2572003518
 30
0.0
  0
SPLINE
  5
474
100
AcDbEntity
  8
0
100
AcDbSpline
 62
7
  6
CONTINUOUS
 70
0
 71
3
 72
9
 73
5
 74
0
 42
0.0000001
 43
0.0000001
 44
0.0000000001
 40
0.0
 40
0.0
 40
0.0
 40
0.0
 40
0.518283953
 40
1.0
 40
1.0
 40
1.0
 40
1.0
 10
56.5644566746
 20
82.3774927127
 30
0.0
 10
56.4382964043
 20
82.3470710331
 30
0.0
 10
56.1980907548
 20
82.273820193
 30
0.0
 10
55.9698031386
 20
82.1682671434
 30
0.0
 10
55.8650634517
 20
82.1084445142
 30
0.0
  0
SPLINE
  5
475
100
AcDbEntity
  8
0
100
AcDbSpline
 62
7
  6
CONTINUOUS
 70
0
 71
3
 72
9
 73
5
 74
0
 42
0.0000001
 43
0.0000001
 44
0.0000000001
 40
0.0
 40
0.0
 40
0.0
 40
0.0
 40
0.2562368566
 40
1.0
 40
1.0
 40
1.0
 40
1.0
 10
48.3977461021
 20
58.9318744864
 30
0.0
 10
48.4033675258
 20
58.9459325857
 30
0.0
 10
48.4241869034
 20
59.0012321257
 30
0.0
 10
48.4405145283
 20
59.058261736
 30
0.0
 10
48.4495641675
 20
59.1012668933
 30
0.0
  0
SPLINE
  5
476
100
AcDbEntity
  8
0
100
AcDbSpline
 62
7
  6
CONTINUOUS
 70
0
 71
3
 72
9
 73
5
 74
0
 42
0.0000001
 43
0.0000001
 44
0.0000000001
 40
0.0
 40
0.0
 40
0.0
 40
0.0
 40
0.2608642308
 40
1.0
 40
1.0
 40
1.0
 40
1.0
 10
48.4495641675
 20
59.1012668933
 30
0.0
 10
48.4524595474
 20
59.1150261455
 30
0.0
 10
48.4623306398
 20
59.1680112369
 30
0.0
 10
48.4672615364
 20
59.2219990153
 30
0.0
 10
48.4672615364
 20
59.2618384613
 30
0.0
  0
SPLINE
  5
477
100
AcDbEntity
  8
0
100
AcDbSpline
 62
7
  6
CONTINUOUS
 70
0
 71
3
 72
11
 73
7
 74
0
 42
0.0000001
 43
0.0000001
 44
0.0000000001
 40
0.0
 40
0.0
 40
0.0
 40
0.0
 40
0.2285425517
 40
0.4751001174
 40
0.7345915871
 40
1.0
 40
1.0
 40
1.0
 40
1.0
 10
58.9558070255
 20
82.1104200152
 30
0.0
 10
58.8462313384
 20
82.1726935787
 30
0.0
 10
58.6067071822
 20
82.2820002892
 30
0.0
 10
58.2169875037
 20
82.3965463663
 30
0.0
 10
57.7959953832
 20
82.4645435311
 30
0.0
 10
57.5060527996
 20
82.4772304678
 30
0.0
 10
57.359701137
 20
82.475214242
 30
0.0
  0
SPLINE
  5
478
100
AcDbEntity
  8
0
100
AcDbSpline
 62
7
  6
CONTINUOUS
 70
0
 71
3
 72
11
 73
7
 74
0
 42
0.0000001
 43
0.0000001
 44
0.0000000001
 40
0.0
 40
0.0
 40
0.0
 40
0.0
 40
0.2177827477
 40
0.4509152641
 40
0.7103063952
 40
1.0
 40
1.0
 40
1.0
 40
1.0
 10
54.7621949632
 20
83.2875043988
 30
0.0
 10
54.7622087543
 20
83.3884380192
 30
0.0
 10
54.7994866865
 20
83.5988180458
 30
0.0
 10
54.958984032
 20
83.8919463675
 30
0.0
 10
55.2111116492
 20
84.1569124726
 30
0.0
 10
55.4220680188
 20
84.3022120107
 30
0.0
 10
55.5383420073
 20
84.3693424285
 30
0.0
  0
SPLINE
  5
479
100
AcDbEntity
  8
0
100
AcDbSpline
 62
7
  6
CONTINUOUS
 70
0
 71
3
 72
11
 73
7
 74
0
 42
0.0000001
 43
0.0000001
 44
0.0000000001
 40
0.0
 40
0.0
 40
0.0
 40
0.0
 40
0.2372444228
 40
0.5000010918
 40
0.7627571666
 40
1.0
 40
1.0
 40
1.0
 40
1.0
 10
48.0429992341
 20
59.8333943861
 30
0.0
 10
48.0429992341
 20
59.8681707333
 30
0.0
 10
48.0299519758
 20
59.9415099406
 30
0.0
 10
47.9844903042
 20
60.0445638492
 30
0.0
 10
47.917973564
 20
60.1354612759
 30
0.0
 10
47.8609834853
 20
60.1834295755
 30
0.0
 10
47.8308663165
 20
60.2008173376
 30
0.0
  0
SPLINE
  5
47A
100
AcDbEntity
  8
0
100
AcDbSpline
 62
7
  6
CONTINUOUS
 70
0
 71
3
 72
18
 73
14
 74
0
 42
0.0000001
 43
0.0000001
 44
0.0000000001
 40
0.0
 40
0.0
 40
0.0
 40
0.0
 40
0.0428471062
 40
0.0874607367
 40
0.1352819149
 40
0.1872298257
 40
0.243719446
 40
0.3047237535
 40
0.4383540717
 40
0.5826581257
 40
0.7297840182
 40
0.871340059
 40
1.0
 40
1.0
 40
1.0
 40
1.0
 10
71.9449139735
 20
49.2803014785
 30
0.0
 10
71.9449082697
 20
49.3557375424
 30
0.0
 10
71.9651294268
 20
49.5103678208
 30
0.0
 10
72.0537636035
 20
49.7336721206
 30
0.0
 10
72.1977065718
 20
49.9453282283
 30
0.0
 10
72.392740408
 20
50.1412087219
 30
0.0
 10
72.6344311634
 20
50.317851196
 30
0.0
 10
73.0237971902
 20
50.5294972919
 30
0.0
 10
73.5943048165
 20
50.7200721379
 30
0.0
 10
74.3387689384
 20
50.8246253007
 30
0.0
 10
75.1045257311
 20
50.8034728945
 30
0.0
 10
75.8283960736
 20
50.6586655413
 30
0.0
 10
76.2725594906
 20
50.4754050783
 30
0.0
 10
76.4687301091
 20
50.3621484811
 30
0.0
  0
SPLINE
  5
47B
100
AcDbEntity
  8
0
100
AcDbSpline
 62
7
  6
CONTINUOUS
 70
0
 71
3
 72
11
 73
7
 74
0
 42
0.0000001
 43
0.0000001
 44
0.0000000001
 40
0.0
 40
0.0
 40
0.0
 40
0.0
 40
0.2177827477
 40
0.4509152641
 40
0.7103063952
 40
1.0
 40
1.0
 40
1.0
 40
1.0
 10
60.7019166544
 20
64.752987344
 30
0.0
 10
60.7019304455
 20
64.8539209643
 30
0.0
 10
60.7392083777
 20
65.0643009909
 30
0.0
 10
60.8987057232
 20
65.3574293127
 30
0.0
 10
61.1508333405
 20
65.6223954178
 30
0.0
 10
61.36178971
 20
65.7676949558
 30
0.0
 10
61.4780636985
 20
65.8348253737
 30
0.0
  0
SPLINE
  5
47C
100
AcDbEntity
  8
0
100
AcDbSpline
 62
7
  6
CONTINUOUS
 70
0
 71
3
 72
11
 73
7
 74
0
 42
0.0000001
 43
0.0000001
 44
0.0000000001
 40
0.0
 40
0.0
 40
0.0
 40
0.0
 40
0.2285446764
 40
0.4751026606
 40
0.7345932327
 40
1.0
 40
1.0
 40
1.0
 40
1.0
 10
76.1384653003
 20
48.1032533658
 30
0.0
 10
76.0288912619
 20
48.1655209048
 30
0.0
 10
75.789373732
 20
48.2748169271
 30
0.0
 10
75.3996686808
 20
48.389351739
 30
0.0
 10
74.9786958709
 20
48.4573419178
 30
0.0
 10
74.6887675723
 20
48.4700274103
 30
0.0
 10
74.5424232985
 20
48.4680112863
 30
0.0
  0
SPLINE
  5
47D
100
AcDbEntity
  8
0
100
AcDbSpline
 62
7
  6
CONTINUOUS
 70
0
 71
3
 72
9
 73
5
 74
0
 42
0.0000001
 43
0.0000001
 44
0.0000000001
 40
0.0
 40
0.0
 40
0.0
 40
0.0
 40
0.5182009169
 40
1.0
 40
1.0
 40
1.0
 40
1.0
 10
73.7471788362
 20
48.370289757
 30
0.0
 10
73.6214220691
 20
48.3399653762
 30
0.0
 10
73.3819377143
 20
48.2669818749
 30
0.0
 10
73.1542786415
 20
48.161912786
 30
0.0
 10
73.0497740819
 20
48.1023758417
 30
0.0
  0
SPLINE
  5
47E
100
AcDbEntity
  8
0
100
AcDbSpline
 62
7
  6
CONTINUOUS
 70
0
 71
3
 72
11
 73
7
 74
0
 42
0.0000001
 43
0.0000001
 44
0.0000000001
 40
0.0
 40
0.0
 40
0.0
 40
0.0
 40
0.2372196254
 40
0.500001618
 40
0.76278273
 40
1.0
 40
1.0
 40
1.0
 40
1.0
 10
31.8501812291
 20
86.3286426665
 30
0.0
 10
31.8501812291
 20
86.3865974569
 30
0.0
 10
31.8719181776
 20
86.5088310262
 30
0.0
 10
31.947688691
 20
86.6805959361
 30
0.0
 10
32.0585550769
 20
86.8320976929
 30
0.0
 10
32.1535432503
 20
86.9120389742
 30
0.0
 10
32.2037331477
 20
86.941015952
 30
0.0
  0
SPLINE
  5
47F
100
AcDbEntity
  8
0
100
AcDbSpline
 62
7
  6
CONTINUOUS
 70
0
 71
3
 72
10
 73
6
 74
0
 42
0.0000001
 43
0.0000001
 44
0.0000000001
 40
0.0
 40
0.0
 40
0.0
 40
0.0
 40
0.2251552359
 40
0.4628319183
 40
1.0
 40
1.0
 40
1.0
 40
1.0
 10
10.6063769697
 20
80.7758235053
 30
0.0
 10
10.6044272805
 20
80.765708212
 30
0.0
 10
10.6040100763
 20
80.7440701894
 30
0.0
 10
10.6177218886
 20
80.6998086134
 30
0.0
 10
10.6422332001
 20
80.671828816
 30
0.0
 10
10.6613471349
 20
80.656379443
 30
0.0
  0
SPLINE
  5
480
100
AcDbEntity
  8
0
100
AcDbSpline
 62
7
  6
CONTINUOUS
 70
0
 71
3
 72
9
 73
5
 74
0
 42
0.0000001
 43
0.0000001
 44
0.0000000001
 40
0.0
 40
0.0
 40
0.0
 40
0.0
 40
0.2436184246
 40
1.0
 40
1.0
 40
1.0
 40
1.0
 10
48.2551286189
 20
60.4457638299
 30
0.0
 10
48.2574842412
 20
60.4444038415
 30
0.0
 10
48.2670707035
 20
60.4386784724
 30
0.0
 10
48.2763288983
 20
60.4324085643
 30
0.0
 10
48.2831429793
 20
60.4274198216
 30
0.0
  0
SPLINE
  5
481
100
AcDbEntity
  8
0
100
AcDbSpline
 62
7
  6
CONTINUOUS
 70
0
 71
3
 72
9
 73
5
 74
0
 42
0.0000001
 43
0.0000001
 44
0.0000000001
 40
0.0
 40
0.0
 40
0.0
 40
0.0
 40
0.2392152557
 40
1.0
 40
1.0
 40
1.0
 40
1.0
 10
48.3006975568
 20
60.4137041697
 30
0.0
 10
48.310489723
 20
60.4055653308
 30
0.0
 10
48.3497136619
 20
60.3695047802
 30
0.0
 10
48.3821981807
 20
60.326363657
 30
0.0
 10
48.4027609581
 20
60.2914779391
 30
0.0
  0
SPLINE
  5
482
100
AcDbEntity
  8
0
100
AcDbSpline
 62
7
  6
CONTINUOUS
 70
0
 71
3
 72
9
 73
5
 74
0
 42
0.0000001
 43
0.0000001
 44
0.0000000001
 40
0.0
 40
0.0
 40
0.0
 40
0.0
 40
0.2581462811
 40
1.0
 40
1.0
 40
1.0
 40
1.0
 10
48.4337333359
 20
60.2298530547
 30
0.0
 10
48.4371185637
 20
60.2218025703
 30
0.0
 10
48.4494111101
 20
60.1902841433
 30
0.0
 10
48.4583124068
 20
60.1573950048
 30
0.0
 10
48.4624783435
 20
60.1326457304
 30
0.0
  0
SPLINE
  5
483
100
AcDbEntity
  8
0
100
AcDbSpline
 62
7
  6
CONTINUOUS
 70
0
 71
3
 72
9
 73
5
 74
0
 42
0.0000001
 43
0.0000001
 44
0.0000000001
 40
0.0
 40
0.0
 40
0.0
 40
0.0
 40
0.2594375153
 40
1.0
 40
1.0
 40
1.0
 40
1.0
 10
48.4624783435
 20
60.1326457304
 30
0.0
 10
48.4632613839
 20
60.1279937913
 30
0.0
 10
48.4659440527
 20
60.1100101748
 30
0.0
 10
48.4672615364
 20
60.0918066097
 30
0.0
 10
48.4672615364
 20
60.0783408784
 30
0.0
  0
SPLINE
  5
484
100
AcDbEntity
  8
0
100
AcDbSpline
 62
7
  6
CONTINUOUS
 70
0
 71
3
 72
9
 73
5
 74
0
 42
0.0000001
 43
0.0000001
 44
0.0000000001
 40
0.0
 40
0.0
 40
0.0
 40
0.0
 40
0.2465341799
 40
1.0
 40
1.0
 40
1.0
 40
1.0
 10
39.5125857033
 20
86.7425148554
 30
0.0
 10
39.5567555248
 20
86.7883951007
 30
0.0
 10
39.7319652915
 20
86.9782757698
 30
0.0
 10
39.8911420681
 20
87.1828394322
 30
0.0
 10
40.0016148587
 20
87.3430916926
 30
0.0
  0
SPLINE
  5
485
100
AcDbEntity
  8
0
100
AcDbSpline
 62
7
  6
CONTINUOUS
 70
0
 71
3
 72
17
 73
13
 74
0
 42
0.0000001
 43
0.0000001
 44
0.0000000001
 40
0.0
 40
0.0
 40
0.0
 40
0.0
 40
0.0428570455
 40
0.087485165
 40
0.1353123244
 40
0.1872781392
 40
0.3045378316
 40
0.4381995438
 40
0.5825378192
 40
0.7296849502
 40
0.8713141218
 40
1.0
 40
1.0
 40
1.0
 40
1.0
 10
33.4608295931
 20
68.3520190346
 30
0.0
 10
33.4337129371
 20
68.3363626564
 30
0.0
 10
33.3739574875
 20
68.3114600787
 30
0.0
 10
33.2752756693
 20
68.2970667868
 30
0.0
 10
33.1693098137
 20
68.3047996962
 30
0.0
 10
33.0153549683
 20
68.3458215483
 30
0.0
 10
32.8185199778
 20
68.4533959728
 30
0.0
 10
32.6010556121
 20
68.6459831482
 30
0.0
 10
32.4088449858
 20
68.8920152101
 30
0.0
 10
32.257515279
 20
69.1716368727
 30
0.0
 10
32.1593591399
 20
69.461937215
 30
0.0
 10
32.133033951
 20
69.6596545055
 30
0.0
 10
32.133033951
 20
69.7536740434
 30
0.0
  0
SPLINE
  5
486
100
AcDbEntity
  8
0
100
AcDbSpline
 62
7
  6
CONTINUOUS
 70
0
 71
3
 72
9
 73
5
 74
0
 42
0.0000001
 43
0.0000001
 44
0.0000000001
 40
0.0
 40
0.0
 40
0.0
 40
0.0
 40
0.2364409047
 40
1.0
 40
1.0
 40
1.0
 40
1.0
 10
67.8419843968
 20
86.5330570101
 30
0.0
 10
67.8459286541
 20
86.5307798437
 30
0.0
 10
67.8622506608
 20
86.5205291728
 30
0.0
 10
67.8771636127
 20
86.5081136576
 30
0.0
 10
67.8877175172
 20
86.4978696868
 30
0.0
  0
SPLINE
  5
487
100
AcDbEntity
  8
0
100
AcDbSpline
 62
7
  6
CONTINUOUS
 70
0
 71
3
 72
9
 73
5
 74
0
 42
0.0000001
 43
0.0000001
 44
0.0000000001
 40
0.0
 40
0.0
 40
0.0
 40
0.0
 40
0.2430466145
 40
1.0
 40
1.0
 40
1.0
 40
1.0
 10
67.8877175172
 20
86.4978696868
 30
0.0
 10
67.8928931345
 20
86.4928460604
 30
0.0
 10
67.9133796141
 20
86.471353213
 30
0.0
 10
67.9307529304
 20
86.4469475283
 30
0.0
 10
67.9419848131
 20
86.4274934447
 30
0.0
  0
SPLINE
  5
488
100
AcDbEntity
  8
0
100
AcDbSpline
 62
7
  6
CONTINUOUS
 70
0
 71
3
 72
9
 73
5
 74
0
 42
0.0000001
 43
0.0000001
 44
0.0000000001
 40
0.0
 40
0.0
 40
0.0
 40
0.0
 40
0.2555022621
 40
1.0
 40
1.0
 40
1.0
 40
1.0
 10
67.9419848131
 20
86.4274934447
 30
0.0
 10
67.9457757945
 20
86.4209273088
 30
0.0
 10
67.9597532145
 20
86.3947495481
 30
0.0
 10
67.9704000964
 20
86.3667301195
 30
0.0
 10
67.9757995481
 20
86.3453074073
 30
0.0
  0
SPLINE
  5
489
100
AcDbEntity
  8
0
100
AcDbSpline
 62
7
  6
CONTINUOUS
 70
0
 71
3
 72
9
 73
5
 74
0
 42
0.0000001
 43
0.0000001
 44
0.0000000001
 40
0.0
 40
0.0
 40
0.0
 40
0.0
 40
0.2629546114
 40
1.0
 40
1.0
 40
1.0
 40
1.0
 10
67.9757995481
 20
86.3453074073
 30
0.0
 10
67.9770373282
 20
86.340396426
 30
0.0
 10
67.9812348944
 20
86.3216023198
 30
0.0
 10
67.9834063418
 20
86.3023040411
 30
0.0
 10
67.9834063418
 20
86.2881083758
 30
0.0
  0
SPLINE
  5
48A
100
AcDbEntity
  8
0
100
AcDbSpline
 62
7
  6
CONTINUOUS
 70
0
 71
3
 72
11
 73
7
 74
0
 42
0.0000001
 43
0.0000001
 44
0.0000000001
 40
0.0
 40
0.0
 40
0.0
 40
0.0
 40
0.2372193634
 40
0.5000010919
 40
0.762782226
 40
1.0
 40
1.0
 40
1.0
 40
1.0
 10
30.6480917524
 20
89.3088499627
 30
0.0
 10
30.6480917524
 20
89.3668047221
 30
0.0
 10
30.6263546249
 20
89.4890382367
 30
0.0
 10
30.5505834289
 20
89.6608028552
 30
0.0
 10
30.4397160484
 20
89.8123041283
 30
0.0
 10
30.3447271313
 20
89.8922448547
 30
0.0
 10
30.2945368898
 20
89.9212215486
 30
0.0
  0
SPLINE
  5
48B
100
AcDbEntity
  8
0
100
AcDbSpline
 62
7
  6
CONTINUOUS
 70
0
 71
3
 72
11
 73
7
 74
0
 42
0.0000001
 43
0.0000001
 44
0.0000000001
 40
0.0
 40
0.0
 40
0.0
 40
0.0
 40
0.23721727
 40
0.499998382
 40
0.7627803746
 40
1.0
 40
1.0
 40
1.0
 40
1.0
 10
30.2945368898
 20
89.9212215486
 30
0.0
 10
30.2443469924
 20
89.8922445708
 30
0.0
 10
30.149358819
 20
89.8123032895
 30
0.0
 10
30.0384924331
 20
89.6608015327
 30
0.0
 10
29.9627219197
 20
89.4890366228
 30
0.0
 10
29.9409849712
 20
89.3668030535
 30
0.0
 10
29.9409849712
 20
89.3088482631
 30
0.0
  0
SPLINE
  5
48C
100
AcDbEntity
  8
0
100
AcDbSpline
 62
7
  6
CONTINUOUS
 70
0
 71
3
 72
11
 73
7
 74
0
 42
0.0000001
 43
0.0000001
 44
0.0000000001
 40
0.0
 40
0.0
 40
0.0
 40
0.0
 40
0.2372185796
 40
0.5000005262
 40
0.7627821863
 40
1.0
 40
1.0
 40
1.0
 40
1.0
 10
29.9409849712
 20
89.3088482631
 30
0.0
 10
29.9911752953
 20
89.2798715214
 30
0.0
 10
30.1079011529
 20
89.2375807955
 30
0.0
 10
30.2945389176
 20
89.2173188547
 30
0.0
 10
30.4811764007
 20
89.2375816473
 30
0.0
 10
30.5979017992
 20
89.2798729527
 30
0.0
 10
30.6480917524
 20
89.3088499627
 30
0.0
  0
SPLINE
  5
48D
100
AcDbEntity
  8
0
100
AcDbSpline
 62
7
  6
CONTINUOUS
 70
0
 71
3
 72
11
 73
7
 74
0
 42
0.0000001
 43
0.0000001
 44
0.0000000001
 40
0.0
 40
0.0
 40
0.0
 40
0.0
 40
0.23721727
 40
0.499998382
 40
0.7627803746
 40
1.0
 40
1.0
 40
1.0
 40
1.0
 10
57.0940060711
 20
80.3277458713
 30
0.0
 10
57.0739301122
 20
80.3161550802
 30
0.0
 10
57.0359348428
 20
80.2841785677
 30
0.0
 10
56.9915882885
 20
80.2235778649
 30
0.0
 10
56.9612800831
 20
80.154871901
 30
0.0
 10
56.9525853037
 20
80.1059784733
 30
0.0
 10
56.9525853037
 20
80.0827965571
 30
0.0
  0
SPLINE
  5
48E
100
AcDbEntity
  8
0
100
AcDbSpline
 62
7
  6
CONTINUOUS
 70
0
 71
3
 72
11
 73
7
 74
0
 42
0.0000001
 43
0.0000001
 44
0.0000000001
 40
0.0
 40
0.0
 40
0.0
 40
0.0
 40
0.2372193634
 40
0.5000010919
 40
0.762782226
 40
1.0
 40
1.0
 40
1.0
 40
1.0
 10
57.2354280162
 20
80.082797237
 30
0.0
 10
57.2354280162
 20
80.1059791407
 30
0.0
 10
57.2267331652
 20
80.1548725466
 30
0.0
 10
57.1964246868
 20
80.223578394
 30
0.0
 10
57.1520777346
 20
80.2841789032
 30
0.0
 10
57.1140821677
 20
80.3161551937
 30
0.0
 10
57.0940060711
 20
80.3277458713
 30
0.0
  0
SPLINE
  5
48F
100
AcDbEntity
  8
0
100
AcDbSpline
 62
7
  6
CONTINUOUS
 70
0
 71
3
 72
11
 73
7
 74
0
 42
0.0000001
 43
0.0000001
 44
0.0000000001
 40
0.0
 40
0.0
 40
0.0
 40
0.0
 40
0.2372185796
 40
0.5000005262
 40
0.7627821863
 40
1.0
 40
1.0
 40
1.0
 40
1.0
 10
56.9525853037
 20
80.0827965571
 30
0.0
 10
56.9726614334
 20
80.0712058604
 30
0.0
 10
57.0193517764
 20
80.0542895701
 30
0.0
 10
57.0940068823
 20
80.0461847938
 30
0.0
 10
57.1686618755
 20
80.0542899108
 30
0.0
 10
57.2153520349
 20
80.071206433
 30
0.0
 10
57.2354280162
 20
80.082797237
 30
0.0
  0
SPLINE
  5
490
100
AcDbEntity
  8
0
100
AcDbSpline
 62
7
  6
CONTINUOUS
 70
0
 71
3
 72
18
 73
14
 74
0
 42
0.0000001
 43
0.0000001
 44
0.0000000001
 40
0.0
 40
0.0
 40
0.0
 40
0.0
 40
0.1286585538
 40
0.2702079607
 40
0.4173278027
 40
0.5616316029
 40
0.6952660325
 40
0.7562716512
 40
0.8127630549
 40
0.864711743
 40
0.9125345558
 40
0.9571501792
 40
1.0
 40
1.0
 40
1.0
 40
1.0
 10
55.5383420073
 20
84.3693424285
 30
0.0
 10
55.7345103204
 20
84.4825995809
 30
0.0
 10
56.178660591
 20
84.6658588287
 30
0.0
 10
56.9025071879
 20
84.810667857
 30
0.0
 10
57.6682432737
 20
84.8318331544
 30
0.0
 10
58.4127065113
 20
84.7272918711
 30
0.0
 10
58.9832323696
 20
84.5367316634
 30
0.0
 10
59.3726091733
 20
84.3250776737
 30
0.0
 10
59.6143176959
 20
84.1484450955
 30
0.0
 10
59.809352094
 20
83.9525544541
 30
0.0
 10
59.9533165495
 20
83.7409017665
 30
0.0
 10
60.041947376
 20
83.5175836798
 30
0.0
 10
60.0621809025
 20
83.362945543
 30
0.0
 10
60.0621705946
 20
83.2875044593
 30
0.0
  0
SPLINE
  5
491
100
AcDbEntity
  8
0
100
AcDbSpline
 62
7
  6
CONTINUOUS
 70
0
 71
3
 72
9
 73
5
 74
0
 42
0.0000001
 43
0.0000001
 44
0.0000000001
 40
0.0
 40
0.0
 40
0.0
 40
0.0
 40
0.4744377155
 40
1.0
 40
1.0
 40
1.0
 40
1.0
 10
51.5785513926
 20
83.1854262915
 30
0.0
 10
51.5785513926
 20
83.2086082076
 30
0.0
 10
51.5872373489
 20
83.2574863526
 30
0.0
 10
51.6071326506
 20
83.3025720322
 30
0.0
 10
51.6199725764
 20
83.3248115595
 30
0.0
  0
SPLINE
  5
492
100
AcDbEntity
  8
0
100
AcDbSpline
 62
7
  6
CONTINUOUS
 70
0
 71
3
 72
9
 73
5
 74
0
 42
0.0000001
 43
0.0000001
 44
0.0000000001
 40
0.0
 40
0.0
 40
0.0
 40
0.0
 40
0.255502651
 40
1.0
 40
1.0
 40
1.0
 40
1.0
 10
51.6199725764
 20
83.3248115595
 30
0.0
 10
51.6237634312
 20
83.3313775491
 30
0.0
 10
51.6394448823
 20
83.3565705768
 30
0.0
 10
51.6583863477
 20
83.3798002263
 30
0.0
 10
51.6742386863
 20
83.3951873499
 30
0.0
  0
SPLINE
  5
493
100
AcDbEntity
  8
0
100
AcDbSpline
 62
7
  6
CONTINUOUS
 70
0
 71
3
 72
9
 73
5
 74
0
 42
0.0000001
 43
0.0000001
 44
0.0000000001
 40
0.0
 40
0.0
 40
0.0
 40
0.0
 40
0.2629554435
 40
1.0
 40
1.0
 40
1.0
 40
1.0
 10
51.6742386863
 20
83.3951873499
 30
0.0
 10
51.6778729091
 20
83.39871492
 30
0.0
 10
51.6920505772
 20
83.4117476044
 30
0.0
 10
51.7076780309
 20
83.4232776293
 30
0.0
 10
51.71997216
 20
83.4303756057
 30
0.0
  0
SPLINE
  5
494
100
AcDbEntity
  8
0
100
AcDbSpline
 62
7
  6
CONTINUOUS
 70
0
 71
3
 72
11
 73
7
 74
0
 42
0.0000001
 43
0.0000001
 44
0.0000000001
 40
0.0
 40
0.0
 40
0.0
 40
0.0
 40
0.2396873589
 40
0.5048850665
 40
0.7673867033
 40
1.0
 40
1.0
 40
1.0
 40
1.0
 10
30.7895242957
 20
71.8357318427
 30
0.0
 10
30.7693226109
 20
71.8240684642
 30
0.0
 10
30.7227162728
 20
71.8064858397
 30
0.0
 10
30.6483358004
 20
71.7957795227
 30
0.0
 10
30.574002828
 20
71.7999838216
 30
0.0
 10
30.5270008724
 20
71.8135705917
 30
0.0
 10
30.5066815832
 20
71.8235517546
 30
0.0
  0
ELLIPSE
  5
495
100
AcDbEntity
  8
0
100
AcDbEllipse
 62
7
  6
CONTINUOUS
 10
32.840144265
 20
69.2637847981
 30
0.0
 11
0.4041208668
 21
1.1441590009
 31
0.0
 40
0.6665900675
 41
7.0119268531
 42
7.440761843
  0
ELLIPSE
  5
496
100
AcDbEntity
  8
0
100
AcDbEllipse
 62
7
  6
CONTINUOUS
 10
10.6189193738
 20
79.7827177277
 30
0.0
 11
0.2019804225
 21
-0.0034287199
 31
0.0
 40
0.5771200208
 41
3.0409952935
 42
3.9465961204
  0
ELLIPSE
  5
497
100
AcDbEntity
  8
0
100
AcDbEllipse
 62
7
  6
CONTINUOUS
 10
43.5410732052
 20
63.8190642545
 30
0.0
 11
-0.6447984068
 21
2.2704128139
 31
0.0
 40
0.3366580175
 41
-1.4861535102
 42
-0.8426524014
  0
ELLIPSE
  5
498
100
AcDbEntity
  8
0
100
AcDbEllipse
 62
7
  6
CONTINUOUS
 10
31.588550042
 20
73.9872030127
 30
0.0
 11
0.0730786979
 21
0.1875914284
 31
0.0
 40
0.6552541388
 41
-4.1760058273
 42
-4.0271158797
  0
ENDSEC
  0
SECTION
  2
OBJECTS
  0
DICTIONARY
  5
C
100
AcDbDictionary
280
0
281
1
  3
ACAD_GROUP
350
D
  3
ACAD_MLINESTYLE
350
17
  3
ACAD_LAYOUT
350
1A
  3
ACAD_PLOTSETTINGS
350
19
  3
ACAD_PLOTSTYLENAME
350
E
  0
DICTIONARY
  5
D
102
{ACAD_REACTORS
330
C
102
}
100
AcDbDictionary
280
0
281
1
  0
ACDBDICTIONARYWDFLT
  5
E
102
{ACAD_REACTORS
330
C
102
}
100
AcDbDictionary
281
1
  3
Normal
350
F
100
AcDbDictionaryWithDefault
340
F
  0
DICTIONARY
  5
17
102
{ACAD_REACTORS
330
C
102
}
100
AcDbDictionary
280
0
281
1
  3
Standard
350
18
  0
DICTIONARY
  5
19
102
{ACAD_REACTORS
330
C
102
}
100
AcDbDictionary
281
1
  0
DICTIONARY
  5
1A
102
{ACAD_REACTORS
330
C
102
}
100
AcDbDictionary
281
1
  3
Model
350
499
  3
Layout1
350
49A
  0
ACDBPLACEHOLDER
  5
F
102
{ACAD_REACTORS
330
E
102
}
  0
MLINESTYLE
  5
18
102
{ACAD_REACTORS
330
17
102
}
100
AcDbMlineStyle
  2
STANDARD
 70
0
  3

 62
256
 51
90.0
 52
90.0
 71
2
 49
0.5
 62
256
  6
BYLAYER
 49
-0.5
 62
256
  6
BYLAYER
  0
LAYOUT
  5
499
102
{ACAD_REACTORS
330
1A
102
}
100
AcDbPlotSettings
  1

  2
none_device
  4

  6

 40
0.0
 41
0.0
 42
0.0
 43
0.0
 44
210.0
 45
297.0
 46
0.0
 47
0.0
 48
0.0
 49
0.0
140
0.0
141
0.0
142
1.0
143
1.0
 70
1024
 72
1
 73
0
 74
0
  7

 75
0
147
1.0
148
0.0
149
0.0
100
AcDbLayout
  1
Model
 70
0
 71
0
 10
0.0
 20
0.0
 11
210.0
 21
297.0
 12
0.0
 22
0.0
 32
0.0
 14
0.0
 24
0.0
 34
0.0
 15
0.0
 25
0.0
 35
0.0
146
0.0
 13
0.0
 23
0.0
 33
0.0
 16
1.0
 26
0.0
 36
0.0
 17
0.0
 27
1.0
 37
0.0
 76
0
330
210
345
0
346
0
  0
LAYOUT
  5
49A
102
{ACAD_REACTORS
330
1A
102
}
100
AcDbPlotSettings
  1

  2
none_device
  4

  6

 40
0.0
 41
0.0
 42
0.0
 43
0.0
 44
210.0
 45
297.0
 46
0.0
 47
0.0
 48
0.0
 49
0.0
140
0.0
141
0.0
142
1.0
143
1.0
 70
0
 72
1
 73
0
 74
0
  7

 75
0
147
1.0
148
0.0
149
0.0
100
AcDbLayout
  1
Layout1
 70
0
 71
1
 10
0.0
 20
0.0
 11
210.0
 21
297.0
 12
0.0
 22
0.0
 32
0.0
 14
0.0
 24
0.0
 34
0.0
 15
0.0
 25
0.0
 35
0.0
146
0.0
 13
0.0
 23
0.0
 33
0.0
 16
1.0
 26
0.0
 36
0.0
 17
0.0
 27
1.0
 37
0.0
 76
0
330
211
345
0
346
0
  0
ENDSEC
  0
EOF
