999
DXF file: C:\Users\sesa63760\Dev\_Creo\CAD\MCADID0002119_3D-CAD\drw0001_1.dxf
999
Pro/ENGINEER 2019471 by Parametric Technology Corporation
  0
SECTION
  2
HEADER
  9
$ACADVER
  1
AC1024
  9
$DWGCODEPAGE
  3
ANSI_1252
  9
$EXTMAX
 10
75.9245832252
 20
107.3790534185
 30
0.0
  9
$EXTMIN
 10
0.0
 20
0.0
 30
0.0
  9
$LIMMIN
 10
0.0
 20
0.0
  9
$LIMMAX
 10
75.9245832252
 20
107.3790534185
  9
$VIEWCTR
 10
37.9622916126
 20
53.6895267092
  9
$VIEWSIZE
 40
107.3790534185
  9
$CLAYER
  8
0
  9
$LTSCALE
 40
6.9995234821
  9
$CELTYPE
  6
BYLAYER
  9
$DIMSCALE
 40
1.0
  9
$DIMASZ
 40
0.903864086
  9
$DIMEXO
 40
1.0
  9
$DIMDLI
 40
4.8360344058
  9
$DIMEXE
 40
1.0
  9
$DIMCEN
 40
1.1453765698
  9
$DIMLFAC
 40
1.0
  9
$DIMBLK
  1
_FILLED
  9
$DIMALT
 70
0
  9
$DIMALTF
 40
0.0393700787
  9
$DIMTXT
 40
1.2654097204
  9
$DIMTOL
 70
1
  9
$DIMLIM
 70
0
  9
$DIMTFAC
 40
1.0
  9
$DIMTP
 40
0.01
  9
$DIMTM
 40
0.01
  9
$DIMGAP
 40
0.625
  9
$DIMDSEP
 70
46
  9
$AUNITS
 70
0
  9
$PDMODE
 70
3
  9
$PDSIZE
 40
0.3125
  9
$HANDSEED
  5
384
  9
$TILEMODE
 70
1
  9
$MEASUREMENT
 70
1
  9
$INSUNITS
 70
4
  0
ENDSEC
  0
SECTION
  2
CLASSES
  0
CLASS
  1
ACDBDICTIONARYWDFLT
  2
AcDbDictionaryWithDefault
  3
AutoCAD 2000
 90
0
 91
1
280
0
281
0
  0
CLASS
  1
ACDBPLACEHOLDER
  2
AcDbPlaceHolder
  3
AutoCAD 2000
 90
0
 91
1
280
0
281
0
  0
CLASS
  1
LAYOUT
  2
AcDbLayout
  3
AutoCAD 2000
 90
0
 91
0
280
0
281
0
  0
ENDSEC
  0
SECTION
  2
TABLES
  0
TABLE
  2
VPORT
  5
8
100
AcDbSymbolTable
 70
2
  0
VPORT
  5
1F4
100
AcDbSymbolTableRecord
100
AcDbViewportTableRecord
  2
*ACTIVE
 70
0
 10
0.0
 20
0.0
 11
1.0
 21
1.0
 12
37.9622916126
 22
53.6895267092
 13
0.0
 23
0.0
 14
1.0
 24
1.0
 15
0.0
 25
0.0
 16
0.0
 26
0.0
 36
1.0
 17
0.0
 27
0.0
 37
0.0
 40
107.3790534185
 41
0.7070707071
 42
50.0
 43
0.0
 44
0.0
 50
0.0
 51
0.0
 71
0
 72
100
 73
1
 74
1
 75
0
 76
0
 77
0
 78
0
  0
ENDTAB
  0
TABLE
  2
LTYPE
  5
5
100
AcDbSymbolTable
 70
6
  0
LTYPE
  5
14
100
AcDbSymbolTableRecord
100
AcDbLinetypeTableRecord
  2
BYBLOCK
 70
0
  3

 72
65
 73
0
 40
0.0
  0
LTYPE
  5
15
100
AcDbSymbolTableRecord
100
AcDbLinetypeTableRecord
  2
BYLAYER
 70
0
  3

 72
65
 73
0
 40
0.0
  0
LTYPE
  5
16
100
AcDbSymbolTableRecord
100
AcDbLinetypeTableRecord
  2
CONTINUOUS
 70
64
  3
Solid line
 72
65
 73
0
 40
0.0
  0
LTYPE
  5
1F5
100
AcDbSymbolTableRecord
100
AcDbLinetypeTableRecord
  2
CENTER
 70
64
  3
____ _ ____ _ ____ _ ____ _ ____ _ ____ _ ____
 72
65
 73
4
 40
0.6
 49
0.375
 74
0
 49
-0.075
 74
0
 49
0.075
 74
0
 49
-0.075
 74
0
  0
LTYPE
  5
1F6
100
AcDbSymbolTableRecord
100
AcDbLinetypeTableRecord
  2
HIDDEN
 70
64
  3
- - - - - - - - - - - - - - - - - - - -
 72
65
 73
2
 40
0.2
 49
0.1
 74
0
 49
-0.1
 74
0
  0
LTYPE
  5
1F7
100
AcDbSymbolTableRecord
100
AcDbLinetypeTableRecord
  2
PHANTOM
 70
64
  3
_____ _ _ _____ _ _ _____ _ _ _____
 72
65
 73
6
 40
0.8
 49
0.45
 74
0
 49
-0.05
 74
0
 49
0.1
 74
0
 49
-0.05
 74
0
 49
0.1
 74
0
 49
-0.05
 74
0
  0
LTYPE
  5
1F8
100
AcDbSymbolTableRecord
100
AcDbLinetypeTableRecord
  2
DOT
 70
64
  3
. . . . . . . . . . . . . . . . . . . .
 72
65
 73
2
 40
0.2
 49
0.1
 74
0
 49
-0.1
 74
0
  0
LTYPE
  5
1F9
100
AcDbSymbolTableRecord
100
AcDbLinetypeTableRecord
  2
DASHED
 70
64
  3
- - - - - - - - - - - - - - - - - - - -
 72
65
 73
2
 40
0.2
 49
0.1
 74
0
 49
-0.1
 74
0
  0
ENDTAB
  0
TABLE
  2
LAYER
  5
2
100
AcDbSymbolTable
 70
36
  0
LAYER
  5
10
100
AcDbSymbolTableRecord
100
AcDbLayerTableRecord
  2
0
 70
0
 62
7
  6
CONTINUOUS
370
-3
390
F
  0
LAYER
  5
1FA
100
AcDbSymbolTableRecord
100
AcDbLayerTableRecord
  2
DEFAULT_1
 70
0
 62
7
  6
CENTER
370
-3
390
F
  0
LAYER
  5
1FB
100
AcDbSymbolTableRecord
100
AcDbLayerTableRecord
  2
DEFAULT_2
 70
0
 62
8
  6
HIDDEN
370
-3
390
F
  0
LAYER
  5
1FC
100
AcDbSymbolTableRecord
100
AcDbLayerTableRecord
  2
DEFAULT_3
 70
0
 62
7
  6
PHANTOM
370
-3
390
F
  0
LAYER
  5
1FD
100
AcDbSymbolTableRecord
100
AcDbLayerTableRecord
  2
00_COMPONENTS
 70
0
 62
7
  6
CONTINUOUS
370
-3
390
F
  0
LAYER
  5
1FE
100
AcDbSymbolTableRecord
100
AcDbLayerTableRecord
  2
01_1_DEFAULT_DATUMS
 70
0
 62
7
  6
CONTINUOUS
370
-3
390
F
  0
LAYER
  5
1FF
100
AcDbSymbolTableRecord
100
AcDbLayerTableRecord
  2
01_PLANES
 70
0
 62
7
  6
CONTINUOUS
370
-3
390
F
  0
LAYER
  5
200
100
AcDbSymbolTableRecord
100
AcDbLayerTableRecord
  2
02_COORD_SYS
 70
0
 62
7
  6
CONTINUOUS
370
-3
390
F
  0
LAYER
  5
201
100
AcDbSymbolTableRecord
100
AcDbLayerTableRecord
  2
03_AXES
 70
0
 62
7
  6
CONTINUOUS
370
-3
390
F
  0
LAYER
  5
202
100
AcDbSymbolTableRecord
100
AcDbLayerTableRecord
  2
04_POINTS
 70
0
 62
7
  6
CONTINUOUS
370
-3
390
F
  0
LAYER
  5
203
100
AcDbSymbolTableRecord
100
AcDbLayerTableRecord
  2
05_CURVES
 70
0
 62
7
  6
CONTINUOUS
370
-3
390
F
  0
LAYER
  5
204
100
AcDbSymbolTableRecord
100
AcDbLayerTableRecord
  2
06_SURFS
 70
0
 62
7
  6
CONTINUOUS
370
-3
390
F
  0
LAYER
  5
205
100
AcDbSymbolTableRecord
100
AcDbLayerTableRecord
  2
07_COSMETICS
 70
0
 62
7
  6
CONTINUOUS
370
-3
390
F
  0
LAYER
  5
206
100
AcDbSymbolTableRecord
100
AcDbLayerTableRecord
  2
10_NOTES
 70
0
 62
7
  6
CONTINUOUS
370
-3
390
F
  0
LAYER
  5
207
100
AcDbSymbolTableRecord
100
AcDbLayerTableRecord
  2
11_NOTES_PUB
 70
0
 62
7
  6
CONTINUOUS
370
-3
390
F
  0
LAYER
  5
208
100
AcDbSymbolTableRecord
100
AcDbLayerTableRecord
  2
13_REF_GTOL
 70
0
 62
7
  6
CONTINUOUS
370
-3
390
F
  0
LAYER
  5
209
100
AcDbSymbolTableRecord
100
AcDbLayerTableRecord
  2
16_MISC
 70
0
 62
7
  6
CONTINUOUS
370
-3
390
F
  0
LAYER
  5
20A
100
AcDbSymbolTableRecord
100
AcDbLayerTableRecord
  2
17_NO_PRINT
 70
0
 62
7
  6
CONTINUOUS
370
-3
390
F
  0
LAYER
  5
20B
100
AcDbSymbolTableRecord
100
AcDbLayerTableRecord
  2
18_DATUM_CAMS_JOINTS
 70
0
 62
7
  6
CONTINUOUS
370
-3
390
F
  0
LAYER
  5
20C
100
AcDbSymbolTableRecord
100
AcDbLayerTableRecord
  2
19_DATUM_FUNCTIONAL
 70
0
 62
7
  6
CONTINUOUS
370
-3
390
F
  0
LAYER
  5
20D
100
AcDbSymbolTableRecord
100
AcDbLayerTableRecord
  2
20_DATUM_KINEMATIC_SCHEME
 70
0
 62
7
  6
CONTINUOUS
370
-3
390
F
  0
ENDTAB
  0
TABLE
  2
STYLE
  5
3
100
AcDbSymbolTable
 70
1
  0
STYLE
  5
11
100
AcDbSymbolTableRecord
100
AcDbTextStyleTableRecord
  2
STANDARD
 70
0
 40
0.0
 41
0.8
 50
0.0
 71
0
 42
0.2
  3
txt
  4

  0
STYLE
  5
20E
100
AcDbSymbolTableRecord
100
AcDbTextStyleTableRecord
  2
TEXTSTYLE_1
 70
0
 40
0.0
 41
0.8
 50
0.0
 71
0
 42
0.2
  3
gdt
  4

  0
ENDTAB
  0
TABLE
  2
VIEW
  5
6
100
AcDbSymbolTable
 70
0
  0
ENDTAB
  0
TABLE
  2
UCS
  5
7
100
AcDbSymbolTable
 70
0
  0
ENDTAB
  0
TABLE
  2
APPID
  5
9
100
AcDbSymbolTable
 70
1
  0
APPID
  5
20F
100
AcDbSymbolTableRecord
100
AcDbRegAppTableRecord
  2
ACAD
 70
0
  0
ENDTAB
  0
TABLE
  2
BLOCK_RECORD
  5
1
100
AcDbSymbolTable
 70
0
  0
BLOCK_RECORD
  5
210
100
AcDbSymbolTableRecord
100
AcDbBlockTableRecord
  2
*Model_Space
  0
BLOCK_RECORD
  5
211
100
AcDbSymbolTableRecord
100
AcDbBlockTableRecord
  2
*Paper_Space
  0
BLOCK_RECORD
  5
212
100
AcDbSymbolTableRecord
100
AcDbBlockTableRecord
  2
_FILLED
  0
ENDTAB
  0
TABLE
  2
DIMSTYLE
  5
A
100
AcDbSymbolTable
 70
1
100
AcDbDimStyleTable
 71
0
  0
DIMSTYLE
105
213
100
AcDbSymbolTableRecord
100
AcDbDimStyleTableRecord
  2
STANDARD
 70
0
  3

  4

 40
1.0
 41
0.903864086
 42
1.0
 43
0.38
 44
1.0
 45
0.0
 46
0.0
 47
0.01
 48
0.01
140
1.2654097204
141
0.09
142
0.0
143
25.4
144
1.0
145
0.0
146
1.0
147
0.625
 71
1
 72
0
 73
0
 74
0
 75
0
 76
0
 77
1
 78
8
 79
2
170
0
171
1
172
0
173
0
174
0
175
0
176
0
177
0
178
0
270
2
179
2
271
2
272
2
273
2
274
2
275
0
280
0
281
0
282
0
283
1
284
8
285
0
286
0
287
3
288
0
340
11
278
46
341
212
342
212
343
212
344
212
  0
ENDTAB
  0
ENDSEC
  0
SECTION
  2
BLOCKS
  0
BLOCK
  5
20
100
AcDbEntity
  8
0
100
AcDbBlockBegin
  2
*Model_Space
 70
0
 10
0.0
 20
0.0
 30
0.0
  3
*Model_Space
  1

  0
ENDBLK
  5
21
100
AcDbEntity
  8
0
100
AcDbBlockEnd
  0
BLOCK
  5
1C
100
AcDbEntity
  8
0
100
AcDbBlockBegin
  2
*Paper_Space
 70
0
 10
0.0
 20
0.0
 30
0.0
  3
*Paper_Space
  1

  0
ENDBLK
  5
1D
100
AcDbEntity
  8
0
100
AcDbBlockEnd
  0
BLOCK
  5
214
100
AcDbEntity
  8
0
100
AcDbBlockBegin
  2
_FILLED
 70
64
 10
0.0
 20
0.0
  3
_FILLED
  1

  0
SOLID
  5
215
100
AcDbEntity
  8
0
  6
BYBLOCK
 62
0
100
AcDbTrace
 10
0.0
 20
0.0
 11
-1.0
 21
0.25
 12
-1.0
 22
-0.25
 13
-1.0
 23
-0.25
  0
ENDBLK
  5
216
100
AcDbEntity
  8
0
  6
BYBLOCK
 62
0
100
AcDbBlockEnd
  0
ENDSEC
  0
SECTION
  2
ENTITIES
  0
LINE
  5
217
100
AcDbEntity
  8
0
100
AcDbLine
 62
7
  6
CONTINUOUS
 10
46.1033880744
 20
20.4474182028
 11
44.3356137616
 21
21.4680200891
  0
LINE
  5
218
100
AcDbEntity
  8
0
100
AcDbLine
 62
7
  6
CONTINUOUS
 10
40.8955251968
 20
28.4766289654
 11
38.6237300825
 21
29.788220814
  0
LINE
  5
219
100
AcDbEntity
  8
0
100
AcDbLine
 62
7
  6
CONTINUOUS
 10
49.0979600776
 20
23.8633965545
 11
48.9775397895
 21
23.9329196674
  0
LINE
  5
21A
100
AcDbEntity
  8
0
100
AcDbLine
 62
7
  6
CONTINUOUS
 10
49.3016145957
 20
80.6050354023
 11
60.5441632818
 21
87.0958851675
  0
LINE
  5
21B
100
AcDbEntity
  8
0
100
AcDbLine
 62
7
  6
CONTINUOUS
 10
40.5419709967
 20
29.7830272766
 11
39.3305730445
 21
30.4824123881
  0
LINE
  5
21C
100
AcDbEntity
  8
0
100
AcDbLine
 62
7
  6
CONTINUOUS
 10
49.9092517213
 20
26.0077840747
 11
50.1586158335
 21
25.8638168944
  0
LINE
  5
21D
100
AcDbEntity
  8
0
100
AcDbLine
 62
7
  6
CONTINUOUS
 10
44.1582531019
 20
30.0221581573
 11
44.3356137616
 21
29.9197612492
  0
LINE
  5
21E
100
AcDbEntity
  8
0
100
AcDbLine
 62
7
  6
CONTINUOUS
 10
61.3219839795
 20
86.6468203375
 11
57.9685150527
 21
84.7107057069
  0
LINE
  5
21F
100
AcDbEntity
  8
0
100
AcDbLine
 62
7
  6
CONTINUOUS
 10
51.5265671654
 20
80.9914675609
 11
56.5114010245
 21
83.8694455521
  0
LINE
  5
220
100
AcDbEntity
  8
0
100
AcDbLine
 62
7
  6
CONTINUOUS
 10
32.5043331973
 20
68.7026175946
 11
35.2323083971
 21
70.2776054092
  0
LINE
  5
221
100
AcDbEntity
  8
0
100
AcDbLine
 62
7
  6
CONTINUOUS
 10
50.3460110977
 20
28.0826982499
 11
50.5475373694
 21
27.9663496348
  0
LINE
  5
222
100
AcDbEntity
  8
0
100
AcDbLine
 62
7
  6
CONTINUOUS
 10
43.0268167597
 20
32.6757853593
 11
41.1076269101
 21
33.7838050688
  0
LINE
  5
223
100
AcDbEntity
  8
0
100
AcDbLine
 62
7
  6
CONTINUOUS
 10
41.7077816574
 20
34.3355768263
 11
42.7516882262
 21
33.7328907223
  0
LINE
  5
224
100
AcDbEntity
  8
0
100
AcDbLine
 62
7
  6
CONTINUOUS
 10
26.8392003574
 20
30.74678323
 11
26.8394473056
 21
30.7426436698
  0
LWPOLYLINE
  5
225
100
AcDbEntity
  8
0
100
AcDbPolyline
 62
7
  6
CONTINUOUS
 90
3
 70
0
 10
26.8394473056
 20
30.7426472967
 10
26.8394455006
 20
30.7486594593
 10
26.8392003574
 20
30.74678323
  0
LINE
  5
226
100
AcDbEntity
  8
0
100
AcDbLine
 62
7
  6
CONTINUOUS
 10
26.8394465283
 20
30.7465819482
 11
26.8394473056
 21
30.7426436698
  0
LINE
  5
227
100
AcDbEntity
  8
0
100
AcDbLine
 62
7
  6
CONTINUOUS
 10
25.3638598359
 20
55.7988378716
 11
25.3638598359
 21
58.6308471228
  0
LINE
  5
228
100
AcDbEntity
  8
0
100
AcDbLine
 62
7
  6
CONTINUOUS
 10
27.0184968408
 20
55.7292928581
 11
27.0184968408
 21
56.5334881133
  0
LINE
  5
229
100
AcDbEntity
  8
0
100
AcDbLine
 62
7
  6
CONTINUOUS
 10
31.7511848296
 20
65.5471473011
 11
35.9938078528
 21
67.9966122244
  0
LINE
  5
22A
100
AcDbEntity
  8
0
100
AcDbLine
 62
7
  6
CONTINUOUS
 10
38.0474551836
 20
67.9837987491
 11
39.8585632337
 21
69.0294362277
  0
LINE
  5
22B
100
AcDbEntity
  8
0
100
AcDbLine
 62
7
  6
CONTINUOUS
 10
33.6511763235
 20
65.3589550409
 11
37.8937993468
 21
67.8084199641
  0
LINE
  5
22C
100
AcDbEntity
  8
0
100
AcDbLine
 62
7
  6
CONTINUOUS
 10
66.3071075418
 20
83.7687230181
 11
62.953638615
 21
81.8326083876
  0
LINE
  5
22D
100
AcDbEntity
  8
0
100
AcDbLine
 62
7
  6
CONTINUOUS
 10
56.5116907276
 20
78.1133702415
 11
61.4965245868
 21
80.9913482328
  0
LINE
  5
22E
100
AcDbEntity
  8
0
100
AcDbLine
 62
7
  6
CONTINUOUS
 10
26.1508852975
 20
60.3704337009
 11
30.3935083208
 21
62.8198986242
  0
LINE
  5
22F
100
AcDbEntity
  8
0
100
AcDbLine
 62
7
  6
CONTINUOUS
 10
27.1316341487
 20
57.8551959616
 11
27.1316341487
 21
56.5988075786
  0
LINE
  5
230
100
AcDbEntity
  8
0
100
AcDbLine
 62
7
  6
CONTINUOUS
 10
32.4494271249
 20
65.950275272
 11
32.5043331973
 21
66.1714601015
  0
LINE
  5
231
100
AcDbEntity
  8
0
100
AcDbLine
 62
7
  6
CONTINUOUS
 10
37.9211851728
 20
68.7252167986
 11
49.3016145957
 21
80.6050354023
  0
LINE
  5
232
100
AcDbEntity
  8
0
100
AcDbLine
 62
7
  6
CONTINUOUS
 10
12.4513655243
 20
48.7227593614
 11
12.4610920782
 21
48.728700805
  0
LINE
  5
233
100
AcDbEntity
  8
0
100
AcDbLine
 62
7
  6
CONTINUOUS
 10
32.7248720746
 20
63.4442376983
 11
33.0750958516
 21
63.6464382833
  0
LINE
  5
234
100
AcDbEntity
  8
0
100
AcDbLine
 62
7
  6
CONTINUOUS
 10
40.4358243884
 20
67.7297395058
 11
39.4616746339
 21
67.16731724
  0
LINE
  5
235
100
AcDbEntity
  8
0
100
AcDbLine
 62
7
  6
CONTINUOUS
 10
56.3020008747
 20
76.5634519326
 11
67.5445495608
 21
83.0543016977
  0
LINE
  5
236
100
AcDbEntity
  8
0
100
AcDbLine
 62
7
  6
CONTINUOUS
 10
28.0508767914
 20
60.1822414407
 11
30.964168859
 21
61.8642213601
  0
LINE
  5
237
100
AcDbEntity
  8
0
100
AcDbLine
 62
7
  6
CONTINUOUS
 10
34.1649591812
 20
62.0721356628
 11
33.9296722631
 21
61.9362935082
  0
LINE
  5
238
100
AcDbEntity
  8
0
100
AcDbLine
 62
7
  6
CONTINUOUS
 10
41.0326136233
 20
65.996265693
 11
42.5358875793
 21
66.8641761355
  0
LINE
  5
239
100
AcDbEntity
  8
0
100
AcDbLine
 62
7
  6
CONTINUOUS
 10
27.1316341487
 20
57.8551959616
 11
27.8387499834
 21
58.2634470422
  0
LINE
  5
23A
100
AcDbEntity
  8
0
100
AcDbLine
 62
7
  6
CONTINUOUS
 10
44.1717399452
 20
67.5722210238
 11
43.1975901907
 21
67.0097987581
  0
LINE
  5
23B
100
AcDbEntity
  8
0
100
AcDbLine
 62
7
  6
CONTINUOUS
 10
23.6643193761
 20
55.1968637561
 11
12.4512114823
 21
48.7230115388
  0
LINE
  5
23C
100
AcDbEntity
  8
0
100
AcDbLine
 62
7
  6
CONTINUOUS
 10
54.2951877066
 20
45.3139806085
 11
56.3020008747
 21
45.5363600816
  0
LINE
  5
23D
100
AcDbEntity
  8
0
100
AcDbLine
 62
7
  6
CONTINUOUS
 10
55.1783149868
 20
41.0178860769
 11
54.6084484823
 21
41.1206464721
  0
LINE
  5
23E
100
AcDbEntity
  8
0
100
AcDbLine
 62
7
  6
CONTINUOUS
 10
53.8709189276
 20
34.0900653466
 11
54.6487396252
 21
33.6410005167
  0
LINE
  5
23F
100
AcDbEntity
  8
0
100
AcDbLine
 62
7
  6
CONTINUOUS
 10
30.964168859
 20
58.9085407406
 11
30.964168859
 21
63.799308569
  0
LINE
  5
240
100
AcDbEntity
  8
0
100
AcDbLine
 62
7
  6
CONTINUOUS
 10
32.5043331973
 20
66.1714601015
 11
32.5043331973
 21
68.7026175946
  0
LINE
  5
241
100
AcDbEntity
  8
0
100
AcDbLine
 62
7
  6
CONTINUOUS
 10
32.7248720746
 20
63.4442376983
 11
32.7248720746
 21
58.5452231956
  0
LINE
  5
242
100
AcDbEntity
  8
0
100
AcDbLine
 62
7
  6
CONTINUOUS
 10
34.2814268187
 20
60.0480743754
 11
34.2509727904
 21
60.0176925778
  0
LINE
  5
243
100
AcDbEntity
  8
0
100
AcDbLine
 62
7
  6
CONTINUOUS
 10
46.2918356508
 20
69.7795874878
 11
44.5509322981
 21
68.4200220762
  0
LINE
  5
244
100
AcDbEntity
  8
0
100
AcDbLine
 62
7
  6
CONTINUOUS
 10
30.5428432918
 20
56.2115350743
 11
34.4272270534
 21
59.2450600541
  0
LINE
  5
245
100
AcDbEntity
  8
0
100
AcDbLine
 62
7
  6
CONTINUOUS
 10
44.8639503848
 20
67.3956607352
 11
45.1664314544
 21
67.631884532
  0
LINE
  5
246
100
AcDbEntity
  8
0
100
AcDbLine
 62
7
  6
CONTINUOUS
 10
42.058685119
 20
65.4038764404
 11
37.8160620957
 21
62.9544115172
  0
LINE
  5
247
100
AcDbEntity
  8
0
100
AcDbLine
 62
7
  6
CONTINUOUS
 10
30.9641719138
 20
58.9085354496
 11
30.6106139965
 21
58.7044099093
  0
LINE
  5
248
100
AcDbEntity
  8
0
100
AcDbLine
 62
7
  6
CONTINUOUS
 10
27.0184968408
 20
56.5334881133
 11
28.9268359048
 21
57.6352616089
  0
LINE
  5
249
100
AcDbEntity
  8
0
100
AcDbLine
 62
7
  6
CONTINUOUS
 10
45.1303184216
 20
65.8939628373
 11
46.104468176
 21
66.4563851031
  0
LINE
  5
24A
100
AcDbEntity
  8
0
100
AcDbLine
 62
7
  6
CONTINUOUS
 10
34.3890965178
 20
59.5060578904
 11
32.7248720746
 21
58.5452231956
  0
LINE
  5
24B
100
AcDbEntity
  8
0
100
AcDbLine
 62
7
  6
CONTINUOUS
 10
29.7422507238
 20
55.1840336989
 11
30.3622079391
 21
55.5419640275
  0
LINE
  5
24C
100
AcDbEntity
  8
0
100
AcDbLine
 62
7
  6
CONTINUOUS
 10
55.1437068791
 20
35.8047238475
 11
55.3558434624
 21
35.6822495048
  0
LINE
  5
24D
100
AcDbEntity
  8
0
100
AcDbLine
 62
7
  6
CONTINUOUS
 10
34.0776712581
 20
63.0714676033
 11
34.2185666596
 21
61.4584005274
  0
LINE
  5
24E
100
AcDbEntity
  8
0
100
AcDbLine
 62
7
  6
CONTINUOUS
 10
34.3463901835
 20
59.9949892608
 11
34.4099627727
 21
59.2671667095
  0
LINE
  5
24F
100
AcDbEntity
  8
0
100
AcDbLine
 62
7
  6
CONTINUOUS
 10
37.990116099
 20
67.7528127193
 11
38.0474551836
 21
67.9837987491
  0
LINE
  5
250
100
AcDbEntity
  8
0
100
AcDbLine
 62
7
  6
CONTINUOUS
 10
56.3020008747
 20
76.5634519326
 11
48.8139237323
 21
68.7467874785
  0
LINE
  5
251
100
AcDbEntity
  8
0
100
AcDbLine
 62
7
  6
CONTINUOUS
 10
33.004839917
 20
53.0589848974
 11
38.7353047384
 21
57.5342142384
  0
LINE
  5
252
100
AcDbEntity
  8
0
100
AcDbLine
 62
7
  6
CONTINUOUS
 10
44.53708911
 20
62.0651408664
 11
47.6284280795
 21
64.4793343551
  0
LINE
  5
253
100
AcDbEntity
  8
0
100
AcDbLine
 62
7
  6
CONTINUOUS
 10
44.749216793
 20
61.5652769676
 11
46.2964453688
 21
62.4585644702
  0
LINE
  5
254
100
AcDbEntity
  8
0
100
AcDbLine
 62
7
  6
CONTINUOUS
 10
46.1071704614
 20
61.6960852699
 11
45.3737301949
 21
61.2726358623
  0
LINE
  5
255
100
AcDbEntity
  8
0
100
AcDbLine
 62
7
  6
CONTINUOUS
 10
40.5030790513
 20
58.3003874649
 11
44.7457020745
 21
60.7498523881
  0
LINE
  5
256
100
AcDbEntity
  8
0
100
AcDbLine
 62
7
  6
CONTINUOUS
 10
50.3460110977
 20
41.5958132534
 11
50.5475373694
 21
41.4794646383
  0
LINE
  5
257
100
AcDbEntity
  8
0
100
AcDbLine
 62
7
  6
CONTINUOUS
 10
27.0184968408
 20
56.5334881133
 11
29.5125778438
 21
55.0935623504
  0
LINE
  5
258
100
AcDbEntity
  8
0
100
AcDbLine
 62
7
  6
CONTINUOUS
 10
41.6291692394
 20
48.0982033026
 11
44.1659076756
 21
46.6336498162
  0
LINE
  5
259
100
AcDbEntity
  8
0
100
AcDbLine
 62
7
  6
CONTINUOUS
 10
54.3711587525
 20
41.4020748113
 11
54.9722020188
 21
41.05507017
  0
LINE
  5
25A
100
AcDbEntity
  8
0
100
AcDbLine
 62
7
  6
CONTINUOUS
 10
55.178349593
 20
41.0179459303
 11
54.5773063267
 21
41.3649505716
  0
LWPOLYLINE
  5
25B
100
AcDbEntity
  8
0
100
AcDbPolyline
 62
7
  6
CONTINUOUS
 90
10
 70
0
 10
31.7816645966
 20
53.9144587263
 10
33.9794007997
 20
52.2805358099
 10
36.6771598526
 20
49.3002824715
 10
38.9215309663
 20
45.759191421
 10
40.5254869166
 20
41.9521561212
 10
41.3624723064
 20
38.1812332763
 10
41.3634282836
 20
34.7518956073
 10
40.5285207325
 20
31.9462157341
 10
38.9273584344
 20
29.9897139997
 10
38.4141982013
 20
29.6491717233
  0
LWPOLYLINE
  5
25C
100
AcDbEntity
  8
0
100
AcDbPolyline
 62
7
  6
CONTINUOUS
 90
8
 70
0
 10
31.8091962872
 20
53.9514907016
 10
34.6414463593
 20
51.8228647349
 10
37.2160917677
 20
48.9042470389
 10
39.3152525023
 20
45.4429152502
 10
40.7444183718
 20
41.7590151092
 10
41.3810981056
 20
38.1737908453
 10
41.3817260102
 20
36.5180164023
 10
41.3629594757
 20
36.4336308771
  0
LINE
  5
25D
100
AcDbEntity
  8
0
100
AcDbLine
 62
7
  6
CONTINUOUS
 10
38.7353047384
 20
55.0751767821
 11
38.7353047384
 21
59.9741912849
  0
LINE
  5
25E
100
AcDbEntity
  8
0
100
AcDbLine
 62
7
  6
CONTINUOUS
 10
42.1771259332
 20
57.7165632961
 11
42.7410121209
 21
58.2791120598
  0
LINE
  5
25F
100
AcDbEntity
  8
0
100
AcDbLine
 62
7
  6
CONTINUOUS
 10
49.9848305884
 20
65.0507622225
 11
48.6098699567
 21
63.9769812372
  0
LINE
  5
260
100
AcDbEntity
  8
0
100
AcDbLine
 62
7
  6
CONTINUOUS
 10
41.5188666172
 20
56.9131839949
 11
42.6879267903
 21
57.8261661963
  0
LINE
  5
261
100
AcDbEntity
  8
0
100
AcDbLine
 62
7
  6
CONTINUOUS
 10
49.8403837328
 20
62.3001374706
 11
48.8662339784
 21
61.7377152049
  0
LINE
  5
262
100
AcDbEntity
  8
0
100
AcDbLine
 62
7
  6
CONTINUOUS
 10
42.1771259332
 20
57.7165632961
 11
41.7078792397
 21
57.4456452084
  0
LINE
  5
263
100
AcDbEntity
  8
0
100
AcDbLine
 62
7
  6
CONTINUOUS
 10
50.2804534287
 20
60.9212336959
 11
52.0915614787
 21
61.9668711745
  0
LINE
  5
264
100
AcDbEntity
  8
0
100
AcDbLine
 62
7
  6
CONTINUOUS
 10
68.2957276912
 20
71.2404557478
 11
68.08359654
 21
71.1179825016
  0
LINE
  5
265
100
AcDbEntity
  8
0
100
AcDbLine
 62
7
  6
CONTINUOUS
 10
42.761540196
 20
56.2576676963
 11
43.236760449
 21
56.5320345995
  0
LWPOLYLINE
  5
266
100
AcDbEntity
  8
0
100
AcDbPolyline
 62
7
  6
CONTINUOUS
 90
7
 70
0
 10
34.4933118668
 20
54.2214129989
 10
35.610240798
 20
53.7776743341
 10
37.9414680747
 20
51.9999748416
 10
40.043229685
 20
49.5466396632
 10
41.7156821201
 20
46.6476388019
 10
42.7854192631
 20
43.6073976404
 10
43.15827074
 20
40.6833752687
  0
LINE
  5
267
100
AcDbEntity
  8
0
100
AcDbLine
 62
7
  6
CONTINUOUS
 10
43.6285040364
 20
49.1474415758
 11
41.422321694
 21
50.4211527299
  0
LINE
  5
268
100
AcDbEntity
  8
0
100
AcDbLine
 62
7
  6
CONTINUOUS
 10
30.0378551191
 20
56.9938288776
 11
27.8387438739
 21
58.2634576242
  0
LINE
  5
269
100
AcDbEntity
  8
0
100
AcDbLine
 62
7
  6
CONTINUOUS
 10
28.0508767914
 20
60.1822414407
 11
30.6106139965
 21
58.7044099093
  0
LINE
  5
26A
100
AcDbEntity
  8
0
100
AcDbLine
 62
7
  6
CONTINUOUS
 10
40.8566339138
 20
52.7890013763
 11
43.4163711189
 21
51.3111698449
  0
LINE
  5
26B
100
AcDbEntity
  8
0
100
AcDbLine
 62
7
  6
CONTINUOUS
 10
34.4099627727
 20
59.2671667095
 11
34.4236220269
 21
59.2422446943
  0
LINE
  5
26C
100
AcDbEntity
  8
0
100
AcDbLine
 62
7
  6
CONTINUOUS
 10
40.5030790513
 20
58.3003874649
 11
40.5030790513
 21
53.4013729621
  0
LINE
  5
26D
100
AcDbEntity
  8
0
100
AcDbLine
 62
7
  6
CONTINUOUS
 10
40.8955250915
 20
31.2673479061
 11
40.8955250915
 21
29.9871577669
  0
LINE
  5
26E
100
AcDbEntity
  8
0
100
AcDbLine
 62
7
  6
CONTINUOUS
 10
41.6026349219
 20
28.884890628
 11
41.6026349219
 21
30.690003098
  0
LINE
  5
26F
100
AcDbEntity
  8
0
100
AcDbLine
 62
7
  6
CONTINUOUS
 10
42.761540196
 20
56.2576676963
 11
42.029179767
 21
55.5270442781
  0
LINE
  5
270
100
AcDbEntity
  8
0
100
AcDbLine
 62
7
  6
CONTINUOUS
 10
44.9335526674
 20
56.9682575361
 11
44.749216793
 21
56.8618318046
  0
LINE
  5
271
100
AcDbEntity
  8
0
100
AcDbLine
 62
7
  6
CONTINUOUS
 10
49.9255629772
 20
59.4915851955
 11
51.9200979106
 21
60.6431236025
  0
LINE
  5
272
100
AcDbEntity
  8
0
100
AcDbLine
 62
7
  6
CONTINUOUS
 10
44.7457020745
 20
55.8508378854
 11
40.5030790513
 21
53.4013729621
  0
LINE
  5
273
100
AcDbEntity
  8
0
100
AcDbLine
 62
7
  6
CONTINUOUS
 10
40.8566339138
 20
52.7890013763
 11
45.0992569371
 21
55.2384662995
  0
LINE
  5
274
100
AcDbEntity
  8
0
100
AcDbLine
 62
7
  6
CONTINUOUS
 10
42.029179767
 20
55.5270442781
 11
41.7728634771
 21
55.6044148104
  0
LINE
  5
275
100
AcDbEntity
  8
0
100
AcDbLine
 62
7
  6
CONTINUOUS
 10
38.7353047384
 20
55.6228184942
 11
37.3280985714
 21
56.4352509739
  0
LINE
  5
276
100
AcDbEntity
  8
0
100
AcDbLine
 62
7
  6
CONTINUOUS
 10
50.4427014705
 20
50.2575367717
 11
50.7432231037
 21
50.084034451
  0
LINE
  5
277
100
AcDbEntity
  8
0
100
AcDbLine
 62
7
  6
CONTINUOUS
 10
42.029179767
 20
55.5270442781
 11
41.6898303452
 21
55.7229633258
  0
LINE
  5
278
100
AcDbEntity
  8
0
100
AcDbLine
 62
7
  6
CONTINUOUS
 10
34.2509727904
 20
60.0176925778
 11
33.9116233685
 21
60.2136116256
  0
LINE
  5
279
100
AcDbEntity
  8
0
100
AcDbLine
 62
7
  6
CONTINUOUS
 10
33.6904231701
 20
60.5310157452
 11
34.3463901835
 21
59.9949892608
  0
LINE
  5
27A
100
AcDbEntity
  8
0
100
AcDbLine
 62
7
  6
CONTINUOUS
 10
43.105243093
 20
33.1205191292
 11
43.1052430932
 21
32.8813710927
  0
LINE
  5
27B
100
AcDbEntity
  8
0
100
AcDbLine
 62
7
  6
CONTINUOUS
 10
44.1659076756
 20
46.6336498162
 11
44.1659076756
 21
32.5081591716
  0
LINE
  5
27C
100
AcDbEntity
  8
0
100
AcDbLine
 62
7
  6
CONTINUOUS
 10
44.3356137616
 20
21.4680200891
 11
44.3356137616
 21
47.9226984041
  0
LINE
  5
27D
100
AcDbEntity
  8
0
100
AcDbLine
 62
7
  6
CONTINUOUS
 10
44.7457020745
 20
60.7498523881
 11
44.7457020745
 21
55.8508378854
  0
LINE
  5
27E
100
AcDbEntity
  8
0
100
AcDbLine
 62
7
  6
CONTINUOUS
 10
44.749216793
 20
61.5652769676
 11
44.749216793
 21
60.7498523881
  0
LINE
  5
27F
100
AcDbEntity
  8
0
100
AcDbLine
 62
7
  6
CONTINUOUS
 10
44.9335526674
 20
56.9682575361
 11
45.3737301949
 21
58.7414783692
  0
LINE
  5
280
100
AcDbEntity
  8
0
100
AcDbLine
 62
7
  6
CONTINUOUS
 10
46.1071704614
 20
61.6960852699
 11
46.2964453688
 21
62.4585644702
  0
LINE
  5
281
100
AcDbEntity
  8
0
100
AcDbLine
 62
7
  6
CONTINUOUS
 10
55.4066014961
 20
81.7549916521
 11
55.8870653935
 21
83.0758096079
  0
LINE
  5
282
100
AcDbEntity
  8
0
100
AcDbLine
 62
7
  6
CONTINUOUS
 10
47.6589941421
 20
53.7606347682
 11
43.4163711189
 21
51.3111698449
  0
LINE
  5
283
100
AcDbEntity
  8
0
100
AcDbLine
 62
7
  6
CONTINUOUS
 10
53.6469139791
 20
56.4962190344
 11
56.374889179
 21
58.071206849
  0
LINE
  5
284
100
AcDbEntity
  8
0
100
AcDbLine
 62
7
  6
CONTINUOUS
 10
49.3807721729
 20
53.8289448976
 11
50.0878760101
 21
54.2371890514
  0
LINE
  5
285
100
AcDbEntity
  8
0
100
AcDbLine
 62
7
  6
CONTINUOUS
 10
68.08359654
 20
64.5859631646
 11
68.2957276912
 21
64.7084364107
  0
LINE
  5
286
100
AcDbEntity
  8
0
100
AcDbLine
 62
7
  6
CONTINUOUS
 10
48.5044945497
 20
53.0780752488
 11
49.2393502278
 21
53.5023418399
  0
LINE
  5
287
100
AcDbEntity
  8
0
100
AcDbLine
 62
7
  6
CONTINUOUS
 10
34.2509727904
 20
60.0176925778
 11
33.9946565005
 21
60.0950631101
  0
LINE
  5
288
100
AcDbEntity
  8
0
100
AcDbLine
 62
7
  6
CONTINUOUS
 10
34.2185666596
 20
61.4584005274
 11
33.7840625888
 21
61.5948843645
  0
LINE
  5
289
100
AcDbEntity
  8
0
100
AcDbLine
 62
7
  6
CONTINUOUS
 10
42.761540196
 20
56.2576676963
 11
41.5644572801
 21
56.9487882048
  0
LINE
  5
28A
100
AcDbEntity
  8
0
100
AcDbLine
 62
7
  6
CONTINUOUS
 10
45.0992569371
 20
55.2384662995
 11
47.6589941421
 21
53.7606347682
  0
LINE
  5
28B
100
AcDbEntity
  8
0
100
AcDbLine
 62
7
  6
CONTINUOUS
 10
41.9684422577
 20
57.2642818831
 11
43.236760449
 21
56.5320345995
  0
LINE
  5
28C
100
AcDbEntity
  8
0
100
AcDbLine
 62
7
  6
CONTINUOUS
 10
49.2393502278
 20
53.5023418399
 11
51.2968920016
 21
52.3144464167
  0
LINE
  5
28D
100
AcDbEntity
  8
0
100
AcDbLine
 62
7
  6
CONTINUOUS
 10
49.3807721729
 20
53.8289448976
 11
51.3855312879
 21
52.6715228672
  0
LINE
  5
28E
100
AcDbEntity
  8
0
100
AcDbLine
 62
7
  6
CONTINUOUS
 10
38.3817498758
 20
60.5865628707
 11
33.0854980345
 21
63.6442861221
  0
LINE
  5
28F
100
AcDbEntity
  8
0
100
AcDbLine
 62
7
  6
CONTINUOUS
 10
50.0878760101
 20
54.2371890514
 11
51.5628053209
 21
53.385657481
  0
LINE
  5
290
100
AcDbEntity
  8
0
100
AcDbLine
 62
7
  6
CONTINUOUS
 10
42.63053159
 20
58.1688935664
 11
42.6879267903
 21
57.8261661963
  0
LINE
  5
291
100
AcDbEntity
  8
0
100
AcDbLine
 62
7
  6
CONTINUOUS
 10
45.3737301949
 20
61.2726358623
 11
45.3737301949
 21
58.7414783692
  0
LINE
  5
292
100
AcDbEntity
  8
0
100
AcDbLine
 62
7
  6
CONTINUOUS
 10
46.1033880744
 20
46.6571457927
 11
46.1033880744
 21
20.4474182028
  0
LINE
  5
293
100
AcDbEntity
  8
0
100
AcDbLine
 62
7
  6
CONTINUOUS
 10
48.2375245818
 20
57.0881033134
 11
47.4425469172
 21
53.8855978047
  0
LINE
  5
294
100
AcDbEntity
  8
0
100
AcDbLine
 62
7
  6
CONTINUOUS
 10
41.6291692394
 20
48.0982033026
 11
43.5375083034
 21
49.1999767982
  0
LINE
  5
295
100
AcDbEntity
  8
0
100
AcDbLine
 62
7
  6
CONTINUOUS
 10
44.1659076756
 20
46.6336498162
 11
44.3356137616
 21
46.7316290858
  0
LINE
  5
296
100
AcDbEntity
  8
0
100
AcDbLine
 62
7
  6
CONTINUOUS
 10
50.1885178874
 20
50.1107846875
 11
50.4427014705
 21
50.2575367717
  0
LINE
  5
297
100
AcDbEntity
  8
0
100
AcDbLine
 62
7
  6
CONTINUOUS
 10
33.6511763235
 20
65.3589550409
 11
37.8160620957
 21
62.9544115172
  0
LINE
  5
298
100
AcDbEntity
  8
0
100
AcDbLine
 62
7
  6
CONTINUOUS
 10
32.5043331973
 20
66.1714601015
 11
32.6684343522
 21
66.0767183988
  0
LINE
  5
299
100
AcDbEntity
  8
0
100
AcDbLine
 62
7
  6
CONTINUOUS
 10
45.3737301949
 20
58.7414783692
 11
53.6469139791
 21
53.9650615413
  0
LINE
  5
29A
100
AcDbEntity
  8
0
100
AcDbLine
 62
7
  6
CONTINUOUS
 10
49.2393502278
 20
56.5097120919
 11
49.2393502278
 21
53.5023418399
  0
LINE
  5
29B
100
AcDbEntity
  8
0
100
AcDbLine
 62
7
  6
CONTINUOUS
 10
49.3807721729
 20
56.428063941
 11
49.3807721729
 21
53.8289448976
  0
LINE
  5
29C
100
AcDbEntity
  8
0
100
AcDbLine
 62
7
  6
CONTINUOUS
 10
49.4515149402
 20
24.6390790778
 11
49.4515149402
 21
24.0675273858
  0
LINE
  5
29D
100
AcDbEntity
  8
0
100
AcDbLine
 62
7
  6
CONTINUOUS
 10
50.0878760101
 20
56.0198265858
 11
50.0878760101
 21
54.2371890514
  0
LINE
  5
29E
100
AcDbEntity
  8
0
100
AcDbLine
 62
7
  6
CONTINUOUS
 10
50.3460110977
 20
49.1066107159
 11
50.3460110977
 21
26.9804199867
  0
LINE
  5
29F
100
AcDbEntity
  8
0
100
AcDbLine
 62
7
  6
CONTINUOUS
 10
50.512170696
 20
25.2514453086
 11
50.512170696
 21
24.6798936166
  0
LINE
  5
2A0
100
AcDbEntity
  8
0
100
AcDbLine
 62
7
  6
CONTINUOUS
 10
50.5475373694
 20
41.4794646383
 11
50.5475373694
 21
27.9663496348
  0
LINE
  5
2A1
100
AcDbEntity
  8
0
100
AcDbLine
 62
7
  6
CONTINUOUS
 10
50.2804534287
 20
60.9212336959
 11
49.9255629772
 21
59.4915851955
  0
LINE
  5
2A2
100
AcDbEntity
  8
0
100
AcDbLine
 62
7
  6
CONTINUOUS
 10
46.1033880744
 20
46.6571457927
 11
50.3460110977
 21
49.1066107159
  0
LINE
  5
2A3
100
AcDbEntity
  8
0
100
AcDbLine
 62
7
  6
CONTINUOUS
 10
65.4673123423
 20
57.3599428753
 11
67.4016016269
 21
58.4766986484
  0
LINE
  5
2A4
100
AcDbEntity
  8
0
100
AcDbLine
 62
7
  6
CONTINUOUS
 10
67.5886238539
 20
57.3599217112
 11
68.0128861563
 21
57.6048682036
  0
LINE
  5
2A5
100
AcDbEntity
  8
0
100
AcDbLine
 62
7
  6
CONTINUOUS
 10
42.5359311117
 20
66.8641007179
 11
43.0692794076
 21
67.0152087625
  0
LINE
  5
2A6
100
AcDbEntity
  8
0
100
AcDbLine
 62
7
  6
CONTINUOUS
 10
32.5043331973
 20
68.7026175946
 11
34.8605123798
 21
67.3423076836
  0
LINE
  5
2A7
100
AcDbEntity
  8
0
100
AcDbLine
 62
7
  6
CONTINUOUS
 10
45.3737301949
 20
61.2726358623
 11
53.6469139791
 21
56.4962190344
  0
LINE
  5
2A8
100
AcDbEntity
  8
0
100
AcDbLine
 62
7
  6
CONTINUOUS
 10
49.9255629772
 20
59.4915851955
 11
46.1071704614
 21
61.6960852699
  0
LINE
  5
2A9
100
AcDbEntity
  8
0
100
AcDbLine
 62
7
  6
CONTINUOUS
 10
37.8937993468
 20
67.8084199641
 11
42.058685119
 21
65.4038764404
  0
LINE
  5
2AA
100
AcDbEntity
  8
0
100
AcDbLine
 62
7
  6
CONTINUOUS
 10
38.0474551836
 20
67.9837987491
 11
41.2613255564
 21
66.1283118009
  0
LINE
  5
2AB
100
AcDbEntity
  8
0
100
AcDbLine
 62
7
  6
CONTINUOUS
 10
46.4391011369
 20
63.1389893032
 11
50.2804534287
 21
60.9212336959
  0
LINE
  5
2AC
100
AcDbEntity
  8
0
100
AcDbLine
 62
7
  6
CONTINUOUS
 10
52.173876232
 20
31.8447196234
 11
52.173876232
 21
28.9053112101
  0
LINE
  5
2AD
100
AcDbEntity
  8
0
100
AcDbLine
 62
7
  6
CONTINUOUS
 10
53.0223637056
 20
60.6426413719
 11
53.0223637056
 21
60.0067445458
  0
LINE
  5
2AE
100
AcDbEntity
  8
0
100
AcDbLine
 62
7
  6
CONTINUOUS
 10
53.6469139791
 20
53.9650615413
 11
53.6469139791
 21
56.4962190344
  0
LINE
  5
2AF
100
AcDbEntity
  8
0
100
AcDbLine
 62
7
  6
CONTINUOUS
 10
50.2728289734
 20
49.5732186683
 11
50.4427014705
 21
50.2575367717
  0
LINE
  5
2B0
100
AcDbEntity
  8
0
100
AcDbLine
 62
7
  6
CONTINUOUS
 10
50.7432231037
 20
50.084034451
 11
51.9498506388
 21
54.9448393522
  0
LINE
  5
2B1
100
AcDbEntity
  8
0
100
AcDbLine
 62
7
  6
CONTINUOUS
 10
53.6469139791
 20
53.9650615413
 11
50.5475373694
 21
41.4794646383
  0
LINE
  5
2B2
100
AcDbEntity
  8
0
100
AcDbLine
 62
7
  6
CONTINUOUS
 10
67.588617966
 20
53.9305940506
 11
65.4673123423
 21
52.7058649883
  0
LINE
  5
2B3
100
AcDbEntity
  8
0
100
AcDbLine
 62
7
  6
CONTINUOUS
 10
65.4673123423
 20
51.8893766806
 11
68.2957276912
 21
53.522353296
  0
LINE
  5
2B4
100
AcDbEntity
  8
0
100
AcDbLine
 62
7
  6
CONTINUOUS
 10
43.0692794076
 20
67.0152087625
 11
39.4616746339
 21
67.16731724
  0
LINE
  5
2B5
100
AcDbEntity
  8
0
100
AcDbLine
 62
7
  6
CONTINUOUS
 10
40.4358243884
 20
67.7297395058
 11
44.1717399452
 21
67.5722210238
  0
LINE
  5
2B6
100
AcDbEntity
  8
0
100
AcDbLine
 62
7
  6
CONTINUOUS
 10
35.2323083971
 20
70.2776054092
 11
38.626416749
 21
68.3180603694
  0
LINE
  5
2B7
100
AcDbEntity
  8
0
100
AcDbLine
 62
7
  6
CONTINUOUS
 10
51.9200979106
 20
60.6431236025
 11
56.374889179
 21
58.071206849
  0
LINE
  5
2B8
100
AcDbEntity
  8
0
100
AcDbLine
 62
7
  6
CONTINUOUS
 10
39.8585632337
 20
69.0294362277
 11
42.2416343157
 21
67.6536006225
  0
LINE
  5
2B9
100
AcDbEntity
  8
0
100
AcDbLine
 62
7
  6
CONTINUOUS
 10
48.0345738055
 20
64.309121111
 11
52.0915614787
 21
61.9668711745
  0
LINE
  5
2BA
100
AcDbEntity
  8
0
100
AcDbLine
 62
7
  6
CONTINUOUS
 10
67.588617966
 20
53.9305940506
 11
68.2957276912
 21
53.522353296
  0
LINE
  5
2BB
100
AcDbEntity
  8
0
100
AcDbLine
 62
7
  6
CONTINUOUS
 10
48.8662339784
 20
61.7377152049
 11
45.2586292047
 21
65.7512156632
  0
LINE
  5
2BC
100
AcDbEntity
  8
0
100
AcDbLine
 62
7
  6
CONTINUOUS
 10
46.104468176
 20
66.4563851031
 11
49.8403837328
 21
62.3001374706
  0
LINE
  5
2BD
100
AcDbEntity
  8
0
100
AcDbLine
 62
7
  6
CONTINUOUS
 10
53.8709189276
 20
34.3921807476
 11
53.8709189276
 21
30.7832305573
  0
LINE
  5
2BE
100
AcDbEntity
  8
0
100
AcDbLine
 62
7
  6
CONTINUOUS
 10
54.2951877066
 20
41.8060282153
 11
54.2951877066
 21
46.5036099885
  0
LINE
  5
2BF
100
AcDbEntity
  8
0
100
AcDbLine
 62
7
  6
CONTINUOUS
 10
54.5073117923
 20
33.7226520669
 11
54.5073117923
 21
32.7967381601
  0
LINE
  5
2C0
100
AcDbEntity
  8
0
100
AcDbLine
 62
7
  6
CONTINUOUS
 10
54.6487396252
 20
35.5189560761
 11
54.6487396252
 21
33.6410005167
  0
LINE
  5
2C1
100
AcDbEntity
  8
0
100
AcDbLine
 62
7
  6
CONTINUOUS
 10
55.3558434624
 20
35.6822495048
 11
55.3558434624
 21
34.0492446705
  0
LINE
  5
2C2
100
AcDbEntity
  8
0
100
AcDbLine
 62
7
  6
CONTINUOUS
 10
55.3558434624
 20
35.9272002299
 11
55.3558434624
 21
40.6295272776
  0
LINE
  5
2C3
100
AcDbEntity
  8
0
100
AcDbLine
 62
7
  6
CONTINUOUS
 10
54.4336274856
 20
46.9075285112
 11
57.200275416
 21
50.9541031633
  0
LINE
  5
2C4
100
AcDbEntity
  8
0
100
AcDbLine
 62
7
  6
CONTINUOUS
 10
67.5445495608
 20
52.0272098468
 11
56.3020008747
 21
45.5363600816
  0
LINE
  5
2C5
100
AcDbEntity
  8
0
100
AcDbLine
 62
7
  6
CONTINUOUS
 10
41.7865262539
 20
36.5034867157
 11
41.363008165
 21
36.2589698926
  0
LINE
  5
2C6
100
AcDbEntity
  8
0
100
AcDbLine
 62
7
  6
CONTINUOUS
 10
66.8815141288
 20
57.7681624658
 11
67.5886238539
 21
57.3599217112
  0
LINE
  5
2C7
100
AcDbEntity
  8
0
100
AcDbLine
 62
7
  6
CONTINUOUS
 10
53.0223637056
 20
60.6426413719
 11
52.0915614787
 21
61.9668711745
  0
LINE
  5
2C8
100
AcDbEntity
  8
0
100
AcDbLine
 62
7
  6
CONTINUOUS
 10
57.4771549741
 20
56.5030399775
 11
56.374889179
 21
58.071206849
  0
LINE
  5
2C9
100
AcDbEntity
  8
0
100
AcDbLine
 62
7
  6
CONTINUOUS
 10
57.4771549741
 20
56.5030399775
 11
57.4771549741
 21
51.7619402087
  0
LINE
  5
2CA
100
AcDbEntity
  8
0
100
AcDbLine
 62
7
  6
CONTINUOUS
 10
54.5073117923
 20
32.7967381601
 11
54.1537569297
 21
31.4772442847
  0
LINE
  5
2CB
100
AcDbEntity
  8
0
100
AcDbLine
 62
7
  6
CONTINUOUS
 10
43.0016892723
 20
32.6524793675
 11
40.9990783943
 21
31.4962383426
  0
LINE
  5
2CC
100
AcDbEntity
  8
0
100
AcDbLine
 62
7
  6
CONTINUOUS
 10
38.4142675241
 20
29.6490516558
 11
27.2011276448
 21
23.1752168803
  0
LINE
  5
2CD
100
AcDbEntity
  8
0
100
AcDbLine
 62
7
  6
CONTINUOUS
 10
62.0731621099
 20
84.9739416155
 11
62.0521264086
 21
86.2263467677
  0
LINE
  5
2CE
100
AcDbEntity
  8
0
100
AcDbLine
 62
7
  6
CONTINUOUS
 10
62.0731621099
 20
84.9739416155
 11
62.0731621099
 21
84.3109661992
  0
LINE
  5
2CF
100
AcDbEntity
  8
0
100
AcDbLine
 62
7
  6
CONTINUOUS
 10
47.8705264376
 20
21.4676699224
 11
50.3460110977
 21
26.9804199867
  0
LINE
  5
2D0
100
AcDbEntity
  8
0
100
AcDbLine
 62
7
  6
CONTINUOUS
 10
68.0128861563
 20
57.6048682036
 11
68.2957276912
 21
58.094766832
  0
LINE
  5
2D1
100
AcDbEntity
  8
0
100
AcDbLine
 62
7
  6
CONTINUOUS
 10
52.173876232
 20
31.8447196234
 11
53.9416357856
 21
34.4983350872
  0
LINE
  5
2D2
100
AcDbEntity
  8
0
100
AcDbLine
 62
7
  6
CONTINUOUS
 10
44.3356137616
 20
32.6061384411
 11
44.1659076756
 21
32.5081591716
  0
LINE
  5
2D3
100
AcDbEntity
  8
0
100
AcDbLine
 62
7
  6
CONTINUOUS
 10
41.6026349219
 20
30.690003098
 11
44.3356137616
 21
32.2679238399
  0
LINE
  5
2D4
100
AcDbEntity
  8
0
100
AcDbLine
 62
7
  6
CONTINUOUS
 10
40.8955281905
 20
29.9871523991
 11
40.5419709967
 21
29.7830272766
  0
LINE
  5
2D5
100
AcDbEntity
  8
0
100
AcDbLine
 62
7
  6
CONTINUOUS
 10
44.3356137616
 20
30.462767278
 11
41.6026349219
 21
28.884890628
  0
LINE
  5
2D6
100
AcDbEntity
  8
0
100
AcDbLine
 62
7
  6
CONTINUOUS
 10
41.3955229584
 20
28.4271046863
 11
44.3356137616
 21
30.1245567706
  0
LINE
  5
2D7
100
AcDbEntity
  8
0
100
AcDbLine
 62
7
  6
CONTINUOUS
 10
54.6487396252
 20
35.5189560761
 11
55.3558434624
 21
35.9272002299
  0
LINE
  5
2D8
100
AcDbEntity
  8
0
100
AcDbLine
 62
7
  6
CONTINUOUS
 10
54.6487396252
 20
35.2740053509
 11
55.3558434624
 21
35.6822495048
  0
LINE
  5
2D9
100
AcDbEntity
  8
0
100
AcDbLine
 62
7
  6
CONTINUOUS
 10
65.4673123423
 20
51.8893766806
 11
65.4673123423
 21
57.3599428753
  0
LINE
  5
2DA
100
AcDbEntity
  8
0
100
AcDbLine
 62
7
  6
CONTINUOUS
 10
53.9416357856
 20
34.4983350872
 11
54.6487396252
 21
34.9065792425
  0
LINE
  5
2DB
100
AcDbEntity
  8
0
100
AcDbLine
 62
7
  6
CONTINUOUS
 10
54.6487396252
 20
33.6410005167
 11
55.3558434624
 21
34.0492446705
  0
LINE
  5
2DC
100
AcDbEntity
  8
0
100
AcDbLine
 62
7
  6
CONTINUOUS
 10
53.8709189276
 20
32.4293187615
 11
54.5073117923
 21
32.79673816
  0
LINE
  5
2DD
100
AcDbEntity
  8
0
100
AcDbLine
 62
7
  6
CONTINUOUS
 10
53.8709189276
 20
31.3139486628
 11
54.1537569297
 21
31.4772442847
  0
LINE
  5
2DE
100
AcDbEntity
  8
0
100
AcDbLine
 62
7
  6
CONTINUOUS
 10
27.2089535293
 20
23.179708742
 11
27.2006079185
 21
23.1767619321
  0
LINE
  5
2DF
100
AcDbEntity
  8
0
100
AcDbLine
 62
7
  6
CONTINUOUS
 10
68.2957276912
 20
64.7084364107
 11
68.08359654
 21
64.8309076173
  0
LINE
  5
2E0
100
AcDbEntity
  8
0
100
AcDbLine
 62
7
  6
CONTINUOUS
 10
68.2957276912
 20
81.3814229757
 11
68.2746919899
 21
82.6338281279
  0
LINE
  5
2E1
100
AcDbEntity
  8
0
100
AcDbLine
 62
7
  6
CONTINUOUS
 10
67.588617966
 20
57.3599217112
 11
67.588617966
 21
53.9305940506
  0
LINE
  5
2E2
100
AcDbEntity
  8
0
100
AcDbLine
 62
7
  6
CONTINUOUS
 10
68.08359654
 20
71.1179825016
 11
68.08359654
 21
64.5859631646
  0
LINE
  5
2E3
100
AcDbEntity
  8
0
100
AcDbLine
 62
7
  6
CONTINUOUS
 10
68.2957276912
 20
81.3814229757
 11
68.2957276912
 21
71.2404557478
  0
LINE
  5
2E4
100
AcDbEntity
  8
0
100
AcDbLine
 62
7
  6
CONTINUOUS
 10
68.2957276912
 20
64.7084364107
 11
68.2957276912
 21
58.094766832
  0
LINE
  5
2E5
100
AcDbEntity
  8
0
100
AcDbLine
 62
7
  6
CONTINUOUS
 10
68.2957276912
 20
53.522353296
 11
68.2957276912
 21
53.3048246775
  0
LINE
  5
2E6
100
AcDbEntity
  8
0
100
AcDbLine
 62
7
  6
CONTINUOUS
 10
52.173876232
 20
29.8034483487
 11
53.8709189276
 21
30.7832305573
  0
LINE
  5
2E7
100
AcDbEntity
  8
0
100
AcDbLine
 62
7
  6
CONTINUOUS
 10
52.173876232
 20
28.9053112101
 11
50.5475373694
 21
27.9663496348
  0
LINE
  5
2E8
100
AcDbEntity
  8
0
100
AcDbLine
 62
7
  6
CONTINUOUS
 10
50.1586158335
 20
25.8638168944
 11
49.7347013127
 21
25.6190711926
  0
LINE
  5
2E9
100
AcDbEntity
  8
0
100
AcDbLine
 62
7
  6
CONTINUOUS
 10
51.5619181794
 20
80.9710581051
 11
54.4503007216
 21
80.8652702602
  0
LINE
  5
2EA
100
AcDbEntity
  8
0
100
AcDbLine
 62
7
  6
CONTINUOUS
 10
56.3020008747
 20
76.5634519326
 11
49.3016145957
 21
80.6050354023
  0
LINE
  5
2EB
100
AcDbEntity
  8
0
100
AcDbLine
 62
7
  6
CONTINUOUS
 10
56.5116907276
 20
78.1133702415
 11
51.5265671654
 21
80.9914675609
  0
LINE
  5
2EC
100
AcDbEntity
  8
0
100
AcDbLine
 62
7
  6
CONTINUOUS
 10
66.8815141288
 20
57.7681624658
 11
66.8191712319
 21
58.1404343103
  0
LINE
  5
2ED
100
AcDbEntity
  8
0
100
AcDbLine
 62
7
  6
CONTINUOUS
 10
67.4016016269
 20
58.4766986484
 11
67.5886238539
 21
57.3599217112
  0
LINE
  5
2EE
100
AcDbEntity
  8
0
100
AcDbLine
 62
7
  6
CONTINUOUS
 10
49.4515149402
 20
24.6390790778
 11
50.512170696
 21
25.2514453086
  0
LINE
  5
2EF
100
AcDbEntity
  8
0
100
AcDbLine
 62
7
  6
CONTINUOUS
 10
50.512170696
 20
24.6798936166
 11
49.4515149402
 21
24.0675273858
  0
LINE
  5
2F0
100
AcDbEntity
  8
0
100
AcDbLine
 62
7
  6
CONTINUOUS
 10
49.3479589584
 20
23.838634415
 11
50.4086147142
 21
24.4510006458
  0
LINE
  5
2F1
100
AcDbEntity
  8
0
100
AcDbLine
 62
7
  6
CONTINUOUS
 10
46.1033880744
 20
20.4474182028
 11
47.8705264376
 21
21.4676699224
  0
LINE
  5
2F2
100
AcDbEntity
  8
0
100
AcDbLine
 62
7
  6
CONTINUOUS
 10
54.4503007216
 20
80.8652702602
 11
57.8642537024
 21
78.8942681778
  0
LINE
  5
2F3
100
AcDbEntity
  8
0
100
AcDbLine
 62
7
  6
CONTINUOUS
 10
59.1129324512
 20
79.6151888862
 11
55.4066014961
 21
81.7549916521
  0
LINE
  5
2F4
100
AcDbEntity
  8
0
100
AcDbLine
 62
7
  6
CONTINUOUS
 10
55.8870653935
 20
83.0758096078
 11
60.4970406557
 21
80.4142993607
  0
LINE
  5
2F5
100
AcDbEntity
  8
0
100
AcDbLine
 62
7
  6
CONTINUOUS
 10
61.4965245868
 20
80.9913482328
 11
56.5114010245
 21
83.8694455521
  0
LINE
  5
2F6
100
AcDbEntity
  8
0
100
AcDbLine
 62
7
  6
CONTINUOUS
 10
62.953638615
 20
81.8326083876
 11
57.9685150527
 21
84.7107057069
  0
LINE
  5
2F7
100
AcDbEntity
  8
0
100
AcDbLine
 62
7
  6
CONTINUOUS
 10
64.6597555367
 20
82.8176295718
 11
61.6589374684
 21
84.5501134973
  0
LINE
  5
2F8
100
AcDbEntity
  8
0
100
AcDbLine
 62
7
  6
CONTINUOUS
 10
60.5441632818
 20
87.0958851674
 11
61.3219839795
 21
86.6468203375
  0
LINE
  5
2F9
100
AcDbEntity
  8
0
100
AcDbLine
 62
7
  6
CONTINUOUS
 10
66.3071075418
 20
83.7687230181
 11
67.5445495608
 21
83.0543016977
  0
LINE
  5
2FA
100
AcDbEntity
  8
0
100
AcDbLine
 62
7
  6
CONTINUOUS
 10
68.0608320424
 20
83.1054433237
 11
66.8233900234
 21
83.8198646441
  0
LINE
  5
2FB
100
AcDbEntity
  8
0
100
AcDbLine
 62
7
  6
CONTINUOUS
 10
61.8382664611
 20
86.6979619635
 11
61.0604457635
 21
87.1470267935
  0
ARC
  5
2FC
100
AcDbEntity
  8
0
100
AcDbCircle
 62
7
  6
CONTINUOUS
 10
25.0948320909
 20
38.6541635432
 40
16.4681381935
100
AcDbArc
 50
17.8558487005
 51
18.1211753665
  0
ARC
  5
2FD
100
AcDbEntity
  8
0
100
AcDbCircle
 62
7
  6
CONTINUOUS
 10
25.2141481249
 20
38.692525478
 40
16.342806837
100
AcDbArc
 50
17.1807573159
 51
17.8560975883
  0
ARC
  5
2FE
100
AcDbEntity
  8
0
100
AcDbCircle
 62
7
  6
CONTINUOUS
 10
23.7724831138
 20
41.8878700837
 40
14.5267147912
100
AcDbArc
 50
56.5137273566
 51
59.9842729188
  0
ARC
  5
2FF
100
AcDbEntity
  8
0
100
AcDbCircle
 62
7
  6
CONTINUOUS
 10
28.291711325
 20
43.5057931327
 40
10.768699801
100
AcDbArc
 50
57.6154113573
 51
59.4182884318
  0
ARC
  5
300
100
AcDbEntity
  8
0
100
AcDbCircle
 62
7
  6
CONTINUOUS
 10
28.5885382348
 20
43.761441069
 40
10.4876568788
100
AcDbArc
 50
58.1231296876
 51
59.9958853998
  0
ARC
  5
301
100
AcDbEntity
  8
0
100
AcDbCircle
 62
7
  6
CONTINUOUS
 10
28.5282800731
 20
43.9017178887
 40
10.3074883628
100
AcDbArc
 50
59.430683018
 51
59.9996696
  0
ARC
  5
302
100
AcDbEntity
  8
0
100
AcDbCircle
 62
7
  6
CONTINUOUS
 10
28.8248631809
 20
44.4225944235
 40
9.7081051833
100
AcDbArc
 50
59.9784629659
 51
64.3355490982
  0
ARC
  5
303
100
AcDbEntity
  8
0
100
AcDbCircle
 62
7
  6
CONTINUOUS
 10
29.3560516793
 20
45.2135161299
 40
8.8444936959
100
AcDbArc
 50
65.0066172758
 51
65.4088355925
  0
ARC
  5
304
100
AcDbEntity
  8
0
100
AcDbCircle
 62
7
  6
CONTINUOUS
 10
42.2447035213
 20
63.6593127276
 40
4.2265479796
100
AcDbArc
 50
346.1373901527
 51
352.9284704855
  0
ARC
  5
305
100
AcDbEntity
  8
0
100
AcDbCircle
 62
7
  6
CONTINUOUS
 10
39.6417336868
 20
38.042449462
 40
4.1052599107
100
AcDbArc
 50
293.1558097333
 51
296.398973954
  0
ARC
  5
306
100
AcDbEntity
  8
0
100
AcDbCircle
 62
7
  6
CONTINUOUS
 10
31.7149627559
 20
51.7619413697
 40
3.949961231
100
AcDbArc
 50
110.1952932445
 51
119.961888296
  0
ARC
  5
307
100
AcDbEntity
  8
0
100
AcDbCircle
 62
7
  6
CONTINUOUS
 10
42.5491965474
 20
63.5897055001
 40
3.914250089
100
AcDbArc
 50
343.2030841441
 51
346.058711104
  0
ARC
  5
308
100
AcDbEntity
  8
0
100
AcDbCircle
 62
7
  6
CONTINUOUS
 10
41.8474058539
 20
61.7241879692
 40
2.9061588795
100
AcDbArc
 50
356.8654593665
 51
0.0370569701
  0
ARC
  5
309
100
AcDbEntity
  8
0
100
AcDbCircle
 62
7
  6
CONTINUOUS
 10
64.8825517063
 20
55.9310374879
 40
0.9383007788
100
AcDbArc
 50
359.4932749725
 51
359.9992435873
  0
ARC
  5
30A
100
AcDbEntity
  8
0
100
AcDbCircle
 62
7
  6
CONTINUOUS
 10
54.421106491
 20
40.9934645486
 40
0.4116517015
100
AcDbArc
 50
93.2566228942
 51
96.9691525673
  0
SPLINE
  5
30B
100
AcDbEntity
  8
0
100
AcDbSpline
 62
7
  6
CONTINUOUS
 70
0
 71
3
 72
26
 73
22
 74
0
 42
0.0000001
 43
0.0000001
 44
0.0000000001
 40
0.0
 40
0.0
 40
0.0
 40
0.0
 40
0.0651556826
 40
0.1347328222
 40
0.2077518576
 40
0.2831458874
 40
0.3597381182
 40
0.4363213743
 40
0.5116828277
 40
0.5846531958
 40
0.6541498139
 40
0.6873007564
 40
0.7192416577
 40
0.7791366317
 40
0.8333617414
 40
0.8817966737
 40
0.9248339947
 40
0.9446736459
 40
0.9636351936
 40
0.9819779608
 40
1.0
 40
1.0
 40
1.0
 40
1.0
 10
47.7699712414
 20
69.6147960273
 30
0.0
 10
47.8747959431
 20
69.5542768266
 30
0.0
 10
48.0851763812
 20
69.4178854079
 30
0.0
 10
48.3902173157
 20
69.1808262552
 30
0.0
 10
48.6903193111
 20
68.9083654333
 30
0.0
 10
48.9794305594
 20
68.6060289128
 30
0.0
 10
49.2517490972
 20
68.2798234563
 30
0.0
 10
49.5017938445
 20
67.9363247182
 30
0.0
 10
49.724542991
 20
67.5824292285
 30
0.0
 10
49.9155222067
 20
67.2252742841
 30
0.0
 10
50.0470698823
 20
66.9262894089
 30
0.0
 10
50.1325889667
 20
66.6912559642
 30
0.0
 10
50.2017858449
 20
66.4695510974
 30
0.0
 10
50.2636354663
 20
66.2047871353
 30
0.0
 10
50.2970387395
 20
65.9037735865
 30
0.0
 10
50.2871494528
 20
65.6321565602
 30
0.0
 10
50.2409310858
 20
65.4287923004
 30
0.0
 10
50.1807554095
 20
65.2887675375
 30
0.0
 10
50.1262166641
 20
65.1972915331
 30
0.0
 10
50.0613385424
 20
65.1171234805
 30
0.0
 10
50.0112166051
 20
65.0713697884
 30
0.0
 10
49.9848286404
 20
65.0507647203
 30
0.0
  0
SPLINE
  5
30C
100
AcDbEntity
  8
0
100
AcDbSpline
 62
7
  6
CONTINUOUS
 70
0
 71
3
 72
15
 73
11
 74
0
 42
0.0000001
 43
0.0000001
 44
0.0000000001
 40
0.0
 40
0.0
 40
0.0
 40
0.0
 40
0.1021295763
 40
0.2070676739
 40
0.3173142008
 40
0.4348668838
 40
0.5612032006
 40
0.6972972615
 40
0.8436097854
 40
1.0
 40
1.0
 40
1.0
 40
1.0
 10
30.5428480392
 20
56.2115289963
 30
0.0
 10
30.5208755663
 20
56.1943675343
 30
0.0
 10
30.4795680879
 20
56.1551934911
 30
0.0
 10
30.4286516329
 20
56.0845634562
 30
0.0
 10
30.3887255865
 20
56.0025260924
 30
0.0
 10
30.360012507
 20
55.9098746817
 30
0.0
 10
30.3426168474
 20
55.8073489989
 30
0.0
 10
30.3365723079
 20
55.6957215685
 30
0.0
 10
30.3418946629
 20
55.5758926713
 30
0.0
 10
30.3525707659
 20
55.4938478681
 30
0.0
 10
30.3596221541
 20
55.4517414949
 30
0.0
  0
SPLINE
  5
30D
100
AcDbEntity
  8
0
100
AcDbSpline
 62
7
  6
CONTINUOUS
 70
0
 71
3
 72
14
 73
10
 74
0
 42
0.0000001
 43
0.0000001
 44
0.0000000001
 40
0.0
 40
0.0
 40
0.0
 40
0.0
 40
0.1079122884
 40
0.2177759063
 40
0.3314021895
 40
0.4503630972
 40
0.5759159138
 40
0.7090256767
 40
1.0
 40
1.0
 40
1.0
 40
1.0
 10
44.5509341294
 20
68.4200197297
 30
0.0
 10
44.5243307062
 20
68.3992463028
 30
0.0
 10
44.4738181111
 20
68.353076816
 30
0.0
 10
44.4085305863
 20
68.272100689
 30
0.0
 10
44.3537624351
 20
68.1796436503
 30
0.0
 10
44.3097920933
 20
68.076296718
 30
0.0
 10
44.2767216079
 20
67.9626375106
 30
0.0
 10
44.2465035422
 20
67.7931497243
 30
0.0
 10
44.2422658503
 20
67.6597154084
 30
0.0
 10
44.2456925326
 20
67.5687679723
 30
0.0
  0
SPLINE
  5
30E
100
AcDbEntity
  8
0
100
AcDbSpline
 62
7
  6
CONTINUOUS
 70
0
 71
3
 72
15
 73
11
 74
0
 42
0.0000001
 43
0.0000001
 44
0.0000000001
 40
0.0
 40
0.0
 40
0.0
 40
0.0
 40
0.0964308848
 40
0.1966606143
 40
0.3039304154
 40
0.4206175696
 40
0.5481669225
 40
0.6872849551
 40
0.8380970119
 40
1.0
 40
1.0
 40
1.0
 40
1.0
 10
46.2918375989
 20
69.77958499
 30
0.0
 10
46.3316408784
 20
69.8106654198
 30
0.0
 10
46.4205342934
 20
69.8647461855
 30
0.0
 10
46.5725388331
 20
69.9156365762
 30
0.0
 10
46.7419491562
 20
69.9369107716
 30
0.0
 10
46.9265739248
 20
69.9287988794
 30
0.0
 10
47.1244677614
 20
69.8918692106
 30
0.0
 10
47.3335928512
 20
69.826650632
 30
0.0
 10
47.5516542388
 20
69.7339591653
 30
0.0
 10
47.6965423552
 20
69.6571892554
 30
0.0
 10
47.7699712414
 20
69.6147960273
 30
0.0
  0
SPLINE
  5
30F
100
AcDbEntity
  8
0
100
AcDbSpline
 62
7
  6
CONTINUOUS
 70
0
 71
3
 72
11
 73
7
 74
0
 42
0.0000001
 43
0.0000001
 44
0.0000000001
 40
0.0
 40
0.0
 40
0.0
 40
0.0
 40
0.2251728949
 40
0.4686356495
 40
0.727837077
 40
1.0
 40
1.0
 40
1.0
 40
1.0
 10
30.3596221541
 20
55.4517414949
 30
0.0
 10
30.3708088678
 20
55.384941607
 30
0.0
 10
30.4020951203
 20
55.2471978399
 30
0.0
 10
30.4701631748
 20
55.0388613133
 30
0.0
 10
30.5602569123
 20
54.8236752122
 30
0.0
 10
30.6325316132
 20
54.6809546715
 30
0.0
 10
30.6718750095
 20
54.6091642621
 30
0.0
  0
SPLINE
  5
310
100
AcDbEntity
  8
0
100
AcDbSpline
 62
7
  6
CONTINUOUS
 70
0
 71
3
 72
15
 73
11
 74
0
 42
0.0000001
 43
0.0000001
 44
0.0000000001
 40
0.0
 40
0.0
 40
0.0
 40
0.0
 40
0.1619022592
 40
0.3127117397
 40
0.4518290014
 40
0.5793787714
 40
0.6960663307
 40
0.8033369678
 40
0.9035677524
 40
1.0
 40
1.0
 40
1.0
 40
1.0
 10
46.0290678887
 20
68.2552306157
 30
0.0
 10
45.9556393264
 20
68.2976236568
 30
0.0
 10
45.8107530015
 20
68.3743933068
 30
0.0
 10
45.592693366
 20
68.4670834781
 30
0.0
 10
45.3835700519
 20
68.5323024981
 30
0.0
 10
45.1856762965
 20
68.5692330658
 30
0.0
 10
45.0010507288
 20
68.5773455439
 30
0.0
 10
44.8316389327
 20
68.5560726358
 30
0.0
 10
44.6796329067
 20
68.5051813525
 30
0.0
 10
44.5907378897
 20
68.451100711
 30
0.0
 10
44.5509341294
 20
68.4200197297
 30
0.0
  0
SPLINE
  5
311
100
AcDbEntity
  8
0
100
AcDbSpline
 62
7
  6
CONTINUOUS
 70
0
 71
3
 72
11
 73
7
 74
0
 42
0.0000001
 43
0.0000001
 44
0.0000000001
 40
0.0
 40
0.0
 40
0.0
 40
0.0
 40
0.2894569869
 40
0.5514798451
 40
0.7870117298
 40
1.0
 40
1.0
 40
1.0
 40
1.0
 10
47.8116492172
 20
65.2391279345
 30
0.0
 10
47.8216364572
 20
65.1794905349
 30
0.0
 10
47.8348582861
 20
65.0647426543
 30
0.0
 10
47.8324456344
 20
64.8997914496
 30
0.0
 10
47.806584036
 20
64.7528974983
 30
0.0
 10
47.7720477095
 20
64.6648239832
 30
0.0
 10
47.7507841078
 20
64.6257403665
 30
0.0
  0
SPLINE
  5
312
100
AcDbEntity
  8
0
100
AcDbSpline
 62
7
  6
CONTINUOUS
 70
0
 71
3
 72
23
 73
19
 74
0
 42
0.0000001
 43
0.0000001
 44
0.0000000001
 40
0.0
 40
0.0
 40
0.0
 40
0.0
 40
0.0405744775
 40
0.0855531442
 40
0.1352822814
 40
0.1897618695
 40
0.2487345902
 40
0.311750516
 40
0.3782118293
 40
0.4474109264
 40
0.5185625613
 40
0.590827442
 40
0.6633349133
 40
0.7352130493
 40
0.8056034345
 40
0.8736799021
 40
0.9387150585
 40
1.0
 40
1.0
 40
1.0
 40
1.0
 10
48.4841871655
 20
64.0392748336
 30
0.0
 10
48.5072775345
 20
64.1049185621
 30
0.0
 10
48.5411055112
 20
64.2487433183
 30
0.0
 10
48.5559867846
 20
64.4810606801
 30
0.0
 10
48.5377360289
 20
64.7369306549
 30
0.0
 10
48.4867683634
 20
65.012596085
 30
0.0
 10
48.4039180959
 20
65.3040833015
 30
0.0
 10
48.290421417
 20
65.6070328186
 30
0.0
 10
48.1479919012
 20
65.9168689257
 30
0.0
 10
47.9787980465
 20
66.2288740373
 30
0.0
 10
47.7854148366
 20
66.5382729659
 30
0.0
 10
47.5707919366
 20
66.8403112183
 30
0.0
 10
47.3382319921
 20
67.1303612363
 30
0.0
 10
47.0913001836
 20
67.4039713449
 30
0.0
 10
46.8337914004
 20
67.656935833
 30
0.0
 10
46.5696310966
 20
67.8854279349
 30
0.0
 10
46.3028986884
 20
68.0858856257
 30
0.0
 10
46.1200923609
 20
68.202678801
 30
0.0
 10
46.0290678887
 20
68.2552306157
 30
0.0
  0
SPLINE
  5
313
100
AcDbEntity
  8
0
100
AcDbSpline
 62
7
  6
CONTINUOUS
 70
0
 71
3
 72
26
 73
22
 74
0
 42
0.0000001
 43
0.0000001
 44
0.0000000001
 40
0.0
 40
0.0
 40
0.0
 40
0.0
 40
0.0180714056
 40
0.0365070747
 40
0.0556406297
 40
0.075757411
 40
0.0970830342
 40
0.1197787195
 40
0.1696215616
 40
0.2256493107
 40
0.2875906487
 40
0.3547730781
 40
0.426239314
 40
0.5008313741
 40
0.5772612098
 40
0.6541673435
 40
0.7301702163
 40
0.8039284223
 40
0.8741781049
 40
0.9398432628
 40
1.0
 40
1.0
 40
1.0
 40
1.0
 10
45.1664358793
 20
67.6318788658
 30
0.0
 10
45.1851597556
 20
67.6465032418
 30
0.0
 10
45.225474882
 20
67.673002897
 30
0.0
 10
45.2924981825
 20
67.7030054319
 30
0.0
 10
45.3658333193
 20
67.7233526435
 30
0.0
 10
45.4449908688
 20
67.7339410084
 30
0.0
 10
45.5294976693
 20
67.7347845163
 30
0.0
 10
45.6525020918
 20
67.7226211073
 30
0.0
 10
45.8173476378
 20
67.6813037669
 30
0.0
 10
46.0216791163
 20
67.5965892406
 30
0.0
 10
46.2343396226
 20
67.4771540844
 30
0.0
 10
46.4506410318
 20
67.3256550306
 30
0.0
 10
46.665794071
 20
67.1454393042
 30
0.0
 10
46.8749391396
 20
66.9405577765
 30
0.0
 10
47.0733309895
 20
66.715642654
 30
0.0
 10
47.2564575016
 20
66.475801638
 30
0.0
 10
47.420155475
 20
66.2264809037
 30
0.0
 10
47.5606970423
 20
65.9733543609
 30
0.0
 10
47.6749699565
 20
65.7221296892
 30
0.0
 10
47.7603397933
 20
65.4785239461
 30
0.0
 10
47.798586663
 20
65.3171291406
 30
0.0
 10
47.8116492172
 20
65.2391279345
 30
0.0
  0
SPLINE
  5
314
100
AcDbEntity
  8
0
100
AcDbSpline
 62
7
  6
CONTINUOUS
 70
0
 71
3
 72
26
 73
22
 74
0
 42
0.0000001
 43
0.0000001
 44
0.0000000001
 40
0.0
 40
0.0
 40
0.0
 40
0.0
 40
0.0601562128
 40
0.1258200142
 40
0.1960690079
 40
0.2698266692
 40
0.3458295057
 40
0.4227364186
 40
0.4991674842
 40
0.5737608938
 40
0.6452281881
 40
0.7124111228
 40
0.7743524749
 40
0.8303798432
 40
0.8802220815
 40
0.9029175027
 40
0.9242428944
 40
0.9443594432
 40
0.9634929302
 40
0.9819285436
 40
1.0
 40
1.0
 40
1.0
 40
1.0
 10
33.1880610547
 20
53.8187784768
 30
0.0
 10
33.1749986146
 20
53.8967790013
 30
0.0
 10
33.1367528607
 20
54.0581715172
 30
0.0
 10
33.0513841448
 20
54.3017740696
 30
0.0
 10
32.9371134231
 20
54.5529959663
 30
0.0
 10
32.7965733821
 20
54.8061214373
 30
0.0
 10
32.6328762899
 20
55.0554430525
 30
0.0
 10
32.4497487039
 20
55.2952865297
 30
0.0
 10
32.2513540681
 20
55.5202050834
 30
0.0
 10
32.0422057128
 20
55.7250900896
 30
0.0
 10
31.8270496757
 20
55.9053082198
 30
0.0
 10
31.6107462327
 20
56.0568080005
 30
0.0
 10
31.3980852125
 20
56.1762426156
 30
0.0
 10
31.1937545972
 20
56.2609558907
 30
0.0
 10
31.0289104535
 20
56.3022720615
 30
0.0
 10
30.9059074878
 20
56.3144349882
 30
0.0
 10
30.8214015892
 20
56.3135918392
 30
0.0
 10
30.7422449493
 20
56.303002234
 30
0.0
 10
30.6689100286
 20
56.2826561747
 30
0.0
 10
30.6018868622
 20
56.2526533415
 30
0.0
 10
30.5615720696
 20
56.2261532828
 30
0.0
 10
30.5428480392
 20
56.2115289963
 30
0.0
  0
SPLINE
  5
315
100
AcDbEntity
  8
0
100
AcDbSpline
 62
7
  6
CONTINUOUS
 70
0
 71
3
 72
15
 73
11
 74
0
 42
0.0000001
 43
0.0000001
 44
0.0000000001
 40
0.0
 40
0.0
 40
0.0
 40
0.0
 40
0.1021295763
 40
0.2070676739
 40
0.3173142008
 40
0.4348668838
 40
0.5612032006
 40
0.6972972615
 40
0.8436097854
 40
1.0
 40
1.0
 40
1.0
 40
1.0
 10
33.0048351696
 20
53.0589909754
 30
0.0
 10
33.0268076425
 20
53.0761524375
 30
0.0
 10
33.0681151209
 20
53.1153264807
 30
0.0
 10
33.1190315759
 20
53.1859565156
 30
0.0
 10
33.1589576223
 20
53.2679938793
 30
0.0
 10
33.1876707018
 20
53.36064529
 30
0.0
 10
33.2050663614
 20
53.4631709728
 30
0.0
 10
33.2111109009
 20
53.5747984033
 30
0.0
 10
33.2057885459
 20
53.6946273004
 30
0.0
 10
33.1951124429
 20
53.7766721036
 30
0.0
 10
33.1880610547
 20
53.8187784768
 30
0.0
  0
SPLINE
  5
316
100
AcDbEntity
  8
0
100
AcDbSpline
 62
7
  6
CONTINUOUS
 70
0
 71
3
 72
11
 73
7
 74
0
 42
0.0000001
 43
0.0000001
 44
0.0000000001
 40
0.0
 40
0.0
 40
0.0
 40
0.0
 40
0.2177843137
 40
0.4509117637
 40
0.7102976701
 40
1.0
 40
1.0
 40
1.0
 40
1.0
 10
27.3387486072
 20
58.3129775819
 30
0.0
 10
27.3717344711
 20
58.332021851
 30
0.0
 10
27.4475246217
 20
58.3595267174
 30
0.0
 10
27.5734107702
 20
58.3627141304
 30
0.0
 10
27.7075759018
 20
58.3303156429
 30
0.0
 10
27.7948650498
 20
58.288790502
 30
0.0
 10
27.8387438739
 20
58.2634576242
 30
0.0
  0
SPLINE
  5
317
100
AcDbEntity
  8
0
100
AcDbSpline
 62
7
  6
CONTINUOUS
 70
0
 71
3
 72
16
 73
12
 74
0
 42
0.0000001
 43
0.0000001
 44
0.0000000001
 40
0.0
 40
0.0
 40
0.0
 40
0.0
 40
0.045688331
 40
0.0921366417
 40
0.1898786928
 40
0.2977584175
 40
0.417763567
 40
0.5499239781
 40
0.6927471606
 40
0.8438968488
 40
1.0
 40
1.0
 40
1.0
 40
1.0
 10
41.7728661481
 20
55.6044194374
 30
0.0
 10
41.7464496107
 20
55.6196656811
 30
0.0
 10
41.695600422
 20
55.6548392774
 30
0.0
 10
41.6037657401
 20
55.7428723558
 30
0.0
 10
41.5110675653
 20
55.8862941024
 30
0.0
 10
41.4425443384
 20
56.0944779136
 30
0.0
 10
41.4150049065
 20
56.3346195425
 30
0.0
 10
41.4286693616
 20
56.5989433992
 30
0.0
 10
41.4827449604
 20
56.8790508651
 30
0.0
 10
41.5753223133
 20
57.1655655477
 30
0.0
 10
41.6598283821
 20
57.3529924292
 30
0.0
 10
41.707714152
 20
57.4455498956
 30
0.0
  0
SPLINE
  5
318
100
AcDbEntity
  8
0
100
AcDbSpline
 62
7
  6
CONTINUOUS
 70
0
 71
3
 72
11
 73
7
 74
0
 42
0.0000001
 43
0.0000001
 44
0.0000000001
 40
0.0
 40
0.0
 40
0.0
 40
0.0
 40
0.2177512726
 40
0.4508864534
 40
0.7104462763
 40
1.0
 40
1.0
 40
1.0
 40
1.0
 10
32.8304626655
 20
63.6695250607
 30
0.0
 10
32.8472868908
 20
63.6792361873
 30
0.0
 10
32.8859269481
 20
63.6933090528
 30
0.0
 10
32.9501634194
 20
63.6949212446
 30
0.0
 10
33.018590883
 20
63.6783628678
 30
0.0
 10
33.0631273238
 20
63.6572015657
 30
0.0
 10
33.0854980345
 20
63.6442861221
 30
0.0
  0
SPLINE
  5
319
100
AcDbEntity
  8
0
100
AcDbSpline
 62
7
  6
CONTINUOUS
 70
0
 71
3
 72
16
 73
12
 74
0
 42
0.0000001
 43
0.0000001
 44
0.0000000001
 40
0.0
 40
0.0
 40
0.0
 40
0.0
 40
0.045688331
 40
0.0921366417
 40
0.1898786928
 40
0.2977584175
 40
0.417763567
 40
0.5499239781
 40
0.6927471606
 40
0.8438968488
 40
1.0
 40
1.0
 40
1.0
 40
1.0
 10
33.9946591715
 20
60.0950677371
 30
0.0
 10
33.9682426341
 20
60.1103139808
 30
0.0
 10
33.9173934454
 20
60.1454875771
 30
0.0
 10
33.8255587635
 20
60.2335206555
 30
0.0
 10
33.7328605887
 20
60.3769424021
 30
0.0
 10
33.6643373618
 20
60.5851262133
 30
0.0
 10
33.6367979299
 20
60.8252678422
 30
0.0
 10
33.650462385
 20
61.0895916989
 30
0.0
 10
33.7045379837
 20
61.3696991649
 30
0.0
 10
33.7971153366
 20
61.6562138475
 30
0.0
 10
33.8816214055
 20
61.8436407289
 30
0.0
 10
33.9295071754
 20
61.9361981953
 30
0.0
  0
SPLINE
  5
31A
100
AcDbEntity
  8
0
100
AcDbSpline
 62
7
  6
CONTINUOUS
 70
0
 71
3
 72
9
 73
5
 74
0
 42
0.0000001
 43
0.0000001
 44
0.0000000001
 40
0.0
 40
0.0
 40
0.0
 40
0.0
 40
0.4921208943
 40
1.0
 40
1.0
 40
1.0
 40
1.0
 10
30.3935115645
 20
62.8198930059
 30
0.0
 10
30.4754357498
 20
62.8671916741
 30
0.0
 10
30.6533524121
 20
62.9446336219
 30
0.0
 10
30.8435834573
 20
62.9815407254
 30
0.0
 10
30.9407694793
 20
62.9908080923
 30
0.0
  0
SPLINE
  5
31B
100
AcDbEntity
  8
0
100
AcDbSpline
 62
7
  6
CONTINUOUS
 70
0
 71
3
 72
15
 73
11
 74
0
 42
0.0000001
 43
0.0000001
 44
0.0000000001
 40
0.0
 40
0.0
 40
0.0
 40
0.0
 40
0.1141546703
 40
0.2373261017
 40
0.3669753162
 40
0.4999989361
 40
0.6330227034
 40
0.7626723508
 40
0.8858444607
 40
1.0
 40
1.0
 40
1.0
 40
1.0
 10
47.6589941421
 20
53.7606347682
 30
0.0
 10
47.8429419615
 20
53.6544348477
 30
0.0
 10
48.2062719311
 20
53.399747036
 30
0.0
 10
48.7061944829
 20
52.9320352885
 30
0.0
 10
49.1669001245
 20
52.379164461
 30
0.0
 10
49.5710361366
 20
51.7618745103
 30
0.0
 10
49.9035603771
 20
51.103238335
 30
0.0
 10
50.1520120658
 20
50.4278192481
 30
0.0
 10
50.3071060973
 20
49.7610151641
 30
0.0
 10
50.3460110977
 20
49.3190157777
 30
0.0
 10
50.3460110977
 20
49.1066107159
 30
0.0
  0
SPLINE
  5
31C
100
AcDbEntity
  8
0
100
AcDbSpline
 62
7
  6
CONTINUOUS
 70
0
 71
3
 72
13
 73
9
 74
0
 42
0.0000001
 43
0.0000001
 44
0.0000000001
 40
0.0
 40
0.0
 40
0.0
 40
0.0
 40
0.1141767831
 40
0.2375713001
 40
0.500001251
 40
0.7624305195
 40
0.8858241805
 40
1.0
 40
1.0
 40
1.0
 40
1.0
 10
44.7457020745
 20
55.8508378854
 30
0.0
 10
44.7457020745
 20
55.822909901
 30
0.0
 10
44.7508494804
 20
55.7647443185
 30
0.0
 10
44.7785895503
 20
55.6453288795
 30
0.0
 10
44.8432248835
 20
55.4988932405
 30
0.0
 10
44.937724712
 20
55.3697002004
 30
0.0
 10
45.0272715594
 20
55.2859698458
 30
0.0
 10
45.0750706605
 20
55.2524299369
 30
0.0
 10
45.0992569371
 20
55.2384662995
 30
0.0
  0
SPLINE
  5
31D
100
AcDbEntity
  8
0
100
AcDbSpline
 62
7
  6
CONTINUOUS
 70
0
 71
3
 72
15
 73
11
 74
0
 42
0.0000001
 43
0.0000001
 44
0.0000000001
 40
0.0
 40
0.0
 40
0.0
 40
0.0
 40
0.1141546703
 40
0.2373261017
 40
0.3669753162
 40
0.4999989361
 40
0.6330227034
 40
0.7626723508
 40
0.8858444607
 40
1.0
 40
1.0
 40
1.0
 40
1.0
 10
42.058685119
 20
65.4038764404
 30
0.0
 10
42.2426329383
 20
65.29767652
 30
0.0
 10
42.6059629079
 20
65.0429887083
 30
0.0
 10
43.1058854597
 20
64.5752769607
 30
0.0
 10
43.5665911013
 20
64.0224061332
 30
0.0
 10
43.9707271134
 20
63.4051161826
 30
0.0
 10
44.3032513539
 20
62.7464800072
 30
0.0
 10
44.5517030426
 20
62.0710609203
 30
0.0
 10
44.7067970741
 20
61.4042568363
 30
0.0
 10
44.7457020745
 20
60.96225745
 30
0.0
 10
44.7457020745
 20
60.7498523881
 30
0.0
  0
SPLINE
  5
31E
100
AcDbEntity
  8
0
100
AcDbSpline
 62
7
  6
CONTINUOUS
 70
0
 71
3
 72
14
 73
10
 74
0
 42
0.0000001
 43
0.0000001
 44
0.0000000001
 40
0.0
 40
0.0
 40
0.0
 40
0.0
 40
0.1080466357
 40
0.2181307812
 40
0.3321113461
 40
0.4515001674
 40
0.5774437985
 40
0.7107269735
 40
1.0
 40
1.0
 40
1.0
 40
1.0
 10
26.1508885412
 20
60.3704280827
 30
0.0
 10
26.0885860213
 20
60.3344579283
 30
0.0
 10
25.9688167019
 20
60.2508523328
 30
0.0
 10
25.8105095325
 20
60.0951120863
 30
0.0
 10
25.6744266449
 20
59.9102065422
 30
0.0
 10
25.5616859252
 20
59.6983403052
 30
0.0
 10
25.4732713714
 20
59.4615407561
 30
0.0
 10
25.3863466733
 20
59.1061882311
 30
0.0
 10
25.3638598359
 20
58.8234536498
 30
0.0
 10
25.3638598359
 20
58.6308471228
 30
0.0
  0
SPLINE
  5
31F
100
AcDbEntity
  8
0
100
AcDbSpline
 62
7
  6
CONTINUOUS
 70
0
 71
3
 72
14
 73
10
 74
0
 42
0.0000001
 43
0.0000001
 44
0.0000000001
 40
0.0
 40
0.0
 40
0.0
 40
0.0
 40
0.1080471695
 40
0.2181317599
 40
0.3321126402
 40
0.4515013778
 40
0.5774449063
 40
0.7107281627
 40
1.0
 40
1.0
 40
1.0
 40
1.0
 10
35.9938111234
 20
67.9966065592
 30
0.0
 10
36.0561125233
 20
68.0325755053
 30
0.0
 10
36.1883986344
 20
68.0944947013
 30
0.0
 10
36.4024223995
 20
68.1537211462
 30
0.0
 10
36.6305909305
 20
68.1791195477
 30
0.0
 10
36.8704365323
 20
68.1708248136
 30
0.0
 10
37.119711762
 20
68.1289970589
 30
0.0
 10
37.4709090179
 20
68.026605561
 30
0.0
 10
37.7270014175
 20
67.9047186149
 30
0.0
 10
37.8937993468
 20
67.8084199641
 30
0.0
  0
SPLINE
  5
320
100
AcDbEntity
  8
0
100
AcDbSpline
 62
7
  6
CONTINUOUS
 70
0
 71
3
 72
14
 73
10
 74
0
 42
0.0000001
 43
0.0000001
 44
0.0000000001
 40
0.0
 40
0.0
 40
0.0
 40
0.0
 40
0.1079685449
 40
0.2179866223
 40
0.3319229485
 40
0.451295502
 40
0.5772525962
 40
0.7105775524
 40
1.0
 40
1.0
 40
1.0
 40
1.0
 10
31.7511881003
 20
65.5471416358
 30
0.0
 10
31.6886736693
 20
65.5110497061
 30
0.0
 10
31.5685105464
 20
65.4271155724
 30
0.0
 10
31.4097691561
 20
65.2706832367
 30
0.0
 10
31.2734167173
 20
65.0849003998
 30
0.0
 10
31.160579129
 20
64.8719972651
 30
0.0
 10
31.0722455157
 20
64.6340253257
 30
0.0
 10
30.985673029
 20
64.2768918038
 30
0.0
 10
30.9637240506
 20
63.9928086176
 30
0.0
 10
30.964168859
 20
63.799308569
 30
0.0
  0
SPLINE
  5
321
100
AcDbEntity
  8
0
100
AcDbSpline
 62
7
  6
CONTINUOUS
 70
0
 71
3
 72
15
 73
11
 74
0
 42
0.0000001
 43
0.0000001
 44
0.0000000001
 40
0.0
 40
0.0
 40
0.0
 40
0.0
 40
0.1141555516
 40
0.2373276756
 40
0.3669773296
 40
0.5000011
 40
0.6330247168
 40
0.7626739247
 40
0.885845342
 40
1.0
 40
1.0
 40
1.0
 40
1.0
 10
38.7353047384
 20
55.0751767821
 30
0.0
 10
38.7353047384
 20
54.8627716974
 30
0.0
 10
38.7742097516
 20
54.4207722624
 30
0.0
 10
38.9293038057
 20
53.7539681203
 30
0.0
 10
39.1777555323
 20
53.0785489999
 30
0.0
 10
39.510279795
 20
52.4199128223
 30
0.0
 10
39.9144158163
 20
51.8026228921
 30
0.0
 10
40.3751214478
 20
51.2497521141
 30
0.0
 10
40.8750439606
 20
50.7820404152
 30
0.0
 10
41.2383738944
 20
50.5273526389
 30
0.0
 10
41.422321694
 20
50.4211527299
 30
0.0
  0
SPLINE
  5
322
100
AcDbEntity
  8
0
100
AcDbSpline
 62
7
  6
CONTINUOUS
 70
0
 71
3
 72
13
 73
9
 74
0
 42
0.0000001
 43
0.0000001
 44
0.0000000001
 40
0.0
 40
0.0
 40
0.0
 40
0.0
 40
0.1141759018
 40
0.2375697245
 40
0.4999990825
 40
0.762428944
 40
0.8858232992
 40
1.0
 40
1.0
 40
1.0
 40
1.0
 10
38.3817498758
 20
60.5865628707
 30
0.0
 10
38.4059361698
 20
60.5725992233
 30
0.0
 10
38.4537353044
 20
60.5390592577
 30
0.0
 10
38.5432822211
 20
60.4553288596
 30
0.0
 10
38.6377820338
 20
60.3261357489
 30
0.0
 10
38.702417298
 20
60.1797001315
 30
0.0
 10
38.7301573649
 20
60.0602847743
 30
0.0
 10
38.7353047384
 20
60.0021192491
 30
0.0
 10
38.7353047384
 20
59.9741912849
 30
0.0
  0
SPLINE
  5
323
100
AcDbEntity
  8
0
100
AcDbSpline
 62
7
  6
CONTINUOUS
 70
0
 71
3
 72
10
 73
6
 74
0
 42
0.0000001
 43
0.0000001
 44
0.0000000001
 40
0.0
 40
0.0
 40
0.0
 40
0.0
 40
0.2716265159
 40
0.5289960456
 40
1.0
 40
1.0
 40
1.0
 40
1.0
 10
30.0378551191
 20
56.9938288776
 30
0.0
 10
30.1260405728
 20
56.942916134
 30
0.0
 10
30.3022256153
 20
56.8510130575
 30
0.0
 10
30.649909665
 20
56.7103316683
 30
0.0
 10
30.9194935243
 20
56.6482601569
 30
0.0
 10
31.0954604525
 20
56.6336824277
 30
0.0
  0
SPLINE
  5
324
100
AcDbEntity
  8
0
100
AcDbSpline
 62
7
  6
CONTINUOUS
 70
0
 71
3
 72
11
 73
7
 74
0
 42
0.0000001
 43
0.0000001
 44
0.0000000001
 40
0.0
 40
0.0
 40
0.0
 40
0.0
 40
0.2895401978
 40
0.5491171512
 40
0.782255066
 40
1.0
 40
1.0
 40
1.0
 40
1.0
 10
30.964168859
 20
58.9085407406
 30
0.0
 10
30.964168859
 20
58.883221429
 30
0.0
 10
30.9603028341
 20
58.8350431698
 30
0.0
 10
30.9408262995
 20
58.7688377487
 30
0.0
 10
30.9079730668
 20
58.7150971551
 30
0.0
 10
30.8770889558
 20
58.689192482
 30
0.0
 10
30.8605988892
 20
58.6796719983
 30
0.0
  0
SPLINE
  5
325
100
AcDbEntity
  8
0
100
AcDbSpline
 62
7
  6
CONTINUOUS
 70
0
 71
3
 72
15
 73
11
 74
0
 42
0.0000001
 43
0.0000001
 44
0.0000000001
 40
0.0
 40
0.0
 40
0.0
 40
0.0
 40
0.1141232787
 40
0.2373467935
 40
0.3669716251
 40
0.4999988493
 40
0.6330262331
 40
0.7626515288
 40
0.885875802
 40
1.0
 40
1.0
 40
1.0
 40
1.0
 10
43.6285040364
 20
49.1474415758
 30
0.0
 10
43.6768978431
 20
49.1195020305
 30
0.0
 10
43.7725057342
 20
49.0524562441
 30
0.0
 10
43.9040844618
 20
48.9293996784
 30
0.0
 10
44.0253142445
 20
48.7838806123
 30
0.0
 10
44.1316770379
 20
48.6214545172
 30
0.0
 10
44.21916171
 20
48.4481288122
 30
0.0
 10
44.2845712134
 20
48.2703809273
 30
0.0
 10
44.325353309
 20
48.0949013677
 30
0.0
 10
44.3356137616
 20
47.9785788928
 30
0.0
 10
44.3356137616
 20
47.9226984041
 30
0.0
  0
SPLINE
  5
326
100
AcDbEntity
  8
0
100
AcDbSpline
 62
7
  6
CONTINUOUS
 70
0
 71
3
 72
11
 73
7
 74
0
 42
0.0000001
 43
0.0000001
 44
0.0000000001
 40
0.0
 40
0.0
 40
0.0
 40
0.0
 40
0.2823211154
 40
0.5393538486
 40
0.7755100621
 40
1.0
 40
1.0
 40
1.0
 40
1.0
 10
42.7410121209
 20
58.2791120598
 30
0.0
 10
42.7929775534
 20
58.3018907918
 30
0.0
 10
42.8959414042
 20
58.337812548
 30
0.0
 10
43.0514517116
 20
58.3597590855
 30
0.0
 10
43.1965378262
 20
58.3454883751
 30
0.0
 10
43.2840134246
 20
58.3108719775
 30
0.0
 10
43.323087298
 20
58.2883174773
 30
0.0
  0
SPLINE
  5
327
100
AcDbEntity
  8
0
100
AcDbSpline
 62
7
  6
CONTINUOUS
 70
0
 71
3
 72
14
 73
10
 74
0
 42
0.0000001
 43
0.0000001
 44
0.0000000001
 40
0.0
 40
0.0
 40
0.0
 40
0.0
 40
0.289271846
 40
0.4225551122
 40
0.5484986403
 40
0.6678873729
 40
0.7818682504
 40
0.8919528364
 40
1.0
 40
1.0
 40
1.0
 40
1.0
 10
33.6511763235
 20
65.3589550409
 30
0.0
 10
33.4843783893
 20
65.4552536945
 30
0.0
 10
33.2282859765
 20
65.5771406409
 30
0.0
 10
32.8770887094
 20
65.6795321421
 30
0.0
 10
32.6278134762
 20
65.7213598945
 30
0.0
 10
32.3879678797
 20
65.729654618
 30
0.0
 10
32.159799358
 20
65.7042562152
 30
0.0
 10
31.9457755996
 20
65.6450297761
 30
0.0
 10
31.8134894998
 20
65.5831105743
 30
0.0
 10
31.7511881003
 20
65.5471416358
 30
0.0
  0
SPLINE
  5
328
100
AcDbEntity
  8
0
100
AcDbSpline
 62
7
  6
CONTINUOUS
 70
0
 71
3
 72
15
 73
11
 74
0
 42
0.0000001
 43
0.0000001
 44
0.0000000001
 40
0.0
 40
0.0
 40
0.0
 40
0.0
 40
0.1141555516
 40
0.2373276756
 40
0.3669773296
 40
0.5000011
 40
0.6330247168
 40
0.7626739247
 40
0.885845342
 40
1.0
 40
1.0
 40
1.0
 40
1.0
 10
40.5030790513
 20
58.3003874649
 30
0.0
 10
40.5030790513
 20
58.5127925496
 30
0.0
 10
40.4641740381
 20
58.9547919846
 30
0.0
 10
40.309079984
 20
59.6215961267
 30
0.0
 10
40.0606282574
 20
60.2970152472
 30
0.0
 10
39.7281039946
 20
60.9556514247
 30
0.0
 10
39.3239679733
 20
61.572941355
 30
0.0
 10
38.8632623418
 20
62.1258121329
 30
0.0
 10
38.3633398291
 20
62.5935238319
 30
0.0
 10
38.0000098952
 20
62.8482116082
 30
0.0
 10
37.8160620957
 20
62.9544115172
 30
0.0
  0
SPLINE
  5
329
100
AcDbEntity
  8
0
100
AcDbSpline
 62
7
  6
CONTINUOUS
 70
0
 71
3
 72
13
 73
9
 74
0
 42
0.0000001
 43
0.0000001
 44
0.0000000001
 40
0.0
 40
0.0
 40
0.0
 40
0.0
 40
0.1141759018
 40
0.2375697245
 40
0.4999990825
 40
0.762428944
 40
0.8858232992
 40
1.0
 40
1.0
 40
1.0
 40
1.0
 10
40.8566339138
 20
52.7890013763
 30
0.0
 10
40.8324476198
 20
52.8029650238
 30
0.0
 10
40.7846484852
 20
52.8365049894
 30
0.0
 10
40.6951015685
 20
52.9202353875
 30
0.0
 10
40.6006017558
 20
53.0494284982
 30
0.0
 10
40.5359664916
 20
53.1958641156
 30
0.0
 10
40.5082264248
 20
53.3152794728
 30
0.0
 10
40.5030790513
 20
53.3734449979
 30
0.0
 10
40.5030790513
 20
53.4013729621
 30
0.0
  0
SPLINE
  5
32A
100
AcDbEntity
  8
0
100
AcDbSpline
 62
7
  6
CONTINUOUS
 70
0
 71
3
 72
15
 73
11
 74
0
 42
0.0000001
 43
0.0000001
 44
0.0000000001
 40
0.0
 40
0.0
 40
0.0
 40
0.0
 40
0.1141555516
 40
0.2373276756
 40
0.3669773296
 40
0.5000011
 40
0.6330247168
 40
0.7626739247
 40
0.885845342
 40
1.0
 40
1.0
 40
1.0
 40
1.0
 10
46.1033880744
 20
46.6571457927
 30
0.0
 10
46.1033880744
 20
46.8695508774
 30
0.0
 10
46.0644830612
 20
47.3115503124
 30
0.0
 10
45.9093890072
 20
47.9783544545
 30
0.0
 10
45.6609372805
 20
48.6537735749
 30
0.0
 10
45.3284130178
 20
49.3124097525
 30
0.0
 10
44.9242769965
 20
49.9296996827
 30
0.0
 10
44.463571365
 20
50.4825704607
 30
0.0
 10
43.9636488522
 20
50.9502821596
 30
0.0
 10
43.6003189184
 20
51.2049699359
 30
0.0
 10
43.4163711189
 20
51.3111698449
 30
0.0
  0
SPLINE
  5
32B
100
AcDbEntity
  8
0
100
AcDbSpline
 62
7
  6
CONTINUOUS
 70
0
 71
3
 72
16
 73
12
 74
0
 42
0.0000001
 43
0.0000001
 44
0.0000000001
 40
0.0
 40
0.0
 40
0.0
 40
0.0
 40
0.0443631996
 40
0.0896881487
 40
0.186216919
 40
0.2946628138
 40
0.4166414855
 40
0.5512800699
 40
0.6959327943
 40
0.8470012789
 40
1.0
 40
1.0
 40
1.0
 40
1.0
 10
43.323087298
 20
58.2883174773
 30
0.0
 10
43.3477735873
 20
58.274067881
 30
0.0
 10
43.3951441233
 20
58.2405860449
 30
0.0
 10
43.4792282269
 20
58.1546896013
 30
0.0
 10
43.5599647112
 20
58.0123204554
 30
0.0
 10
43.6107413431
 20
57.8065320997
 30
0.0
 10
43.6181635322
 20
57.5706996041
 30
0.0
 10
43.5824798718
 20
57.3143354822
 30
0.0
 10
43.5055519212
 20
57.0478674167
 30
0.0
 10
43.3905843238
 20
56.7827131893
 30
0.0
 10
43.2915500283
 20
56.6136531672
 30
0.0
 10
43.236760449
 20
56.5320345995
 30
0.0
  0
SPLINE
  5
32C
100
AcDbEntity
  8
0
100
AcDbSpline
 62
7
  6
CONTINUOUS
 70
0
 71
3
 72
11
 73
7
 74
0
 42
0.0000001
 43
0.0000001
 44
0.0000000001
 40
0.0
 40
0.0
 40
0.0
 40
0.0
 40
0.2177460211
 40
0.4508843679
 40
0.7104607696
 40
1.0
 40
1.0
 40
1.0
 40
1.0
 10
30.8605988892
 20
58.6796719983
 30
0.0
 10
30.8441091808
 20
58.6701517214
 30
0.0
 10
30.8062339286
 20
58.6563579981
 30
0.0
 10
30.7432682235
 20
58.654776302
 30
0.0
 10
30.6761961351
 20
58.6710107974
 30
0.0
 10
30.6325406284
 20
58.6917508488
 30
0.0
 10
30.6106139965
 20
58.7044099093
 30
0.0
  0
SPLINE
  5
32D
100
AcDbEntity
  8
0
100
AcDbSpline
 62
7
  6
CONTINUOUS
 70
0
 71
3
 72
11
 73
7
 74
0
 42
0.0000001
 43
0.0000001
 44
0.0000000001
 40
0.0
 40
0.0
 40
0.0
 40
0.0
 40
0.2883918327
 40
0.547549673
 40
0.7811593074
 40
1.0
 40
1.0
 40
1.0
 40
1.0
 10
32.7248720746
 20
63.4442376983
 30
0.0
 10
32.7253040955
 20
63.4691780469
 30
0.0
 10
32.7299234559
 20
63.5166200207
 30
0.0
 10
32.7501650409
 20
63.5816967219
 30
0.0
 10
32.7833300829
 20
63.6345186665
 30
0.0
 10
32.8140692433
 20
63.6600625984
 30
0.0
 10
32.8304626655
 20
63.6695250607
 30
0.0
  0
SPLINE
  5
32E
100
AcDbEntity
  8
0
100
AcDbSpline
 62
7
  6
CONTINUOUS
 70
0
 71
3
 72
9
 73
5
 74
0
 42
0.0000001
 43
0.0000001
 44
0.0000000001
 40
0.0
 40
0.0
 40
0.0
 40
0.0
 40
0.481242504
 40
1.0
 40
1.0
 40
1.0
 40
1.0
 10
32.625512352
 20
57.7666528771
 30
0.0
 10
32.6597331884
 20
57.8881250365
 30
0.0
 10
32.7099872829
 20
58.1466343331
 30
0.0
 10
32.7248720746
 20
58.40918487
 30
0.0
 10
32.7248720746
 20
58.5452231956
 30
0.0
  0
SPLINE
  5
32F
100
AcDbEntity
  8
0
100
AcDbSpline
 62
7
  6
CONTINUOUS
 70
0
 71
3
 72
11
 73
7
 74
0
 42
0.0000001
 43
0.0000001
 44
0.0000000001
 40
0.0
 40
0.0
 40
0.0
 40
0.0
 40
0.2897033281
 40
0.5490895198
 40
0.7822165953
 40
1.0
 40
1.0
 40
1.0
 40
1.0
 10
27.1316341487
 20
57.8551959616
 30
0.0
 10
27.1316341487
 20
57.905864106
 30
0.0
 10
27.1393161849
 20
58.002224178
 30
0.0
 10
27.178340858
 20
58.1346178673
 30
0.0
 10
27.2440454468
 20
58.2420478591
 30
0.0
 10
27.3057619991
 20
58.293932883
 30
0.0
 10
27.3387486072
 20
58.3129775819
 30
0.0
  0
SPLINE
  5
330
100
AcDbEntity
  8
0
100
AcDbSpline
 62
7
  6
CONTINUOUS
 70
0
 71
3
 72
14
 73
10
 74
0
 42
0.0000001
 43
0.0000001
 44
0.0000000001
 40
0.0
 40
0.0
 40
0.0
 40
0.0
 40
0.2892720607
 40
0.422554976
 40
0.5484985194
 40
0.6678874407
 40
0.781868291
 40
0.8919528621
 40
1.0
 40
1.0
 40
1.0
 40
1.0
 10
28.0508767914
 20
60.1822414407
 30
0.0
 10
27.8840787282
 20
60.2785401688
 30
0.0
 10
27.6279864439
 20
60.4004272119
 30
0.0
 10
27.2767891829
 20
60.5028185421
 30
0.0
 10
27.0275140302
 20
60.544646099
 30
0.0
 10
26.7876683271
 20
60.5529412997
 30
0.0
 10
26.5594996773
 20
60.5275426869
 30
0.0
 10
26.3454760886
 20
60.4683160911
 30
0.0
 10
26.2131896815
 20
60.4063974406
 30
0.0
 10
26.1508885412
 20
60.3704280827
 30
0.0
  0
SPLINE
  5
331
100
AcDbEntity
  8
0
100
AcDbSpline
 62
7
  6
CONTINUOUS
 70
0
 71
3
 72
9
 73
5
 74
0
 42
0.0000001
 43
0.0000001
 44
0.0000000001
 40
0.0
 40
0.0
 40
0.0
 40
0.0
 40
0.4797077787
 40
1.0
 40
1.0
 40
1.0
 40
1.0
 10
45.1381040606
 20
67.2603201353
 30
0.0
 10
45.3127097005
 20
67.1595138027
 30
0.0
 10
45.6565182992
 20
66.9136989277
 30
0.0
 10
45.9582852455
 20
66.61901524
 30
0.0
 10
46.104468176
 20
66.4563851031
 30
0.0
  0
SPLINE
  5
332
100
AcDbEntity
  8
0
100
AcDbSpline
 62
7
  6
CONTINUOUS
 70
0
 71
3
 72
10
 73
6
 74
0
 42
0.0000001
 43
0.0000001
 44
0.0000000001
 40
0.0
 40
0.0
 40
0.0
 40
0.0
 40
0.2275479107
 40
0.5961401861
 40
1.0
 40
1.0
 40
1.0
 40
1.0
 10
44.1717399452
 20
67.5722210238
 30
0.0
 10
44.2493423137
 20
67.5689490528
 30
0.0
 10
44.4521540828
 20
67.5444285211
 30
0.0
 10
44.7810697661
 20
67.4460704303
 30
0.0
 10
45.0187185717
 20
67.3292458201
 30
0.0
 10
45.1381040606
 20
67.2603201353
 30
0.0
  0
SPLINE
  5
333
100
AcDbEntity
  8
0
100
AcDbSpline
 62
7
  6
CONTINUOUS
 70
0
 71
3
 72
14
 73
10
 74
0
 42
0.0000001
 43
0.0000001
 44
0.0000000001
 40
0.0
 40
0.0
 40
0.0
 40
0.0
 40
0.2048856121
 40
0.3190248089
 40
0.4412401229
 40
0.5712443756
 40
0.7083825769
 40
0.8517656211
 40
1.0
 40
1.0
 40
1.0
 40
1.0
 10
43.0692794077
 20
67.0152087625
 30
0.0
 10
43.2472222565
 20
67.0235175648
 30
0.0
 10
43.5278171274
 20
66.9817020814
 30
0.0
 10
43.8883262534
 20
66.8497166849
 30
0.0
 10
44.1728124175
 20
66.7045342339
 30
0.0
 10
44.4566841198
 20
66.5191572306
 30
0.0
 10
44.7360741567
 20
66.2962217492
 30
0.0
 10
45.0066173214
 20
66.0391786929
 30
0.0
 10
45.1761766987
 20
65.8502714713
 30
0.0
 10
45.2586292047
 20
65.7512156632
 30
0.0
  0
SPLINE
  5
334
100
AcDbEntity
  8
0
100
AcDbSpline
 62
7
  6
CONTINUOUS
 70
0
 71
3
 72
12
 73
8
 74
0
 42
0.0000001
 43
0.0000001
 44
0.0000000001
 40
0.0
 40
0.0
 40
0.0
 40
0.0
 40
0.1083126459
 40
0.2186613808
 40
0.4517684375
 40
0.710782992
 40
1.0
 40
1.0
 40
1.0
 40
1.0
 10
54.608413062
 20
41.1205851201
 30
0.0
 10
54.5837971186
 20
41.1347962069
 30
0.0
 10
54.5364589374
 20
41.1678027331
 30
0.0
 10
54.4514764519
 20
41.2511279973
 30
0.0
 10
54.3669965414
 20
41.387730747
 30
0.0
 10
54.3077772633
 20
41.5858155885
 30
0.0
 10
54.2955576556
 20
41.7301323324
 30
0.0
 10
54.2951877066
 20
41.8060282153
 30
0.0
  0
SPLINE
  5
335
100
AcDbEntity
  8
0
100
AcDbSpline
 62
7
  6
CONTINUOUS
 70
0
 71
3
 72
9
 73
5
 74
0
 42
0.0000001
 43
0.0000001
 44
0.0000000001
 40
0.0
 40
0.0
 40
0.0
 40
0.0
 40
0.5146504488
 40
1.0
 40
1.0
 40
1.0
 40
1.0
 10
54.3977213018
 20
41.4044514782
 30
0.0
 10
54.4295557097
 20
41.4062510296
 30
0.0
 10
54.4922510175
 20
41.4023527676
 30
0.0
 10
54.5512640826
 20
41.3799839369
 30
0.0
 10
54.5773017899
 20
41.3649427913
 30
0.0
  0
SPLINE
  5
336
100
AcDbEntity
  8
0
100
AcDbSpline
 62
7
  6
CONTINUOUS
 70
0
 71
3
 72
13
 73
9
 74
0
 42
0.0000001
 43
0.0000001
 44
0.0000000001
 40
0.0
 40
0.0
 40
0.0
 40
0.0
 40
0.1141759018
 40
0.2375697245
 40
0.4999990825
 40
0.762428944
 40
0.8858232992
 40
1.0
 40
1.0
 40
1.0
 40
1.0
 10
50.1586158335
 20
25.8638168944
 30
0.0
 10
50.1828021275
 20
25.8498532469
 30
0.0
 10
50.2306012621
 20
25.8163132813
 30
0.0
 10
50.3201481788
 20
25.7325828832
 30
0.0
 10
50.4146479915
 20
25.6033897725
 30
0.0
 10
50.4792832557
 20
25.4569541551
 30
0.0
 10
50.5070233226
 20
25.3375387979
 30
0.0
 10
50.512170696
 20
25.2793732728
 30
0.0
 10
50.512170696
 20
25.2514453086
 30
0.0
  0
SPLINE
  5
337
100
AcDbEntity
  8
0
100
AcDbSpline
 62
7
  6
CONTINUOUS
 70
0
 71
3
 72
11
 73
7
 74
0
 42
0.0000001
 43
0.0000001
 44
0.0000000001
 40
0.0
 40
0.0
 40
0.0
 40
0.0
 40
0.2895401978
 40
0.5491171512
 40
0.782255066
 40
1.0
 40
1.0
 40
1.0
 40
1.0
 10
50.512170696
 20
24.6798936166
 30
0.0
 10
50.512170696
 20
24.654574305
 30
0.0
 10
50.5083046711
 20
24.6063960458
 30
0.0
 10
50.4888281365
 20
24.5401906247
 30
0.0
 10
50.4559749038
 20
24.4864500311
 30
0.0
 10
50.4250907928
 20
24.4605453579
 30
0.0
 10
50.4086007262
 20
24.4510248742
 30
0.0
  0
SPLINE
  5
338
100
AcDbEntity
  8
0
100
AcDbSpline
 62
7
  6
CONTINUOUS
 70
0
 71
3
 72
11
 73
7
 74
0
 42
0.0000001
 43
0.0000001
 44
0.0000000001
 40
0.0
 40
0.0
 40
0.0
 40
0.0
 40
0.2895391946
 40
0.5491157945
 40
0.7822541179
 40
1.0
 40
1.0
 40
1.0
 40
1.0
 10
49.0979600776
 20
23.8633965545
 30
0.0
 10
49.1198867066
 20
23.8507374958
 30
0.0
 10
49.1635422356
 20
23.8299974663
 30
0.0
 10
49.2306143284
 20
23.8137629326
 30
0.0
 10
49.293580034
 20
23.81534466
 30
0.0
 10
49.3314552776
 20
23.8291383638
 30
0.0
 10
49.3479449701
 20
23.8386586432
 30
0.0
  0
SPLINE
  5
339
100
AcDbEntity
  8
0
100
AcDbSpline
 62
7
  6
CONTINUOUS
 70
0
 71
3
 72
11
 73
7
 74
0
 42
0.0000001
 43
0.0000001
 44
0.0000000001
 40
0.0
 40
0.0
 40
0.0
 40
0.0
 40
0.2642640356
 40
0.5246068865
 40
0.7722810426
 40
1.0
 40
1.0
 40
1.0
 40
1.0
 10
57.200275416
 20
50.9541031633
 30
0.0
 10
57.2432929421
 20
51.017021769
 30
0.0
 10
57.3204518458
 20
51.1477717491
 30
0.0
 10
57.4078188365
 20
51.3533786933
 30
0.0
 10
57.4630081627
 20
51.5590059886
 30
0.0
 10
57.4771549741
 20
51.6962619735
 30
0.0
 10
57.4771549741
 20
51.7619402087
 30
0.0
  0
SPLINE
  5
33A
100
AcDbEntity
  8
0
100
AcDbSpline
 62
7
  6
CONTINUOUS
 70
0
 71
3
 72
10
 73
6
 74
0
 42
0.0000001
 43
0.0000001
 44
0.0000000001
 40
0.0
 40
0.0
 40
0.0
 40
0.0
 40
0.2279110288
 40
0.4759426991
 40
1.0
 40
1.0
 40
1.0
 40
1.0
 10
54.2951877066
 20
46.5036099885
 30
0.0
 10
54.2951877066
 20
46.5364382737
 30
0.0
 10
54.3022891135
 20
46.6050825257
 30
0.0
 10
54.3396768997
 20
46.7445332386
 30
0.0
 10
54.3910238451
 20
46.8452152658
 30
0.0
 10
54.4336274856
 20
46.9075285112
 30
0.0
  0
SPLINE
  5
33B
100
AcDbEntity
  8
0
100
AcDbSpline
 62
7
  6
CONTINUOUS
 70
0
 71
3
 72
11
 73
7
 74
0
 42
0.0000001
 43
0.0000001
 44
0.0000000001
 40
0.0
 40
0.0
 40
0.0
 40
0.0
 40
0.2892962821
 40
0.5487084707
 40
0.781970853
 40
1.0
 40
1.0
 40
1.0
 40
1.0
 10
55.3558434624
 20
40.6295272776
 30
0.0
 10
55.3556339261
 20
40.6725141416
 30
0.0
 10
55.3486976814
 20
40.7542887124
 30
0.0
 10
55.3150884938
 20
40.8665883332
 30
0.0
 10
55.2589394483
 20
40.9577244825
 30
0.0
 10
55.2063983289
 20
41.0017326771
 30
0.0
 10
55.1783450563
 20
41.01793815
 30
0.0
  0
SPLINE
  5
33C
100
AcDbEntity
  8
0
100
AcDbSpline
 62
7
  6
CONTINUOUS
 70
0
 71
3
 72
11
 73
7
 74
0
 42
0.0000001
 43
0.0000001
 44
0.0000000001
 40
0.0
 40
0.0
 40
0.0
 40
0.0
 40
0.289702329
 40
0.5490881649
 40
0.7822156415
 40
1.0
 40
1.0
 40
1.0
 40
1.0
 10
40.8955251968
 20
28.4766289654
 30
0.0
 10
40.9394040209
 20
28.4512960876
 30
0.0
 10
41.0266931509
 20
28.4097709371
 30
0.0
 10
41.1608582807
 20
28.3773724621
 30
0.0
 10
41.2867444226
 20
28.3805598764
 30
0.0
 10
41.3625346015
 20
28.4080647192
 30
0.0
 10
41.3955204634
 20
28.4271090077
 30
0.0
  0
SPLINE
  5
33D
100
AcDbEntity
  8
0
100
AcDbSpline
 62
7
  6
CONTINUOUS
 70
0
 71
3
 72
11
 73
7
 74
0
 42
0.0000001
 43
0.0000001
 44
0.0000000001
 40
0.0
 40
0.0
 40
0.0
 40
0.0
 40
0.2177565409
 40
0.4519535784
 40
0.7115540706
 40
1.0
 40
1.0
 40
1.0
 40
1.0
 10
41.4670108129
 20
34.3652871937
 30
0.0
 10
41.4833928495
 20
34.3734208775
 30
0.0
 10
41.5204498141
 20
34.3846141762
 30
0.0
 10
41.5809187249
 20
34.3842243117
 30
0.0
 10
41.6450502932
 20
34.3677184791
 30
0.0
 10
41.6867998696
 20
34.347690393
 30
0.0
 10
41.7077816574
 20
34.3355768263
 30
0.0
  0
SPLINE
  5
33E
100
AcDbEntity
  8
0
100
AcDbSpline
 62
7
  6
CONTINUOUS
 70
0
 71
3
 72
11
 73
7
 74
0
 42
0.0000001
 43
0.0000001
 44
0.0000000001
 40
0.0
 40
0.0
 40
0.0
 40
0.0
 40
0.289540198
 40
0.5491171511
 40
0.7822550659
 40
1.0
 40
1.0
 40
1.0
 40
1.0
 10
40.8955250915
 20
29.9871577669
 30
0.0
 10
40.8955250915
 20
29.9618385039
 30
0.0
 10
40.891659074
 20
29.9136603372
 30
0.0
 10
40.8721825768
 20
29.8474550433
 30
0.0
 10
40.8393294072
 20
29.793714553
 30
0.0
 10
40.8084453555
 20
29.7678099296
 30
0.0
 10
40.7919553206
 20
29.7582894642
 30
0.0
  0
SPLINE
  5
33F
100
AcDbEntity
  8
0
100
AcDbSpline
 62
7
  6
CONTINUOUS
 70
0
 71
3
 72
11
 73
7
 74
0
 42
0.0000001
 43
0.0000001
 44
0.0000000001
 40
0.0
 40
0.0
 40
0.0
 40
0.0
 40
0.2177176035
 40
0.4509429755
 40
0.7102958835
 40
1.0
 40
1.0
 40
1.0
 40
1.0
 10
40.9990783943
 20
31.4962383426
 30
0.0
 10
40.9825904757
 20
31.4867187713
 30
0.0
 10
40.9517403852
 20
31.4607659544
 30
0.0
 10
40.9188672798
 20
31.4070649815
 30
0.0
 10
40.8993726441
 20
31.3408560008
 30
0.0
 10
40.895525096
 20
31.2926816497
 30
0.0
 10
40.8955250915
 20
31.2673479061
 30
0.0
  0
SPLINE
  5
340
100
AcDbEntity
  8
0
100
AcDbSpline
 62
7
  6
CONTINUOUS
 70
0
 71
3
 72
11
 73
7
 74
0
 42
0.0000001
 43
0.0000001
 44
0.0000000001
 40
0.0
 40
0.0
 40
0.0
 40
0.0
 40
0.2897041237
 40
0.5490570375
 40
0.7822824085
 40
1.0
 40
1.0
 40
1.0
 40
1.0
 10
43.1052430932
 20
32.8813710927
 30
0.0
 10
43.1052430932
 20
32.8560372088
 30
0.0
 10
43.1013955331
 20
32.8078625902
 30
0.0
 10
43.0819008041
 20
32.7416532392
 30
0.0
 10
43.0490275315
 20
32.6879519624
 30
0.0
 10
43.0181772786
 20
32.6619989949
 30
0.0
 10
43.0016892723
 20
32.6524793675
 30
0.0
  0
SPLINE
  5
341
100
AcDbEntity
  8
0
100
AcDbSpline
 62
7
  6
CONTINUOUS
 70
0
 71
3
 72
13
 73
9
 74
0
 42
0.0000001
 43
0.0000001
 44
0.0000000001
 40
0.0
 40
0.0
 40
0.0
 40
0.0
 40
0.1141759018
 40
0.2375697245
 40
0.4999990825
 40
0.762428944
 40
0.8858232992
 40
1.0
 40
1.0
 40
1.0
 40
1.0
 10
42.7516882262
 20
33.7328907223
 30
0.0
 10
42.7758745205
 20
33.7189270747
 30
0.0
 10
42.8236736557
 20
33.6853871087
 30
0.0
 10
42.9132205735
 20
33.6016567096
 30
0.0
 10
43.0077203873
 20
33.4724635974
 30
0.0
 10
43.0723556523
 20
33.3260279782
 30
0.0
 10
43.1000957194
 20
33.2066126196
 30
0.0
 10
43.105243093
 20
33.1484470938
 30
0.0
 10
43.105243093
 20
33.1205191292
 30
0.0
  0
SPLINE
  5
342
100
AcDbEntity
  8
0
100
AcDbSpline
 62
7
  6
CONTINUOUS
 70
0
 71
3
 72
14
 73
10
 74
0
 42
0.0000001
 43
0.0000001
 44
0.0000000001
 40
0.0
 40
0.0
 40
0.0
 40
0.0
 40
0.1465663411
 40
0.2864741104
 40
0.5458005473
 40
0.6662853159
 40
0.7814256052
 40
0.8922372928
 40
1.0
 40
1.0
 40
1.0
 40
1.0
 10
43.15827074
 20
40.6833752687
 30
0.0
 10
43.15827074
 20
40.4344759115
 30
0.0
 10
43.1402304595
 20
39.94761873
 30
0.0
 10
43.0296920175
 20
39.0268467939
 30
0.0
 10
42.8074330983
 20
38.165168105
 30
0.0
 10
42.4616178612
 20
37.3971956579
 30
0.0
 10
42.155196537
 20
36.8930054611
 30
0.0
 10
41.7977637809
 20
36.451009988
 30
0.0
 10
41.5242432946
 20
36.1977383581
 30
0.0
 10
41.3809694067
 20
36.0838846705
 30
0.0
  0
SPLINE
  5
343
100
AcDbEntity
  8
0
100
AcDbSpline
 62
7
  6
CONTINUOUS
 70
0
 71
3
 72
11
 73
7
 74
0
 42
0.0000001
 43
0.0000001
 44
0.0000000001
 40
0.0
 40
0.0
 40
0.0
 40
0.0
 40
0.2177460349
 40
0.4508843876
 40
0.710460784
 40
1.0
 40
1.0
 40
1.0
 40
1.0
 10
40.7919553206
 20
29.7582894642
 30
0.0
 10
40.7754656493
 20
29.7487692086
 30
0.0
 10
40.7375904842
 20
29.7349755146
 30
0.0
 10
40.6746249237
 20
29.7333938126
 30
0.0
 10
40.6075529884
 20
29.7496282572
 30
0.0
 10
40.5638975797
 20
29.7703682507
 30
0.0
 10
40.5419709967
 20
29.7830272766
 30
0.0
  0
SPLINE
  5
344
100
AcDbEntity
  8
0
100
AcDbSpline
 62
7
  6
CONTINUOUS
 70
0
 71
3
 72
21
 73
17
 74
0
 42
0.0000001
 43
0.0000001
 44
0.0000000001
 40
0.0
 40
0.0
 40
0.0
 40
0.0
 40
0.0609107535
 40
0.125515332
 40
0.1931602995
 40
0.263159253
 40
0.4067314975
 40
0.549249462
 40
0.6179710441
 40
0.6839061013
 40
0.7464085422
 40
0.8050029484
 40
0.8594346704
 40
0.9097430871
 40
0.9563278348
 40
1.0
 40
1.0
 40
1.0
 40
1.0
 10
44.7535641255
 20
61.7260675742
 30
0.0
 10
44.7535641255
 20
61.851995841
 30
0.0
 10
44.7376341349
 20
62.1116450019
 30
0.0
 10
44.6718701915
 20
62.5061363445
 30
0.0
 10
44.564577933
 20
62.9108854178
 30
0.0
 10
44.3673001424
 20
63.4584146553
 30
0.0
 10
44.0332706323
 20
64.1181450035
 30
0.0
 10
43.6024495075
 20
64.7160557118
 30
0.0
 10
43.2108622386
 20
65.1353033815
 30
0.0
 10
42.9063421368
 20
65.4071919442
 30
0.0
 10
42.5932052932
 20
65.6352451803
 30
0.0
 10
42.2771052577
 20
65.8152462466
 30
0.0
 10
41.9636673183
 20
65.943738445
 30
0.0
 10
41.6583342656
 20
66.0180857862
 30
0.0
 10
41.3666505666
 20
66.0364135091
 30
0.0
 10
41.1802202555
 20
66.0095252939
 30
0.0
 10
41.0929664344
 20
65.9863123283
 30
0.0
  0
SPLINE
  5
345
100
AcDbEntity
  8
0
100
AcDbSpline
 62
7
  6
CONTINUOUS
 70
0
 71
3
 72
11
 73
7
 74
0
 42
0.0000001
 43
0.0000001
 44
0.0000000001
 40
0.0
 40
0.0
 40
0.0
 40
0.0
 40
0.217745073
 40
0.4508830113
 40
0.7104597664
 40
1.0
 40
1.0
 40
1.0
 40
1.0
 10
49.3479449701
 20
23.8386586432
 30
0.0
 10
49.3644350424
 20
23.848179142
 30
0.0
 10
49.3953191746
 20
23.8740838128
 30
0.0
 10
49.42817238
 20
23.9278244217
 30
0.0
 10
49.4476489455
 20
23.9940298199
 30
0.0
 10
49.4515149402
 20
24.0422080707
 30
0.0
 10
49.4515149402
 20
24.0675273858
 30
0.0
  0
SPLINE
  5
346
100
AcDbEntity
  8
0
100
AcDbSpline
 62
7
  6
CONTINUOUS
 70
0
 71
3
 72
9
 73
5
 74
0
 42
0.0000001
 43
0.0000001
 44
0.0000000001
 40
0.0
 40
0.0
 40
0.0
 40
0.0
 40
0.4774298778
 40
1.0
 40
1.0
 40
1.0
 40
1.0
 10
49.4515149402
 20
24.6390790778
 30
0.0
 10
49.4515149402
 20
24.676181497
 30
0.0
 10
49.4424727141
 20
24.7539638942
 30
0.0
 10
49.4201245724
 20
24.8287648548
 30
0.0
 10
49.4056290165
 20
24.8667001024
 30
0.0
  0
SPLINE
  5
347
100
AcDbEntity
  8
0
100
AcDbSpline
 62
7
  6
CONTINUOUS
 70
0
 71
3
 72
11
 73
7
 74
0
 42
0.0000001
 43
0.0000001
 44
0.0000000001
 40
0.0
 40
0.0
 40
0.0
 40
0.0
 40
0.2177833598
 40
0.4509104088
 40
0.7102966711
 40
1.0
 40
1.0
 40
1.0
 40
1.0
 10
41.3955204634
 20
28.4271090077
 30
0.0
 10
41.4285070558
 20
28.4461537179
 30
0.0
 10
41.4902236143
 20
28.4980387055
 30
0.0
 10
41.5559282054
 20
28.6054687037
 30
0.0
 10
41.5949528685
 20
28.7378624008
 30
0.0
 10
41.6026349219
 20
28.8342224836
 30
0.0
 10
41.6026349219
 20
28.884890628
 30
0.0
  0
SPLINE
  5
348
100
AcDbEntity
  8
0
100
AcDbSpline
 62
7
  6
CONTINUOUS
 70
0
 71
3
 72
15
 73
11
 74
0
 42
0.0000001
 43
0.0000001
 44
0.0000000001
 40
0.0
 40
0.0
 40
0.0
 40
0.0
 40
0.1341097503
 40
0.2675341727
 40
0.3991815393
 40
0.5281157894
 40
0.6534145904
 40
0.7742615419
 40
0.8899679372
 40
1.0
 40
1.0
 40
1.0
 40
1.0
 10
41.6291692394
 20
48.0982033026
 30
0.0
 10
41.4259340139
 20
48.4659832345
 30
0.0
 10
40.9975499248
 20
49.1872459293
 30
0.0
 10
40.292774347
 20
50.2214504527
 30
0.0
 10
39.5337089179
 20
51.1961223266
 30
0.0
 10
38.7292770871
 20
52.099949077
 30
0.0
 10
37.8886114203
 20
52.9225839255
 30
0.0
 10
37.0213410717
 20
53.6545879158
 30
0.0
 10
36.1374874562
 20
54.2875143244
 30
0.0
 10
35.5276072897
 20
54.64809552
 30
0.0
 10
35.2224489844
 20
54.8085195458
 30
0.0
  0
SPLINE
  5
349
100
AcDbEntity
  8
0
100
AcDbSpline
 62
7
  6
CONTINUOUS
 70
0
 71
3
 72
11
 73
7
 74
0
 42
0.0000001
 43
0.0000001
 44
0.0000000001
 40
0.0
 40
0.0
 40
0.0
 40
0.0
 40
0.22989169
 40
0.4687565591
 40
0.7238738646
 40
1.0
 40
1.0
 40
1.0
 40
1.0
 10
43.812352813
 20
31.9658207937
 30
0.0
 10
43.8565417729
 20
31.991334031
 30
0.0
 10
43.9404092018
 20
32.0549781446
 30
0.0
 10
44.0424498779
 20
32.1808053043
 30
0.0
 10
44.1199073129
 20
32.3344173337
 30
0.0
 10
44.1531441932
 20
32.448215642
 30
0.0
 10
44.1659076756
 20
32.5081591716
 30
0.0
  0
SPLINE
  5
34A
100
AcDbEntity
  8
0
100
AcDbSpline
 62
7
  6
CONTINUOUS
 70
0
 71
3
 72
11
 73
7
 74
0
 42
0.0000001
 43
0.0000001
 44
0.0000000001
 40
0.0
 40
0.0
 40
0.0
 40
0.0
 40
0.2553139917
 40
0.5129537788
 40
0.7639350768
 40
1.0
 40
1.0
 40
1.0
 40
1.0
 10
45.2586292047
 20
65.7512156632
 30
0.0
 10
45.4165758155
 20
65.5614636477
 30
0.0
 10
45.7072217048
 20
65.1573104177
 30
0.0
 10
46.0571546836
 20
64.5043959136
 30
0.0
 10
46.3106942409
 20
63.8281243919
 30
0.0
 10
46.4108149724
 20
63.3655028402
 30
0.0
 10
46.4391011369
 20
63.1389893032
 30
0.0
  0
SPLINE
  5
34B
100
AcDbEntity
  8
0
100
AcDbSpline
 62
7
  6
CONTINUOUS
 70
0
 71
3
 72
11
 73
7
 74
0
 42
0.0000001
 43
0.0000001
 44
0.0000000001
 40
0.0
 40
0.0
 40
0.0
 40
0.0
 40
0.2177651606
 40
0.4508956102
 40
0.7103690052
 40
1.0
 40
1.0
 40
1.0
 40
1.0
 10
65.3208832817
 20
62.0053184784
 30
0.0
 10
65.287906944
 20
62.0243744156
 30
0.0
 10
65.2261569286
 20
62.0762081937
 30
0.0
 10
65.1604610958
 20
62.1836723511
 30
0.0
 10
65.1214603436
 20
62.3160701789
 30
0.0
 10
65.1137604237
 20
62.4124311246
 30
0.0
 10
65.1137604237
 20
62.4630865097
 30
0.0
  0
SPLINE
  5
34C
100
AcDbEntity
  8
0
100
AcDbSpline
 62
7
  6
CONTINUOUS
 70
0
 71
3
 72
11
 73
7
 74
0
 42
0.0000001
 43
0.0000001
 44
0.0000000001
 40
0.0
 40
0.0
 40
0.0
 40
0.0
 40
0.2177651606
 40
0.4508956102
 40
0.7103690052
 40
1.0
 40
1.0
 40
1.0
 40
1.0
 10
65.3208832817
 20
69.3538402325
 30
0.0
 10
65.287906944
 20
69.3728961698
 30
0.0
 10
65.2261569286
 20
69.4247299479
 30
0.0
 10
65.1604610958
 20
69.5321941053
 30
0.0
 10
65.1214603436
 20
69.6645919331
 30
0.0
 10
65.1137604237
 20
69.7609528788
 30
0.0
 10
65.1137604237
 20
69.8116082639
 30
0.0
  0
SPLINE
  5
34D
100
AcDbEntity
  8
0
100
AcDbSpline
 62
7
  6
CONTINUOUS
 70
0
 71
3
 72
11
 73
7
 74
0
 42
0.0000001
 43
0.0000001
 44
0.0000000001
 40
0.0
 40
0.0
 40
0.0
 40
0.0
 40
0.2177651606
 40
0.4508956102
 40
0.7103690052
 40
1.0
 40
1.0
 40
1.0
 40
1.0
 10
66.0279871189
 20
78.3353597663
 30
0.0
 10
65.9950107812
 20
78.3544157035
 30
0.0
 10
65.9332607658
 20
78.4062494816
 30
0.0
 10
65.867564933
 20
78.513713639
 30
0.0
 10
65.8285641808
 20
78.6461114668
 30
0.0
 10
65.8208642609
 20
78.7424724125
 30
0.0
 10
65.8208642609
 20
78.7931277976
 30
0.0
  0
SPLINE
  5
34E
100
AcDbEntity
  8
0
100
AcDbSpline
 62
7
  6
CONTINUOUS
 70
0
 71
3
 72
11
 73
7
 74
0
 42
0.0000001
 43
0.0000001
 44
0.0000000001
 40
0.0
 40
0.0
 40
0.0
 40
0.0
 40
0.2177651606
 40
0.4508956102
 40
0.7103690052
 40
1.0
 40
1.0
 40
1.0
 40
1.0
 10
56.8356372351
 20
74.6611906002
 30
0.0
 10
56.8026608974
 20
74.6802465375
 30
0.0
 10
56.7409108821
 20
74.7320803155
 30
0.0
 10
56.6752150492
 20
74.839544473
 30
0.0
 10
56.6362142971
 20
74.9719423007
 30
0.0
 10
56.6285143771
 20
75.0683032465
 30
0.0
 10
56.6285143771
 20
75.1189586316
 30
0.0
  0
SPLINE
  5
34F
100
AcDbEntity
  8
0
100
AcDbSpline
 62
7
  6
CONTINUOUS
 70
0
 71
3
 72
11
 73
7
 74
0
 42
0.0000001
 43
0.0000001
 44
0.0000000001
 40
0.0
 40
0.0
 40
0.0
 40
0.0
 40
0.2177651606
 40
0.4508956102
 40
0.7103690052
 40
1.0
 40
1.0
 40
1.0
 40
1.0
 10
56.8356372351
 20
46.9001084178
 30
0.0
 10
56.8026608974
 20
46.9191643551
 30
0.0
 10
56.7409108821
 20
46.9709981331
 30
0.0
 10
56.6752150492
 20
47.0784622906
 30
0.0
 10
56.6362142971
 20
47.2108601183
 30
0.0
 10
56.6285143771
 20
47.3072210641
 30
0.0
 10
56.6285143771
 20
47.3578764492
 30
0.0
  0
SPLINE
  5
350
100
AcDbEntity
  8
0
100
AcDbSpline
 62
7
  6
CONTINUOUS
 70
0
 71
3
 72
11
 73
7
 74
0
 42
0.0000001
 43
0.0000001
 44
0.0000000001
 40
0.0
 40
0.0
 40
0.0
 40
0.0
 40
0.2897033215
 40
0.5490886161
 40
0.7822159834
 40
1.0
 40
1.0
 40
1.0
 40
1.0
 10
60.5441632818
 20
87.0958851675
 30
0.0
 10
60.589471225
 20
87.1220435645
 30
0.0
 10
60.6796030776
 20
87.1649220585
 30
0.0
 10
60.8181378867
 20
87.198376793
 30
0.0
 10
60.9481239281
 20
87.1950864917
 30
0.0
 10
61.0263830231
 20
87.1666868842
 30
0.0
 10
61.0604431949
 20
87.1470223447
 30
0.0
  0
SPLINE
  5
351
100
AcDbEntity
  8
0
100
AcDbSpline
 62
7
  6
CONTINUOUS
 70
0
 71
3
 72
15
 73
11
 74
0
 42
0.0000001
 43
0.0000001
 44
0.0000000001
 40
0.0
 40
0.0
 40
0.0
 40
0.0
 40
0.1137933475
 40
0.2365457535
 40
0.3656745621
 40
0.4983076419
 40
0.6311752201
 40
0.7609891881
 40
0.8848243621
 40
1.0
 40
1.0
 40
1.0
 40
1.0
 10
67.5445495608
 20
52.0272098468
 30
0.0
 10
67.5950452089
 20
52.0563633488
 30
0.0
 10
67.6948513637
 20
52.1261212233
 30
0.0
 10
67.8325042277
 20
52.2539410225
 30
0.0
 10
67.9597065204
 20
52.405007094
 30
0.0
 10
68.0718766498
 20
52.5737469255
 30
0.0
 10
68.1649290342
 20
52.7541303135
 30
0.0
 10
68.2355747401
 20
52.9396400958
 30
0.0
 10
68.2811536433
 20
53.1235249585
 30
0.0
 10
68.2943448591
 20
53.2458253356
 30
0.0
 10
68.2957276912
 20
53.3048246775
 30
0.0
  0
SPLINE
  5
352
100
AcDbEntity
  8
0
100
AcDbSpline
 62
7
  6
CONTINUOUS
 70
0
 71
3
 72
11
 73
7
 74
0
 42
0.0000001
 43
0.0000001
 44
0.0000000001
 40
0.0
 40
0.0
 40
0.0
 40
0.0
 40
0.2896301972
 40
0.5489894821
 40
0.7821462052
 40
1.0
 40
1.0
 40
1.0
 40
1.0
 10
68.2746919899
 20
82.6338281279
 30
0.0
 10
68.2746336613
 20
82.6860296924
 30
0.0
 10
68.2666098119
 20
82.785303851
 30
0.0
 10
68.2262617037
 20
82.9216847856
 30
0.0
 10
68.1584610217
 20
83.0323497222
 30
0.0
 10
68.0948339772
 20
83.0858064966
 30
0.0
 10
68.060829474
 20
83.1054388751
 30
0.0
  0
SPLINE
  5
353
100
AcDbEntity
  8
0
100
AcDbSpline
 62
7
  6
CONTINUOUS
 70
0
 71
3
 72
17
 73
13
 74
0
 42
0.0000001
 43
0.0000001
 44
0.0000000001
 40
0.0
 40
0.0
 40
0.0
 40
0.0
 40
0.1286891333
 40
0.2702803493
 40
0.4174326844
 40
0.5617743804
 40
0.6954465661
 40
0.8127104963
 40
0.8646756522
 40
0.91250911
 40
0.9571392634
 40
1.0
 40
1.0
 40
1.0
 40
1.0
 10
56.6285143771
 20
47.3578764492
 30
0.0
 10
56.6285143771
 20
47.4433512386
 30
0.0
 10
56.6524270997
 20
47.6230749716
 30
0.0
 10
56.7416729783
 20
47.8869596814
 30
0.0
 10
56.8792008041
 20
48.1411624823
 30
0.0
 10
57.0539491203
 20
48.3648416936
 30
0.0
 10
57.2516416688
 20
48.5399302517
 30
0.0
 10
57.4305810802
 20
48.6377767166
 30
0.0
 10
57.5705564912
 20
48.6750106639
 30
0.0
 10
57.6668941034
 20
48.6821054357
 30
0.0
 10
57.7566004475
 20
48.6689591062
 30
0.0
 10
57.8109507653
 20
48.6463763015
 30
0.0
 10
57.8355991936
 20
48.6321327883
 30
0.0
  0
SPLINE
  5
354
100
AcDbEntity
  8
0
100
AcDbSpline
 62
7
  6
CONTINUOUS
 70
0
 71
3
 72
17
 73
13
 74
0
 42
0.0000001
 43
0.0000001
 44
0.0000000001
 40
0.0
 40
0.0
 40
0.0
 40
0.0
 40
0.1286891333
 40
0.2702803493
 40
0.4174326844
 40
0.5617743804
 40
0.6954465661
 40
0.8127104963
 40
0.8646756522
 40
0.91250911
 40
0.9571392634
 40
1.0
 40
1.0
 40
1.0
 40
1.0
 10
56.6285143771
 20
75.1189586316
 30
0.0
 10
56.6285143771
 20
75.204433421
 30
0.0
 10
56.6524270997
 20
75.384157154
 30
0.0
 10
56.7416729783
 20
75.6480418638
 30
0.0
 10
56.8792008041
 20
75.9022446647
 30
0.0
 10
57.0539491203
 20
76.125923876
 30
0.0
 10
57.2516416688
 20
76.3010124341
 30
0.0
 10
57.4305810802
 20
76.3988588991
 30
0.0
 10
57.5705564912
 20
76.4360928463
 30
0.0
 10
57.6668941034
 20
76.4431876181
 30
0.0
 10
57.7566004475
 20
76.4300412886
 30
0.0
 10
57.8109507653
 20
76.4074584839
 30
0.0
 10
57.8355991936
 20
76.3932149707
 30
0.0
  0
SPLINE
  5
355
100
AcDbEntity
  8
0
100
AcDbSpline
 62
7
  6
CONTINUOUS
 70
0
 71
3
 72
17
 73
13
 74
0
 42
0.0000001
 43
0.0000001
 44
0.0000000001
 40
0.0
 40
0.0
 40
0.0
 40
0.0
 40
0.1286891333
 40
0.2702803493
 40
0.4174326844
 40
0.5617743804
 40
0.6954465661
 40
0.8127104963
 40
0.8646756522
 40
0.91250911
 40
0.9571392634
 40
1.0
 40
1.0
 40
1.0
 40
1.0
 10
65.8208642609
 20
78.7931277976
 30
0.0
 10
65.8208642609
 20
78.8786025871
 30
0.0
 10
65.8447769834
 20
79.0583263201
 30
0.0
 10
65.9340228621
 20
79.3222110299
 30
0.0
 10
66.0715506878
 20
79.5764138308
 30
0.0
 10
66.246299004
 20
79.8000930421
 30
0.0
 10
66.4439915525
 20
79.9751816002
 30
0.0
 10
66.622930964
 20
80.0730280651
 30
0.0
 10
66.762906375
 20
80.1102620124
 30
0.0
 10
66.8592439872
 20
80.1173567842
 30
0.0
 10
66.9489503312
 20
80.1042104547
 30
0.0
 10
67.0033006491
 20
80.08162765
 30
0.0
 10
67.0279490774
 20
80.0673841367
 30
0.0
  0
SPLINE
  5
356
100
AcDbEntity
  8
0
100
AcDbSpline
 62
7
  6
CONTINUOUS
 70
0
 71
3
 72
17
 73
13
 74
0
 42
0.0000001
 43
0.0000001
 44
0.0000000001
 40
0.0
 40
0.0
 40
0.0
 40
0.0
 40
0.1286891333
 40
0.2702803493
 40
0.4174326844
 40
0.5617743804
 40
0.6954465661
 40
0.8127104963
 40
0.8646756522
 40
0.91250911
 40
0.9571392634
 40
1.0
 40
1.0
 40
1.0
 40
1.0
 10
65.1137604237
 20
69.8116082639
 30
0.0
 10
65.1137604237
 20
69.8970830534
 30
0.0
 10
65.1376731462
 20
70.0768067863
 30
0.0
 10
65.2269190248
 20
70.3406914962
 30
0.0
 10
65.3644468506
 20
70.5948942971
 30
0.0
 10
65.5391951668
 20
70.8185735083
 30
0.0
 10
65.7368877153
 20
70.9936620664
 30
0.0
 10
65.9158271268
 20
71.0915085314
 30
0.0
 10
66.0558025378
 20
71.1287424787
 30
0.0
 10
66.1521401499
 20
71.1358372504
 30
0.0
 10
66.241846494
 20
71.1226909209
 30
0.0
 10
66.2961968119
 20
71.1001081162
 30
0.0
 10
66.3208452402
 20
71.085864603
 30
0.0
  0
SPLINE
  5
357
100
AcDbEntity
  8
0
100
AcDbSpline
 62
7
  6
CONTINUOUS
 70
0
 71
3
 72
17
 73
13
 74
0
 42
0.0000001
 43
0.0000001
 44
0.0000000001
 40
0.0
 40
0.0
 40
0.0
 40
0.0
 40
0.1286891333
 40
0.2702803493
 40
0.4174326844
 40
0.5617743804
 40
0.6954465661
 40
0.8127104963
 40
0.8646756522
 40
0.91250911
 40
0.9571392634
 40
1.0
 40
1.0
 40
1.0
 40
1.0
 10
65.1137604237
 20
62.4630865097
 30
0.0
 10
65.1137604237
 20
62.5485612992
 30
0.0
 10
65.1376731462
 20
62.7282850322
 30
0.0
 10
65.2269190248
 20
62.992169742
 30
0.0
 10
65.3644468506
 20
63.2463725429
 30
0.0
 10
65.5391951668
 20
63.4700517542
 30
0.0
 10
65.7368877153
 20
63.6451403123
 30
0.0
 10
65.9158271268
 20
63.7429867772
 30
0.0
 10
66.0558025378
 20
63.7802207245
 30
0.0
 10
66.1521401499
 20
63.7873154963
 30
0.0
 10
66.241846494
 20
63.7741691668
 30
0.0
 10
66.2961968119
 20
63.7515863621
 30
0.0
 10
66.3208452402
 20
63.7373428488
 30
0.0
  0
SPLINE
  5
358
100
AcDbEntity
  8
0
100
AcDbSpline
 62
7
  6
CONTINUOUS
 70
0
 71
3
 72
14
 73
10
 74
0
 42
0.0000001
 43
0.0000001
 44
0.0000000001
 40
0.0
 40
0.0
 40
0.0
 40
0.0
 40
0.3070181082
 40
0.4481412922
 40
0.5785547088
 40
0.697577136
 40
0.8058101006
 40
0.9053589453
 40
1.0
 40
1.0
 40
1.0
 40
1.0
 10
65.4548642961
 20
55.6018364145
 30
0.0
 10
65.5192254553
 20
55.6839619317
 30
0.0
 10
65.6250203075
 20
55.795732763
 30
0.0
 10
65.7838922269
 20
55.9122932971
 30
0.0
 10
65.9010052037
 20
55.9758205682
 30
0.0
 10
66.0163956503
 20
56.0159826028
 30
0.0
 10
66.1272535225
 20
56.0315337644
 30
0.0
 10
66.2306172338
 20
56.0212906173
 30
0.0
 10
66.2929908195
 20
55.9966451254
 30
0.0
 10
66.3208393522
 20
55.9805523774
 30
0.0
  0
SPLINE
  5
359
100
AcDbEntity
  8
0
100
AcDbSpline
 62
7
  6
CONTINUOUS
 70
0
 71
3
 72
11
 73
7
 74
0
 42
0.0000001
 43
0.0000001
 44
0.0000000001
 40
0.0
 40
0.0
 40
0.0
 40
0.0
 40
0.2896301972
 40
0.5489894821
 40
0.7821462052
 40
1.0
 40
1.0
 40
1.0
 40
1.0
 10
62.0521264086
 20
86.2263467677
 30
0.0
 10
62.05206808
 20
86.2785483322
 30
0.0
 10
62.0440442306
 20
86.3778224908
 30
0.0
 10
62.0036961224
 20
86.5142034253
 30
0.0
 10
61.9358954404
 20
86.624868362
 30
0.0
 10
61.8722683959
 20
86.6783251364
 30
0.0
 10
61.8382638927
 20
86.6979575149
 30
0.0
  0
SPLINE
  5
35A
100
AcDbEntity
  8
0
100
AcDbSpline
 62
7
  6
CONTINUOUS
 70
0
 71
3
 72
11
 73
7
 74
0
 42
0.0000001
 43
0.0000001
 44
0.0000000001
 40
0.0
 40
0.0
 40
0.0
 40
0.0
 40
0.2897033215
 40
0.5490886161
 40
0.7822159834
 40
1.0
 40
1.0
 40
1.0
 40
1.0
 10
66.3071075418
 20
83.7687230181
 30
0.0
 10
66.352415485
 20
83.7948814152
 30
0.0
 10
66.4425473376
 20
83.8377599091
 30
0.0
 10
66.5810821466
 20
83.8712146436
 30
0.0
 10
66.711068188
 20
83.8679243424
 30
0.0
 10
66.789327283
 20
83.8395247348
 30
0.0
 10
66.8233874549
 20
83.8198601954
 30
0.0
  0
SPLINE
  5
35B
100
AcDbEntity
  8
0
100
AcDbSpline
 62
7
  6
CONTINUOUS
 70
0
 71
3
 72
14
 73
10
 74
0
 42
0.0000001
 43
0.0000001
 44
0.0000000001
 40
0.0
 40
0.0
 40
0.0
 40
0.0
 40
0.1970844123
 40
0.3135494759
 40
0.4406606774
 40
0.5761168742
 40
0.7168165922
 40
0.8593912443
 40
1.0
 40
1.0
 40
1.0
 40
1.0
 10
54.4503007216
 20
80.8652702602
 30
0.0
 10
54.54060863
 20
80.861962707
 30
0.0
 10
54.6857145591
 20
80.9026703354
 30
0.0
 10
54.859383126
 20
81.0056374437
 30
0.0
 10
54.9945815867
 20
81.1161459369
 30
0.0
 10
55.1213655212
 20
81.2512985446
 30
0.0
 10
55.2355781295
 20
81.4061902979
 30
0.0
 10
55.3327126038
 20
81.5749785936
 30
0.0
 10
55.3845615982
 20
81.6944029315
 30
0.0
 10
55.4066014961
 20
81.7549916521
 30
0.0
  0
SPLINE
  5
35C
100
AcDbEntity
  8
0
100
AcDbSpline
 62
7
  6
CONTINUOUS
 70
0
 71
3
 72
11
 73
7
 74
0
 42
0.0000001
 43
0.0000001
 44
0.0000000001
 40
0.0
 40
0.0
 40
0.0
 40
0.0
 40
0.2602126425
 40
0.5216447479
 40
0.7718142276
 40
1.0
 40
1.0
 40
1.0
 40
1.0
 10
55.8870653935
 20
83.0758096079
 30
0.0
 10
55.9175325076
 20
83.1595651439
 30
0.0
 10
55.9927163605
 20
83.3226116425
 30
0.0
 10
56.1393334333
 20
83.5438122065
 30
0.0
 10
56.3116771225
 20
83.7310176241
 30
0.0
 10
56.4437163802
 20
83.8303680378
 30
0.0
 10
56.5114010245
 20
83.8694455521
 30
0.0
  0
SPLINE
  5
35D
100
AcDbEntity
  8
0
100
AcDbSpline
 62
7
  6
CONTINUOUS
 70
0
 71
3
 72
11
 73
7
 74
0
 42
0.0000001
 43
0.0000001
 44
0.0000000001
 40
0.0
 40
0.0
 40
0.0
 40
0.0
 40
0.2177651606
 40
0.4508956102
 40
0.7103690052
 40
1.0
 40
1.0
 40
1.0
 40
1.0
 10
66.3208452402
 20
71.085864603
 30
0.0
 10
66.3538215779
 20
71.0668086657
 30
0.0
 10
66.4155715932
 20
71.0149748877
 30
0.0
 10
66.481267426
 20
70.9075107302
 30
0.0
 10
66.5202681782
 20
70.7751129025
 30
0.0
 10
66.5279680981
 20
70.6787519567
 30
0.0
 10
66.5279680981
 20
70.6280965716
 30
0.0
  0
SPLINE
  5
35E
100
AcDbEntity
  8
0
100
AcDbSpline
 62
7
  6
CONTINUOUS
 70
0
 71
3
 72
11
 73
7
 74
0
 42
0.0000001
 43
0.0000001
 44
0.0000000001
 40
0.0
 40
0.0
 40
0.0
 40
0.0
 40
0.2177651606
 40
0.4508956102
 40
0.7103690052
 40
1.0
 40
1.0
 40
1.0
 40
1.0
 10
66.3208393522
 20
55.9805523774
 30
0.0
 10
66.3538156899
 20
55.9614964401
 30
0.0
 10
66.4155657053
 20
55.909662662
 30
0.0
 10
66.4812615381
 20
55.8021985046
 30
0.0
 10
66.5202622903
 20
55.6698006768
 30
0.0
 10
66.5279622102
 20
55.5734397311
 30
0.0
 10
66.5279622102
 20
55.522784346
 30
0.0
  0
SPLINE
  5
35F
100
AcDbEntity
  8
0
100
AcDbSpline
 62
7
  6
CONTINUOUS
 70
0
 71
3
 72
11
 73
7
 74
0
 42
0.0000001
 43
0.0000001
 44
0.0000000001
 40
0.0
 40
0.0
 40
0.0
 40
0.0
 40
0.2613813841
 40
0.5221962538
 40
0.7715565655
 40
1.0
 40
1.0
 40
1.0
 40
1.0
 10
65.4795169029
 20
55.0351985847
 30
0.0
 10
65.5314369145
 20
55.1014169633
 30
0.0
 10
65.6251652273
 20
55.2418339193
 30
0.0
 10
65.7323143452
 20
55.4668801913
 30
0.0
 10
65.8013706749
 20
55.6953697587
 30
0.0
 10
65.8201663556
 20
55.8491997005
 30
0.0
 10
65.82081579
 20
55.9227392451
 30
0.0
  0
SPLINE
  5
360
100
AcDbEntity
  8
0
100
AcDbSpline
 62
7
  6
CONTINUOUS
 70
0
 71
3
 72
11
 73
7
 74
0
 42
0.0000001
 43
0.0000001
 44
0.0000000001
 40
0.0
 40
0.0
 40
0.0
 40
0.0
 40
0.2177839719
 40
0.4509113127
 40
0.7102966775
 40
1.0
 40
1.0
 40
1.0
 40
1.0
 10
61.8382638927
 20
86.6979575149
 30
0.0
 10
61.8042037189
 20
86.7176220346
 30
0.0
 10
61.7259446529
 20
86.7460216659
 30
0.0
 10
61.5959586048
 20
86.749311966
 30
0.0
 10
61.4574237938
 20
86.7158572187
 30
0.0
 10
61.3672919227
 20
86.6729787345
 30
0.0
 10
61.3219839795
 20
86.6468203375
 30
0.0
  0
SPLINE
  5
361
100
AcDbEntity
  8
0
100
AcDbSpline
 62
7
  6
CONTINUOUS
 70
0
 71
3
 72
11
 73
7
 74
0
 42
0.0000001
 43
0.0000001
 44
0.0000000001
 40
0.0
 40
0.0
 40
0.0
 40
0.0
 40
0.2177839719
 40
0.4509113127
 40
0.7102966775
 40
1.0
 40
1.0
 40
1.0
 40
1.0
 10
68.060829474
 20
83.1054388751
 30
0.0
 10
68.0267693002
 20
83.1251033948
 30
0.0
 10
67.9485102342
 20
83.1535030261
 30
0.0
 10
67.8185241861
 20
83.1567933262
 30
0.0
 10
67.6799893751
 20
83.1233385789
 30
0.0
 10
67.589857504
 20
83.0804600948
 30
0.0
 10
67.5445495608
 20
83.0543016977
 30
0.0
  0
SPLINE
  5
362
100
AcDbEntity
  8
0
100
AcDbSpline
 62
7
  6
CONTINUOUS
 70
0
 71
3
 72
11
 73
7
 74
0
 42
0.0000001
 43
0.0000001
 44
0.0000000001
 40
0.0
 40
0.0
 40
0.0
 40
0.0
 40
0.2177651606
 40
0.4508956102
 40
0.7103690052
 40
1.0
 40
1.0
 40
1.0
 40
1.0
 10
67.0279490774
 20
80.0673841367
 30
0.0
 10
67.0609254151
 20
80.0483281995
 30
0.0
 10
67.1226754304
 20
79.9964944214
 30
0.0
 10
67.1883712632
 20
79.889030264
 30
0.0
 10
67.2273720154
 20
79.7566324362
 30
0.0
 10
67.2350719353
 20
79.6602714905
 30
0.0
 10
67.2350719353
 20
79.6096161054
 30
0.0
  0
SPLINE
  5
363
100
AcDbEntity
  8
0
100
AcDbSpline
 62
7
  6
CONTINUOUS
 70
0
 71
3
 72
16
 73
12
 74
0
 42
0.0000001
 43
0.0000001
 44
0.0000000001
 40
0.0
 40
0.0
 40
0.0
 40
0.0
 40
0.156831893
 40
0.3075955591
 40
0.4496713087
 40
0.5809918959
 40
0.7004618061
 40
0.8083714883
 40
0.9067829226
 40
0.9537490335
 40
1.0
 40
1.0
 40
1.0
 40
1.0
 10
59.8198440221
 20
83.6480495167
 30
0.0
 10
59.8864093602
 20
83.7431264915
 30
0.0
 10
60.0265846994
 20
83.9231177495
 30
0.0
 10
60.2589638892
 20
84.1622864243
 30
0.0
 10
60.5037742005
 20
84.3601293353
 30
0.0
 10
60.7537676706
 20
84.5106576626
 30
0.0
 10
61.0018582906
 20
84.6091109065
 30
0.0
 10
61.2410607299
 20
84.6519925876
 30
0.0
 10
61.4305946492
 20
84.6383658732
 30
0.0
 10
61.5667632817
 20
84.5971279113
 30
0.0
 10
61.6292851637
 20
84.5672098227
 30
0.0
 10
61.6589290252
 20
84.5500988161
 30
0.0
  0
SPLINE
  5
364
100
AcDbEntity
  8
0
100
AcDbSpline
 62
7
  6
CONTINUOUS
 70
0
 71
3
 72
11
 73
7
 74
0
 42
0.0000001
 43
0.0000001
 44
0.0000000001
 40
0.0
 40
0.0
 40
0.0
 40
0.0
 40
0.2177651606
 40
0.4508956102
 40
0.7103690052
 40
1.0
 40
1.0
 40
1.0
 40
1.0
 10
57.8355991936
 20
76.3932149707
 30
0.0
 10
57.8685755313
 20
76.3741590334
 30
0.0
 10
57.9303255466
 20
76.3223252553
 30
0.0
 10
57.9960213794
 20
76.2148610979
 30
0.0
 10
58.0350221316
 20
76.0824632701
 30
0.0
 10
58.0427220516
 20
75.9861023244
 30
0.0
 10
58.0427220516
 20
75.9354469393
 30
0.0
  0
SPLINE
  5
365
100
AcDbEntity
  8
0
100
AcDbSpline
 62
7
  6
CONTINUOUS
 70
0
 71
3
 72
11
 73
7
 74
0
 42
0.0000001
 43
0.0000001
 44
0.0000000001
 40
0.0
 40
0.0
 40
0.0
 40
0.0
 40
0.2177651606
 40
0.4508956102
 40
0.7103690052
 40
1.0
 40
1.0
 40
1.0
 40
1.0
 10
57.8355991936
 20
48.6321327883
 30
0.0
 10
57.8685755313
 20
48.613076851
 30
0.0
 10
57.9303255466
 20
48.5612430729
 30
0.0
 10
57.9960213794
 20
48.4537789155
 30
0.0
 10
58.0350221316
 20
48.3213810877
 30
0.0
 10
58.0427220516
 20
48.225020142
 30
0.0
 10
58.0427220516
 20
48.1743647569
 30
0.0
  0
SPLINE
  5
366
100
AcDbEntity
  8
0
100
AcDbSpline
 62
7
  6
CONTINUOUS
 70
0
 71
3
 72
17
 73
13
 74
0
 42
0.0000001
 43
0.0000001
 44
0.0000000001
 40
0.0
 40
0.0
 40
0.0
 40
0.0
 40
0.1286891333
 40
0.2702803493
 40
0.4174326844
 40
0.5617743804
 40
0.6954465661
 40
0.8127104963
 40
0.8646756522
 40
0.91250911
 40
0.9571392634
 40
1.0
 40
1.0
 40
1.0
 40
1.0
 10
58.0427220516
 20
48.1743647569
 30
0.0
 10
58.0427220516
 20
48.0888899674
 30
0.0
 10
58.018809329
 20
47.9091662345
 30
0.0
 10
57.9295634504
 20
47.6452815246
 30
0.0
 10
57.7920356246
 20
47.3910787237
 30
0.0
 10
57.6172873084
 20
47.1673995125
 30
0.0
 10
57.4195947599
 20
46.9923109544
 30
0.0
 10
57.2406553485
 20
46.8944644894
 30
0.0
 10
57.1006799375
 20
46.8572305421
 30
0.0
 10
57.0043423253
 20
46.8501357704
 30
0.0
 10
56.9146359812
 20
46.8632820999
 30
0.0
 10
56.8602856634
 20
46.8858649046
 30
0.0
 10
56.8356372351
 20
46.9001084178
 30
0.0
  0
SPLINE
  5
367
100
AcDbEntity
  8
0
100
AcDbSpline
 62
7
  6
CONTINUOUS
 70
0
 71
3
 72
17
 73
13
 74
0
 42
0.0000001
 43
0.0000001
 44
0.0000000001
 40
0.0
 40
0.0
 40
0.0
 40
0.0
 40
0.1286891333
 40
0.2702803493
 40
0.4174326844
 40
0.5617743804
 40
0.6954465661
 40
0.8127104963
 40
0.8646756522
 40
0.91250911
 40
0.9571392634
 40
1.0
 40
1.0
 40
1.0
 40
1.0
 10
58.0427220516
 20
75.9354469393
 30
0.0
 10
58.0427220516
 20
75.8499721498
 30
0.0
 10
58.018809329
 20
75.6702484169
 30
0.0
 10
57.9295634504
 20
75.406363707
 30
0.0
 10
57.7920356246
 20
75.1521609061
 30
0.0
 10
57.6172873084
 20
74.9284816949
 30
0.0
 10
57.4195947599
 20
74.7533931368
 30
0.0
 10
57.2406553485
 20
74.6555466718
 30
0.0
 10
57.1006799375
 20
74.6183127246
 30
0.0
 10
57.0043423253
 20
74.6112179528
 30
0.0
 10
56.9146359812
 20
74.6243642823
 30
0.0
 10
56.8602856634
 20
74.646947087
 30
0.0
 10
56.8356372351
 20
74.6611906002
 30
0.0
  0
SPLINE
  5
368
100
AcDbEntity
  8
0
100
AcDbSpline
 62
7
  6
CONTINUOUS
 70
0
 71
3
 72
17
 73
13
 74
0
 42
0.0000001
 43
0.0000001
 44
0.0000000001
 40
0.0
 40
0.0
 40
0.0
 40
0.0
 40
0.1286891333
 40
0.2702803493
 40
0.4174326844
 40
0.5617743804
 40
0.6954465661
 40
0.8127104963
 40
0.8646756522
 40
0.91250911
 40
0.9571392634
 40
1.0
 40
1.0
 40
1.0
 40
1.0
 10
67.2350719353
 20
79.6096161054
 30
0.0
 10
67.2350719353
 20
79.5241413159
 30
0.0
 10
67.2111592128
 20
79.344417583
 30
0.0
 10
67.1219133342
 20
79.0805328731
 30
0.0
 10
66.9843855084
 20
78.8263300722
 30
0.0
 10
66.8096371922
 20
78.6026508609
 30
0.0
 10
66.6119446437
 20
78.4275623028
 30
0.0
 10
66.4330052323
 20
78.3297158379
 30
0.0
 10
66.2930298213
 20
78.2924818906
 30
0.0
 10
66.1966922091
 20
78.2853871188
 30
0.0
 10
66.106985865
 20
78.2985334483
 30
0.0
 10
66.0526355472
 20
78.321116253
 30
0.0
 10
66.0279871189
 20
78.3353597663
 30
0.0
  0
SPLINE
  5
369
100
AcDbEntity
  8
0
100
AcDbSpline
 62
7
  6
CONTINUOUS
 70
0
 71
3
 72
17
 73
13
 74
0
 42
0.0000001
 43
0.0000001
 44
0.0000000001
 40
0.0
 40
0.0
 40
0.0
 40
0.0
 40
0.1286891333
 40
0.2702803493
 40
0.4174326844
 40
0.5617743804
 40
0.6954465661
 40
0.8127104963
 40
0.8646756522
 40
0.91250911
 40
0.9571392634
 40
1.0
 40
1.0
 40
1.0
 40
1.0
 10
66.5279680981
 20
70.6280965716
 30
0.0
 10
66.5279680981
 20
70.5426217822
 30
0.0
 10
66.5040553756
 20
70.3628980492
 30
0.0
 10
66.414809497
 20
70.0990133394
 30
0.0
 10
66.2772816712
 20
69.8448105385
 30
0.0
 10
66.102533355
 20
69.6211313272
 30
0.0
 10
65.9048408065
 20
69.4460427691
 30
0.0
 10
65.725901395
 20
69.3481963042
 30
0.0
 10
65.585925984
 20
69.3109623569
 30
0.0
 10
65.4895883719
 20
69.3038675851
 30
0.0
 10
65.3998820278
 20
69.3170139146
 30
0.0
 10
65.3455317099
 20
69.3395967193
 30
0.0
 10
65.3208832817
 20
69.3538402325
 30
0.0
  0
SPLINE
  5
36A
100
AcDbEntity
  8
0
100
AcDbSpline
 62
7
  6
CONTINUOUS
 70
0
 71
3
 72
11
 73
7
 74
0
 42
0.0000001
 43
0.0000001
 44
0.0000000001
 40
0.0
 40
0.0
 40
0.0
 40
0.0
 40
0.2177651606
 40
0.4508956102
 40
0.7103690052
 40
1.0
 40
1.0
 40
1.0
 40
1.0
 10
66.3208452402
 20
63.7373428488
 30
0.0
 10
66.3538215779
 20
63.7182869116
 30
0.0
 10
66.4155715932
 20
63.6664531335
 30
0.0
 10
66.481267426
 20
63.5589889761
 30
0.0
 10
66.5202681782
 20
63.4265911483
 30
0.0
 10
66.5279680981
 20
63.3302302026
 30
0.0
 10
66.5279680981
 20
63.2795748175
 30
0.0
  0
SPLINE
  5
36B
100
AcDbEntity
  8
0
100
AcDbSpline
 62
7
  6
CONTINUOUS
 70
0
 71
3
 72
17
 73
13
 74
0
 42
0.0000001
 43
0.0000001
 44
0.0000000001
 40
0.0
 40
0.0
 40
0.0
 40
0.0
 40
0.1286891333
 40
0.2702803493
 40
0.4174326844
 40
0.5617743804
 40
0.6954465661
 40
0.8127104963
 40
0.8646756522
 40
0.91250911
 40
0.9571392634
 40
1.0
 40
1.0
 40
1.0
 40
1.0
 10
66.5279680981
 20
63.2795748175
 30
0.0
 10
66.5279680981
 20
63.194100028
 30
0.0
 10
66.5040553756
 20
63.0143762951
 30
0.0
 10
66.414809497
 20
62.7504915852
 30
0.0
 10
66.2772816712
 20
62.4962887843
 30
0.0
 10
66.102533355
 20
62.272609573
 30
0.0
 10
65.9048408065
 20
62.0975210149
 30
0.0
 10
65.725901395
 20
61.99967455
 30
0.0
 10
65.585925984
 20
61.9624406027
 30
0.0
 10
65.4895883719
 20
61.9553458309
 30
0.0
 10
65.3998820278
 20
61.9684921604
 30
0.0
 10
65.3455317099
 20
61.9910749651
 30
0.0
 10
65.3208832817
 20
62.0053184784
 30
0.0
  0
SPLINE
  5
36C
100
AcDbEntity
  8
0
100
AcDbSpline
 62
7
  6
CONTINUOUS
 70
0
 71
3
 72
16
 73
12
 74
0
 42
0.0000001
 43
0.0000001
 44
0.0000000001
 40
0.0
 40
0.0
 40
0.0
 40
0.0
 40
0.1236090722
 40
0.2590108753
 40
0.4006438838
 40
0.5420960775
 40
0.6769399523
 40
0.7997505072
 40
0.8556043049
 40
0.9074795218
 40
1.0
 40
1.0
 40
1.0
 40
1.0
 10
66.5279622102
 20
55.522784346
 30
0.0
 10
66.5279622102
 20
55.4465201449
 30
0.0
 10
66.5088838329
 20
55.2865362875
 30
0.0
 10
66.4362547653
 20
55.0492114364
 30
0.0
 10
66.322790303
 20
54.8161493539
 30
0.0
 10
66.1760449964
 20
54.6029035471
 30
0.0
 10
66.0057307544
 20
54.4235990853
 30
0.0
 10
65.8483914805
 20
54.3085570404
 30
0.0
 10
65.7202310495
 20
54.2458726047
 30
0.0
 10
65.6029393753
 20
54.2067087892
 30
0.0
 10
65.5117793256
 20
54.1977677511
 30
0.0
 10
65.4551071453
 20
54.2046054954
 30
0.0
  0
SPLINE
  5
36D
100
AcDbEntity
  8
0
100
AcDbSpline
 62
7
  6
CONTINUOUS
 70
0
 71
3
 72
9
 73
5
 74
0
 42
0.0000001
 43
0.0000001
 44
0.0000000001
 40
0.0
 40
0.0
 40
0.0
 40
0.0
 40
0.2458058881
 40
1.0
 40
1.0
 40
1.0
 40
1.0
 10
33.0929704315
 20
53.2297812812
 30
0.0
 10
33.1549711152
 20
53.200879118
 30
0.0
 10
33.4058437536
 20
53.0803906974
 30
0.0
 10
33.6512498561
 20
52.9485837906
 30
0.0
 10
33.8330189107
 20
52.8436417521
 30
0.0
  0
SPLINE
  5
36E
100
AcDbEntity
  8
0
100
AcDbSpline
 62
7
  6
CONTINUOUS
 70
0
 71
3
 72
15
 73
11
 74
0
 42
0.0000001
 43
0.0000001
 44
0.0000000001
 40
0.0
 40
0.0
 40
0.0
 40
0.0
 40
0.1128064292
 40
0.2316059787
 40
0.3553998107
 40
0.4829079633
 40
0.6126778748
 40
0.7431630275
 40
0.8727842564
 40
1.0
 40
1.0
 40
1.0
 40
1.0
 10
34.1270233824
 20
52.667401381
 30
0.0
 10
34.4875949363
 20
52.4432860683
 30
0.0
 10
35.2014824874
 20
51.9396829394
 30
0.0
 10
36.2128793397
 20
51.0615326957
 30
0.0
 10
37.1783592565
 20
50.0550342869
 30
0.0
 10
38.080874912
 20
48.9383689267
 30
0.0
 10
38.9043811348
 20
47.7317087883
 30
0.0
 10
39.6340534646
 20
46.4569255816
 30
0.0
 10
40.2566004619
 20
45.1372510724
 30
0.0
 10
40.5972529392
 20
44.2312397066
 30
0.0
 10
40.7461645779
 20
43.7762106869
 30
0.0
  0
SPLINE
  5
36F
100
AcDbEntity
  8
0
100
AcDbSpline
 62
7
  6
CONTINUOUS
 70
0
 71
3
 72
11
 73
7
 74
0
 42
0.0000001
 43
0.0000001
 44
0.0000000001
 40
0.0
 40
0.0
 40
0.0
 40
0.0
 40
0.2689829707
 40
0.5265329286
 40
0.7706286556
 40
1.0
 40
1.0
 40
1.0
 40
1.0
 10
40.8277000455
 20
43.5199815091
 30
0.0
 10
40.9616451388
 20
43.0867306817
 30
0.0
 10
41.1885566331
 20
42.2271439069
 30
0.0
 10
41.4037550839
 20
40.9438591624
 30
0.0
 10
41.4834082865
 20
39.7117809253
 30
0.0
 10
41.4430494239
 20
38.912126748
 30
0.0
 10
41.3972390782
 20
38.5281480077
 30
0.0
  0
SPLINE
  5
370
100
AcDbEntity
  8
0
100
AcDbSpline
 62
7
  6
CONTINUOUS
 70
0
 71
3
 72
21
 73
17
 74
0
 42
0.0000001
 43
0.0000001
 44
0.0000000001
 40
0.0
 40
0.0
 40
0.0
 40
0.0
 40
0.0536929636
 40
0.1108439881
 40
0.1710115695
 40
0.2337199336
 40
0.2984805352
 40
0.3647918424
 40
0.499960274
 40
0.6351339087
 40
0.7014516747
 40
0.7662212712
 40
0.828941075
 40
0.8891223626
 40
0.946289651
 40
1.0
 40
1.0
 40
1.0
 40
1.0
 10
18.8238032134
 20
44.6260793996
 30
0.0
 10
19.0817107668
 20
44.4771797728
 30
0.0
 10
19.6006649906
 20
44.1460310373
 30
0.0
 10
20.3589883646
 20
43.5749458211
 30
0.0
 10
21.1124853985
 20
42.9185467467
 30
0.0
 10
21.8507248008
 20
42.1840042563
 30
0.0
 10
22.5643392964
 20
41.3793899064
 30
0.0
 10
23.4770869924
 20
40.2176533184
 30
0.0
 10
24.5016327208
 20
38.6515562664
 30
0.0
 10
25.3460935085
 20
36.9814150736
 30
0.0
 10
25.8962313024
 20
35.6101285812
 30
0.0
 10
26.2365777111
 20
34.5897685302
 30
0.0
 10
26.5039423957
 20
33.583060979
 30
0.0
 10
26.6960104107
 20
32.6021502728
 30
0.0
 10
26.8117811827
 20
31.6596600487
 30
0.0
 10
26.8393289547
 20
31.0444826581
 30
0.0
 10
26.8394465283
 20
30.7465819482
 30
0.0
  0
SPLINE
  5
371
100
AcDbEntity
  8
0
100
AcDbSpline
 62
7
  6
CONTINUOUS
 70
0
 71
3
 72
26
 73
22
 74
0
 42
0.0000001
 43
0.0000001
 44
0.0000000001
 40
0.0
 40
0.0
 40
0.0
 40
0.0
 40
0.0619089969
 40
0.1267510096
 40
0.1941110436
 40
0.2633551504
 40
0.3336953232
 40
0.4042602232
 40
0.474161687
 40
0.5425614139
 40
0.6087391389
 40
0.6721613346
 40
0.7325492157
 40
0.7899330362
 40
0.8446732237
 40
0.8712743368
 40
0.8974661998
 40
0.9233509351
 40
0.9490133398
 40
0.9745407199
 40
1.0
 40
1.0
 40
1.0
 40
1.0
 10
18.8238032134
 20
23.8052399031
 30
0.0
 10
18.294298134
 20
24.1109428873
 30
0.0
 10
17.2502343387
 20
24.8079895978
 30
0.0
 10
15.7818600797
 20
26.0455577699
 30
0.0
 10
14.3946599335
 20
27.4760425757
 30
0.0
 10
13.1124285055
 20
29.0711162831
 30
0.0
 10
11.9585127007
 20
30.7993786166
 30
0.0
 10
10.9551365176
 20
32.6265408145
 30
0.0
 10
10.1222587113
 20
34.5166317411
 30
0.0
 10
9.476966754
 20
36.4332668948
 30
0.0
 10
9.0332993319
 20
38.3411022536
 30
0.0
 10
8.802613625
 20
40.2070839884
 30
0.0
 10
8.7948251095
 20
42.0014041893
 30
0.0
 10
9.0197479009
 20
43.6961066869
 30
0.0
 10
9.4153509482
 20
45.0157487653
 30
0.0
 10
9.8605947712
 20
45.9815395957
 30
0.0
 10
10.2552123862
 20
46.6525388229
 30
0.0
 10
10.7134924429
 20
47.2704057337
 30
0.0
 10
11.233655107
 20
47.8284679637
 30
0.0
 10
11.8122425861
 20
48.319213054
 30
0.0
 10
12.2336198482
 20
48.597528987
 30
0.0
 10
12.4514491182
 20
48.723111768
 30
0.0
  0
SPLINE
  5
372
100
AcDbEntity
  8
0
100
AcDbSpline
 62
7
  6
CONTINUOUS
 70
0
 71
3
 72
16
 73
12
 74
0
 42
0.0000001
 43
0.0000001
 44
0.0000000001
 40
0.0
 40
0.0
 40
0.0
 40
0.0
 40
0.0845179322
 40
0.1292274997
 40
0.1763186511
 40
0.2788772713
 40
0.3946327717
 40
0.5247123423
 40
0.6693270779
 40
0.8279905114
 40
1.0
 40
1.0
 40
1.0
 40
1.0
 10
14.6040586995
 20
45.3395009832
 30
0.0
 10
14.7167484421
 20
45.3935770942
 30
0.0
 10
14.8964199138
 20
45.461845654
 30
0.0
 10
15.1495314797
 20
45.5251872623
 30
0.0
 10
15.4330085409
 20
45.5742408008
 30
0.0
 10
15.8262464799
 20
45.5976124521
 30
0.0
 10
16.3413584831
 20
45.5587501658
 30
0.0
 10
16.9090992774
 20
45.4467503051
 30
0.0
 10
17.5218866644
 20
45.2552667493
 30
0.0
 10
18.1704497079
 20
44.9818655162
 30
0.0
 10
18.60349957
 20
44.75326889
 30
0.0
 10
18.8238032134
 20
44.6260793996
 30
0.0
  0
SPLINE
  5
373
100
AcDbEntity
  8
0
100
AcDbSpline
 62
7
  6
CONTINUOUS
 70
0
 71
3
 72
15
 73
11
 74
0
 42
0.0000001
 43
0.0000001
 44
0.0000000001
 40
0.0
 40
0.0
 40
0.0
 40
0.0
 40
0.1080129573
 40
0.2180623412
 40
0.3319997786
 40
0.4513590407
 40
0.5772784773
 40
0.7104933322
 40
0.8514158613
 40
1.0
 40
1.0
 40
1.0
 40
1.0
 10
23.6643296512
 20
55.1968459625
 30
0.0
 10
23.9061582838
 20
55.3364657636
 30
0.0
 10
24.4195997522
 20
55.5769139169
 30
0.0
 10
25.2503801547
 20
55.8066500359
 30
0.0
 10
26.1360150137
 20
55.9054214826
 30
0.0
 10
27.0670711387
 20
55.8730385368
 30
0.0
 10
28.0345658211
 20
55.710747219
 30
0.0
 10
29.0295276112
 20
55.4207029008
 30
0.0
 10
30.0425181068
 20
55.0060865554
 30
0.0
 10
30.7066287254
 20
54.6584396616
 30
0.0
 10
31.0392934501
 20
54.4663799382
 30
0.0
  0
SPLINE
  5
374
100
AcDbEntity
  8
0
100
AcDbSpline
 62
7
  6
CONTINUOUS
 70
0
 71
3
 72
16
 73
12
 74
0
 42
0.0000001
 43
0.0000001
 44
0.0000000001
 40
0.0
 40
0.0
 40
0.0
 40
0.0
 40
0.1177474903
 40
0.1768464407
 40
0.2361780168
 40
0.3557805044
 40
0.4774487548
 40
0.6019990046
 40
0.7302096818
 40
0.8627881714
 40
1.0
 40
1.0
 40
1.0
 40
1.0
 10
27.2011276448
 20
23.1752168803
 30
0.0
 10
26.9020458693
 20
23.0024221525
 30
0.0
 10
26.4301032674
 20
22.7796570149
 30
0.0
 10
25.7714944205
 20
22.5629424624
 30
0.0
 10
25.0922940378
 20
22.3979646714
 30
0.0
 10
24.2132563917
 20
22.2913262719
 30
0.0
 10
23.1370983192
 20
22.3177536764
 30
0.0
 10
22.0493600213
 20
22.490047009
 30
0.0
 10
20.9595847681
 20
22.7993175191
 30
0.0
 10
19.8753200865
 20
23.2375325239
 30
0.0
 10
19.1723873584
 20
23.603989306
 30
0.0
 10
18.8238032134
 20
23.8052399031
 30
0.0
  0
SPLINE
  5
375
100
AcDbEntity
  8
0
100
AcDbSpline
 62
7
  6
CONTINUOUS
 70
0
 71
3
 72
16
 73
12
 74
0
 42
0.0000001
 43
0.0000001
 44
0.0000000001
 40
0.0
 40
0.0
 40
0.0
 40
0.0
 40
0.1720016482
 40
0.3307137404
 40
0.4753376376
 40
0.6054189186
 40
0.7211790147
 40
0.8237231223
 40
0.8708049476
 40
0.9155056887
 40
1.0
 40
1.0
 40
1.0
 40
1.0
 10
26.8394465197
 20
30.7465475518
 30
0.0
 10
26.8395424301
 20
30.4919398158
 30
0.0
 10
26.8211486474
 20
30.0020888081
 30
0.0
 10
26.7338427628
 20
29.3029568952
 30
0.0
 10
26.5933342611
 20
28.6758108017
 30
0.0
 10
26.4064444759
 20
28.1275453996
 30
0.0
 10
26.1824723509
 20
27.6615310837
 30
0.0
 10
25.9655146846
 20
27.3323199759
 30
0.0
 10
25.7811604204
 20
27.1111741826
 30
0.0
 10
25.5996118817
 20
26.9235254491
 30
0.0
 10
25.4505516784
 20
26.8019820384
 30
0.0
 10
25.3473143928
 20
26.7313737625
 30
0.0
  0
SPLINE
  5
376
100
AcDbEntity
  8
0
100
AcDbSpline
 62
7
  6
CONTINUOUS
 70
0
 71
3
 72
11
 73
7
 74
0
 42
0.0000001
 43
0.0000001
 44
0.0000000001
 40
0.0
 40
0.0
 40
0.0
 40
0.0
 40
0.2302054335
 40
0.4746652275
 40
0.7319281029
 40
1.0
 40
1.0
 40
1.0
 40
1.0
 10
41.3432549194
 20
38.7600744807
 30
0.0
 10
41.3718684522
 20
39.1253637774
 30
0.0
 10
41.3848990744
 20
39.8826184702
 30
0.0
 10
41.2839122427
 20
41.0449546973
 30
0.0
 10
41.0648386616
 20
42.2520626118
 30
0.0
 10
40.8460978053
 20
43.0602182066
 30
0.0
 10
40.7187340811
 20
43.4674444235
 30
0.0
  0
SPLINE
  5
377
100
AcDbEntity
  8
0
100
AcDbSpline
 62
7
  6
CONTINUOUS
 70
0
 71
3
 72
15
 73
11
 74
0
 42
0.0000001
 43
0.0000001
 44
0.0000000001
 40
0.0
 40
0.0
 40
0.0
 40
0.0
 40
0.1266495753
 40
0.2560359216
 40
0.3865441815
 40
0.51651553
 40
0.6443127136
 40
0.7683831778
 40
0.8873232501
 40
1.0
 40
1.0
 40
1.0
 40
1.0
 10
40.7187340811
 20
43.4674444235
 30
0.0
 10
40.5736351111
 20
43.9313764026
 30
0.0
 10
40.2386284954
 20
44.8566899673
 30
0.0
 10
39.61997393
 20
46.2068141084
 30
0.0
 10
38.8892887135
 20
47.5144606008
 30
0.0
 10
38.0604039962
 20
48.754833609
 30
0.0
 10
37.1489386041
 20
49.9045800776
 30
0.0
 10
36.1719779693
 20
50.9420595093
 30
0.0
 10
35.14797788
 20
51.8477897325
 30
0.0
 10
34.4246446082
 20
52.3680585288
 30
0.0
 10
34.0594233759
 20
52.5996588179
 30
0.0
  0
SPLINE
  5
378
100
AcDbEntity
  8
0
100
AcDbSpline
 62
7
  6
CONTINUOUS
 70
0
 71
3
 72
15
 73
11
 74
0
 42
0.0000001
 43
0.0000001
 44
0.0000000001
 40
0.0
 40
0.0
 40
0.0
 40
0.0
 40
0.1485551804
 40
0.2894633891
 40
0.4226781885
 40
0.5486091332
 40
0.6679867745
 40
0.7819420261
 40
0.8919989866
 40
1.0
 40
1.0
 40
1.0
 40
1.0
 10
19.8261855563
 20
47.992527721
 30
0.0
 10
19.494073113
 20
48.1842685917
 30
0.0
 10
18.8310623118
 20
48.5313975686
 30
0.0
 10
17.8197675008
 20
48.945608249
 30
0.0
 10
16.8264139678
 20
49.2356819541
 30
0.0
 10
15.8603917909
 20
49.3984544324
 30
0.0
 10
14.930626051
 20
49.4317711354
 30
0.0
 10
14.0460542657
 20
49.3343931591
 30
0.0
 10
13.2160602736
 20
49.1064928849
 30
0.0
 10
12.7028701097
 20
48.8675265731
 30
0.0
 10
12.4610999495
 20
48.7286871471
 30
0.0
  0
SPLINE
  5
379
100
AcDbEntity
  8
0
100
AcDbSpline
 62
7
  6
CONTINUOUS
 70
0
 71
3
 72
16
 73
12
 74
0
 42
0.0000001
 43
0.0000001
 44
0.0000000001
 40
0.0
 40
0.0
 40
0.0
 40
0.0
 40
0.1494614318
 40
0.29077663
 40
0.4239074369
 40
0.487585888
 40
0.5494484219
 40
0.6681789926
 40
0.781560661
 40
0.891440979
 40
1.0
 40
1.0
 40
1.0
 40
1.0
 10
12.131204451
 20
40.2868875013
 30
0.0
 10
12.131204451
 20
40.5823386646
 30
0.0
 10
12.156311289
 20
41.1576005486
 30
0.0
 10
12.2760841087
 20
41.9884129056
 30
0.0
 10
12.4453698629
 20
42.6368513019
 30
0.0
 10
12.621672858
 20
43.1172031313
 30
0.0
 10
12.8181880528
 20
43.5585945903
 30
0.0
 10
13.1101914112
 20
44.0637063756
 30
0.0
 10
13.538513545
 20
44.5907302811
 30
0.0
 10
14.0355794037
 20
45.0237055662
 30
0.0
 10
14.4090728429
 20
45.2458682326
 30
0.0
 10
14.6026135127
 20
45.3385700939
 30
0.0
  0
SPLINE
  5
37A
100
AcDbEntity
  8
0
100
AcDbSpline
 62
7
  6
CONTINUOUS
 70
0
 71
3
 72
20
 73
16
 74
0
 42
0.0000001
 43
0.0000001
 44
0.0000000001
 40
0.0
 40
0.0
 40
0.0
 40
0.0
 40
0.1515701651
 40
0.2912639196
 40
0.4197128293
 40
0.4803573485
 40
0.5390263878
 40
0.5961713609
 40
0.6523139576
 40
0.7080248391
 40
0.7638977328
 40
0.82051698
 40
0.8784307744
 40
0.9381220494
 40
1.0
 40
1.0
 40
1.0
 40
1.0
 10
13.1246376214
 20
40.2475930222
 30
0.0
 10
13.1246376214
 20
40.6310667863
 30
0.0
 10
13.1693707155
 20
41.3692957282
 30
0.0
 10
13.3888467353
 20
42.4124647079
 30
0.0
 10
13.7010311655
 20
43.1896272963
 30
0.0
 10
14.0235636559
 20
43.7284005218
 30
0.0
 10
14.2944456412
 20
44.0845198616
 30
0.0
 10
14.5974483156
 20
44.3981729362
 30
0.0
 10
14.9309803409
 20
44.667484228
 30
0.0
 10
15.293114759
 20
44.8908799334
 30
0.0
 10
15.6817898488
 20
45.0669398861
 30
0.0
 10
16.0946574217
 20
45.1948113637
 30
0.0
 10
16.5293675589
 20
45.2737182223
 30
0.0
 10
16.9833713444
 20
45.303527119
 30
0.0
 10
17.2913139844
 20
45.2907875432
 30
0.0
 10
17.4472367136
 20
45.2767681016
 30
0.0
  0
SPLINE
  5
37B
100
AcDbEntity
  8
0
100
AcDbSpline
 62
7
  6
CONTINUOUS
 70
0
 71
3
 72
29
 73
25
 74
0
 42
0.0000001
 43
0.0000001
 44
0.0000000001
 40
0.0
 40
0.0
 40
0.0
 40
0.0
 40
0.0245746788
 40
0.0481611313
 40
0.0709939816
 40
0.093353752
 40
0.1155526778
 40
0.1379147027
 40
0.1607520588
 40
0.1843446623
 40
0.2345919239
 40
0.2616347524
 40
0.2900420562
 40
0.3198401902
 40
0.3510120171
 40
0.4172041046
 40
0.4879097791
 40
0.5620275331
 40
0.6382271304
 40
0.7150498679
 40
0.7909995394
 40
0.8646335439
 40
0.9346493479
 40
1.0
 40
1.0
 40
1.0
 40
1.0
 10
26.7126135664
 20
29.2205923468
 30
0.0
 10
26.6357091707
 20
29.0550647079
 30
0.0
 10
26.4664556517
 20
28.7387792514
 30
0.0
 10
26.1600585331
 20
28.3078498335
 30
0.0
 10
25.8089967242
 20
27.9344215911
 30
0.0
 10
25.415817598
 20
27.6217769875
 30
0.0
 10
24.9836419063
 20
27.3725656522
 30
0.0
 10
24.5160636635
 20
27.1888507047
 30
0.0
 10
24.0168964544
 20
27.072021886
 30
0.0
 10
23.3001569813
 20
27.0047401071
 30
0.0
 10
22.5466139543
 20
27.0803697009
 30
0.0
 10
21.786071344
 20
27.2775642851
 30
0.0
 10
21.1900072725
 20
27.4940178897
 30
0.0
 10
20.5872351156
 20
27.7738079792
 30
0.0
 10
19.7636292376
 20
28.2377163267
 30
0.0
 10
18.7461022622
 20
28.9679034089
 30
0.0
 10
17.5918233081
 20
30.0329195412
 30
0.0
 10
16.5125435628
 20
31.2739210722
 30
0.0
 10
15.5392249165
 20
32.6552448542
 30
0.0
 10
14.6997036853
 20
34.1373514901
 30
0.0
 10
14.0180841885
 20
35.6776368077
 30
0.0
 10
13.5139419381
 20
37.2321131059
 30
0.0
 10
13.2016881071
 20
38.7560200099
 30
0.0
 10
13.1246376214
 20
39.76222248
 30
0.0
 10
13.1246376214
 20
40.2475930222
 30
0.0
  0
SPLINE
  5
37C
100
AcDbEntity
  8
0
100
AcDbSpline
 62
7
  6
CONTINUOUS
 70
0
 71
3
 72
27
 73
23
 74
0
 42
0.0000001
 43
0.0000001
 44
0.0000000001
 40
0.0
 40
0.0
 40
0.0
 40
0.0
 40
0.0213284585
 40
0.0428883904
 40
0.0648955049
 40
0.0875441476
 40
0.1109985584
 40
0.1353914228
 40
0.1608203662
 40
0.1873519165
 40
0.2437991226
 40
0.3047523083
 40
0.3698401588
 40
0.4384321348
 40
0.509708204
 40
0.5827176782
 40
0.6564309904
 40
0.7297877138
 40
0.8017428025
 40
0.8713146654
 40
0.9376330874
 40
1.0
 40
1.0
 40
1.0
 40
1.0
 10
27.2089456346
 20
23.1797223969
 30
0.0
 10
27.389903316
 20
23.2846397529
 30
0.0
 10
27.7406814281
 20
23.5191788246
 30
0.0
 10
28.2219567466
 20
23.9380349705
 30
0.0
 10
28.6571509106
 20
24.422143953
 30
0.0
 10
29.0436887728
 20
24.9686462595
 30
0.0
 10
29.3797693736
 20
25.5742917247
 30
0.0
 10
29.6635975405
 20
26.2357273032
 30
0.0
 10
29.8939538272
 20
26.9492934697
 30
0.0
 10
30.1330283237
 20
27.9863625915
 30
0.0
 10
30.2840006346
 20
29.3954209421
 30
0.0
 10
30.237280635
 20
31.1887807928
 30
0.0
 10
29.9683773011
 20
33.0823768576
 30
0.0
 10
29.4832444058
 20
35.0362589446
 30
0.0
 10
28.7922837034
 20
37.0093561963
 30
0.0
 10
27.9101951189
 20
38.9597739754
 30
0.0
 10
26.8557704441
 20
40.8460024228
 30
0.0
 10
25.6514728611
 20
42.6278382575
 30
0.0
 10
24.3229873195
 20
44.2673125795
 30
0.0
 10
22.8984051649
 20
45.7296198002
 30
0.0
 10
21.4081800618
 20
46.9835510268
 30
0.0
 10
20.3558897872
 20
47.6867097592
 30
0.0
 10
19.8261855563
 20
47.992527721
 30
0.0
  0
SPLINE
  5
37D
100
AcDbEntity
  8
0
100
AcDbSpline
 62
7
  6
CONTINUOUS
 70
0
 71
3
 72
16
 73
12
 74
0
 42
0.0000001
 43
0.0000001
 44
0.0000000001
 40
0.0
 40
0.0
 40
0.0
 40
0.0
 40
0.1494629873
 40
0.2907785681
 40
0.4239087532
 40
0.4875866219
 40
0.5494484545
 40
0.6681775106
 40
0.7815581478
 40
0.891438704
 40
1.0
 40
1.0
 40
1.0
 40
1.0
 10
19.7353729953
 20
27.1167539826
 30
0.0
 10
19.991248943
 20
26.9690272774
 30
0.0
 10
20.5020087313
 20
26.7031416559
 30
0.0
 10
21.281422938
 20
26.3914795507
 30
0.0
 10
21.9276466299
 20
26.2138948844
 30
0.0
 10
22.4318042666
 20
26.1264340725
 30
0.0
 10
22.9123233814
 20
26.0759623983
 30
0.0
 10
23.4957673588
 20
26.0763453527
 30
0.0
 10
24.1663370155
 20
26.1838568912
 30
0.0
 10
24.7898168018
 20
26.39794247
 30
0.0
 10
25.1689337226
 20
26.6103906198
 30
0.0
 10
25.3459695167
 20
26.7316885526
 30
0.0
  0
SPLINE
  5
37E
100
AcDbEntity
  8
0
100
AcDbSpline
 62
7
  6
CONTINUOUS
 70
0
 71
3
 72
19
 73
15
 74
0
 42
0.0000001
 43
0.0000001
 44
0.0000000001
 40
0.0
 40
0.0
 40
0.0
 40
0.0
 40
0.055840264
 40
0.1142091933
 40
0.1748240212
 40
0.2374068459
 40
0.3670178759
 40
0.5000010801
 40
0.6329841338
 40
0.7625947243
 40
0.8251772317
 40
0.8857916858
 40
0.9441601937
 40
1.0
 40
1.0
 40
1.0
 40
1.0
 10
12.131760918
 20
40.286523313
 30
0.0
 10
12.131760918
 20
39.992420873
 30
0.0
 10
12.1579199863
 20
39.3906790414
 30
0.0
 10
12.2686826438
 20
38.4758114441
 30
0.0
 10
12.4509895166
 20
37.5362616149
 30
0.0
 10
12.7909436412
 20
36.248061969
 30
0.0
 10
13.3838305139
 20
34.6364709465
 30
0.0
 10
14.3247415348
 20
32.7727576726
 30
0.0
 10
15.468316086
 20
31.0260555416
 30
0.0
 10
16.5675553185
 20
29.7068143386
 30
0.0
 10
17.5131934263
 20
28.7683156032
 30
0.0
 10
18.2357139216
 20
28.1406671169
 30
0.0
 10
18.9726302477
 20
27.5873197728
 30
0.0
 10
19.4806734581
 20
27.2638015023
 30
0.0
 10
19.7353729953
 20
27.1167539826
 30
0.0
  0
SPLINE
  5
37F
100
AcDbEntity
  8
0
100
AcDbSpline
 62
7
  6
CONTINUOUS
 70
0
 71
3
 72
35
 73
31
 74
0
 42
0.0000001
 43
0.0000001
 44
0.0000000001
 40
0.0
 40
0.0
 40
0.0
 40
0.0
 40
0.0325432171
 40
0.0665670938
 40
0.1018987254
 40
0.1383735444
 40
0.2139183954
 40
0.2914281333
 40
0.3689381036
 40
0.4444817297
 40
0.4809591012
 40
0.5162903762
 40
0.5503018523
 40
0.5828551334
 40
0.6138495391
 40
0.643236279
 40
0.6710225961
 40
0.6972858918
 40
0.7221807737
 40
0.7459448596
 40
0.7688982642
 40
0.7914267851
 40
0.8139552689
 40
0.8369086362
 40
0.8606733391
 40
0.8855688568
 40
0.9118297641
 40
0.9396164945
 40
0.9690156437
 40
1.0
 40
1.0
 40
1.0
 40
1.0
 10
15.034469375
 20
39.2395882222
 30
0.0
 10
15.034469375
 20
39.0367158845
 30
0.0
 10
15.0525339073
 20
38.621591148
 30
0.0
 10
15.1289171607
 20
37.9904312247
 30
0.0
 10
15.2547029473
 20
37.3422385871
 30
0.0
 10
15.4892255008
 20
36.4535355107
 30
0.0
 10
15.8982474691
 20
35.3417471158
 30
0.0
 10
16.5473687204
 20
34.0560159977
 30
0.0
 10
17.3362911937
 20
32.8510099585
 30
0.0
 10
18.0946103883
 20
31.9408751253
 30
0.0
 10
18.7470190278
 20
31.2934369485
 30
0.0
 10
19.2454251994
 20
30.8604624252
 30
0.0
 10
19.7538280247
 20
30.4786876476
 30
0.0
 10
20.2673835923
 20
30.151662522
 30
0.0
 10
20.7813395371
 20
29.8826306163
 30
0.0
 10
21.2908403778
 20
29.6740893714
 30
0.0
 10
21.7912189087
 20
29.5282376423
 30
0.0
 10
22.2778167724
 20
29.446601309
 30
0.0
 10
22.7460909685
 20
29.4303116799
 30
0.0
 10
23.1914829053
 20
29.4800087041
 30
0.0
 10
23.6094142962
 20
29.5955660596
 30
0.0
 10
23.9952249422
 20
29.7762610185
 30
0.0
 10
24.3446095853
 20
30.0200443665
 30
0.0
 10
24.6536503659
 20
30.3242104363
 30
0.0
 10
24.9193757946
 20
30.6850999602
 30
0.0
 10
25.1393846285
 20
31.0987843128
 30
0.0
 10
25.3120025632
 20
31.5609899622
 30
0.0
 10
25.4358892411
 20
32.0673319712
 30
0.0
 10
25.5099779218
 20
32.6128355861
 30
0.0
 10
25.525590209
 20
32.9895193114
 30
0.0
 10
25.525590209
 20
33.1826738103
 30
0.0
  0
SPLINE
  5
380
100
AcDbEntity
  8
0
100
AcDbSpline
 62
7
  6
CONTINUOUS
 70
0
 71
3
 72
35
 73
31
 74
0
 42
0.0000001
 43
0.0000001
 44
0.0000000001
 40
0.0
 40
0.0
 40
0.0
 40
0.0
 40
0.0325432171
 40
0.0665670938
 40
0.1018987254
 40
0.1383735444
 40
0.2139183954
 40
0.2914281333
 40
0.3689381036
 40
0.4444817297
 40
0.4809591012
 40
0.5162903762
 40
0.5503018523
 40
0.5828551334
 40
0.6138495391
 40
0.643236279
 40
0.6710225961
 40
0.6972858918
 40
0.7221807737
 40
0.7459448596
 40
0.7688982642
 40
0.7914267851
 40
0.8139552689
 40
0.8369086362
 40
0.8606733391
 40
0.8855688568
 40
0.9118297641
 40
0.9396164945
 40
0.9690156437
 40
1.0
 40
1.0
 40
1.0
 40
1.0
 10
25.525590209
 20
33.1826738103
 30
0.0
 10
25.525590209
 20
33.3855461479
 30
0.0
 10
25.5075256767
 20
33.8006708845
 30
0.0
 10
25.4311424234
 20
34.4318308077
 30
0.0
 10
25.3053566367
 20
35.0800234453
 30
0.0
 10
25.0708340833
 20
35.9687265217
 30
0.0
 10
24.6618121149
 20
37.0805149167
 30
0.0
 10
24.0126908636
 20
38.3662460347
 30
0.0
 10
23.2237683903
 20
39.5712520739
 30
0.0
 10
22.4654491957
 20
40.4813869072
 30
0.0
 10
21.8130405562
 20
41.128825084
 30
0.0
 10
21.3146343846
 20
41.5617996072
 30
0.0
 10
20.8062315594
 20
41.9435743849
 30
0.0
 10
20.2926759917
 20
42.2705995105
 30
0.0
 10
19.778720047
 20
42.5396314162
 30
0.0
 10
19.2692192063
 20
42.7481726611
 30
0.0
 10
18.7688406753
 20
42.8940243901
 30
0.0
 10
18.2822428116
 20
42.9756607234
 30
0.0
 10
17.8139686155
 20
42.9919503526
 30
0.0
 10
17.3685766788
 20
42.9422533283
 30
0.0
 10
16.9506452879
 20
42.8266959728
 30
0.0
 10
16.5648346418
 20
42.6460010139
 30
0.0
 10
16.2154499987
 20
42.4022176659
 30
0.0
 10
15.9064092182
 20
42.0980515962
 30
0.0
 10
15.6406837894
 20
41.7371620722
 30
0.0
 10
15.4206749556
 20
41.3234777197
 30
0.0
 10
15.2480570208
 20
40.8612720702
 30
0.0
 10
15.1241703429
 20
40.3549300612
 30
0.0
 10
15.0500816622
 20
39.8094264463
 30
0.0
 10
15.034469375
 20
39.4327427211
 30
0.0
 10
15.034469375
 20
39.2395882222
 30
0.0
  0
ELLIPSE
  5
381
100
AcDbEntity
  8
0
100
AcDbEllipse
 62
7
  6
CONTINUOUS
 10
39.9762523649
 20
47.5826690109
 30
0.0
 11
-1.4498876296
 21
12.0871392975
 31
0.0
 40
0.7117190456
 41
-1.0744882353
 42
-0.7713344862
  0
ENDSEC
  0
SECTION
  2
OBJECTS
  0
DICTIONARY
  5
C
100
AcDbDictionary
280
0
281
1
  3
ACAD_GROUP
350
D
  3
ACAD_MLINESTYLE
350
17
  3
ACAD_LAYOUT
350
1A
  3
ACAD_PLOTSETTINGS
350
19
  3
ACAD_PLOTSTYLENAME
350
E
  0
DICTIONARY
  5
D
102
{ACAD_REACTORS
330
C
102
}
100
AcDbDictionary
280
0
281
1
  0
ACDBDICTIONARYWDFLT
  5
E
102
{ACAD_REACTORS
330
C
102
}
100
AcDbDictionary
281
1
  3
Normal
350
F
100
AcDbDictionaryWithDefault
340
F
  0
DICTIONARY
  5
17
102
{ACAD_REACTORS
330
C
102
}
100
AcDbDictionary
280
0
281
1
  3
Standard
350
18
  0
DICTIONARY
  5
19
102
{ACAD_REACTORS
330
C
102
}
100
AcDbDictionary
281
1
  0
DICTIONARY
  5
1A
102
{ACAD_REACTORS
330
C
102
}
100
AcDbDictionary
281
1
  3
Model
350
382
  3
Layout1
350
383
  0
ACDBPLACEHOLDER
  5
F
102
{ACAD_REACTORS
330
E
102
}
  0
MLINESTYLE
  5
18
102
{ACAD_REACTORS
330
17
102
}
100
AcDbMlineStyle
  2
STANDARD
 70
0
  3

 62
256
 51
90.0
 52
90.0
 71
2
 49
0.5
 62
256
  6
BYLAYER
 49
-0.5
 62
256
  6
BYLAYER
  0
LAYOUT
  5
382
102
{ACAD_REACTORS
330
1A
102
}
100
AcDbPlotSettings
  1

  2
none_device
  4

  6

 40
0.0
 41
0.0
 42
0.0
 43
0.0
 44
210.0
 45
297.0
 46
0.0
 47
0.0
 48
0.0
 49
0.0
140
0.0
141
0.0
142
1.0
143
1.0
 70
1024
 72
1
 73
0
 74
0
  7

 75
0
147
1.0
148
0.0
149
0.0
100
AcDbLayout
  1
Model
 70
0
 71
0
 10
0.0
 20
0.0
 11
210.0
 21
297.0
 12
0.0
 22
0.0
 32
0.0
 14
0.0
 24
0.0
 34
0.0
 15
0.0
 25
0.0
 35
0.0
146
0.0
 13
0.0
 23
0.0
 33
0.0
 16
1.0
 26
0.0
 36
0.0
 17
0.0
 27
1.0
 37
0.0
 76
0
330
210
345
0
346
0
  0
LAYOUT
  5
383
102
{ACAD_REACTORS
330
1A
102
}
100
AcDbPlotSettings
  1

  2
none_device
  4

  6

 40
0.0
 41
0.0
 42
0.0
 43
0.0
 44
210.0
 45
297.0
 46
0.0
 47
0.0
 48
0.0
 49
0.0
140
0.0
141
0.0
142
1.0
143
1.0
 70
0
 72
1
 73
0
 74
0
  7

 75
0
147
1.0
148
0.0
149
0.0
100
AcDbLayout
  1
Layout1
 70
0
 71
1
 10
0.0
 20
0.0
 11
210.0
 21
297.0
 12
0.0
 22
0.0
 32
0.0
 14
0.0
 24
0.0
 34
0.0
 15
0.0
 25
0.0
 35
0.0
146
0.0
 13
0.0
 23
0.0
 33
0.0
 16
1.0
 26
0.0
 36
0.0
 17
0.0
 27
1.0
 37
0.0
 76
0
330
211
345
0
346
0
  0
ENDSEC
  0
EOF
