999
DXF file: C:\Users\sesa63760\Dev\_Creo\CAD\MCADID0002163_3D-CAD\drw0001_6.dxf
999
Pro/ENGINEER 2019471 by Parametric Technology Corporation
  0
SECTION
  2
HEADER
  9
$ACADVER
  1
AC1024
  9
$DWGCODEPAGE
  3
ANSI_1252
  9
$EXTMAX
 10
94.5388916857
 20
133.7050039555
 30
0.0
  9
$EXTMIN
 10
0.0
 20
0.0
 30
0.0
  9
$LIMMIN
 10
0.0
 20
0.0
  9
$LIMMAX
 10
94.5388916857
 20
133.7050039555
  9
$VIEWCTR
 10
47.2694458429
 20
66.8525019778
  9
$VIEWSIZE
 40
133.7050039555
  9
$CLAYER
  8
0
  9
$LTSCALE
 40
8.715585443
  9
$CELTYPE
  6
BYLAYER
  9
$DIMSCALE
 40
1.0
  9
$DIMASZ
 40
1.1254629963
  9
$DIMEXO
 40
1.0
  9
$DIMDLI
 40
6.0216772152
  9
$DIMEXE
 40
1.0
  9
$DIMCEN
 40
1.4261867089
  9
$DIMLFAC
 40
1.0
  9
$DIMBLK
  1
_FILLED
  9
$DIMALT
 70
0
  9
$DIMALTF
 40
0.0393700787
  9
$DIMTXT
 40
1.5756481948
  9
$DIMTOL
 70
1
  9
$DIMLIM
 70
0
  9
$DIMTFAC
 40
1.0
  9
$DIMTP
 40
0.01
  9
$DIMTM
 40
0.01
  9
$DIMGAP
 40
0.625
  9
$DIMDSEP
 70
46
  9
$AUNITS
 70
0
  9
$PDMODE
 70
3
  9
$PDSIZE
 40
0.3125
  9
$HANDSEED
  5
35A
  9
$TILEMODE
 70
1
  9
$MEASUREMENT
 70
1
  9
$INSUNITS
 70
4
  0
ENDSEC
  0
SECTION
  2
CLASSES
  0
CLASS
  1
ACDBDICTIONARYWDFLT
  2
AcDbDictionaryWithDefault
  3
AutoCAD 2000
 90
0
 91
1
280
0
281
0
  0
CLASS
  1
ACDBPLACEHOLDER
  2
AcDbPlaceHolder
  3
AutoCAD 2000
 90
0
 91
1
280
0
281
0
  0
CLASS
  1
LAYOUT
  2
AcDbLayout
  3
AutoCAD 2000
 90
0
 91
0
280
0
281
0
  0
ENDSEC
  0
SECTION
  2
TABLES
  0
TABLE
  2
VPORT
  5
8
100
AcDbSymbolTable
 70
2
  0
VPORT
  5
1F4
100
AcDbSymbolTableRecord
100
AcDbViewportTableRecord
  2
*ACTIVE
 70
0
 10
0.0
 20
0.0
 11
1.0
 21
1.0
 12
47.2694458429
 22
66.8525019778
 13
0.0
 23
0.0
 14
1.0
 24
1.0
 15
0.0
 25
0.0
 16
0.0
 26
0.0
 36
1.0
 17
0.0
 27
0.0
 37
0.0
 40
133.7050039555
 41
0.7070707071
 42
50.0
 43
0.0
 44
0.0
 50
0.0
 51
0.0
 71
0
 72
100
 73
1
 74
1
 75
0
 76
0
 77
0
 78
0
  0
ENDTAB
  0
TABLE
  2
LTYPE
  5
5
100
AcDbSymbolTable
 70
6
  0
LTYPE
  5
14
100
AcDbSymbolTableRecord
100
AcDbLinetypeTableRecord
  2
BYBLOCK
 70
0
  3

 72
65
 73
0
 40
0.0
  0
LTYPE
  5
15
100
AcDbSymbolTableRecord
100
AcDbLinetypeTableRecord
  2
BYLAYER
 70
0
  3

 72
65
 73
0
 40
0.0
  0
LTYPE
  5
16
100
AcDbSymbolTableRecord
100
AcDbLinetypeTableRecord
  2
CONTINUOUS
 70
64
  3
Solid line
 72
65
 73
0
 40
0.0
  0
LTYPE
  5
1F5
100
AcDbSymbolTableRecord
100
AcDbLinetypeTableRecord
  2
CENTER
 70
64
  3
____ _ ____ _ ____ _ ____ _ ____ _ ____ _ ____
 72
65
 73
4
 40
0.6
 49
0.375
 74
0
 49
-0.075
 74
0
 49
0.075
 74
0
 49
-0.075
 74
0
  0
LTYPE
  5
1F6
100
AcDbSymbolTableRecord
100
AcDbLinetypeTableRecord
  2
HIDDEN
 70
64
  3
- - - - - - - - - - - - - - - - - - - -
 72
65
 73
2
 40
0.2
 49
0.1
 74
0
 49
-0.1
 74
0
  0
LTYPE
  5
1F7
100
AcDbSymbolTableRecord
100
AcDbLinetypeTableRecord
  2
PHANTOM
 70
64
  3
_____ _ _ _____ _ _ _____ _ _ _____
 72
65
 73
6
 40
0.8
 49
0.45
 74
0
 49
-0.05
 74
0
 49
0.1
 74
0
 49
-0.05
 74
0
 49
0.1
 74
0
 49
-0.05
 74
0
  0
LTYPE
  5
1F8
100
AcDbSymbolTableRecord
100
AcDbLinetypeTableRecord
  2
DOT
 70
64
  3
. . . . . . . . . . . . . . . . . . . .
 72
65
 73
2
 40
0.2
 49
0.1
 74
0
 49
-0.1
 74
0
  0
LTYPE
  5
1F9
100
AcDbSymbolTableRecord
100
AcDbLinetypeTableRecord
  2
DASHED
 70
64
  3
- - - - - - - - - - - - - - - - - - - -
 72
65
 73
2
 40
0.2
 49
0.1
 74
0
 49
-0.1
 74
0
  0
ENDTAB
  0
TABLE
  2
LAYER
  5
2
100
AcDbSymbolTable
 70
36
  0
LAYER
  5
10
100
AcDbSymbolTableRecord
100
AcDbLayerTableRecord
  2
0
 70
0
 62
7
  6
CONTINUOUS
370
-3
390
F
  0
LAYER
  5
1FA
100
AcDbSymbolTableRecord
100
AcDbLayerTableRecord
  2
DEFAULT_1
 70
0
 62
7
  6
CENTER
370
-3
390
F
  0
LAYER
  5
1FB
100
AcDbSymbolTableRecord
100
AcDbLayerTableRecord
  2
DEFAULT_2
 70
0
 62
8
  6
HIDDEN
370
-3
390
F
  0
LAYER
  5
1FC
100
AcDbSymbolTableRecord
100
AcDbLayerTableRecord
  2
DEFAULT_3
 70
0
 62
7
  6
PHANTOM
370
-3
390
F
  0
LAYER
  5
1FD
100
AcDbSymbolTableRecord
100
AcDbLayerTableRecord
  2
00_COMPONENTS
 70
0
 62
7
  6
CONTINUOUS
370
-3
390
F
  0
LAYER
  5
1FE
100
AcDbSymbolTableRecord
100
AcDbLayerTableRecord
  2
01_1_DEFAULT_DATUMS
 70
0
 62
7
  6
CONTINUOUS
370
-3
390
F
  0
LAYER
  5
1FF
100
AcDbSymbolTableRecord
100
AcDbLayerTableRecord
  2
01_PLANES
 70
0
 62
7
  6
CONTINUOUS
370
-3
390
F
  0
LAYER
  5
200
100
AcDbSymbolTableRecord
100
AcDbLayerTableRecord
  2
02_COORD_SYS
 70
0
 62
7
  6
CONTINUOUS
370
-3
390
F
  0
LAYER
  5
201
100
AcDbSymbolTableRecord
100
AcDbLayerTableRecord
  2
03_AXES
 70
0
 62
7
  6
CONTINUOUS
370
-3
390
F
  0
LAYER
  5
202
100
AcDbSymbolTableRecord
100
AcDbLayerTableRecord
  2
04_POINTS
 70
0
 62
7
  6
CONTINUOUS
370
-3
390
F
  0
LAYER
  5
203
100
AcDbSymbolTableRecord
100
AcDbLayerTableRecord
  2
05_CURVES
 70
0
 62
7
  6
CONTINUOUS
370
-3
390
F
  0
LAYER
  5
204
100
AcDbSymbolTableRecord
100
AcDbLayerTableRecord
  2
06_SURFS
 70
0
 62
7
  6
CONTINUOUS
370
-3
390
F
  0
LAYER
  5
205
100
AcDbSymbolTableRecord
100
AcDbLayerTableRecord
  2
07_COSMETICS
 70
0
 62
7
  6
CONTINUOUS
370
-3
390
F
  0
LAYER
  5
206
100
AcDbSymbolTableRecord
100
AcDbLayerTableRecord
  2
10_NOTES
 70
0
 62
7
  6
CONTINUOUS
370
-3
390
F
  0
LAYER
  5
207
100
AcDbSymbolTableRecord
100
AcDbLayerTableRecord
  2
11_NOTES_PUB
 70
0
 62
7
  6
CONTINUOUS
370
-3
390
F
  0
LAYER
  5
208
100
AcDbSymbolTableRecord
100
AcDbLayerTableRecord
  2
13_REF_GTOL
 70
0
 62
7
  6
CONTINUOUS
370
-3
390
F
  0
LAYER
  5
209
100
AcDbSymbolTableRecord
100
AcDbLayerTableRecord
  2
16_MISC
 70
0
 62
7
  6
CONTINUOUS
370
-3
390
F
  0
LAYER
  5
20A
100
AcDbSymbolTableRecord
100
AcDbLayerTableRecord
  2
17_NO_PRINT
 70
0
 62
7
  6
CONTINUOUS
370
-3
390
F
  0
LAYER
  5
20B
100
AcDbSymbolTableRecord
100
AcDbLayerTableRecord
  2
18_DATUM_CAMS_JOINTS
 70
0
 62
7
  6
CONTINUOUS
370
-3
390
F
  0
LAYER
  5
20C
100
AcDbSymbolTableRecord
100
AcDbLayerTableRecord
  2
19_DATUM_FUNCTIONAL
 70
0
 62
7
  6
CONTINUOUS
370
-3
390
F
  0
LAYER
  5
20D
100
AcDbSymbolTableRecord
100
AcDbLayerTableRecord
  2
20_DATUM_KINEMATIC_SCHEME
 70
0
 62
7
  6
CONTINUOUS
370
-3
390
F
  0
ENDTAB
  0
TABLE
  2
STYLE
  5
3
100
AcDbSymbolTable
 70
1
  0
STYLE
  5
11
100
AcDbSymbolTableRecord
100
AcDbTextStyleTableRecord
  2
STANDARD
 70
0
 40
0.0
 41
0.8
 50
0.0
 71
0
 42
0.2
  3
txt
  4

  0
STYLE
  5
20E
100
AcDbSymbolTableRecord
100
AcDbTextStyleTableRecord
  2
TEXTSTYLE_1
 70
0
 40
0.0
 41
0.8
 50
0.0
 71
0
 42
0.2
  3
gdt
  4

  0
ENDTAB
  0
TABLE
  2
VIEW
  5
6
100
AcDbSymbolTable
 70
0
  0
ENDTAB
  0
TABLE
  2
UCS
  5
7
100
AcDbSymbolTable
 70
0
  0
ENDTAB
  0
TABLE
  2
APPID
  5
9
100
AcDbSymbolTable
 70
1
  0
APPID
  5
20F
100
AcDbSymbolTableRecord
100
AcDbRegAppTableRecord
  2
ACAD
 70
0
  0
ENDTAB
  0
TABLE
  2
BLOCK_RECORD
  5
1
100
AcDbSymbolTable
 70
0
  0
BLOCK_RECORD
  5
210
100
AcDbSymbolTableRecord
100
AcDbBlockTableRecord
  2
*Model_Space
  0
BLOCK_RECORD
  5
211
100
AcDbSymbolTableRecord
100
AcDbBlockTableRecord
  2
*Paper_Space
  0
BLOCK_RECORD
  5
212
100
AcDbSymbolTableRecord
100
AcDbBlockTableRecord
  2
_FILLED
  0
ENDTAB
  0
TABLE
  2
DIMSTYLE
  5
A
100
AcDbSymbolTable
 70
1
100
AcDbDimStyleTable
 71
0
  0
DIMSTYLE
105
213
100
AcDbSymbolTableRecord
100
AcDbDimStyleTableRecord
  2
STANDARD
 70
0
  3

  4

 40
1.0
 41
1.1254629963
 42
1.0
 43
0.38
 44
1.0
 45
0.0
 46
0.0
 47
0.01
 48
0.01
140
1.5756481948
141
0.09
142
0.0
143
25.4
144
1.0
145
0.0
146
1.0
147
0.625
 71
1
 72
0
 73
0
 74
0
 75
0
 76
0
 77
1
 78
8
 79
2
170
0
171
1
172
0
173
0
174
0
175
0
176
0
177
0
178
0
270
2
179
2
271
2
272
2
273
2
274
2
275
0
280
0
281
0
282
0
283
1
284
8
285
0
286
0
287
3
288
0
340
11
278
46
341
212
342
212
343
212
344
212
  0
ENDTAB
  0
ENDSEC
  0
SECTION
  2
BLOCKS
  0
BLOCK
  5
20
100
AcDbEntity
  8
0
100
AcDbBlockBegin
  2
*Model_Space
 70
0
 10
0.0
 20
0.0
 30
0.0
  3
*Model_Space
  1

  0
ENDBLK
  5
21
100
AcDbEntity
  8
0
100
AcDbBlockEnd
  0
BLOCK
  5
1C
100
AcDbEntity
  8
0
100
AcDbBlockBegin
  2
*Paper_Space
 70
0
 10
0.0
 20
0.0
 30
0.0
  3
*Paper_Space
  1

  0
ENDBLK
  5
1D
100
AcDbEntity
  8
0
100
AcDbBlockEnd
  0
BLOCK
  5
214
100
AcDbEntity
  8
0
100
AcDbBlockBegin
  2
_FILLED
 70
64
 10
0.0
 20
0.0
  3
_FILLED
  1

  0
SOLID
  5
215
100
AcDbEntity
  8
0
  6
BYBLOCK
 62
0
100
AcDbTrace
 10
0.0
 20
0.0
 11
-1.0
 21
0.25
 12
-1.0
 22
-0.25
 13
-1.0
 23
-0.25
  0
ENDBLK
  5
216
100
AcDbEntity
  8
0
  6
BYBLOCK
 62
0
100
AcDbBlockEnd
  0
ENDSEC
  0
SECTION
  2
ENTITIES
  0
LINE
  5
217
100
AcDbEntity
  8
0
100
AcDbLine
 62
7
  6
CONTINUOUS
 10
10.6928627534
 20
63.2162198966
 11
10.6928627534
 21
74.7162145448
  0
LINE
  5
218
100
AcDbEntity
  8
0
100
AcDbLine
 62
7
  6
CONTINUOUS
 10
11.0928627534
 20
62.8162172207
 11
11.0928627534
 21
75.1162172207
  0
LINE
  5
219
100
AcDbEntity
  8
0
100
AcDbLine
 62
7
  6
CONTINUOUS
 10
11.4428627534
 20
62.4688862892
 11
11.4428627534
 21
75.4635481522
  0
LINE
  5
21A
100
AcDbEntity
  8
0
100
AcDbLine
 62
7
  6
CONTINUOUS
 10
26.8428627536
 20
80.9662172207
 11
26.4428627536
 21
78.1662172207
  0
LINE
  5
21B
100
AcDbEntity
  8
0
100
AcDbLine
 62
7
  6
CONTINUOUS
 10
26.8428627536
 20
56.9662172207
 11
26.4428627536
 21
59.7662172207
  0
LINE
  5
21C
100
AcDbEntity
  8
0
100
AcDbLine
 62
7
  6
CONTINUOUS
 10
26.4428627536
 20
59.7662285162
 11
26.4428627536
 21
78.1561221897
  0
LINE
  5
21D
100
AcDbEntity
  8
0
100
AcDbLine
 62
7
  6
CONTINUOUS
 10
26.8428627536
 20
56.9662172207
 11
26.8428627536
 21
80.9662172207
  0
LINE
  5
21E
100
AcDbEntity
  8
0
100
AcDbLine
 62
7
  6
CONTINUOUS
 10
27.3428627534
 20
54.7162185764
 11
27.3428627534
 21
83.216215865
  0
LINE
  5
21F
100
AcDbEntity
  8
0
100
AcDbLine
 62
7
  6
CONTINUOUS
 10
50.1428627534
 20
46.2162172207
 11
52.4428627534
 21
46.2162172207
  0
LINE
  5
220
100
AcDbEntity
  8
0
100
AcDbLine
 62
7
  6
CONTINUOUS
 10
52.4428627534
 20
47.2929593417
 11
50.1428627534
 21
47.2929593417
  0
LINE
  5
221
100
AcDbEntity
  8
0
100
AcDbLine
 62
7
  6
CONTINUOUS
 10
30.8428627534
 20
83.2162172207
 11
30.8428627534
 21
82.9997277011
  0
LINE
  5
222
100
AcDbEntity
  8
0
100
AcDbLine
 62
7
  6
CONTINUOUS
 10
30.8428627534
 20
82.7306602453
 11
30.8428627534
 21
81.881103186
  0
LINE
  5
223
100
AcDbEntity
  8
0
100
AcDbLine
 62
7
  6
CONTINUOUS
 10
30.8428627534
 20
81.3070792246
 11
30.8428627534
 21
79.8823505352
  0
LINE
  5
224
100
AcDbEntity
  8
0
100
AcDbLine
 62
7
  6
CONTINUOUS
 10
30.8428627534
 20
79.0424888526
 11
30.8428627534
 21
77.1396814387
  0
LINE
  5
225
100
AcDbEntity
  8
0
100
AcDbLine
 62
7
  6
CONTINUOUS
 10
30.8428627534
 20
76.0912172207
 11
30.8428627534
 21
73.8400042631
  0
LINE
  5
226
100
AcDbEntity
  8
0
100
AcDbLine
 62
7
  6
CONTINUOUS
 10
30.8428627534
 20
72.6543886134
 11
30.8428627534
 21
70.2081865549
  0
LINE
  5
227
100
AcDbEntity
  8
0
100
AcDbLine
 62
7
  6
CONTINUOUS
 10
30.8428627534
 20
68.9662172207
 11
30.8428627534
 21
66.491730689
  0
LINE
  5
228
100
AcDbEntity
  8
0
100
AcDbLine
 62
7
  6
CONTINUOUS
 10
30.8428627534
 20
65.278045828
 11
30.8428627534
 21
62.9439069909
  0
LINE
  5
229
100
AcDbEntity
  8
0
100
AcDbLine
 62
7
  6
CONTINUOUS
 10
30.8428627534
 20
61.8412172207
 11
30.8428627534
 21
59.8064937827
  0
LINE
  5
22A
100
AcDbEntity
  8
0
100
AcDbLine
 62
7
  6
CONTINUOUS
 10
30.8428627534
 20
58.8899455888
 11
30.8428627534
 21
57.2933005896
  0
LINE
  5
22B
100
AcDbEntity
  8
0
100
AcDbLine
 62
7
  6
CONTINUOUS
 10
30.8428627534
 20
56.6253552168
 11
30.8428627534
 21
55.5755973745
  0
LINE
  5
22C
100
AcDbEntity
  8
0
100
AcDbLine
 62
7
  6
CONTINUOUS
 10
30.8428627534
 20
55.2017741961
 11
30.8428627534
 21
54.7704427729
  0
LINE
  5
22D
100
AcDbEntity
  8
0
100
AcDbLine
 62
7
  6
CONTINUOUS
 10
46.4428627534
 20
47.6662172207
 11
48.2285155278
 21
47.6662172207
  0
LINE
  5
22E
100
AcDbEntity
  8
0
100
AcDbLine
 62
7
  6
CONTINUOUS
 10
50.1428627534
 20
47.6662172207
 11
52.4428627534
 21
47.6662172207
  0
LINE
  5
22F
100
AcDbEntity
  8
0
100
AcDbLine
 62
7
  6
CONTINUOUS
 10
52.4428627534
 20
47.8001918169
 11
50.1428627534
 21
47.8001918169
  0
LINE
  5
230
100
AcDbEntity
  8
0
100
AcDbLine
 62
7
  6
CONTINUOUS
 10
47.2000811117
 20
48.5322426245
 11
46.4428627534
 21
48.5322426245
  0
LINE
  5
231
100
AcDbEntity
  8
0
100
AcDbLine
 62
7
  6
CONTINUOUS
 10
50.1428627534
 20
49.1775420861
 11
52.4428627534
 21
49.1775420861
  0
LINE
  5
232
100
AcDbEntity
  8
0
100
AcDbLine
 62
7
  6
CONTINUOUS
 10
48.5428627534
 20
49.4821649639
 11
50.0428627534
 21
49.4821649639
  0
LINE
  5
233
100
AcDbEntity
  8
0
100
AcDbLine
 62
7
  6
CONTINUOUS
 10
53.0964525919
 20
50.0435674899
 11
50.1428627534
 21
50.0435674899
  0
LINE
  5
234
100
AcDbEntity
  8
0
100
AcDbLine
 62
7
  6
CONTINUOUS
 10
48.44286289
 20
50.1162187812
 11
47.3428627534
 21
50.164244258
  0
LINE
  5
235
100
AcDbEntity
  8
0
100
AcDbLine
 62
7
  6
CONTINUOUS
 10
48.5428627534
 20
50.2662172207
 11
50.0428627534
 21
50.2662172207
  0
LINE
  5
236
100
AcDbEntity
  8
0
100
AcDbLine
 62
7
  6
CONTINUOUS
 10
47.3428627534
 20
51.4188506246
 11
48.4428627534
 21
51.4188506246
  0
LINE
  5
237
100
AcDbEntity
  8
0
100
AcDbLine
 62
7
  6
CONTINUOUS
 10
50.0428627534
 20
52.1162172207
 11
50.1428627534
 21
52.1162172207
  0
LINE
  5
238
100
AcDbEntity
  8
0
100
AcDbLine
 62
7
  6
CONTINUOUS
 10
34.3428627534
 20
83.2162172207
 11
34.3428627534
 21
54.7162172207
  0
LINE
  5
239
100
AcDbEntity
  8
0
100
AcDbLine
 62
7
  6
CONTINUOUS
 10
34.7428627534
 20
55.3912172207
 11
34.7428627534
 21
82.5412172207
  0
LINE
  5
23A
100
AcDbEntity
  8
0
100
AcDbLine
 62
7
  6
CONTINUOUS
 10
35.9928627534
 20
82.5412172207
 11
35.9928627534
 21
55.3912172207
  0
LINE
  5
23B
100
AcDbEntity
  8
0
100
AcDbLine
 62
7
  6
CONTINUOUS
 10
58.2428627534
 20
82.9186985208
 11
55.1428627534
 21
81.6662172207
  0
LINE
  5
23C
100
AcDbEntity
  8
0
100
AcDbLine
 62
7
  6
CONTINUOUS
 10
50.0428627534
 20
53.0326057401
 11
48.5428627534
 21
53.0326057401
  0
LINE
  5
23D
100
AcDbEntity
  8
0
100
AcDbLine
 62
7
  6
CONTINUOUS
 10
55.0428627534
 20
53.0895157837
 11
55.2661613164
 21
53.0895157837
  0
LINE
  5
23E
100
AcDbEntity
  8
0
100
AcDbLine
 62
7
  6
CONTINUOUS
 10
50.1428627534
 20
53.3162172207
 11
50.0428627534
 21
53.3162172207
  0
LINE
  5
23F
100
AcDbEntity
  8
0
100
AcDbLine
 62
7
  6
CONTINUOUS
 10
40.7428627534
 20
54.2162172207
 11
39.2428627534
 21
54.2162172207
  0
LINE
  5
240
100
AcDbEntity
  8
0
100
AcDbLine
 62
7
  6
CONTINUOUS
 10
27.3428627534
 20
54.7162172207
 11
34.3428627534
 21
54.7162172207
  0
LINE
  5
241
100
AcDbEntity
  8
0
100
AcDbLine
 62
7
  6
CONTINUOUS
 10
34.3428627534
 20
54.7704427729
 11
30.8428627534
 21
54.7704427729
  0
LINE
  5
242
100
AcDbEntity
  8
0
100
AcDbLine
 62
7
  6
CONTINUOUS
 10
30.8428627534
 20
55.0194914474
 11
34.3428627534
 21
55.0194914474
  0
LINE
  5
243
100
AcDbEntity
  8
0
100
AcDbLine
 62
7
  6
CONTINUOUS
 10
30.8428627534
 20
55.2017741961
 11
34.3428627534
 21
55.2017741961
  0
LINE
  5
244
100
AcDbEntity
  8
0
100
AcDbLine
 62
7
  6
CONTINUOUS
 10
34.7428627534
 20
55.3912172207
 11
35.9928627534
 21
55.3912172207
  0
LINE
  5
245
100
AcDbEntity
  8
0
100
AcDbLine
 62
7
  6
CONTINUOUS
 10
59.3108147805
 20
55.4662172207
 11
55.0428655881
 21
55.4662172207
  0
LINE
  5
246
100
AcDbEntity
  8
0
100
AcDbLine
 62
7
  6
CONTINUOUS
 10
48.4428627534
 20
55.4662172207
 11
46.7428627534
 21
55.4662172207
  0
LINE
  5
247
100
AcDbEntity
  8
0
100
AcDbLine
 62
7
  6
CONTINUOUS
 10
45.2428627534
 20
55.5259620056
 11
40.7428627534
 21
55.5259620056
  0
LINE
  5
248
100
AcDbEntity
  8
0
100
AcDbLine
 62
7
  6
CONTINUOUS
 10
34.3428627534
 20
55.5755973745
 11
30.8428627534
 21
55.5755973745
  0
LINE
  5
249
100
AcDbEntity
  8
0
100
AcDbLine
 62
7
  6
CONTINUOUS
 10
45.2428627534
 20
55.6742350002
 11
40.7428627534
 21
55.6742350002
  0
LINE
  5
24A
100
AcDbEntity
  8
0
100
AcDbLine
 62
7
  6
CONTINUOUS
 10
30.8428627534
 20
55.8105205297
 11
34.3428627534
 21
55.8105205297
  0
LINE
  5
24B
100
AcDbEntity
  8
0
100
AcDbLine
 62
7
  6
CONTINUOUS
 10
38.7428627534
 20
56.3163194198
 11
38.7428627534
 21
81.6161150217
  0
LINE
  5
24C
100
AcDbEntity
  8
0
100
AcDbLine
 62
7
  6
CONTINUOUS
 10
39.2428627534
 20
54.2162818471
 11
39.2428627534
 21
83.7161525944
  0
LINE
  5
24D
100
AcDbEntity
  8
0
100
AcDbLine
 62
7
  6
CONTINUOUS
 10
34.3428627534
 20
56.0662172207
 11
34.7428627534
 21
56.0662172207
  0
LINE
  5
24E
100
AcDbEntity
  8
0
100
AcDbLine
 62
7
  6
CONTINUOUS
 10
39.2428627534
 20
56.3162172207
 11
38.7428627534
 21
56.3162172207
  0
LINE
  5
24F
100
AcDbEntity
  8
0
100
AcDbLine
 62
7
  6
CONTINUOUS
 10
64.0428655881
 20
56.4662172207
 11
61.0428655881
 21
56.4662172207
  0
LINE
  5
250
100
AcDbEntity
  8
0
100
AcDbLine
 62
7
  6
CONTINUOUS
 10
54.0428627534
 20
56.4662172207
 11
54.5661613164
 21
56.4662172207
  0
LINE
  5
251
100
AcDbEntity
  8
0
100
AcDbLine
 62
7
  6
CONTINUOUS
 10
30.8428627534
 20
56.6253552168
 11
34.3428627534
 21
56.6253552168
  0
LINE
  5
252
100
AcDbEntity
  8
0
100
AcDbLine
 62
7
  6
CONTINUOUS
 10
55.0428655881
 20
56.6662172207
 11
58.4428655881
 21
56.6662172207
  0
LINE
  5
253
100
AcDbEntity
  8
0
100
AcDbLine
 62
7
  6
CONTINUOUS
 10
45.2428627534
 20
56.7880652241
 11
40.7428627534
 21
56.7880652241
  0
LINE
  5
254
100
AcDbEntity
  8
0
100
AcDbLine
 62
7
  6
CONTINUOUS
 10
26.8428627536
 20
56.9662172207
 11
27.3428627534
 21
56.9662172207
  0
LINE
  5
255
100
AcDbEntity
  8
0
100
AcDbLine
 62
7
  6
CONTINUOUS
 10
34.3428627534
 20
57.2933005896
 11
30.8428627534
 21
57.2933005896
  0
LINE
  5
256
100
AcDbEntity
  8
0
100
AcDbLine
 62
7
  6
CONTINUOUS
 10
30.8428627534
 20
57.4980886007
 11
34.3428627534
 21
57.4980886007
  0
LINE
  5
257
100
AcDbEntity
  8
0
100
AcDbLine
 62
7
  6
CONTINUOUS
 10
35.9928627534
 20
58.0912172207
 11
38.7428627534
 21
58.0912172207
  0
LINE
  5
258
100
AcDbEntity
  8
0
100
AcDbLine
 62
7
  6
CONTINUOUS
 10
50.1428627534
 20
58.4662172207
 11
53.690208792
 21
58.4662172207
  0
LINE
  5
259
100
AcDbEntity
  8
0
100
AcDbLine
 62
7
  6
CONTINUOUS
 10
55.0428655881
 20
58.4662172207
 11
61.0428655881
 21
58.4662172207
  0
LINE
  5
25A
100
AcDbEntity
  8
0
100
AcDbLine
 62
7
  6
CONTINUOUS
 10
40.7428627534
 20
83.7162014211
 11
40.7428627534
 21
82.2623269663
  0
LINE
  5
25B
100
AcDbEntity
  8
0
100
AcDbLine
 62
7
  6
CONTINUOUS
 10
40.7428627534
 20
81.1497422169
 11
40.7428627534
 21
70.0841749655
  0
LINE
  5
25C
100
AcDbEntity
  8
0
100
AcDbLine
 62
7
  6
CONTINUOUS
 10
40.7428627534
 20
67.85688598
 11
40.7428627534
 21
56.7880652285
  0
LINE
  5
25D
100
AcDbEntity
  8
0
100
AcDbLine
 62
7
  6
CONTINUOUS
 10
40.7428627534
 20
55.6742350008
 11
40.7428627534
 21
54.2162330204
  0
LINE
  5
25E
100
AcDbEntity
  8
0
100
AcDbLine
 62
7
  6
CONTINUOUS
 10
66.5652198746
 20
64.734642599
 11
67.2428655881
 21
64.9162172207
  0
LINE
  5
25F
100
AcDbEntity
  8
0
100
AcDbLine
 62
7
  6
CONTINUOUS
 10
45.2428627534
 20
58.7769408732
 11
40.7428627534
 21
58.7769408732
  0
LINE
  5
260
100
AcDbEntity
  8
0
100
AcDbLine
 62
7
  6
CONTINUOUS
 10
45.2428627534
 20
58.8662172207
 11
48.1428627534
 21
58.8662172207
  0
LINE
  5
261
100
AcDbEntity
  8
0
100
AcDbLine
 62
7
  6
CONTINUOUS
 10
30.8428627534
 20
58.8899455888
 11
34.3428627534
 21
58.8899455888
  0
LINE
  5
262
100
AcDbEntity
  8
0
100
AcDbLine
 62
7
  6
CONTINUOUS
 10
55.5428627534
 20
58.985832463
 11
55.0428655881
 21
58.985832463
  0
LINE
  5
263
100
AcDbEntity
  8
0
100
AcDbLine
 62
7
  6
CONTINUOUS
 10
61.0428655881
 20
59.5078875585
 11
64.0428655881
 21
59.5078875585
  0
LINE
  5
264
100
AcDbEntity
  8
0
100
AcDbLine
 62
7
  6
CONTINUOUS
 10
40.7428627534
 20
59.5488093729
 11
45.2428627534
 21
59.5488093729
  0
LINE
  5
265
100
AcDbEntity
  8
0
100
AcDbLine
 62
7
  6
CONTINUOUS
 10
75.2728650884
 20
59.7534253001
 11
76.8728650884
 21
59.7534253001
  0
LINE
  5
266
100
AcDbEntity
  8
0
100
AcDbLine
 62
7
  6
CONTINUOUS
 10
34.3428627534
 20
59.8064937827
 11
30.8428627534
 21
59.8064937827
  0
LINE
  5
267
100
AcDbEntity
  8
0
100
AcDbLine
 62
7
  6
CONTINUOUS
 10
30.8428627534
 20
59.9671906851
 11
34.3428627534
 21
59.9671906851
  0
LINE
  5
268
100
AcDbEntity
  8
0
100
AcDbLine
 62
7
  6
CONTINUOUS
 10
11.4428627534
 20
62.468841842
 11
26.4428627534
 21
61.3692860087
  0
LINE
  5
269
100
AcDbEntity
  8
0
100
AcDbLine
 62
7
  6
CONTINUOUS
 10
45.2428627534
 20
82.4101767243
 11
45.2428627534
 21
66.4704845338
  0
LINE
  5
26A
100
AcDbEntity
  8
0
100
AcDbLine
 62
7
  6
CONTINUOUS
 10
45.2428627534
 20
66.470196622
 11
45.2428627534
 21
55.5259657918
  0
LINE
  5
26B
100
AcDbEntity
  8
0
100
AcDbLine
 62
7
  6
CONTINUOUS
 10
76.8728650884
 20
63.4556130163
 11
79.4061178537
 21
63.5662172207
  0
LINE
  5
26C
100
AcDbEntity
  8
0
100
AcDbLine
 62
7
  6
CONTINUOUS
 10
30.8428627534
 20
61.8412172207
 11
34.3428627534
 21
61.8412172207
  0
LINE
  5
26D
100
AcDbEntity
  8
0
100
AcDbLine
 62
7
  6
CONTINUOUS
 10
55.5428627534
 20
61.9303188359
 11
61.0428655881
 21
61.9303188359
  0
LINE
  5
26E
100
AcDbEntity
  8
0
100
AcDbLine
 62
7
  6
CONTINUOUS
 10
50.1428627534
 20
61.9662172207
 11
50.0428627534
 21
61.9662172207
  0
LINE
  5
26F
100
AcDbEntity
  8
0
100
AcDbLine
 62
7
  6
CONTINUOUS
 10
68.1428655881
 20
62.5662172207
 11
73.2228655881
 21
62.5662172207
  0
LINE
  5
270
100
AcDbEntity
  8
0
100
AcDbLine
 62
7
  6
CONTINUOUS
 10
64.0428655881
 20
62.7162172207
 11
74.9061178537
 21
62.7162172207
  0
LINE
  5
271
100
AcDbEntity
  8
0
100
AcDbLine
 62
7
  6
CONTINUOUS
 10
11.0928627534
 20
62.8162172207
 11
11.4428627534
 21
62.8162172207
  0
LINE
  5
272
100
AcDbEntity
  8
0
100
AcDbLine
 62
7
  6
CONTINUOUS
 10
34.3428627534
 20
62.9439069909
 11
30.8428627534
 21
62.9439069909
  0
LINE
  5
273
100
AcDbEntity
  8
0
100
AcDbLine
 62
7
  6
CONTINUOUS
 10
30.8428627534
 20
63.0495615563
 11
34.3428627534
 21
63.0495615563
  0
LINE
  5
274
100
AcDbEntity
  8
0
100
AcDbLine
 62
7
  6
CONTINUOUS
 10
75.2061178537
 20
63.4162172207
 11
75.2728650884
 21
63.4162172207
  0
LINE
  5
275
100
AcDbEntity
  8
0
100
AcDbLine
 62
7
  6
CONTINUOUS
 10
80.339449271
 20
63.4362172207
 11
71.6628655881
 21
63.4362172207
  0
LINE
  5
276
100
AcDbEntity
  8
0
100
AcDbLine
 62
7
  6
CONTINUOUS
 10
71.3628655881
 20
63.4362172207
 11
71.6628655881
 21
63.4362172207
  0
LINE
  5
277
100
AcDbEntity
  8
0
100
AcDbLine
 62
7
  6
CONTINUOUS
 10
35.9928627534
 20
63.914422985
 11
34.7428627534
 21
63.914422985
  0
LINE
  5
278
100
AcDbEntity
  8
0
100
AcDbLine
 62
7
  6
CONTINUOUS
 10
64.0428655881
 20
64.0466212714
 11
66.3428655881
 21
64.0466212714
  0
LINE
  5
279
100
AcDbEntity
  8
0
100
AcDbLine
 62
7
  6
CONTINUOUS
 10
67.8428655881
 20
64.3162172207
 11
75.2728650884
 21
64.3162172207
  0
LINE
  5
27A
100
AcDbEntity
  8
0
100
AcDbLine
 62
7
  6
CONTINUOUS
 10
76.8327864363
 20
64.3362172207
 11
71.8699598097
 21
64.3362172207
  0
LINE
  5
27B
100
AcDbEntity
  8
0
100
AcDbLine
 62
7
  6
CONTINUOUS
 10
71.8699598097
 20
64.3362172207
 11
71.8693646312
 21
64.3362172207
  0
LINE
  5
27C
100
AcDbEntity
  8
0
100
AcDbLine
 62
7
  6
CONTINUOUS
 10
55.7428627534
 20
52.8662172207
 11
55.0428627534
 21
53.5662172207
  0
LINE
  5
27D
100
AcDbEntity
  8
0
100
AcDbLine
 62
7
  6
CONTINUOUS
 10
46.4428627534
 20
47.6662172207
 11
46.4428627534
 21
55.1662172207
  0
LINE
  5
27E
100
AcDbEntity
  8
0
100
AcDbLine
 62
7
  6
CONTINUOUS
 10
46.4428627534
 20
81.9662172207
 11
46.4428627534
 21
86.7662172207
  0
LINE
  5
27F
100
AcDbEntity
  8
0
100
AcDbLine
 62
7
  6
CONTINUOUS
 10
47.3428627534
 20
51.4188506246
 11
47.3428627534
 21
50.1642442579
  0
LINE
  5
280
100
AcDbEntity
  8
0
100
AcDbLine
 62
7
  6
CONTINUOUS
 10
48.1428627534
 20
79.0662172207
 11
48.1428627534
 21
58.8662172207
  0
LINE
  5
281
100
AcDbEntity
  8
0
100
AcDbLine
 62
7
  6
CONTINUOUS
 10
48.4428627534
 20
50.1162172186
 11
48.4428627534
 21
51.4188506246
  0
LINE
  5
282
100
AcDbEntity
  8
0
100
AcDbLine
 62
7
  6
CONTINUOUS
 10
48.4428627534
 20
55.4662172207
 11
48.4428627534
 21
61.2662172207
  0
LINE
  5
283
100
AcDbEntity
  8
0
100
AcDbLine
 62
7
  6
CONTINUOUS
 10
48.4428627534
 20
76.4662172207
 11
48.4428627534
 21
81.4662172207
  0
LINE
  5
284
100
AcDbEntity
  8
0
100
AcDbLine
 62
7
  6
CONTINUOUS
 10
48.4428627534
 20
82.9245075976
 11
48.4428627534
 21
86.7662172207
  0
LINE
  5
285
100
AcDbEntity
  8
0
100
AcDbLine
 62
7
  6
CONTINUOUS
 10
55.0428627534
 20
73.8662172207
 11
58.2428627534
 21
76.3216635822
  0
LINE
  5
286
100
AcDbEntity
  8
0
100
AcDbLine
 62
7
  6
CONTINUOUS
 10
57.7796360364
 20
74.5662172207
 11
55.5428627534
 21
72.8498807147
  0
LINE
  5
287
100
AcDbEntity
  8
0
100
AcDbLine
 62
7
  6
CONTINUOUS
 10
71.8691612449
 20
65.2362172207
 11
71.3628655881
 21
65.2362172207
  0
LINE
  5
288
100
AcDbEntity
  8
0
100
AcDbLine
 62
7
  6
CONTINUOUS
 10
30.8428627534
 20
65.278045828
 11
34.3428627534
 21
65.278045828
  0
LINE
  5
289
100
AcDbEntity
  8
0
100
AcDbLine
 62
7
  6
CONTINUOUS
 10
48.1428627534
 20
65.9662172207
 11
48.5428627534
 21
65.9662172207
  0
LINE
  5
28A
100
AcDbEntity
  8
0
100
AcDbLine
 62
7
  6
CONTINUOUS
 10
50.0428627534
 20
65.9662172207
 11
50.1428627534
 21
65.9662172207
  0
LINE
  5
28B
100
AcDbEntity
  8
0
100
AcDbLine
 62
7
  6
CONTINUOUS
 10
64.0428655881
 20
65.9662172207
 11
67.2428655881
 21
65.9662172207
  0
LINE
  5
28C
100
AcDbEntity
  8
0
100
AcDbLine
 62
7
  6
CONTINUOUS
 10
58.4428655881
 20
66.4662172207
 11
61.0428655881
 21
66.4662172207
  0
LINE
  5
28D
100
AcDbEntity
  8
0
100
AcDbLine
 62
7
  6
CONTINUOUS
 10
40.7428627534
 20
66.4704845338
 11
45.2428627534
 21
66.4704845338
  0
LINE
  5
28E
100
AcDbEntity
  8
0
100
AcDbLine
 62
7
  6
CONTINUOUS
 10
34.3428627534
 20
66.491730689
 11
30.8428627534
 21
66.491730689
  0
LINE
  5
28F
100
AcDbEntity
  8
0
100
AcDbLine
 62
7
  6
CONTINUOUS
 10
30.8428627534
 20
66.5351427334
 11
34.3428627534
 21
66.5351427334
  0
LINE
  5
290
100
AcDbEntity
  8
0
100
AcDbLine
 62
7
  6
CONTINUOUS
 10
48.1428627534
 20
67.2162172207
 11
45.2428627534
 21
67.2162172207
  0
LINE
  5
291
100
AcDbEntity
  8
0
100
AcDbLine
 62
7
  6
CONTINUOUS
 10
79.4061178537
 20
64.1662172207
 11
76.8728650884
 21
64.2768214251
  0
LINE
  5
292
100
AcDbEntity
  8
0
100
AcDbLine
 62
7
  6
CONTINUOUS
 10
80.339449271
 20
64.1832913394
 11
76.8327864363
 21
64.3362172207
  0
LINE
  5
293
100
AcDbEntity
  8
0
100
AcDbLine
 62
7
  6
CONTINUOUS
 10
48.5428627534
 20
49.4821649639
 11
48.5428627534
 21
86.7840074237
  0
LINE
  5
294
100
AcDbEntity
  8
0
100
AcDbLine
 62
7
  6
CONTINUOUS
 10
50.0428627534
 20
86.7840074237
 11
50.0428627534
 21
49.4821649639
  0
LINE
  5
295
100
AcDbEntity
  8
0
100
AcDbLine
 62
7
  6
CONTINUOUS
 10
50.1428627534
 20
46.2163354564
 11
50.1428627534
 21
87.4662172207
  0
LINE
  5
296
100
AcDbEntity
  8
0
100
AcDbLine
 62
7
  6
CONTINUOUS
 10
48.4428627534
 20
51.4188506246
 11
48.4436971897
 21
51.4532224434
  0
LINE
  5
297
100
AcDbEntity
  8
0
100
AcDbLine
 62
7
  6
CONTINUOUS
 10
47.2000811117
 20
48.5322426245
 11
47.3428627534
 21
50.1642442579
  0
LINE
  5
298
100
AcDbEntity
  8
0
100
AcDbLine
 62
7
  6
CONTINUOUS
 10
47.1724324714
 20
47.6662172207
 11
47.2480415283
 21
48.5304326949
  0
LINE
  5
299
100
AcDbEntity
  8
0
100
AcDbLine
 62
7
  6
CONTINUOUS
 10
48.2285155278
 20
47.6662172207
 11
48.4428627536
 21
50.1162172229
  0
LINE
  5
29A
100
AcDbEntity
  8
0
100
AcDbLine
 62
7
  6
CONTINUOUS
 10
66.5652198746
 20
74.734642599
 11
67.2428655881
 21
74.9162172207
  0
LINE
  5
29B
100
AcDbEntity
  8
0
100
AcDbLine
 62
7
  6
CONTINUOUS
 10
34.7428627534
 20
67.8362172207
 11
34.3428627534
 21
67.8362172207
  0
LINE
  5
29C
100
AcDbEntity
  8
0
100
AcDbLine
 62
7
  6
CONTINUOUS
 10
45.2428627534
 20
67.8577599896
 11
40.7428627534
 21
67.8577599896
  0
LINE
  5
29D
100
AcDbEntity
  8
0
100
AcDbLine
 62
7
  6
CONTINUOUS
 10
71.8656972974
 20
68.0662172207
 11
71.3594016392
 21
68.0662172207
  0
LINE
  5
29E
100
AcDbEntity
  8
0
100
AcDbLine
 62
7
  6
CONTINUOUS
 10
80.3359853235
 20
68.5162172207
 11
71.8664958622
 21
68.5162172207
  0
LINE
  5
29F
100
AcDbEntity
  8
0
100
AcDbLine
 62
7
  6
CONTINUOUS
 10
71.8659006837
 20
68.5162172207
 11
71.8664958622
 21
68.5162172207
  0
LINE
  5
2A0
100
AcDbEntity
  8
0
100
AcDbLine
 62
7
  6
CONTINUOUS
 10
30.8428627534
 20
68.9662172207
 11
34.3428627534
 21
68.9662172207
  0
LINE
  5
2A1
100
AcDbEntity
  8
0
100
AcDbLine
 62
7
  6
CONTINUOUS
 10
76.8293224888
 20
69.4162172207
 11
71.8664958622
 21
69.4162172207
  0
LINE
  5
2A2
100
AcDbEntity
  8
0
100
AcDbLine
 62
7
  6
CONTINUOUS
 10
71.8664958622
 20
69.4162172207
 11
71.8659006837
 21
69.4162172207
  0
LINE
  5
2A3
100
AcDbEntity
  8
0
100
AcDbLine
 62
7
  6
CONTINUOUS
 10
71.8656972974
 20
69.8662172207
 11
71.3594016406
 21
69.8662172207
  0
LINE
  5
2A4
100
AcDbEntity
  8
0
100
AcDbLine
 62
7
  6
CONTINUOUS
 10
66.5652198746
 20
63.1977918424
 11
67.2428655881
 21
63.0162172207
  0
LINE
  5
2A5
100
AcDbEntity
  8
0
100
AcDbLine
 62
7
  6
CONTINUOUS
 10
52.4428627534
 20
49.49301214
 11
52.4428627534
 21
46.2163354564
  0
LINE
  5
2A6
100
AcDbEntity
  8
0
100
AcDbLine
 62
7
  6
CONTINUOUS
 10
48.5428627534
 20
61.3662172207
 11
48.4428627534
 21
61.2662172207
  0
LINE
  5
2A7
100
AcDbEntity
  8
0
100
AcDbLine
 62
7
  6
CONTINUOUS
 10
82.7728650884
 20
73.1671741246
 11
85.4825650884
 21
74.1534242684
  0
LINE
  5
2A8
100
AcDbEntity
  8
0
100
AcDbLine
 62
7
  6
CONTINUOUS
 10
76.8728650884
 20
73.6556130164
 11
79.4061178537
 21
73.7662172207
  0
LINE
  5
2A9
100
AcDbEntity
  8
0
100
AcDbLine
 62
7
  6
CONTINUOUS
 10
45.2428627534
 20
70.0841749691
 11
40.7428627534
 21
70.0841749691
  0
LINE
  5
2AA
100
AcDbEntity
  8
0
100
AcDbLine
 62
7
  6
CONTINUOUS
 10
34.3428627534
 20
70.0962172207
 11
34.7428627534
 21
70.0962172207
  0
LINE
  5
2AB
100
AcDbEntity
  8
0
100
AcDbLine
 62
7
  6
CONTINUOUS
 10
34.3428627534
 20
70.2081865549
 11
30.8428627534
 21
70.2081865549
  0
LINE
  5
2AC
100
AcDbEntity
  8
0
100
AcDbLine
 62
7
  6
CONTINUOUS
 10
45.2428627534
 20
70.7162172207
 11
48.1428627534
 21
70.7162172207
  0
LINE
  5
2AD
100
AcDbEntity
  8
0
100
AcDbLine
 62
7
  6
CONTINUOUS
 10
45.2428627534
 20
71.4704842731
 11
40.7428627534
 21
71.4704842731
  0
LINE
  5
2AE
100
AcDbEntity
  8
0
100
AcDbLine
 62
7
  6
CONTINUOUS
 10
48.1428627534
 20
71.9662172207
 11
48.5428627534
 21
71.9662172207
  0
LINE
  5
2AF
100
AcDbEntity
  8
0
100
AcDbLine
 62
7
  6
CONTINUOUS
 10
50.0428627534
 20
71.9662172207
 11
50.1428627534
 21
71.9662172207
  0
LINE
  5
2B0
100
AcDbEntity
  8
0
100
AcDbLine
 62
7
  6
CONTINUOUS
 10
64.0428655881
 20
71.9662172207
 11
67.2428655881
 21
71.9662172207
  0
LINE
  5
2B1
100
AcDbEntity
  8
0
100
AcDbLine
 62
7
  6
CONTINUOUS
 10
82.7728650884
 20
72.3534253001
 11
76.8728650884
 21
72.3534253001
  0
LINE
  5
2B2
100
AcDbEntity
  8
0
100
AcDbLine
 62
7
  6
CONTINUOUS
 10
34.3428627534
 20
72.5896838521
 11
30.8428627534
 21
72.5896838521
  0
LINE
  5
2B3
100
AcDbEntity
  8
0
100
AcDbLine
 62
7
  6
CONTINUOUS
 10
30.8428627534
 20
72.6543886134
 11
34.3428627534
 21
72.6543886134
  0
LINE
  5
2B4
100
AcDbEntity
  8
0
100
AcDbLine
 62
7
  6
CONTINUOUS
 10
71.3594016406
 20
72.6962172207
 11
71.8656972974
 21
72.6962172207
  0
LINE
  5
2B5
100
AcDbEntity
  8
0
100
AcDbLine
 62
7
  6
CONTINUOUS
 10
80.3359853235
 20
69.2632913394
 11
76.8293224888
 21
69.4162172207
  0
LINE
  5
2B6
100
AcDbEntity
  8
0
100
AcDbLine
 62
7
  6
CONTINUOUS
 10
53.690208792
 20
58.4662172207
 11
54.0428627534
 21
56.4662172207
  0
LINE
  5
2B7
100
AcDbEntity
  8
0
100
AcDbLine
 62
7
  6
CONTINUOUS
 10
54.5661613164
 20
50.8921042176
 11
54.5661613164
 21
56.4662172207
  0
LINE
  5
2B8
100
AcDbEntity
  8
0
100
AcDbLine
 62
7
  6
CONTINUOUS
 10
55.0428627534
 20
51.1673279206
 11
55.0428627534
 21
73.8662172207
  0
LINE
  5
2B9
100
AcDbEntity
  8
0
100
AcDbLine
 62
7
  6
CONTINUOUS
 10
55.2661613164
 20
50.8639802474
 11
55.2661613164
 21
53.0895157837
  0
LINE
  5
2BA
100
AcDbEntity
  8
0
100
AcDbLine
 62
7
  6
CONTINUOUS
 10
55.5428627534
 20
58.985832463
 11
55.5428627534
 21
72.8498807147
  0
LINE
  5
2BB
100
AcDbEntity
  8
0
100
AcDbLine
 62
7
  6
CONTINUOUS
 10
55.7428627534
 20
51.0662172207
 11
55.7428627534
 21
52.8662172207
  0
LINE
  5
2BC
100
AcDbEntity
  8
0
100
AcDbLine
 62
7
  6
CONTINUOUS
 10
46.7428627534
 20
55.4662172207
 11
46.4428627534
 21
55.1662172207
  0
LINE
  5
2BD
100
AcDbEntity
  8
0
100
AcDbLine
 62
7
  6
CONTINUOUS
 10
80.3359853235
 20
73.5962172207
 11
71.8664958622
 21
73.5962172207
  0
LINE
  5
2BE
100
AcDbEntity
  8
0
100
AcDbLine
 62
7
  6
CONTINUOUS
 10
71.8659006837
 20
73.5962172207
 11
71.8664958622
 21
73.5962172207
  0
LINE
  5
2BF
100
AcDbEntity
  8
0
100
AcDbLine
 62
7
  6
CONTINUOUS
 10
75.2728650884
 20
73.6162172207
 11
67.8428655881
 21
73.6162172207
  0
LINE
  5
2C0
100
AcDbEntity
  8
0
100
AcDbLine
 62
7
  6
CONTINUOUS
 10
34.3428627534
 20
73.8400042631
 11
30.8428627534
 21
73.8400042631
  0
LINE
  5
2C1
100
AcDbEntity
  8
0
100
AcDbLine
 62
7
  6
CONTINUOUS
 10
64.0428655881
 20
73.88581317
 11
66.3428655881
 21
73.88581317
  0
LINE
  5
2C2
100
AcDbEntity
  8
0
100
AcDbLine
 62
7
  6
CONTINUOUS
 10
34.7428627534
 20
74.0180114564
 11
35.9928627534
 21
74.0180114564
  0
LINE
  5
2C3
100
AcDbEntity
  8
0
100
AcDbLine
 62
7
  6
CONTINUOUS
 10
76.8293224888
 20
74.4962172207
 11
71.6594016406
 21
74.4962172207
  0
LINE
  5
2C4
100
AcDbEntity
  8
0
100
AcDbLine
 62
7
  6
CONTINUOUS
 10
71.6594016406
 20
74.4962172207
 11
71.3594016406
 21
74.4962172207
  0
LINE
  5
2C5
100
AcDbEntity
  8
0
100
AcDbLine
 62
7
  6
CONTINUOUS
 10
75.2061178537
 20
74.5162172207
 11
75.2728650884
 21
74.5162172207
  0
LINE
  5
2C6
100
AcDbEntity
  8
0
100
AcDbLine
 62
7
  6
CONTINUOUS
 10
57.7796360364
 20
74.5662172207
 11
58.4428655881
 21
74.5662172207
  0
LINE
  5
2C7
100
AcDbEntity
  8
0
100
AcDbLine
 62
7
  6
CONTINUOUS
 10
11.0928627534
 20
75.1162172207
 11
11.4428627534
 21
75.1162172207
  0
LINE
  5
2C8
100
AcDbEntity
  8
0
100
AcDbLine
 62
7
  6
CONTINUOUS
 10
64.0428655881
 20
75.2162172207
 11
74.9061178537
 21
75.2162172207
  0
LINE
  5
2C9
100
AcDbEntity
  8
0
100
AcDbLine
 62
7
  6
CONTINUOUS
 10
68.1428655881
 20
75.3662172207
 11
73.2228655881
 21
75.3662172207
  0
LINE
  5
2CA
100
AcDbEntity
  8
0
100
AcDbLine
 62
7
  6
CONTINUOUS
 10
79.4061178537
 20
74.3662172207
 11
76.8728650884
 21
74.4768214251
  0
LINE
  5
2CB
100
AcDbEntity
  8
0
100
AcDbLine
 62
7
  6
CONTINUOUS
 10
80.3359853235
 20
74.3432913394
 11
76.8293224888
 21
74.4962172207
  0
LINE
  5
2CC
100
AcDbEntity
  8
0
100
AcDbLine
 62
7
  6
CONTINUOUS
 10
48.4428627534
 20
76.4662172207
 11
48.5428627534
 21
76.3662172207
  0
LINE
  5
2CD
100
AcDbEntity
  8
0
100
AcDbLine
 62
7
  6
CONTINUOUS
 10
58.2428627534
 20
86.3200918461
 11
58.2428627534
 21
76.3216635822
  0
LINE
  5
2CE
100
AcDbEntity
  8
0
100
AcDbLine
 62
7
  6
CONTINUOUS
 10
58.4428655881
 20
66.4662172207
 11
58.4428655881
 21
80.7662172207
  0
LINE
  5
2CF
100
AcDbEntity
  8
0
100
AcDbLine
 62
7
  6
CONTINUOUS
 10
58.7428655881
 20
76.7819366345
 11
58.7428655881
 21
78.6001416547
  0
LINE
  5
2D0
100
AcDbEntity
  8
0
100
AcDbLine
 62
7
  6
CONTINUOUS
 10
58.9428655881
 20
66.4662172207
 11
58.9428655881
 21
76.7233107486
  0
LINE
  5
2D1
100
AcDbEntity
  8
0
100
AcDbLine
 62
7
  6
CONTINUOUS
 10
11.4428627534
 20
75.4635925994
 11
26.4428627534
 21
76.5631484327
  0
LINE
  5
2D2
100
AcDbEntity
  8
0
100
AcDbLine
 62
7
  6
CONTINUOUS
 10
50.1428627534
 20
75.9662172207
 11
50.0428627534
 21
75.9662172207
  0
LINE
  5
2D3
100
AcDbEntity
  8
0
100
AcDbLine
 62
7
  6
CONTINUOUS
 10
34.3428627534
 20
75.9662172207
 11
30.8428627534
 21
75.9662172207
  0
LINE
  5
2D4
100
AcDbEntity
  8
0
100
AcDbLine
 62
7
  6
CONTINUOUS
 10
30.8428627534
 20
76.0912172207
 11
34.3428627534
 21
76.0912172207
  0
LINE
  5
2D5
100
AcDbEntity
  8
0
100
AcDbLine
 62
7
  6
CONTINUOUS
 10
34.3428627534
 20
77.1396814387
 11
30.8428627534
 21
77.1396814387
  0
LINE
  5
2D6
100
AcDbEntity
  8
0
100
AcDbLine
 62
7
  6
CONTINUOUS
 10
58.7428655881
 20
77.5645903859
 11
58.4428655881
 21
77.5645903859
  0
LINE
  5
2D7
100
AcDbEntity
  8
0
100
AcDbLine
 62
7
  6
CONTINUOUS
 10
45.2428627534
 20
78.3890028521
 11
40.7428627534
 21
78.3890028521
  0
LINE
  5
2D8
100
AcDbEntity
  8
0
100
AcDbLine
 62
7
  6
CONTINUOUS
 10
58.4428655881
 20
78.6001416547
 11
58.7428655881
 21
78.6001416547
  0
LINE
  5
2D9
100
AcDbEntity
  8
0
100
AcDbLine
 62
7
  6
CONTINUOUS
 10
66.5652198746
 20
73.1977918424
 11
67.2428655881
 21
73.0162172207
  0
LINE
  5
2DA
100
AcDbEntity
  8
0
100
AcDbLine
 62
7
  6
CONTINUOUS
 10
61.0428655881
 20
56.4662172207
 11
61.0428655881
 21
66.4662172207
  0
LINE
  5
2DB
100
AcDbEntity
  8
0
100
AcDbLine
 62
7
  6
CONTINUOUS
 10
54.5661613164
 20
56.4662172207
 11
55.0428627534
 21
56.8662172207
  0
LINE
  5
2DC
100
AcDbEntity
  8
0
100
AcDbLine
 62
7
  6
CONTINUOUS
 10
34.3428627534
 20
78.8657121573
 11
30.8428627534
 21
78.8657121573
  0
LINE
  5
2DD
100
AcDbEntity
  8
0
100
AcDbLine
 62
7
  6
CONTINUOUS
 10
30.8428627534
 20
79.0424888526
 11
34.3428627534
 21
79.0424888526
  0
LINE
  5
2DE
100
AcDbEntity
  8
0
100
AcDbLine
 62
7
  6
CONTINUOUS
 10
48.1428627534
 20
79.0662172207
 11
45.2428627534
 21
79.0662172207
  0
LINE
  5
2DF
100
AcDbEntity
  8
0
100
AcDbLine
 62
7
  6
CONTINUOUS
 10
40.7428627534
 20
79.1611592636
 11
45.2428627534
 21
79.1611592636
  0
LINE
  5
2E0
100
AcDbEntity
  8
0
100
AcDbLine
 62
7
  6
CONTINUOUS
 10
64.0428655881
 20
79.2162172207
 11
58.4428655881
 21
79.2162172207
  0
LINE
  5
2E1
100
AcDbEntity
  8
0
100
AcDbLine
 62
7
  6
CONTINUOUS
 10
75.2728650884
 20
79.7534253001
 11
81.3728650884
 21
79.7534253001
  0
LINE
  5
2E2
100
AcDbEntity
  8
0
100
AcDbLine
 62
7
  6
CONTINUOUS
 10
35.9928627534
 20
79.8412172207
 11
38.7428627534
 21
79.8412172207
  0
LINE
  5
2E3
100
AcDbEntity
  8
0
100
AcDbLine
 62
7
  6
CONTINUOUS
 10
34.3428627534
 20
79.8823505352
 11
30.8428627534
 21
79.8823505352
  0
LINE
  5
2E4
100
AcDbEntity
  8
0
100
AcDbLine
 62
7
  6
CONTINUOUS
 10
58.2428627534
 20
80.7662172207
 11
58.4428655881
 21
80.7662172207
  0
LINE
  5
2E5
100
AcDbEntity
  8
0
100
AcDbLine
 62
7
  6
CONTINUOUS
 10
26.8428627536
 20
80.9662172207
 11
27.3428627534
 21
80.9662172207
  0
LINE
  5
2E6
100
AcDbEntity
  8
0
100
AcDbLine
 62
7
  6
CONTINUOUS
 10
34.3428627534
 20
81.0905728737
 11
30.8428627534
 21
81.0905728737
  0
LINE
  5
2E7
100
AcDbEntity
  8
0
100
AcDbLine
 62
7
  6
CONTINUOUS
 10
45.2428627534
 20
81.149742213
 11
40.7428627534
 21
81.149742213
  0
LINE
  5
2E8
100
AcDbEntity
  8
0
100
AcDbLine
 62
7
  6
CONTINUOUS
 10
30.8428627534
 20
81.3070792246
 11
34.3428627534
 21
81.3070792246
  0
LINE
  5
2E9
100
AcDbEntity
  8
0
100
AcDbLine
 62
7
  6
CONTINUOUS
 10
64.0428655881
 20
79.2162172207
 11
64.0428655881
 21
56.4662172207
  0
LINE
  5
2EA
100
AcDbEntity
  8
0
100
AcDbLine
 62
7
  6
CONTINUOUS
 10
55.3928627534
 20
53.2162172207
 11
55.2661613164
 21
53.0895157837
  0
LINE
  5
2EB
100
AcDbEntity
  8
0
100
AcDbLine
 62
7
  6
CONTINUOUS
 10
59.3108147805
 20
55.4662172207
 11
61.0428655881
 21
56.4662172207
  0
LINE
  5
2EC
100
AcDbEntity
  8
0
100
AcDbLine
 62
7
  6
CONTINUOUS
 10
52.5928627534
 20
49.7528197611
 11
55.0428627534
 21
51.1673279206
  0
LINE
  5
2ED
100
AcDbEntity
  8
0
100
AcDbLine
 62
7
  6
CONTINUOUS
 10
39.2428627534
 20
81.6162172207
 11
38.7428627534
 21
81.6162172207
  0
LINE
  5
2EE
100
AcDbEntity
  8
0
100
AcDbLine
 62
7
  6
CONTINUOUS
 10
50.1428627534
 20
81.6662172207
 11
55.1428627534
 21
81.6662172207
  0
LINE
  5
2EF
100
AcDbEntity
  8
0
100
AcDbLine
 62
7
  6
CONTINUOUS
 10
48.5428627534
 20
81.6916124529
 11
50.0428627534
 21
81.6916124529
  0
LINE
  5
2F0
100
AcDbEntity
  8
0
100
AcDbLine
 62
7
  6
CONTINUOUS
 10
34.7428627534
 20
81.8662172207
 11
34.3428627534
 21
81.8662172207
  0
LINE
  5
2F1
100
AcDbEntity
  8
0
100
AcDbLine
 62
7
  6
CONTINUOUS
 10
34.3428627534
 20
81.881103186
 11
30.8428627534
 21
81.881103186
  0
LINE
  5
2F2
100
AcDbEntity
  8
0
100
AcDbLine
 62
7
  6
CONTINUOUS
 10
47.9428627534
 20
81.9662172207
 11
46.4428627534
 21
81.9662172207
  0
LINE
  5
2F3
100
AcDbEntity
  8
0
100
AcDbLine
 62
7
  6
CONTINUOUS
 10
50.1428627534
 20
82.1162172207
 11
50.0428627534
 21
82.1162172207
  0
LINE
  5
2F4
100
AcDbEntity
  8
0
100
AcDbLine
 62
7
  6
CONTINUOUS
 10
45.2428627534
 20
82.2623269672
 11
40.7428627534
 21
82.2623269672
  0
LINE
  5
2F5
100
AcDbEntity
  8
0
100
AcDbLine
 62
7
  6
CONTINUOUS
 10
45.2428627534
 20
82.4101802135
 11
40.7428627534
 21
82.4101802135
  0
LINE
  5
2F6
100
AcDbEntity
  8
0
100
AcDbLine
 62
7
  6
CONTINUOUS
 10
34.3428627534
 20
82.4891787888
 11
30.8428627534
 21
82.4891787888
  0
LINE
  5
2F7
100
AcDbEntity
  8
0
100
AcDbLine
 62
7
  6
CONTINUOUS
 10
35.9928627534
 20
82.5412172207
 11
34.7428627534
 21
82.5412172207
  0
LINE
  5
2F8
100
AcDbEntity
  8
0
100
AcDbLine
 62
7
  6
CONTINUOUS
 10
30.8428627534
 20
82.7306602453
 11
34.3428627534
 21
82.7306602453
  0
LINE
  5
2F9
100
AcDbEntity
  8
0
100
AcDbLine
 62
7
  6
CONTINUOUS
 10
34.3428627534
 20
82.9997277011
 11
30.8428627534
 21
82.9997277011
  0
LINE
  5
2FA
100
AcDbEntity
  8
0
100
AcDbLine
 62
7
  6
CONTINUOUS
 10
27.3428627534
 20
83.2162172207
 11
34.3428627534
 21
83.2162172207
  0
LINE
  5
2FB
100
AcDbEntity
  8
0
100
AcDbLine
 62
7
  6
CONTINUOUS
 10
50.0428627534
 20
83.6334306152
 11
48.5428627534
 21
83.6334306152
  0
LINE
  5
2FC
100
AcDbEntity
  8
0
100
AcDbLine
 62
7
  6
CONTINUOUS
 10
40.7428627534
 20
83.7162172207
 11
39.2428627534
 21
83.7162172207
  0
LINE
  5
2FD
100
AcDbEntity
  8
0
100
AcDbLine
 62
7
  6
CONTINUOUS
 10
66.3428655881
 20
63.4875781454
 11
66.3428655881
 21
64.444856296
  0
LINE
  5
2FE
100
AcDbEntity
  8
0
100
AcDbLine
 62
7
  6
CONTINUOUS
 10
66.3428655881
 20
73.4875715036
 11
66.3428655881
 21
74.4448629378
  0
LINE
  5
2FF
100
AcDbEntity
  8
0
100
AcDbLine
 62
7
  6
CONTINUOUS
 10
66.5652198746
 20
63.1977918424
 11
66.5652198746
 21
64.734642599
  0
LINE
  5
300
100
AcDbEntity
  8
0
100
AcDbLine
 62
7
  6
CONTINUOUS
 10
66.5652198746
 20
73.1977918424
 11
66.5652198746
 21
74.734642599
  0
LINE
  5
301
100
AcDbEntity
  8
0
100
AcDbLine
 62
7
  6
CONTINUOUS
 10
67.2428655881
 20
75.2162172207
 11
67.2428655881
 21
71.9662172207
  0
LINE
  5
302
100
AcDbEntity
  8
0
100
AcDbLine
 62
7
  6
CONTINUOUS
 10
67.2428655881
 20
65.9662172207
 11
67.2428655881
 21
62.7162172207
  0
LINE
  5
303
100
AcDbEntity
  8
0
100
AcDbLine
 62
7
  6
CONTINUOUS
 10
67.8428655881
 20
75.2162172207
 11
67.8428655881
 21
73.6162172207
  0
LINE
  5
304
100
AcDbEntity
  8
0
100
AcDbLine
 62
7
  6
CONTINUOUS
 10
67.8428655881
 20
62.7162172207
 11
67.8428655881
 21
64.3162172207
  0
LINE
  5
305
100
AcDbEntity
  8
0
100
AcDbLine
 62
7
  6
CONTINUOUS
 10
68.1428655881
 20
73.6162172207
 11
68.1428655881
 21
64.3162172207
  0
LINE
  5
306
100
AcDbEntity
  8
0
100
AcDbLine
 62
7
  6
CONTINUOUS
 10
68.1428655881
 20
62.5662552777
 11
68.1428655881
 21
62.7162172207
  0
LINE
  5
307
100
AcDbEntity
  8
0
100
AcDbLine
 62
7
  6
CONTINUOUS
 10
68.1428655881
 20
75.2162172207
 11
68.1428655881
 21
75.3661791638
  0
LINE
  5
308
100
AcDbEntity
  8
0
100
AcDbLine
 62
7
  6
CONTINUOUS
 10
52.6256977994
 20
49.7437836039
 11
55.7428627534
 21
51.0662172207
  0
LINE
  5
309
100
AcDbEntity
  8
0
100
AcDbLine
 62
7
  6
CONTINUOUS
 10
48.4428627534
 20
85.1562172207
 11
46.4428627534
 21
85.1562172207
  0
LINE
  5
30A
100
AcDbEntity
  8
0
100
AcDbLine
 62
7
  6
CONTINUOUS
 10
50.0428627534
 20
85.8871939556
 11
50.1428627534
 21
85.8871939556
  0
LINE
  5
30B
100
AcDbEntity
  8
0
100
AcDbLine
 62
7
  6
CONTINUOUS
 10
48.4428627534
 20
86.7662172207
 11
46.4428627534
 21
86.7662172207
  0
LINE
  5
30C
100
AcDbEntity
  8
0
100
AcDbLine
 62
7
  6
CONTINUOUS
 10
48.5428627534
 20
86.7840074237
 11
50.0428627534
 21
86.7840074237
  0
LINE
  5
30D
100
AcDbEntity
  8
0
100
AcDbLine
 62
7
  6
CONTINUOUS
 10
85.4825650884
 20
78.3534260069
 11
81.8728650884
 21
79.2534252987
  0
LINE
  5
30E
100
AcDbEntity
  8
0
100
AcDbLine
 62
7
  6
CONTINUOUS
 10
68.4428655881
 20
62.7162172207
 11
68.4428655881
 21
64.3162172207
  0
LINE
  5
30F
100
AcDbEntity
  8
0
100
AcDbLine
 62
7
  6
CONTINUOUS
 10
68.4428655881
 20
73.6162172207
 11
68.4428655881
 21
75.2162172207
  0
LINE
  5
310
100
AcDbEntity
  8
0
100
AcDbLine
 62
7
  6
CONTINUOUS
 10
75.2728655881
 20
64.6322947895
 11
74.9567880193
 21
64.3162172207
  0
LINE
  5
311
100
AcDbEntity
  8
0
100
AcDbLine
 62
7
  6
CONTINUOUS
 10
51.7428627534
 20
87.4662172207
 11
50.1428627534
 21
87.4662172207
  0
LINE
  5
312
100
AcDbEntity
  8
0
100
AcDbLine
 62
7
  6
CONTINUOUS
 10
58.2428627534
 20
86.3200918461
 11
51.7428627534
 21
87.4662172207
  0
LINE
  5
313
100
AcDbEntity
  8
0
100
AcDbLine
 62
7
  6
CONTINUOUS
 10
71.8699598097
 20
64.3362172207
 11
71.8776221865
 21
63.4362172207
  0
LINE
  5
314
100
AcDbEntity
  8
0
100
AcDbLine
 62
7
  6
CONTINUOUS
 10
71.8767161372
 20
63.4362172207
 11
71.869371659
 21
64.3362172207
  0
LINE
  5
315
100
AcDbEntity
  8
0
100
AcDbLine
 62
7
  6
CONTINUOUS
 10
71.8699382217
 20
64.3362172207
 11
71.877215091
 21
63.4362172207
  0
LINE
  5
316
100
AcDbEntity
  8
0
100
AcDbLine
 62
7
  6
CONTINUOUS
 10
71.8794520278
 20
63.4362172207
 11
71.8721679669
 21
64.3362172207
  0
LINE
  5
317
100
AcDbEntity
  8
0
100
AcDbLine
 62
7
  6
CONTINUOUS
 10
71.8691612449
 20
65.2362172207
 11
71.8699382217
 21
64.3362172207
  0
LINE
  5
318
100
AcDbEntity
  8
0
100
AcDbLine
 62
7
  6
CONTINUOUS
 10
71.3594016406
 20
68.0662172207
 11
71.3594016406
 21
69.8662172207
  0
LINE
  5
319
100
AcDbEntity
  8
0
100
AcDbLine
 62
7
  6
CONTINUOUS
 10
71.3594016406
 20
72.6962172207
 11
71.3594016406
 21
74.4962172207
  0
LINE
  5
31A
100
AcDbEntity
  8
0
100
AcDbLine
 62
7
  6
CONTINUOUS
 10
71.3628655881
 20
63.4362172207
 11
71.3628655881
 21
65.2362172207
  0
LINE
  5
31B
100
AcDbEntity
  8
0
100
AcDbLine
 62
7
  6
CONTINUOUS
 10
71.6594016406
 20
74.4962172207
 11
71.6594016406
 21
72.6962172207
  0
LINE
  5
31C
100
AcDbEntity
  8
0
100
AcDbLine
 62
7
  6
CONTINUOUS
 10
71.6594016406
 20
69.8662172207
 11
71.6594016406
 21
68.0662172207
  0
LINE
  5
31D
100
AcDbEntity
  8
0
100
AcDbLine
 62
7
  6
CONTINUOUS
 10
71.6628655881
 20
65.2362172207
 11
71.6628655881
 21
63.4362172207
  0
LINE
  5
31E
100
AcDbEntity
  8
0
100
AcDbLine
 62
7
  6
CONTINUOUS
 10
71.8656972974
 20
73.5962172207
 11
71.8656972974
 21
72.6962172207
  0
LINE
  5
31F
100
AcDbEntity
  8
0
100
AcDbLine
 62
7
  6
CONTINUOUS
 10
71.8656972974
 20
69.8662172207
 11
71.8656972974
 21
69.4162172207
  0
LINE
  5
320
100
AcDbEntity
  8
0
100
AcDbLine
 62
7
  6
CONTINUOUS
 10
71.8656972974
 20
68.5162172207
 11
71.8656972974
 21
68.0662172207
  0
LINE
  5
321
100
AcDbEntity
  8
0
100
AcDbLine
 62
7
  6
CONTINUOUS
 10
71.8659077115
 20
68.5162172207
 11
71.8659077115
 21
69.4162172207
  0
LINE
  5
322
100
AcDbEntity
  8
0
100
AcDbLine
 62
7
  6
CONTINUOUS
 10
71.8664742742
 20
69.4162172207
 11
71.8664742742
 21
68.5162172207
  0
LINE
  5
323
100
AcDbEntity
  8
0
100
AcDbLine
 62
7
  6
CONTINUOUS
 10
71.8687040194
 20
68.5162172207
 11
71.8687040194
 21
69.4162172207
  0
LINE
  5
324
100
AcDbEntity
  8
0
100
AcDbLine
 62
7
  6
CONTINUOUS
 10
71.8691612449
 20
65.2362172207
 11
71.8691612449
 21
64.3362172207
  0
LINE
  5
325
100
AcDbEntity
  8
0
100
AcDbLine
 62
7
  6
CONTINUOUS
 10
73.2228655881
 20
75.3661791638
 11
73.2228655881
 21
75.2162172207
  0
LINE
  5
326
100
AcDbEntity
  8
0
100
AcDbLine
 62
7
  6
CONTINUOUS
 10
73.2228655881
 20
73.6162172207
 11
73.2228655881
 21
64.3162172207
  0
LINE
  5
327
100
AcDbEntity
  8
0
100
AcDbLine
 62
7
  6
CONTINUOUS
 10
73.2228655881
 20
62.7162172207
 11
73.2228655881
 21
62.5662552777
  0
LINE
  5
328
100
AcDbEntity
  8
0
100
AcDbLine
 62
7
  6
CONTINUOUS
 10
71.8664742742
 20
73.5962172106
 11
71.8656972974
 21
72.6962172207
  0
LINE
  5
329
100
AcDbEntity
  8
0
100
AcDbLine
 62
7
  6
CONTINUOUS
 10
71.8659077116
 20
73.5962172207
 11
71.8732581027
 21
74.4962172207
  0
LINE
  5
32A
100
AcDbEntity
  8
0
100
AcDbLine
 62
7
  6
CONTINUOUS
 10
71.8737503516
 20
74.4962172207
 11
71.8664742742
 21
73.5962172106
  0
LINE
  5
32B
100
AcDbEntity
  8
0
100
AcDbLine
 62
7
  6
CONTINUOUS
 10
71.8687040194
 20
73.5962172316
 11
71.8759840442
 21
74.4962172207
  0
LINE
  5
32C
100
AcDbEntity
  8
0
100
AcDbLine
 62
7
  6
CONTINUOUS
 10
71.8741698882
 20
74.4962172207
 11
71.8664958621
 21
73.5962172207
  0
LINE
  5
32D
100
AcDbEntity
  8
0
100
AcDbLine
 62
7
  6
CONTINUOUS
 10
75.2728655881
 20
73.3001396519
 11
74.9567880193
 21
73.6162172207
  0
LINE
  5
32E
100
AcDbEntity
  8
0
100
AcDbLine
 62
7
  6
CONTINUOUS
 10
74.3728655881
 20
73.6162172207
 11
74.3728655881
 21
64.3162172207
  0
LINE
  5
32F
100
AcDbEntity
  8
0
100
AcDbLine
 62
7
  6
CONTINUOUS
 10
74.6728655881
 20
73.6162172207
 11
74.6728655881
 21
64.3162172207
  0
LINE
  5
330
100
AcDbEntity
  8
0
100
AcDbLine
 62
7
  6
CONTINUOUS
 10
74.9061178537
 20
75.2162172207
 11
74.9061178537
 21
74.8162172207
  0
LINE
  5
331
100
AcDbEntity
  8
0
100
AcDbLine
 62
7
  6
CONTINUOUS
 10
74.9061178537
 20
62.7162172207
 11
74.9061178537
 21
63.1162172207
  0
LINE
  5
332
100
AcDbEntity
  8
0
100
AcDbLine
 62
7
  6
CONTINUOUS
 10
75.2728650884
 20
79.7534253001
 11
75.2728650884
 21
59.7534253001
  0
LINE
  5
333
100
AcDbEntity
  8
0
100
AcDbLine
 62
7
  6
CONTINUOUS
 10
76.8728650884
 20
79.7534253001
 11
76.8728650884
 21
59.7534253001
  0
LINE
  5
334
100
AcDbEntity
  8
0
100
AcDbLine
 62
7
  6
CONTINUOUS
 10
79.4061178537
 20
74.3662172207
 11
79.4061178537
 21
73.7662172207
  0
LINE
  5
335
100
AcDbEntity
  8
0
100
AcDbLine
 62
7
  6
CONTINUOUS
 10
79.4061178537
 20
63.5662172207
 11
79.4061178537
 21
64.1662172207
  0
LINE
  5
336
100
AcDbEntity
  8
0
100
AcDbLine
 62
7
  6
CONTINUOUS
 10
80.3359853235
 20
68.5162172207
 11
80.3359853235
 21
69.2632913394
  0
LINE
  5
337
100
AcDbEntity
  8
0
100
AcDbLine
 62
7
  6
CONTINUOUS
 10
80.3359853235
 20
73.5962172207
 11
80.3359853235
 21
74.3432913394
  0
LINE
  5
338
100
AcDbEntity
  8
0
100
AcDbLine
 62
7
  6
CONTINUOUS
 10
80.339449271
 20
63.4362172207
 11
80.339449271
 21
64.1832913394
  0
LINE
  5
339
100
AcDbEntity
  8
0
100
AcDbLine
 62
7
  6
CONTINUOUS
 10
82.7728650884
 20
73.1671741246
 11
82.7728650884
 21
72.3534253001
  0
LINE
  5
33A
100
AcDbEntity
  8
0
100
AcDbLine
 62
7
  6
CONTINUOUS
 10
85.4825650884
 20
74.1534242684
 11
85.4825650884
 21
78.3534260069
  0
ARC
  5
33B
100
AcDbEntity
  8
0
100
AcDbCircle
 62
7
  6
CONTINUOUS
 10
58.4428655881
 20
57.5662172207
 40
0.9
100
AcDbArc
 50
270.0
 51
90.0
  0
ARC
  5
33C
100
AcDbEntity
  8
0
100
AcDbCircle
 62
7
  6
CONTINUOUS
 10
49.1561043412
 20
51.4185779522
 40
0.7132458527
100
AcDbArc
 50
171.6039285561
 51
177.2167473673
  0
ARC
  5
33D
100
AcDbEntity
  8
0
100
AcDbCircle
 62
7
  6
CONTINUOUS
 10
49.1428627534
 20
51.4162172207
 40
0.7
100
AcDbArc
 50
149.2719729382
 51
180.0
  0
ARC
  5
33E
100
AcDbEntity
  8
0
100
AcDbCircle
 62
7
  6
CONTINUOUS
 10
81.3728650884
 20
79.2534253001
 40
0.5
100
AcDbArc
 50
359.9999998422
 51
90.0
  0
ARC
  5
33F
100
AcDbEntity
  8
0
100
AcDbCircle
 62
7
  6
CONTINUOUS
 10
47.9428627534
 20
81.4662172207
 40
0.5
100
AcDbArc
 50
0.0
 51
90.0
  0
ARC
  5
340
100
AcDbEntity
  8
0
100
AcDbCircle
 62
7
  6
CONTINUOUS
 10
58.9641968126
 20
77.1632251486
 40
0.4439477234
100
AcDbArc
 50
239.8656596408
 51
243.005277485
  0
ARC
  5
341
100
AcDbEntity
  8
0
100
AcDbCircle
 62
7
  6
CONTINUOUS
 10
11.0928627534
 20
74.7162172207
 40
0.4
100
AcDbArc
 50
90.0
 51
180.0
  0
ARC
  5
342
100
AcDbEntity
  8
0
100
AcDbCircle
 62
7
  6
CONTINUOUS
 10
11.0928627534
 20
63.2162172207
 40
0.4
100
AcDbArc
 50
180.0
 51
270.0
  0
ARC
  5
343
100
AcDbEntity
  8
0
100
AcDbCircle
 62
7
  6
CONTINUOUS
 10
66.6428655881
 20
64.4448648511
 40
0.3
100
AcDbArc
 50
105.0000000001
 51
180.0
  0
ARC
  5
344
100
AcDbEntity
  8
0
100
AcDbCircle
 62
7
  6
CONTINUOUS
 10
66.6428655881
 20
63.4875695903
 40
0.3
100
AcDbArc
 50
180.0
 51
254.9999999999
  0
ARC
  5
345
100
AcDbEntity
  8
0
100
AcDbCircle
 62
7
  6
CONTINUOUS
 10
66.6428655881
 20
74.4448648511
 40
0.3
100
AcDbArc
 50
105.0000000001
 51
180.0
  0
ARC
  5
346
100
AcDbEntity
  8
0
100
AcDbCircle
 62
7
  6
CONTINUOUS
 10
66.6428655881
 20
73.4875695903
 40
0.3
100
AcDbArc
 50
180.0
 51
254.9999999999
  0
ARC
  5
347
100
AcDbEntity
  8
0
100
AcDbCircle
 62
7
  6
CONTINUOUS
 10
75.2061178537
 20
63.1162172207
 40
0.3
100
AcDbArc
 50
90.0
 51
180.0
  0
ARC
  5
348
100
AcDbEntity
  8
0
100
AcDbCircle
 62
7
  6
CONTINUOUS
 10
75.2061178537
 20
74.8162172207
 40
0.3
100
AcDbArc
 50
180.0
 51
270.0
  0
ARC
  5
349
100
AcDbEntity
  8
0
100
AcDbCircle
 62
7
  6
CONTINUOUS
 10
52.7428627534
 20
49.49301214
 40
0.3
100
AcDbArc
 50
120.0
 51
180.0
  0
ARC
  5
34A
100
AcDbEntity
  8
0
100
AcDbCircle
 62
7
  6
CONTINUOUS
 10
52.7428627534
 20
49.4676090693
 40
0.3
100
AcDbArc
 50
112.9887167952
 51
175.1696552716
  0
CIRCLE
  5
34B
100
AcDbEntity
  8
0
100
AcDbCircle
 62
7
  6
CONTINUOUS
 10
53.2415480479
 20
63.1924075951
 40
0.2999966156
  0
SPLINE
  5
34C
100
AcDbEntity
  8
0
100
AcDbSpline
 62
7
  6
CONTINUOUS
 70
0
 71
3
 72
9
 73
5
 74
0
 42
0.0000001
 43
0.0000001
 44
0.0000000001
 40
0.0
 40
0.0
 40
0.0
 40
0.0
 40
0.4999350846
 40
1.0
 40
1.0
 40
1.0
 40
1.0
 10
58.9428655881
 20
76.7233107486
 30
0.0
 10
58.9117260523
 20
76.7233107486
 30
0.0
 10
58.8492042269
 20
76.7311231768
 30
0.0
 10
58.7904416884
 20
76.753512913
 30
0.0
 10
58.7626851995
 20
76.7676462678
 30
0.0
  0
SPLINE
  5
34D
100
AcDbEntity
  8
0
100
AcDbSpline
 62
7
  6
CONTINUOUS
 70
0
 71
3
 72
11
 73
7
 74
0
 42
0.0000001
 43
0.0000001
 44
0.0000000001
 40
0.0
 40
0.0
 40
0.0
 40
0.0
 40
0.2495699837
 40
0.4995676008
 40
0.7497511999
 40
1.0
 40
1.0
 40
1.0
 40
1.0
 10
58.7413221022
 20
76.7792766566
 30
0.0
 10
58.6915309278
 20
76.808168616
 30
0.0
 10
58.6026237951
 20
76.8855821456
 30
0.0
 10
58.5100263581
 20
77.033758612
 30
0.0
 10
58.455076859
 20
77.1993938308
 30
0.0
 10
58.4428655881
 20
77.3151878659
 30
0.0
 10
58.4428655881
 20
77.3729109822
 30
0.0
  0
SPLINE
  5
34E
100
AcDbEntity
  8
0
100
AcDbSpline
 62
7
  6
CONTINUOUS
 70
0
 71
3
 72
11
 73
7
 74
0
 42
0.0000001
 43
0.0000001
 44
0.0000000001
 40
0.0
 40
0.0
 40
0.0
 40
0.0
 40
0.2245348024
 40
0.4566351372
 40
0.7111773514
 40
1.0
 40
1.0
 40
1.0
 40
1.0
 10
48.4428627534
 20
86.1690607636
 30
0.0
 10
48.4428627534
 20
86.1549605959
 30
0.0
 10
48.4471653815
 20
86.1261002496
 30
0.0
 10
48.4665632261
 20
86.0852686699
 30
0.0
 10
48.4980543504
 20
86.0475884049
 30
0.0
 10
48.5248954855
 20
86.0261893515
 30
0.0
 10
48.5398640988
 20
86.0159472284
 30
0.0
  0
SPLINE
  5
34F
100
AcDbEntity
  8
0
100
AcDbSpline
 62
7
  6
CONTINUOUS
 70
0
 71
3
 72
9
 73
5
 74
0
 42
0.0000001
 43
0.0000001
 44
0.0000000001
 40
0.0
 40
0.0
 40
0.0
 40
0.0
 40
0.2515741911
 40
1.0
 40
1.0
 40
1.0
 40
1.0
 10
48.45050281
 20
51.5227226863
 30
0.0
 10
48.4530782668
 20
51.5401681242
 30
0.0
 10
48.4658733927
 20
51.609117892
 30
0.0
 10
48.4888412312
 20
51.6761285196
 30
0.0
 10
48.510959357
 20
51.7237002389
 30
0.0
  0
SPLINE
  5
350
100
AcDbEntity
  8
0
100
AcDbSpline
 62
7
  6
CONTINUOUS
 70
0
 71
3
 72
13
 73
9
 74
0
 42
0.0000001
 43
0.0000001
 44
0.0000000001
 40
0.0
 40
0.0
 40
0.0
 40
0.0
 40
0.2562982169
 40
0.3847410884
 40
0.5128791729
 40
0.765623768
 40
0.8875584984
 40
1.0
 40
1.0
 40
1.0
 40
1.0
 10
47.3428627534
 20
51.4188506246
 30
0.0
 10
47.3428762497
 20
51.6051703259
 30
0.0
 10
47.3877326777
 20
51.8871646002
 30
0.0
 10
47.528655791
 20
52.2335065365
 30
0.0
 10
47.7201750942
 20
52.5518699774
 30
0.0
 10
47.9788304913
 20
52.8192504642
 30
0.0
 10
48.274970898
 20
53.0147784758
 30
0.0
 10
48.4279533285
 20
53.0908454105
 30
0.0
 10
48.5030861266
 20
53.1230424635
 30
0.0
  0
SPLINE
  5
351
100
AcDbEntity
  8
0
100
AcDbSpline
 62
7
  6
CONTINUOUS
 70
0
 71
3
 72
18
 73
14
 74
0
 42
0.0000001
 43
0.0000001
 44
0.0000000001
 40
0.0
 40
0.0
 40
0.0
 40
0.0
 40
0.1853771171
 40
0.3624402061
 40
0.5247033317
 40
0.6671510967
 40
0.7860089889
 40
0.8359325429
 40
0.8794130573
 40
0.9166952862
 40
0.9483459167
 40
0.9754915971
 40
1.0
 40
1.0
 40
1.0
 40
1.0
 10
47.2480415283
 20
48.5304326949
 30
0.0
 10
47.3182699912
 20
48.5251120296
 30
0.0
 10
47.4558734787
 20
48.5182228626
 30
0.0
 10
47.6553179359
 20
48.5189250156
 30
0.0
 10
47.8381283061
 20
48.5306028285
 30
0.0
 10
47.9976911406
 20
48.5525733561
 30
0.0
 10
48.1130909175
 20
48.5798363111
 30
0.0
 10
48.1890599258
 20
48.6071600084
 30
0.0
 10
48.2340672929
 20
48.6283493358
 30
0.0
 10
48.2702779615
 20
48.651271042
 30
0.0
 10
48.2974953778
 20
48.6759668728
 30
0.0
 10
48.3154640909
 20
48.7024940306
 30
0.0
 10
48.3208705062
 20
48.7218394538
 30
0.0
 10
48.321682048
 20
48.7311154192
 30
0.0
  0
SPLINE
  5
352
100
AcDbEntity
  8
0
100
AcDbSpline
 62
7
  6
CONTINUOUS
 70
0
 71
3
 72
10
 73
6
 74
0
 42
0.0000001
 43
0.0000001
 44
0.0000000001
 40
0.0
 40
0.0
 40
0.0
 40
0.0
 40
0.3350114922
 40
0.668346631
 40
1.0
 40
1.0
 40
1.0
 40
1.0
 10
71.8721679669
 20
64.3362172207
 30
0.0
 10
71.8720241693
 20
64.4367211824
 30
0.0
 10
71.8716019692
 20
64.6372263919
 30
0.0
 10
71.8697484889
 20
64.9372230046
 30
0.0
 10
71.8693122595
 20
65.1367207139
 30
0.0
 10
71.8691612449
 20
65.2362172207
 30
0.0
  0
SPLINE
  5
353
100
AcDbEntity
  8
0
100
AcDbSpline
 62
7
  6
CONTINUOUS
 70
0
 71
3
 72
10
 73
6
 74
0
 42
0.0000001
 43
0.0000001
 44
0.0000000001
 40
0.0
 40
0.0
 40
0.0
 40
0.0
 40
0.3350087312
 40
0.6683492861
 40
1.0
 40
1.0
 40
1.0
 40
1.0
 10
71.8687040194
 20
69.4162172207
 30
0.0
 10
71.8685602208
 20
69.4664695585
 30
0.0
 10
71.8681380006
 20
69.5667243916
 30
0.0
 10
71.8662845618
 20
69.7167176174
 30
0.0
 10
71.8658483129
 20
69.8164686214
 30
0.0
 10
71.8656972974
 20
69.8662172207
 30
0.0
  0
SPLINE
  5
354
100
AcDbEntity
  8
0
100
AcDbSpline
 62
7
  6
CONTINUOUS
 70
0
 71
3
 72
10
 73
6
 74
0
 42
0.0000001
 43
0.0000001
 44
0.0000000001
 40
0.0
 40
0.0
 40
0.0
 40
0.0
 40
0.3316614529
 40
0.6650020078
 40
1.0
 40
1.0
 40
1.0
 40
1.0
 10
71.8656972974
 20
68.0662172207
 30
0.0
 10
71.8658483326
 20
68.1159674309
 30
0.0
 10
71.8662845893
 20
68.2157200458
 30
0.0
 10
71.8681380271
 20
68.3657132715
 30
0.0
 10
71.8685602399
 20
68.4659664938
 30
0.0
 10
71.8687040194
 20
68.5162172207
 30
0.0
  0
SPLINE
  5
355
100
AcDbEntity
  8
0
100
AcDbSpline
 62
7
  6
CONTINUOUS
 70
0
 71
3
 72
10
 73
6
 74
0
 42
0.0000001
 43
0.0000001
 44
0.0000000001
 40
0.0
 40
0.0
 40
0.0
 40
0.0
 40
0.3316641045
 40
0.6649992393
 40
1.0
 40
1.0
 40
1.0
 40
1.0
 10
71.8656972974
 20
72.6962172207
 30
0.0
 10
71.8658483316
 20
72.7957169494
 30
0.0
 10
71.8662845689
 20
72.9952178805
 30
0.0
 10
71.8681380482
 20
73.2952144969
 30
0.0
 10
71.8685602409
 20
73.4957164881
 30
0.0
 10
71.8687040194
 20
73.5962172316
 30
0.0
  0
ELLIPSE
  5
356
100
AcDbEntity
  8
0
100
AcDbEllipse
 62
7
  6
CONTINUOUS
 10
49.1428627534
 20
82.9245075976
 30
0.0
 11
0.0
 21
-0.8082903769
 31
0.0
 40
0.8660254038
 41
-1.5707963268
 42
-1.0377373485
  0
ELLIPSE
  5
357
100
AcDbEntity
  8
0
100
AcDbEllipse
 62
7
  6
CONTINUOUS
 10
47.0333928203
 20
46.6269867362
 30
0.0
 11
0.2488630027
 21
1.8999122159
 31
0.0
 40
0.5729892874
 41
0.0313217771
 42
0.0749134529
  0
ENDSEC
  0
SECTION
  2
OBJECTS
  0
DICTIONARY
  5
C
100
AcDbDictionary
280
0
281
1
  3
ACAD_GROUP
350
D
  3
ACAD_MLINESTYLE
350
17
  3
ACAD_LAYOUT
350
1A
  3
ACAD_PLOTSETTINGS
350
19
  3
ACAD_PLOTSTYLENAME
350
E
  0
DICTIONARY
  5
D
102
{ACAD_REACTORS
330
C
102
}
100
AcDbDictionary
280
0
281
1
  0
ACDBDICTIONARYWDFLT
  5
E
102
{ACAD_REACTORS
330
C
102
}
100
AcDbDictionary
281
1
  3
Normal
350
F
100
AcDbDictionaryWithDefault
340
F
  0
DICTIONARY
  5
17
102
{ACAD_REACTORS
330
C
102
}
100
AcDbDictionary
280
0
281
1
  3
Standard
350
18
  0
DICTIONARY
  5
19
102
{ACAD_REACTORS
330
C
102
}
100
AcDbDictionary
281
1
  0
DICTIONARY
  5
1A
102
{ACAD_REACTORS
330
C
102
}
100
AcDbDictionary
281
1
  3
Model
350
358
  3
Layout1
350
359
  0
ACDBPLACEHOLDER
  5
F
102
{ACAD_REACTORS
330
E
102
}
  0
MLINESTYLE
  5
18
102
{ACAD_REACTORS
330
17
102
}
100
AcDbMlineStyle
  2
STANDARD
 70
0
  3

 62
256
 51
90.0
 52
90.0
 71
2
 49
0.5
 62
256
  6
BYLAYER
 49
-0.5
 62
256
  6
BYLAYER
  0
LAYOUT
  5
358
102
{ACAD_REACTORS
330
1A
102
}
100
AcDbPlotSettings
  1

  2
none_device
  4

  6

 40
0.0
 41
0.0
 42
0.0
 43
0.0
 44
210.0
 45
297.0
 46
0.0
 47
0.0
 48
0.0
 49
0.0
140
0.0
141
0.0
142
1.0
143
1.0
 70
1024
 72
1
 73
0
 74
0
  7

 75
0
147
1.0
148
0.0
149
0.0
100
AcDbLayout
  1
Model
 70
0
 71
0
 10
0.0
 20
0.0
 11
210.0
 21
297.0
 12
0.0
 22
0.0
 32
0.0
 14
0.0
 24
0.0
 34
0.0
 15
0.0
 25
0.0
 35
0.0
146
0.0
 13
0.0
 23
0.0
 33
0.0
 16
1.0
 26
0.0
 36
0.0
 17
0.0
 27
1.0
 37
0.0
 76
0
330
210
345
0
346
0
  0
LAYOUT
  5
359
102
{ACAD_REACTORS
330
1A
102
}
100
AcDbPlotSettings
  1

  2
none_device
  4

  6

 40
0.0
 41
0.0
 42
0.0
 43
0.0
 44
210.0
 45
297.0
 46
0.0
 47
0.0
 48
0.0
 49
0.0
140
0.0
141
0.0
142
1.0
143
1.0
 70
0
 72
1
 73
0
 74
0
  7

 75
0
147
1.0
148
0.0
149
0.0
100
AcDbLayout
  1
Layout1
 70
0
 71
1
 10
0.0
 20
0.0
 11
210.0
 21
297.0
 12
0.0
 22
0.0
 32
0.0
 14
0.0
 24
0.0
 34
0.0
 15
0.0
 25
0.0
 35
0.0
146
0.0
 13
0.0
 23
0.0
 33
0.0
 16
1.0
 26
0.0
 36
0.0
 17
0.0
 27
1.0
 37
0.0
 76
0
330
211
345
0
346
0
  0
ENDSEC
  0
EOF
