999
DXF file: C:\Users\sesa63760\Dev\_Creo\CAD\MCADID0002145_3D-CAD\drw0001_5.dxf
999
Pro/ENGINEER 2019471 by Parametric Technology Corporation
  0
SECTION
  2
HEADER
  9
$ACADVER
  1
AC1024
  9
$DWGCODEPAGE
  3
ANSI_1252
  9
$EXTMAX
 10
65.5673198179
 20
92.7309237424
 30
0.0
  9
$EXTMIN
 10
0.0
 20
0.0
 30
0.0
  9
$LIMMIN
 10
0.0
 20
0.0
  9
$LIMMAX
 10
65.5673198179
 20
92.7309237424
  9
$VIEWCTR
 10
32.7836599089
 20
46.3654618712
  9
$VIEWSIZE
 40
92.7309237424
  9
$CLAYER
  8
0
  9
$LTSCALE
 40
6.0446824365
  9
$CELTYPE
  6
BYLAYER
  9
$DIMSCALE
 40
1.0
  9
$DIMASZ
 40
0.7805633312
  9
$DIMEXO
 40
1.0
  9
$DIMDLI
 40
4.1763260471
  9
$DIMEXE
 40
1.0
  9
$DIMCEN
 40
0.9891298533
  9
$DIMLFAC
 40
1.0
  9
$DIMBLK
  1
_FILLED
  9
$DIMALT
 70
0
  9
$DIMALTF
 40
0.0393700787
  9
$DIMTXT
 40
1.0927886636
  9
$DIMTOL
 70
1
  9
$DIMLIM
 70
0
  9
$DIMTFAC
 40
1.0
  9
$DIMTP
 40
0.01
  9
$DIMTM
 40
0.01
  9
$DIMGAP
 40
0.625
  9
$DIMDSEP
 70
46
  9
$AUNITS
 70
0
  9
$PDMODE
 70
3
  9
$PDSIZE
 40
0.3125
  9
$HANDSEED
  5
3B6
  9
$TILEMODE
 70
1
  9
$MEASUREMENT
 70
1
  9
$INSUNITS
 70
4
  0
ENDSEC
  0
SECTION
  2
CLASSES
  0
CLASS
  1
ACDBDICTIONARYWDFLT
  2
AcDbDictionaryWithDefault
  3
AutoCAD 2000
 90
0
 91
1
280
0
281
0
  0
CLASS
  1
ACDBPLACEHOLDER
  2
AcDbPlaceHolder
  3
AutoCAD 2000
 90
0
 91
1
280
0
281
0
  0
CLASS
  1
LAYOUT
  2
AcDbLayout
  3
AutoCAD 2000
 90
0
 91
0
280
0
281
0
  0
ENDSEC
  0
SECTION
  2
TABLES
  0
TABLE
  2
VPORT
  5
8
100
AcDbSymbolTable
 70
2
  0
VPORT
  5
1F4
100
AcDbSymbolTableRecord
100
AcDbViewportTableRecord
  2
*ACTIVE
 70
0
 10
0.0
 20
0.0
 11
1.0
 21
1.0
 12
32.7836599089
 22
46.3654618712
 13
0.0
 23
0.0
 14
1.0
 24
1.0
 15
0.0
 25
0.0
 16
0.0
 26
0.0
 36
1.0
 17
0.0
 27
0.0
 37
0.0
 40
92.7309237424
 41
0.7070707071
 42
50.0
 43
0.0
 44
0.0
 50
0.0
 51
0.0
 71
0
 72
100
 73
1
 74
1
 75
0
 76
0
 77
0
 78
0
  0
ENDTAB
  0
TABLE
  2
LTYPE
  5
5
100
AcDbSymbolTable
 70
6
  0
LTYPE
  5
14
100
AcDbSymbolTableRecord
100
AcDbLinetypeTableRecord
  2
BYBLOCK
 70
0
  3

 72
65
 73
0
 40
0.0
  0
LTYPE
  5
15
100
AcDbSymbolTableRecord
100
AcDbLinetypeTableRecord
  2
BYLAYER
 70
0
  3

 72
65
 73
0
 40
0.0
  0
LTYPE
  5
16
100
AcDbSymbolTableRecord
100
AcDbLinetypeTableRecord
  2
CONTINUOUS
 70
64
  3
Solid line
 72
65
 73
0
 40
0.0
  0
LTYPE
  5
1F5
100
AcDbSymbolTableRecord
100
AcDbLinetypeTableRecord
  2
CENTER
 70
64
  3
____ _ ____ _ ____ _ ____ _ ____ _ ____ _ ____
 72
65
 73
4
 40
0.6
 49
0.375
 74
0
 49
-0.075
 74
0
 49
0.075
 74
0
 49
-0.075
 74
0
  0
LTYPE
  5
1F6
100
AcDbSymbolTableRecord
100
AcDbLinetypeTableRecord
  2
HIDDEN
 70
64
  3
- - - - - - - - - - - - - - - - - - - -
 72
65
 73
2
 40
0.2
 49
0.1
 74
0
 49
-0.1
 74
0
  0
LTYPE
  5
1F7
100
AcDbSymbolTableRecord
100
AcDbLinetypeTableRecord
  2
PHANTOM
 70
64
  3
_____ _ _ _____ _ _ _____ _ _ _____
 72
65
 73
6
 40
0.8
 49
0.45
 74
0
 49
-0.05
 74
0
 49
0.1
 74
0
 49
-0.05
 74
0
 49
0.1
 74
0
 49
-0.05
 74
0
  0
LTYPE
  5
1F8
100
AcDbSymbolTableRecord
100
AcDbLinetypeTableRecord
  2
DOT
 70
64
  3
. . . . . . . . . . . . . . . . . . . .
 72
65
 73
2
 40
0.2
 49
0.1
 74
0
 49
-0.1
 74
0
  0
LTYPE
  5
1F9
100
AcDbSymbolTableRecord
100
AcDbLinetypeTableRecord
  2
DASHED
 70
64
  3
- - - - - - - - - - - - - - - - - - - -
 72
65
 73
2
 40
0.2
 49
0.1
 74
0
 49
-0.1
 74
0
  0
ENDTAB
  0
TABLE
  2
LAYER
  5
2
100
AcDbSymbolTable
 70
36
  0
LAYER
  5
10
100
AcDbSymbolTableRecord
100
AcDbLayerTableRecord
  2
0
 70
0
 62
7
  6
CONTINUOUS
370
-3
390
F
  0
LAYER
  5
1FA
100
AcDbSymbolTableRecord
100
AcDbLayerTableRecord
  2
DEFAULT_1
 70
0
 62
7
  6
CENTER
370
-3
390
F
  0
LAYER
  5
1FB
100
AcDbSymbolTableRecord
100
AcDbLayerTableRecord
  2
DEFAULT_2
 70
0
 62
8
  6
HIDDEN
370
-3
390
F
  0
LAYER
  5
1FC
100
AcDbSymbolTableRecord
100
AcDbLayerTableRecord
  2
DEFAULT_3
 70
0
 62
7
  6
PHANTOM
370
-3
390
F
  0
LAYER
  5
1FD
100
AcDbSymbolTableRecord
100
AcDbLayerTableRecord
  2
00_COMPONENTS
 70
0
 62
7
  6
CONTINUOUS
370
-3
390
F
  0
LAYER
  5
1FE
100
AcDbSymbolTableRecord
100
AcDbLayerTableRecord
  2
01_1_DEFAULT_DATUMS
 70
0
 62
7
  6
CONTINUOUS
370
-3
390
F
  0
LAYER
  5
1FF
100
AcDbSymbolTableRecord
100
AcDbLayerTableRecord
  2
01_PLANES
 70
0
 62
7
  6
CONTINUOUS
370
-3
390
F
  0
LAYER
  5
200
100
AcDbSymbolTableRecord
100
AcDbLayerTableRecord
  2
02_COORD_SYS
 70
0
 62
7
  6
CONTINUOUS
370
-3
390
F
  0
LAYER
  5
201
100
AcDbSymbolTableRecord
100
AcDbLayerTableRecord
  2
03_AXES
 70
0
 62
7
  6
CONTINUOUS
370
-3
390
F
  0
LAYER
  5
202
100
AcDbSymbolTableRecord
100
AcDbLayerTableRecord
  2
04_POINTS
 70
0
 62
7
  6
CONTINUOUS
370
-3
390
F
  0
LAYER
  5
203
100
AcDbSymbolTableRecord
100
AcDbLayerTableRecord
  2
05_CURVES
 70
0
 62
7
  6
CONTINUOUS
370
-3
390
F
  0
LAYER
  5
204
100
AcDbSymbolTableRecord
100
AcDbLayerTableRecord
  2
06_SURFS
 70
0
 62
7
  6
CONTINUOUS
370
-3
390
F
  0
LAYER
  5
205
100
AcDbSymbolTableRecord
100
AcDbLayerTableRecord
  2
07_COSMETICS
 70
0
 62
7
  6
CONTINUOUS
370
-3
390
F
  0
LAYER
  5
206
100
AcDbSymbolTableRecord
100
AcDbLayerTableRecord
  2
10_NOTES
 70
0
 62
7
  6
CONTINUOUS
370
-3
390
F
  0
LAYER
  5
207
100
AcDbSymbolTableRecord
100
AcDbLayerTableRecord
  2
11_NOTES_PUB
 70
0
 62
7
  6
CONTINUOUS
370
-3
390
F
  0
LAYER
  5
208
100
AcDbSymbolTableRecord
100
AcDbLayerTableRecord
  2
13_REF_GTOL
 70
0
 62
7
  6
CONTINUOUS
370
-3
390
F
  0
LAYER
  5
209
100
AcDbSymbolTableRecord
100
AcDbLayerTableRecord
  2
16_MISC
 70
0
 62
7
  6
CONTINUOUS
370
-3
390
F
  0
LAYER
  5
20A
100
AcDbSymbolTableRecord
100
AcDbLayerTableRecord
  2
17_NO_PRINT
 70
0
 62
7
  6
CONTINUOUS
370
-3
390
F
  0
LAYER
  5
20B
100
AcDbSymbolTableRecord
100
AcDbLayerTableRecord
  2
18_DATUM_CAMS_JOINTS
 70
0
 62
7
  6
CONTINUOUS
370
-3
390
F
  0
LAYER
  5
20C
100
AcDbSymbolTableRecord
100
AcDbLayerTableRecord
  2
19_DATUM_FUNCTIONAL
 70
0
 62
7
  6
CONTINUOUS
370
-3
390
F
  0
LAYER
  5
20D
100
AcDbSymbolTableRecord
100
AcDbLayerTableRecord
  2
20_DATUM_KINEMATIC_SCHEME
 70
0
 62
7
  6
CONTINUOUS
370
-3
390
F
  0
ENDTAB
  0
TABLE
  2
STYLE
  5
3
100
AcDbSymbolTable
 70
1
  0
STYLE
  5
11
100
AcDbSymbolTableRecord
100
AcDbTextStyleTableRecord
  2
STANDARD
 70
0
 40
0.0
 41
0.8
 50
0.0
 71
0
 42
0.2
  3
txt
  4

  0
STYLE
  5
20E
100
AcDbSymbolTableRecord
100
AcDbTextStyleTableRecord
  2
TEXTSTYLE_1
 70
0
 40
0.0
 41
0.8
 50
0.0
 71
0
 42
0.2
  3
gdt
  4

  0
ENDTAB
  0
TABLE
  2
VIEW
  5
6
100
AcDbSymbolTable
 70
0
  0
ENDTAB
  0
TABLE
  2
UCS
  5
7
100
AcDbSymbolTable
 70
0
  0
ENDTAB
  0
TABLE
  2
APPID
  5
9
100
AcDbSymbolTable
 70
1
  0
APPID
  5
20F
100
AcDbSymbolTableRecord
100
AcDbRegAppTableRecord
  2
ACAD
 70
0
  0
ENDTAB
  0
TABLE
  2
BLOCK_RECORD
  5
1
100
AcDbSymbolTable
 70
0
  0
BLOCK_RECORD
  5
210
100
AcDbSymbolTableRecord
100
AcDbBlockTableRecord
  2
*Model_Space
  0
BLOCK_RECORD
  5
211
100
AcDbSymbolTableRecord
100
AcDbBlockTableRecord
  2
*Paper_Space
  0
BLOCK_RECORD
  5
212
100
AcDbSymbolTableRecord
100
AcDbBlockTableRecord
  2
_FILLED
  0
ENDTAB
  0
TABLE
  2
DIMSTYLE
  5
A
100
AcDbSymbolTable
 70
1
100
AcDbDimStyleTable
 71
0
  0
DIMSTYLE
105
213
100
AcDbSymbolTableRecord
100
AcDbDimStyleTableRecord
  2
STANDARD
 70
0
  3

  4

 40
1.0
 41
0.7805633312
 42
1.0
 43
0.38
 44
1.0
 45
0.0
 46
0.0
 47
0.01
 48
0.01
140
1.0927886636
141
0.09
142
0.0
143
25.4
144
1.0
145
0.0
146
1.0
147
0.625
 71
1
 72
0
 73
0
 74
0
 75
0
 76
0
 77
1
 78
8
 79
2
170
0
171
1
172
0
173
0
174
0
175
0
176
0
177
0
178
0
270
2
179
2
271
2
272
2
273
2
274
2
275
0
280
0
281
0
282
0
283
1
284
8
285
0
286
0
287
3
288
0
340
11
278
46
341
212
342
212
343
212
344
212
  0
ENDTAB
  0
ENDSEC
  0
SECTION
  2
BLOCKS
  0
BLOCK
  5
20
100
AcDbEntity
  8
0
100
AcDbBlockBegin
  2
*Model_Space
 70
0
 10
0.0
 20
0.0
 30
0.0
  3
*Model_Space
  1

  0
ENDBLK
  5
21
100
AcDbEntity
  8
0
100
AcDbBlockEnd
  0
BLOCK
  5
1C
100
AcDbEntity
  8
0
100
AcDbBlockBegin
  2
*Paper_Space
 70
0
 10
0.0
 20
0.0
 30
0.0
  3
*Paper_Space
  1

  0
ENDBLK
  5
1D
100
AcDbEntity
  8
0
100
AcDbBlockEnd
  0
BLOCK
  5
214
100
AcDbEntity
  8
0
100
AcDbBlockBegin
  2
_FILLED
 70
64
 10
0.0
 20
0.0
  3
_FILLED
  1

  0
SOLID
  5
215
100
AcDbEntity
  8
0
  6
BYBLOCK
 62
0
100
AcDbTrace
 10
0.0
 20
0.0
 11
-1.0
 21
0.25
 12
-1.0
 22
-0.25
 13
-1.0
 23
-0.25
  0
ENDBLK
  5
216
100
AcDbEntity
  8
0
  6
BYBLOCK
 62
0
100
AcDbBlockEnd
  0
ENDSEC
  0
SECTION
  2
ENTITIES
  0
LINE
  5
217
100
AcDbEntity
  8
0
100
AcDbLine
 62
7
  6
CONTINUOUS
 10
23.316664261
 20
10.4890338702
 11
50.0276229203
 21
10.4890338702
  0
LINE
  5
218
100
AcDbEntity
  8
0
100
AcDbLine
 62
7
  6
CONTINUOUS
 10
23.4700449918
 20
14.2890338702
 11
21.6315673607
 21
14.2890338702
  0
LINE
  5
219
100
AcDbEntity
  8
0
100
AcDbLine
 62
7
  6
CONTINUOUS
 10
44.176314306
 20
14.6102499994
 11
51.0882830921
 21
14.6102499994
  0
LINE
  5
21A
100
AcDbEntity
  8
0
100
AcDbLine
 62
7
  6
CONTINUOUS
 10
45.0071647738
 20
16.6958294608
 11
49.4619374953
 21
16.6958294608
  0
LINE
  5
21B
100
AcDbEntity
  8
0
100
AcDbLine
 62
7
  6
CONTINUOUS
 10
49.4619374953
 20
20.2006119023
 11
45.0071647738
 21
20.2006119023
  0
LINE
  5
21C
100
AcDbEntity
  8
0
100
AcDbLine
 62
7
  6
CONTINUOUS
 10
23.4700449918
 20
14.2890338702
 11
25.0844312139
 21
12.166811648
  0
LINE
  5
21D
100
AcDbEntity
  8
0
100
AcDbLine
 62
7
  6
CONTINUOUS
 10
7.6205977181
 20
44.0890338702
 11
7.6205977181
 21
52.4890338702
  0
LINE
  5
21E
100
AcDbEntity
  8
0
100
AcDbLine
 62
7
  6
CONTINUOUS
 10
8.7043026277
 20
44.0890338702
 11
8.7043026277
 21
52.4890338702
  0
LINE
  5
21F
100
AcDbEntity
  8
0
100
AcDbLine
 62
7
  6
CONTINUOUS
 10
44.176314306
 20
20.4760561764
 11
51.0882830921
 21
20.4760561764
  0
LINE
  5
220
100
AcDbEntity
  8
0
100
AcDbLine
 62
7
  6
CONTINUOUS
 10
11.0293384088
 20
44.0890338702
 11
11.0293384088
 21
40.0890338702
  0
LINE
  5
221
100
AcDbEntity
  8
0
100
AcDbLine
 62
7
  6
CONTINUOUS
 10
12.5535654274
 20
47.0890338702
 11
12.5535654274
 21
48.0890338702
  0
LINE
  5
222
100
AcDbEntity
  8
0
100
AcDbLine
 62
7
  6
CONTINUOUS
 10
12.9929052556
 20
47.0890338702
 11
12.9929052556
 21
48.0890338702
  0
LINE
  5
223
100
AcDbEntity
  8
0
100
AcDbLine
 62
7
  6
CONTINUOUS
 10
13.8944664016
 20
40.0890338702
 11
13.8944664016
 21
35.0890338702
  0
LINE
  5
224
100
AcDbEntity
  8
0
100
AcDbLine
 62
7
  6
CONTINUOUS
 10
21.548897308
 20
14.6102499994
 11
21.6315673607
 21
14.2890338702
  0
LINE
  5
225
100
AcDbEntity
  8
0
100
AcDbLine
 62
7
  6
CONTINUOUS
 10
22.3386741419
 20
14.2890338702
 11
23.316664261
 21
10.4890338702
  0
LINE
  5
226
100
AcDbEntity
  8
0
100
AcDbLine
 62
7
  6
CONTINUOUS
 10
18.2108173824
 20
63.6882833144
 11
18.2108173824
 21
62.0890338702
  0
LINE
  5
227
100
AcDbEntity
  8
0
100
AcDbLine
 62
7
  6
CONTINUOUS
 10
18.3492391231
 20
35.0890338702
 11
18.3492391231
 21
34.0890338702
  0
LINE
  5
228
100
AcDbEntity
  8
0
100
AcDbLine
 62
7
  6
CONTINUOUS
 10
18.8158173824
 20
62.0890338702
 11
18.8158173824
 21
60.8890338702
  0
LINE
  5
229
100
AcDbEntity
  8
0
100
AcDbLine
 62
7
  6
CONTINUOUS
 10
48.5239814604
 20
33.5890338702
 11
43.9465046021
 21
32.4053924839
  0
LINE
  5
22A
100
AcDbEntity
  8
0
100
AcDbLine
 62
7
  6
CONTINUOUS
 10
38.276652294
 20
30.2890338702
 11
42.0799545901
 21
30.2890338702
  0
LINE
  5
22B
100
AcDbEntity
  8
0
100
AcDbLine
 62
7
  6
CONTINUOUS
 10
38.4265513277
 20
30.6733723948
 11
37.7194445465
 21
30.6733723948
  0
LINE
  5
22C
100
AcDbEntity
  8
0
100
AcDbLine
 62
7
  6
CONTINUOUS
 10
42.9742327779
 20
30.8714209607
 11
46.2331362607
 21
30.8714209607
  0
LINE
  5
22D
100
AcDbEntity
  8
0
100
AcDbLine
 62
7
  6
CONTINUOUS
 10
30.6528971158
 20
31.0890338702
 11
46.2319826206
 21
31.0890338702
  0
LINE
  5
22E
100
AcDbEntity
  8
0
100
AcDbLine
 62
7
  6
CONTINUOUS
 10
50.2320388286
 20
31.0890338702
 11
57.6078076146
 21
31.0890338702
  0
LINE
  5
22F
100
AcDbEntity
  8
0
100
AcDbLine
 62
7
  6
CONTINUOUS
 10
58.1593509039
 20
31.5393670801
 11
53.7045781824
 21
31.5393670801
  0
LINE
  5
230
100
AcDbEntity
  8
0
100
AcDbLine
 62
7
  6
CONTINUOUS
 10
41.4716308679
 20
31.5393670801
 11
37.0168581464
 21
31.5393670801
  0
LINE
  5
231
100
AcDbEntity
  8
0
100
AcDbLine
 62
7
  6
CONTINUOUS
 10
43.2393978209
 20
31.8280422147
 11
41.8251842585
 21
31.8280422147
  0
LINE
  5
232
100
AcDbEntity
  8
0
100
AcDbLine
 62
7
  6
CONTINUOUS
 10
20.2097412967
 20
60.8890338702
 11
20.2097412967
 21
62.0890338702
  0
LINE
  5
233
100
AcDbEntity
  8
0
100
AcDbLine
 62
7
  6
CONTINUOUS
 10
20.3165877949
 20
60.8890338702
 11
20.3165877949
 21
62.0890338702
  0
LINE
  5
234
100
AcDbEntity
  8
0
100
AcDbLine
 62
7
  6
CONTINUOUS
 10
20.5958173824
 20
60.8890338702
 11
20.5958173824
 21
59.8498033856
  0
LINE
  5
235
100
AcDbEntity
  8
0
100
AcDbLine
 62
7
  6
CONTINUOUS
 10
21.548897308
 20
31.1890338702
 11
21.548897308
 21
14.6102499994
  0
LINE
  5
236
100
AcDbEntity
  8
0
100
AcDbLine
 62
7
  6
CONTINUOUS
 10
21.8317400205
 20
34.0890338702
 11
21.8317400205
 21
31.5890338702
  0
LINE
  5
237
100
AcDbEntity
  8
0
100
AcDbLine
 62
7
  6
CONTINUOUS
 10
22.1658173824
 20
57.4890338702
 11
22.1658173824
 21
53.0890338702
  0
LINE
  5
238
100
AcDbEntity
  8
0
100
AcDbLine
 62
7
  6
CONTINUOUS
 10
54.7652383542
 20
32.4053924839
 11
53.3510247919
 21
32.4053924839
  0
LINE
  5
239
100
AcDbEntity
  8
0
100
AcDbLine
 62
7
  6
CONTINUOUS
 10
48.5239814604
 20
33.5890338702
 11
51.6728653226
 21
33.5890338702
  0
LINE
  5
23A
100
AcDbEntity
  8
0
100
AcDbLine
 62
7
  6
CONTINUOUS
 10
28.7758021969
 20
33.9890338702
 11
27.5628520054
 21
33.9890338702
  0
LINE
  5
23B
100
AcDbEntity
  8
0
100
AcDbLine
 62
7
  6
CONTINUOUS
 10
29.026551519
 20
34.0890338702
 11
28.7758021969
 21
34.0890338702
  0
LINE
  5
23C
100
AcDbEntity
  8
0
100
AcDbLine
 62
7
  6
CONTINUOUS
 10
18.3492391231
 20
34.0890338702
 11
27.5628520054
 21
34.0890338702
  0
LINE
  5
23D
100
AcDbEntity
  8
0
100
AcDbLine
 62
7
  6
CONTINUOUS
 10
27.3158173824
 20
35.3890338702
 11
27.1158173824
 21
35.5890338702
  0
LINE
  5
23E
100
AcDbEntity
  8
0
100
AcDbLine
 62
7
  6
CONTINUOUS
 10
27.3127386391
 20
35.4268848955
 11
27.3504456298
 21
35.3890338702
  0
LINE
  5
23F
100
AcDbEntity
  8
0
100
AcDbLine
 62
7
  6
CONTINUOUS
 10
23.7267568371
 20
58.4337984831
 11
23.7043666018
 21
59.8472150847
  0
LINE
  5
240
100
AcDbEntity
  8
0
100
AcDbLine
 62
7
  6
CONTINUOUS
 10
22.4658173824
 20
58.1390338702
 11
22.4658173824
 21
57.5890338702
  0
LINE
  5
241
100
AcDbEntity
  8
0
100
AcDbLine
 62
7
  6
CONTINUOUS
 10
22.7924193159
 20
58.4390338692
 11
22.7924193159
 21
60.8217779031
  0
LINE
  5
242
100
AcDbEntity
  8
0
100
AcDbLine
 62
7
  6
CONTINUOUS
 10
22.8080952779
 20
58.4390338692
 11
22.8080952779
 21
60.8642861282
  0
LINE
  5
243
100
AcDbEntity
  8
0
100
AcDbLine
 62
7
  6
CONTINUOUS
 10
22.9790977552
 20
76.9399495629
 11
22.9790977552
 21
64.4882833144
  0
LINE
  5
244
100
AcDbEntity
  8
0
100
AcDbLine
 62
7
  6
CONTINUOUS
 10
23.0908173824
 20
80.9459955066
 11
23.0908173824
 21
77.6190338702
  0
LINE
  5
245
100
AcDbEntity
  8
0
100
AcDbLine
 62
7
  6
CONTINUOUS
 10
23.2793588892
 20
60.8642861282
 11
23.2793588892
 21
58.4390338702
  0
LINE
  5
246
100
AcDbEntity
  8
0
100
AcDbLine
 62
7
  6
CONTINUOUS
 10
23.5418230562
 20
58.4390129045
 11
23.5418230562
 21
60.3393057623
  0
LINE
  5
247
100
AcDbEntity
  8
0
100
AcDbLine
 62
7
  6
CONTINUOUS
 10
23.8823496859
 20
10.4890338702
 11
23.8823496859
 21
11.2890338702
  0
LINE
  5
248
100
AcDbEntity
  8
0
100
AcDbLine
 62
7
  6
CONTINUOUS
 10
25.0158173824
 20
77.6190338702
 11
25.0158173824
 21
77.2890338702
  0
LINE
  5
249
100
AcDbEntity
  8
0
100
AcDbLine
 62
7
  6
CONTINUOUS
 10
25.0844312139
 20
11.666811648
 11
25.0844312139
 21
12.166811648
  0
LINE
  5
24A
100
AcDbEntity
  8
0
100
AcDbLine
 62
7
  6
CONTINUOUS
 10
26.4307810698
 20
35.0890338702
 11
26.1801719229
 21
35.0890338702
  0
LINE
  5
24B
100
AcDbEntity
  8
0
100
AcDbLine
 62
7
  6
CONTINUOUS
 10
13.8944664016
 20
35.0890338702
 11
18.3492391231
 21
35.0890338702
  0
LINE
  5
24C
100
AcDbEntity
  8
0
100
AcDbLine
 62
7
  6
CONTINUOUS
 10
28.4302248002
 20
35.1890338702
 11
27.3158173824
 21
35.1890338702
  0
LINE
  5
24D
100
AcDbEntity
  8
0
100
AcDbLine
 62
7
  6
CONTINUOUS
 10
27.3158173824
 20
35.3890338702
 11
27.3504456298
 21
35.3890338702
  0
LINE
  5
24E
100
AcDbEntity
  8
0
100
AcDbLine
 62
7
  6
CONTINUOUS
 10
23.3212189807
 20
35.5890338702
 11
28.2133787207
 21
35.5890338702
  0
LINE
  5
24F
100
AcDbEntity
  8
0
100
AcDbLine
 62
7
  6
CONTINUOUS
 10
50.0866418932
 20
35.7606162656
 11
51.099974736
 21
35.7606162656
  0
LINE
  5
250
100
AcDbEntity
  8
0
100
AcDbLine
 62
7
  6
CONTINUOUS
 10
34.74112945
 20
37.3890338702
 11
58.1593509039
 21
37.3890338702
  0
LINE
  5
251
100
AcDbEntity
  8
0
100
AcDbLine
 62
7
  6
CONTINUOUS
 10
28.2133787207
 20
35.5890338702
 11
30.6528971158
 21
31.0890338702
  0
LINE
  5
252
100
AcDbEntity
  8
0
100
AcDbLine
 62
7
  6
CONTINUOUS
 10
27.5628520054
 20
34.4649728063
 11
27.1039559977
 21
35.5890338702
  0
LINE
  5
253
100
AcDbEntity
  8
0
100
AcDbLine
 62
7
  6
CONTINUOUS
 10
28.8749692577
 20
34.368646509
 11
28.9891206395
 21
34.0890338702
  0
LINE
  5
254
100
AcDbEntity
  8
0
100
AcDbLine
 62
7
  6
CONTINUOUS
 10
26.7987692056
 20
58.4337984831
 11
26.7813002094
 21
59.8472150847
  0
LINE
  5
255
100
AcDbEntity
  8
0
100
AcDbLine
 62
7
  6
CONTINUOUS
 10
25.4837613072
 20
52.4890338702
 11
25.4837613072
 21
52.8871153492
  0
LINE
  5
256
100
AcDbEntity
  8
0
100
AcDbLine
 62
7
  6
CONTINUOUS
 10
25.5352439429
 20
58.4390338692
 11
25.5352439429
 21
60.7194644769
  0
LINE
  5
257
100
AcDbEntity
  8
0
100
AcDbLine
 62
7
  6
CONTINUOUS
 10
25.5885831336
 20
58.4390338692
 11
25.5885831336
 21
60.8642861282
  0
LINE
  5
258
100
AcDbEntity
  8
0
100
AcDbLine
 62
7
  6
CONTINUOUS
 10
25.6009185947
 20
52.4890338702
 11
25.6009185947
 21
52.7699580617
  0
LINE
  5
259
100
AcDbEntity
  8
0
100
AcDbLine
 62
7
  6
CONTINUOUS
 10
26.3770812309
 20
60.8642861282
 11
26.3770812309
 21
58.4390338702
  0
LINE
  5
25A
100
AcDbEntity
  8
0
100
AcDbLine
 62
7
  6
CONTINUOUS
 10
26.6544827585
 20
58.4390201334
 11
26.6544827585
 21
60.3393057623
  0
LINE
  5
25B
100
AcDbEntity
  8
0
100
AcDbLine
 62
7
  6
CONTINUOUS
 10
27.3127386391
 20
35.5890338702
 11
27.3127386391
 21
35.4268848955
  0
LINE
  5
25C
100
AcDbEntity
  8
0
100
AcDbLine
 62
7
  6
CONTINUOUS
 10
27.3158173824
 20
35.3890338702
 11
27.3158173824
 21
35.1890338702
  0
LINE
  5
25D
100
AcDbEntity
  8
0
100
AcDbLine
 62
7
  6
CONTINUOUS
 10
27.3504456298
 20
35.5890338702
 11
27.3504456298
 21
35.3890338702
  0
LINE
  5
25E
100
AcDbEntity
  8
0
100
AcDbLine
 62
7
  6
CONTINUOUS
 10
27.5628520054
 20
35.1890338702
 11
27.5628520054
 21
33.9890338702
  0
LINE
  5
25F
100
AcDbEntity
  8
0
100
AcDbLine
 62
7
  6
CONTINUOUS
 10
27.7650568333
 20
48.0890338702
 11
27.7650568333
 21
47.0890338702
  0
LINE
  5
260
100
AcDbEntity
  8
0
100
AcDbLine
 62
7
  6
CONTINUOUS
 10
27.9075171061
 20
33.9890338702
 11
27.9075171061
 21
35.1890338702
  0
LINE
  5
261
100
AcDbEntity
  8
0
100
AcDbLine
 62
7
  6
CONTINUOUS
 10
22.8179379907
 20
34.0890338702
 11
23.3212189807
 21
35.5890338702
  0
LINE
  5
262
100
AcDbEntity
  8
0
100
AcDbLine
 62
7
  6
CONTINUOUS
 10
33.6227455967
 20
38.8890338702
 11
46.1906321671
 21
38.8890338702
  0
LINE
  5
263
100
AcDbEntity
  8
0
100
AcDbLine
 62
7
  6
CONTINUOUS
 10
50.1906883752
 20
38.8890338702
 11
54.7652383542
 21
38.8890338702
  0
LINE
  5
264
100
AcDbEntity
  8
0
100
AcDbLine
 62
7
  6
CONTINUOUS
 10
11.0293384088
 20
40.0890338702
 11
59.7094784478
 21
40.0890338702
  0
LINE
  5
265
100
AcDbEntity
  8
0
100
AcDbLine
 62
7
  6
CONTINUOUS
 10
22.7924193159
 20
60.4788552988
 11
22.6520747503
 21
60.8890338702
  0
LINE
  5
266
100
AcDbEntity
  8
0
100
AcDbLine
 62
7
  6
CONTINUOUS
 10
22.6785432685
 20
60.8890338702
 11
22.7924193159
 21
60.5562921509
  0
LINE
  5
267
100
AcDbEntity
  8
0
100
AcDbLine
 62
7
  6
CONTINUOUS
 10
31.0307395167
 20
58.4337984831
 11
31.0202987785
 21
59.8472150847
  0
LINE
  5
268
100
AcDbEntity
  8
0
100
AcDbLine
 62
7
  6
CONTINUOUS
 10
28.5119333409
 20
47.0890338702
 11
28.5119333409
 21
48.0890338702
  0
LINE
  5
269
100
AcDbEntity
  8
0
100
AcDbLine
 62
7
  6
CONTINUOUS
 10
28.7758021969
 20
34.551572686
 11
28.7758021969
 21
33.9890338702
  0
LINE
  5
26A
100
AcDbEntity
  8
0
100
AcDbLine
 62
7
  6
CONTINUOUS
 10
29.3926552252
 20
62.0890338702
 11
29.3926552252
 21
60.8890338702
  0
LINE
  5
26B
100
AcDbEntity
  8
0
100
AcDbLine
 62
7
  6
CONTINUOUS
 10
29.5511908156
 20
62.0890338702
 11
29.5511908156
 21
60.8890338702
  0
LINE
  5
26C
100
AcDbEntity
  8
0
100
AcDbLine
 62
7
  6
CONTINUOUS
 10
29.5663033552
 20
58.4390338692
 11
29.5663033552
 21
60.5686253031
  0
LINE
  5
26D
100
AcDbEntity
  8
0
100
AcDbLine
 62
7
  6
CONTINUOUS
 10
29.6749952327
 20
58.4390338692
 11
29.6749952327
 21
60.8642861282
  0
LINE
  5
26E
100
AcDbEntity
  8
0
100
AcDbLine
 62
7
  6
CONTINUOUS
 10
29.7426302773
 20
47.0890338702
 11
29.7426302773
 21
48.0890338702
  0
LINE
  5
26F
100
AcDbEntity
  8
0
100
AcDbLine
 62
7
  6
CONTINUOUS
 10
30.6856233084
 20
60.8642861282
 11
30.6856233084
 21
58.4390338702
  0
LINE
  5
270
100
AcDbEntity
  8
0
100
AcDbLine
 62
7
  6
CONTINUOUS
 10
30.9445034784
 20
58.439020138
 11
30.9445034784
 21
60.3393057623
  0
LINE
  5
271
100
AcDbEntity
  8
0
100
AcDbLine
 62
7
  6
CONTINUOUS
 10
26.5736259118
 20
35.5890338702
 11
26.1450913857
 21
34.0890338702
  0
LINE
  5
272
100
AcDbEntity
  8
0
100
AcDbLine
 62
7
  6
CONTINUOUS
 10
34.74112945
 20
37.3890338702
 11
33.6227455967
 21
38.8890338702
  0
LINE
  5
273
100
AcDbEntity
  8
0
100
AcDbLine
 62
7
  6
CONTINUOUS
 10
20.6762021402
 20
59.5498033856
 11
21.4041077593
 21
58.2890338702
  0
LINE
  5
274
100
AcDbEntity
  8
0
100
AcDbLine
 62
7
  6
CONTINUOUS
 10
37.7194445465
 20
30.6733723948
 11
37.4898113816
 21
31.0890338702
  0
LINE
  5
275
100
AcDbEntity
  8
0
100
AcDbLine
 62
7
  6
CONTINUOUS
 10
38.1969181628
 20
31.0890338702
 11
38.4265513277
 21
30.6733723948
  0
LINE
  5
276
100
AcDbEntity
  8
0
100
AcDbLine
 62
7
  6
CONTINUOUS
 10
23.7043666018
 20
59.8472150847
 11
23.5418230562
 21
60.3393057623
  0
LINE
  5
277
100
AcDbEntity
  8
0
100
AcDbLine
 62
7
  6
CONTINUOUS
 10
26.7813002094
 20
59.8472150847
 11
26.6544827585
 21
60.3393057623
  0
LINE
  5
278
100
AcDbEntity
  8
0
100
AcDbLine
 62
7
  6
CONTINUOUS
 10
31.2367851002
 20
52.955059274
 11
31.2367851002
 21
52.4890338702
  0
LINE
  5
279
100
AcDbEntity
  8
0
100
AcDbLine
 62
7
  6
CONTINUOUS
 10
33.6227455967
 20
38.8890338702
 11
33.6227455967
 21
40.0890338702
  0
LINE
  5
27A
100
AcDbEntity
  8
0
100
AcDbLine
 62
7
  6
CONTINUOUS
 10
33.654295642
 20
52.4890338702
 11
33.654295642
 21
40.0890338702
  0
LINE
  5
27B
100
AcDbEntity
  8
0
100
AcDbLine
 62
7
  6
CONTINUOUS
 10
21.8317400205
 20
31.5890338702
 11
21.548897308
 21
31.1890338702
  0
LINE
  5
27C
100
AcDbEntity
  8
0
100
AcDbLine
 62
7
  6
CONTINUOUS
 10
7.620800651
 20
44.0890338702
 11
11.0293384088
 21
44.0890338702
  0
LINE
  5
27D
100
AcDbEntity
  8
0
100
AcDbLine
 62
7
  6
CONTINUOUS
 10
53.3510247919
 20
32.4053924839
 11
51.6728653226
 21
33.5890338702
  0
LINE
  5
27E
100
AcDbEntity
  8
0
100
AcDbLine
 62
7
  6
CONTINUOUS
 10
31.0202987785
 20
59.8472150847
 11
30.9445034784
 21
60.3393057623
  0
LINE
  5
27F
100
AcDbEntity
  8
0
100
AcDbLine
 62
7
  6
CONTINUOUS
 10
34.7212128491
 20
40.0890338702
 11
34.7212128491
 21
52.4890338702
  0
LINE
  5
280
100
AcDbEntity
  8
0
100
AcDbLine
 62
7
  6
CONTINUOUS
 10
34.9116563175
 20
52.955059274
 11
34.9116563175
 21
52.4890338702
  0
LINE
  5
281
100
AcDbEntity
  8
0
100
AcDbLine
 62
7
  6
CONTINUOUS
 10
35.249195796
 20
52.4890338702
 11
35.249195796
 21
52.8456991055
  0
LINE
  5
282
100
AcDbEntity
  8
0
100
AcDbLine
 62
7
  6
CONTINUOUS
 10
37.0168581464
 20
37.3890338702
 11
37.0168581464
 21
31.5393670801
  0
LINE
  5
283
100
AcDbEntity
  8
0
100
AcDbLine
 62
7
  6
CONTINUOUS
 10
59.7480939799
 20
47.0890338702
 11
59.7095361673
 21
47.0890338702
  0
LINE
  5
284
100
AcDbEntity
  8
0
100
AcDbLine
 62
7
  6
CONTINUOUS
 10
12.5536475677
 20
47.0890338702
 11
29.7426302773
 21
47.0890338702
  0
LINE
  5
285
100
AcDbEntity
  8
0
100
AcDbLine
 62
7
  6
CONTINUOUS
 10
39.7460267495
 20
47.0890338702
 11
45.3098477662
 21
47.0890338702
  0
LINE
  5
286
100
AcDbEntity
  8
0
100
AcDbLine
 62
7
  6
CONTINUOUS
 10
52.5413964107
 20
47.0890338702
 11
57.002551207
 21
47.0890338702
  0
LINE
  5
287
100
AcDbEntity
  8
0
100
AcDbLine
 62
7
  6
CONTINUOUS
 10
12.5536477059
 20
48.0890338702
 11
29.7426302773
 21
48.0890338702
  0
LINE
  5
288
100
AcDbEntity
  8
0
100
AcDbLine
 62
7
  6
CONTINUOUS
 10
39.7460267495
 20
48.0890338702
 11
45.3098477662
 21
48.0890338702
  0
LINE
  5
289
100
AcDbEntity
  8
0
100
AcDbLine
 62
7
  6
CONTINUOUS
 10
52.5413964107
 20
48.0890338702
 11
57.0025509694
 21
48.0890338702
  0
LINE
  5
28A
100
AcDbEntity
  8
0
100
AcDbLine
 62
7
  6
CONTINUOUS
 10
59.7095361673
 20
48.0890338702
 11
59.7480939799
 21
48.0890338702
  0
LINE
  5
28B
100
AcDbEntity
  8
0
100
AcDbLine
 62
7
  6
CONTINUOUS
 10
48.3004201358
 20
37.3890338702
 11
50.0866418932
 21
35.7606162656
  0
LINE
  5
28C
100
AcDbEntity
  8
0
100
AcDbLine
 62
7
  6
CONTINUOUS
 10
44.176314306
 20
20.4760561764
 11
41.3728478089
 21
30.2890338702
  0
LINE
  5
28D
100
AcDbEntity
  8
0
100
AcDbLine
 62
7
  6
CONTINUOUS
 10
39.7460267495
 20
47.0890338702
 11
39.7460267495
 21
48.0890338702
  0
LINE
  5
28E
100
AcDbEntity
  8
0
100
AcDbLine
 62
7
  6
CONTINUOUS
 10
7.6208006517
 20
52.4890338702
 11
59.7094784478
 21
52.4890338702
  0
LINE
  5
28F
100
AcDbEntity
  8
0
100
AcDbLine
 62
7
  6
CONTINUOUS
 10
42.0799545901
 20
30.2890338702
 11
41.8514028428
 21
31.0890338702
  0
LINE
  5
290
100
AcDbEntity
  8
0
100
AcDbLine
 62
7
  6
CONTINUOUS
 10
42.9120630146
 20
31.0890338702
 11
42.9742327779
 21
30.8714209607
  0
LINE
  5
291
100
AcDbEntity
  8
0
100
AcDbLine
 62
7
  6
CONTINUOUS
 10
40.4417160493
 20
48.0890338702
 11
40.4417160493
 21
47.0890338702
  0
LINE
  5
292
100
AcDbEntity
  8
0
100
AcDbLine
 62
7
  6
CONTINUOUS
 10
41.2370454813
 20
47.0890338702
 11
41.2370454813
 21
48.0890338702
  0
LINE
  5
293
100
AcDbEntity
  8
0
100
AcDbLine
 62
7
  6
CONTINUOUS
 10
41.4716308679
 20
37.3890338702
 11
41.4716308679
 21
31.5393670801
  0
LINE
  5
294
100
AcDbEntity
  8
0
100
AcDbLine
 62
7
  6
CONTINUOUS
 10
41.8251842585
 20
37.3890338702
 11
41.8251842585
 21
31.8280422147
  0
LINE
  5
295
100
AcDbEntity
  8
0
100
AcDbLine
 62
7
  6
CONTINUOUS
 10
42.4711313172
 20
60.339307179
 11
42.4711318035
 21
58.4389909816
  0
LINE
  5
296
100
AcDbEntity
  8
0
100
AcDbLine
 62
7
  6
CONTINUOUS
 10
42.7341180831
 20
58.4390338692
 11
42.7341180831
 21
60.8642861282
  0
LINE
  5
297
100
AcDbEntity
  8
0
100
AcDbLine
 62
7
  6
CONTINUOUS
 10
42.9742327779
 20
30.8714209607
 11
42.9742327779
 21
31.0890338702
  0
LINE
  5
298
100
AcDbEntity
  8
0
100
AcDbLine
 62
7
  6
CONTINUOUS
 10
42.3883178683
 20
59.8472150847
 11
42.3769104059
 21
58.4337968545
  0
LINE
  5
299
100
AcDbEntity
  8
0
100
AcDbLine
 62
7
  6
CONTINUOUS
 10
42.4711313172
 20
60.339307179
 11
42.3883178683
 21
59.8472150847
  0
LINE
  5
29A
100
AcDbEntity
  8
0
100
AcDbLine
 62
7
  6
CONTINUOUS
 10
31.2367851002
 20
52.955059274
 11
34.9116563175
 21
52.955059274
  0
LINE
  5
29B
100
AcDbEntity
  8
0
100
AcDbLine
 62
7
  6
CONTINUOUS
 10
50.6658018244
 20
53.0890338702
 11
22.1658329405
 21
53.0890338702
  0
LINE
  5
29C
100
AcDbEntity
  8
0
100
AcDbLine
 62
7
  6
CONTINUOUS
 10
45.5363835246
 20
24.4136628242
 11
45.52313089
 21
26.9135277798
  0
LINE
  5
29D
100
AcDbEntity
  8
0
100
AcDbLine
 62
7
  6
CONTINUOUS
 10
43.2393978209
 20
37.3890338702
 11
43.2393978209
 21
31.8280422147
  0
LINE
  5
29E
100
AcDbEntity
  8
0
100
AcDbLine
 62
7
  6
CONTINUOUS
 10
43.7232280348
 20
60.8642861282
 11
43.7232280348
 21
58.4390338702
  0
LINE
  5
29F
100
AcDbEntity
  8
0
100
AcDbLine
 62
7
  6
CONTINUOUS
 10
43.8242451611
 20
60.58957315
 11
43.8242451611
 21
58.4390338702
  0
LINE
  5
2A0
100
AcDbEntity
  8
0
100
AcDbLine
 62
7
  6
CONTINUOUS
 10
43.8298091353
 20
48.0890338702
 11
43.8298091353
 21
47.0890338702
  0
LINE
  5
2A1
100
AcDbEntity
  8
0
100
AcDbLine
 62
7
  6
CONTINUOUS
 10
43.9465046021
 20
37.3890338702
 11
43.9465046021
 21
32.4053924839
  0
LINE
  5
2A2
100
AcDbEntity
  8
0
100
AcDbLine
 62
7
  6
CONTINUOUS
 10
44.176314306
 20
14.6102499994
 11
44.176314306
 21
20.4760561764
  0
LINE
  5
2A3
100
AcDbEntity
  8
0
100
AcDbLine
 62
7
  6
CONTINUOUS
 10
45.0071647738
 20
20.2006119023
 11
45.0071647738
 21
16.6958294608
  0
LINE
  5
2A4
100
AcDbEntity
  8
0
100
AcDbLine
 62
7
  6
CONTINUOUS
 10
45.3098477662
 20
47.0890338702
 11
45.3098477662
 21
48.0890338702
  0
LINE
  5
2A5
100
AcDbEntity
  8
0
100
AcDbLine
 62
7
  6
CONTINUOUS
 10
45.5873730577
 20
53.0890338702
 11
45.5873733871
 21
52.4890338702
  0
LINE
  5
2A6
100
AcDbEntity
  8
0
100
AcDbLine
 62
7
  6
CONTINUOUS
 10
48.979604732
 20
60.3393071789
 11
48.8205050308
 21
59.8472150847
  0
LINE
  5
2A7
100
AcDbEntity
  8
0
100
AcDbLine
 62
7
  6
CONTINUOUS
 10
50.1795600361
 20
60.8890338702
 11
49.8488276308
 21
59.9224178553
  0
LINE
  5
2A8
100
AcDbEntity
  8
0
100
AcDbLine
 62
7
  6
CONTINUOUS
 10
49.7965370449
 20
59.8472149518
 11
49.8250637514
 21
59.9305523237
  0
LINE
  5
2A9
100
AcDbEntity
  8
0
100
AcDbLine
 62
7
  6
CONTINUOUS
 10
52.1554326247
 20
59.5498033856
 11
51.4275270056
 21
58.2890338702
  0
LINE
  5
2AA
100
AcDbEntity
  8
0
100
AcDbLine
 62
7
  6
CONTINUOUS
 10
22.1658173824
 20
57.4890338702
 11
50.6658173824
 21
57.4890338702
  0
LINE
  5
2AB
100
AcDbEntity
  8
0
100
AcDbLine
 62
7
  6
CONTINUOUS
 10
22.2658327953
 20
57.5890338702
 11
50.5658173824
 21
57.5890338702
  0
LINE
  5
2AC
100
AcDbEntity
  8
0
100
AcDbLine
 62
7
  6
CONTINUOUS
 10
21.6639165233
 20
58.1390338702
 11
51.1677182416
 21
58.1390338702
  0
LINE
  5
2AD
100
AcDbEntity
  8
0
100
AcDbLine
 62
7
  6
CONTINUOUS
 10
51.4275270056
 20
58.2890338702
 11
50.7618700493
 21
58.2890338702
  0
LINE
  5
2AE
100
AcDbEntity
  8
0
100
AcDbLine
 62
7
  6
CONTINUOUS
 10
37.9889482265
 20
58.2890338702
 11
34.8426787528
 21
58.2890338702
  0
LINE
  5
2AF
100
AcDbEntity
  8
0
100
AcDbLine
 62
7
  6
CONTINUOUS
 10
22.0697645242
 20
58.2890338702
 11
21.4041077593
 21
58.2890338702
  0
LINE
  5
2B0
100
AcDbEntity
  8
0
100
AcDbLine
 62
7
  6
CONTINUOUS
 10
23.742286287
 20
58.3390343899
 11
23.6325587153
 21
58.3390354674
  0
LINE
  5
2B1
100
AcDbEntity
  8
0
100
AcDbLine
 62
7
  6
CONTINUOUS
 10
26.8108853755
 20
58.3390343906
 11
26.725275283
 21
58.3390354683
  0
LINE
  5
2B2
100
AcDbEntity
  8
0
100
AcDbLine
 62
7
  6
CONTINUOUS
 10
31.0379810181
 20
58.3390343899
 11
30.9868142109
 21
58.3390354674
  0
LINE
  5
2B3
100
AcDbEntity
  8
0
100
AcDbLine
 62
7
  6
CONTINUOUS
 10
48.8908268493
 20
58.3390338702
 11
48.783409155
 21
58.3390338702
  0
LINE
  5
2B4
100
AcDbEntity
  8
0
100
AcDbLine
 62
7
  6
CONTINUOUS
 10
42.4249164766
 20
58.3390338702
 11
42.3689983726
 21
58.3390338702
  0
LINE
  5
2B5
100
AcDbEntity
  8
0
100
AcDbLine
 62
7
  6
CONTINUOUS
 10
50.6625564248
 20
58.4337981482
 11
49.7798816805
 21
58.4337981482
  0
LINE
  5
2B6
100
AcDbEntity
  8
0
100
AcDbLine
 62
7
  6
CONTINUOUS
 10
48.7987534128
 20
58.4337981482
 11
43.824247803
 21
58.4337981482
  0
LINE
  5
2B7
100
AcDbEntity
  8
0
100
AcDbLine
 62
7
  6
CONTINUOUS
 10
42.3769104163
 20
58.4337981482
 11
38.2950490884
 21
58.4337981482
  0
LINE
  5
2B8
100
AcDbEntity
  8
0
100
AcDbLine
 62
7
  6
CONTINUOUS
 10
34.5365869499
 20
58.4337981482
 11
31.0307395192
 21
58.4337981482
  0
LINE
  5
2B9
100
AcDbEntity
  8
0
100
AcDbLine
 62
7
  6
CONTINUOUS
 10
29.5663033552
 20
58.4337981482
 11
26.7987692097
 21
58.4337981482
  0
LINE
  5
2BA
100
AcDbEntity
  8
0
100
AcDbLine
 62
7
  6
CONTINUOUS
 10
25.5352439429
 20
58.4337981482
 11
23.7267568424
 21
58.4337981482
  0
LINE
  5
2BB
100
AcDbEntity
  8
0
100
AcDbLine
 62
7
  6
CONTINUOUS
 10
22.7924193159
 20
58.4337981482
 11
22.1690783114
 21
58.4337981482
  0
LINE
  5
2BC
100
AcDbEntity
  8
0
100
AcDbLine
 62
7
  6
CONTINUOUS
 10
49.7798774697
 20
58.4390338702
 11
48.9796051992
 21
58.4390338692
  0
LINE
  5
2BD
100
AcDbEntity
  8
0
100
AcDbLine
 62
7
  6
CONTINUOUS
 10
43.8242451611
 20
58.4390338702
 11
42.4711315603
 21
58.4390338692
  0
LINE
  5
2BE
100
AcDbEntity
  8
0
100
AcDbLine
 62
7
  6
CONTINUOUS
 10
30.9445034784
 20
58.4390338702
 11
29.5663033553
 21
58.4390338692
  0
LINE
  5
2BF
100
AcDbEntity
  8
0
100
AcDbLine
 62
7
  6
CONTINUOUS
 10
26.6544827585
 20
58.4390338702
 11
25.5352439429
 21
58.4390338692
  0
LINE
  5
2C0
100
AcDbEntity
  8
0
100
AcDbLine
 62
7
  6
CONTINUOUS
 10
23.5418230562
 20
58.4390338702
 11
22.7924193159
 21
58.4390338692
  0
LINE
  5
2C1
100
AcDbEntity
  8
0
100
AcDbLine
 62
7
  6
CONTINUOUS
 10
49.9619743759
 20
24.4184761482
 11
51.0882830921
 21
20.4760561764
  0
LINE
  5
2C2
100
AcDbEntity
  8
0
100
AcDbLine
 62
7
  6
CONTINUOUS
 10
46.1317028121
 20
31.171258265
 11
46.1422681506
 21
31.0890338702
  0
LINE
  5
2C3
100
AcDbEntity
  8
0
100
AcDbLine
 62
7
  6
CONTINUOUS
 10
46.2381946941
 20
29.917240831
 11
46.2300376663
 21
31.4559136092
  0
LINE
  5
2C4
100
AcDbEntity
  8
0
100
AcDbLine
 62
7
  6
CONTINUOUS
 10
46.1985841774
 20
37.3890338702
 11
46.1842705589
 21
40.0890338702
  0
LINE
  5
2C5
100
AcDbEntity
  8
0
100
AcDbLine
 62
7
  6
CONTINUOUS
 10
46.4540950452
 20
26.9184631375
 11
46.4382312287
 21
29.9108793851
  0
LINE
  5
2C6
100
AcDbEntity
  8
0
100
AcDbLine
 62
7
  6
CONTINUOUS
 10
47.199091193
 20
52.8456991055
 11
47.199091193
 21
52.4890338702
  0
LINE
  5
2C7
100
AcDbEntity
  8
0
100
AcDbLine
 62
7
  6
CONTINUOUS
 10
47.3162484805
 20
52.4890338702
 11
47.3162484805
 21
52.8554903721
  0
LINE
  5
2C8
100
AcDbEntity
  8
0
100
AcDbLine
 62
7
  6
CONTINUOUS
 10
47.8158173824
 20
77.6190338702
 11
47.8158173824
 21
77.2890338702
  0
LINE
  5
2C9
100
AcDbEntity
  8
0
100
AcDbLine
 62
7
  6
CONTINUOUS
 10
48.047723933
 20
16.6958294608
 11
48.047723933
 21
20.2006119023
  0
LINE
  5
2CA
100
AcDbEntity
  8
0
100
AcDbLine
 62
7
  6
CONTINUOUS
 10
48.4330850268
 20
52.4890338702
 11
48.4330850268
 21
40.0890338702
  0
LINE
  5
2CB
100
AcDbEntity
  8
0
100
AcDbLine
 62
7
  6
CONTINUOUS
 10
48.8205050308
 20
59.8472150847
 11
48.7986246245
 21
58.4337981482
  0
LINE
  5
2CC
100
AcDbEntity
  8
0
100
AcDbLine
 62
7
  6
CONTINUOUS
 10
36.4653148571
 20
31.0890338702
 11
37.0168581464
 21
31.5393670801
  0
LINE
  5
2CD
100
AcDbEntity
  8
0
100
AcDbLine
 62
7
  6
CONTINUOUS
 10
20.6762021402
 20
59.5498033856
 11
22.1640340325
 21
59.5498033856
  0
LINE
  5
2CE
100
AcDbEntity
  8
0
100
AcDbLine
 62
7
  6
CONTINUOUS
 10
33.8713822399
 20
59.5498033856
 11
38.9602524937
 21
59.5498033856
  0
LINE
  5
2CF
100
AcDbEntity
  8
0
100
AcDbLine
 62
7
  6
CONTINUOUS
 10
50.6676005423
 20
59.5498033856
 11
52.1554326247
 21
59.5498033856
  0
LINE
  5
2D0
100
AcDbEntity
  8
0
100
AcDbLine
 62
7
  6
CONTINUOUS
 10
45.041071433
 20
59.8390338702
 11
47.9402084961
 21
59.8390338702
  0
LINE
  5
2D1
100
AcDbEntity
  8
0
100
AcDbLine
 62
7
  6
CONTINUOUS
 10
48.8203762193
 20
59.8472150847
 11
47.9745054858
 21
59.8472150847
  0
LINE
  5
2D2
100
AcDbEntity
  8
0
100
AcDbLine
 62
7
  6
CONTINUOUS
 10
44.9952976172
 20
59.8472150847
 11
43.8242451611
 21
59.8472150847
  0
LINE
  5
2D3
100
AcDbEntity
  8
0
100
AcDbLine
 62
7
  6
CONTINUOUS
 10
42.3883178683
 20
59.8472150847
 11
41.723084597
 21
59.8472150847
  0
LINE
  5
2D4
100
AcDbEntity
  8
0
100
AcDbLine
 62
7
  6
CONTINUOUS
 10
31.1085500673
 20
59.8472150847
 11
31.0202987785
 21
59.8472150847
  0
LINE
  5
2D5
100
AcDbEntity
  8
0
100
AcDbLine
 62
7
  6
CONTINUOUS
 10
29.5663033552
 20
59.8472150847
 11
26.7813002094
 21
59.8472150847
  0
LINE
  5
2D6
100
AcDbEntity
  8
0
100
AcDbLine
 62
7
  6
CONTINUOUS
 10
25.5352439429
 20
59.8472150847
 11
23.7043666018
 21
59.8472150847
  0
LINE
  5
2D7
100
AcDbEntity
  8
0
100
AcDbLine
 62
7
  6
CONTINUOUS
 10
52.2358173824
 20
59.8498033856
 11
50.6405527816
 21
59.8498033856
  0
LINE
  5
2D8
100
AcDbEntity
  8
0
100
AcDbLine
 62
7
  6
CONTINUOUS
 10
39.0666154319
 20
59.8498033856
 11
33.7650215664
 21
59.8498033856
  0
LINE
  5
2D9
100
AcDbEntity
  8
0
100
AcDbLine
 62
7
  6
CONTINUOUS
 10
22.1910861979
 20
59.8498033856
 11
20.5958173824
 21
59.8498033856
  0
LINE
  5
2DA
100
AcDbEntity
  8
0
100
AcDbLine
 62
7
  6
CONTINUOUS
 10
48.1103491076
 20
60.0390338702
 11
47.60922205
 21
60.0390338702
  0
LINE
  5
2DB
100
AcDbEntity
  8
0
100
AcDbLine
 62
7
  6
CONTINUOUS
 10
22.8080953173
 20
60.8642861282
 11
23.2793585673
 21
60.8642861282
  0
LINE
  5
2DC
100
AcDbEntity
  8
0
100
AcDbLine
 62
7
  6
CONTINUOUS
 10
25.5885832026
 20
60.8642861282
 11
26.3770807139
 21
60.8642861282
  0
LINE
  5
2DD
100
AcDbEntity
  8
0
100
AcDbLine
 62
7
  6
CONTINUOUS
 10
29.674995323
 20
60.8642861282
 11
30.6856226586
 21
60.8642861282
  0
LINE
  5
2DE
100
AcDbEntity
  8
0
100
AcDbLine
 62
7
  6
CONTINUOUS
 10
42.7341181744
 20
60.8642861282
 11
43.7232274222
 21
60.8642861282
  0
LINE
  5
2DF
100
AcDbEntity
  8
0
100
AcDbLine
 62
7
  6
CONTINUOUS
 10
49.2457423955
 20
60.8642861282
 11
49.7606400941
 21
60.8642861282
  0
LINE
  5
2E0
100
AcDbEntity
  8
0
100
AcDbLine
 62
7
  6
CONTINUOUS
 10
18.8158891983
 20
60.8890338702
 11
54.0158319795
 21
60.8890338702
  0
LINE
  5
2E1
100
AcDbEntity
  8
0
100
AcDbLine
 62
7
  6
CONTINUOUS
 10
54.7652383542
 20
38.8890338702
 11
55.8836222075
 21
37.3890338702
  0
LINE
  5
2E2
100
AcDbEntity
  8
0
100
AcDbLine
 62
7
  6
CONTINUOUS
 10
50.0540444587
 20
26.937547694
 11
50.0381813604
 21
29.9298284715
  0
LINE
  5
2E3
100
AcDbEntity
  8
0
100
AcDbLine
 62
7
  6
CONTINUOUS
 10
50.2381384869
 20
29.9384458937
 11
50.2214959997
 21
33.0777439989
  0
LINE
  5
2E4
100
AcDbEntity
  8
0
100
AcDbLine
 62
7
  6
CONTINUOUS
 10
50.1986403854
 20
37.3890338702
 11
50.1843270555
 21
40.0889794366
  0
LINE
  5
2E5
100
AcDbEntity
  8
0
100
AcDbLine
 62
7
  6
CONTINUOUS
 10
50.9982612485
 20
24.4426180961
 11
50.9850086139
 21
26.9424830516
  0
LINE
  5
2E6
100
AcDbEntity
  8
0
100
AcDbLine
 62
7
  6
CONTINUOUS
 10
48.979604732
 20
60.3393071789
 11
48.9796056663
 21
58.4389909815
  0
LINE
  5
2E7
100
AcDbEntity
  8
0
100
AcDbLine
 62
7
  6
CONTINUOUS
 10
49.2457423455
 20
58.4390338692
 11
49.2457423455
 21
60.8642861282
  0
LINE
  5
2E8
100
AcDbEntity
  8
0
100
AcDbLine
 62
7
  6
CONTINUOUS
 10
49.4619374953
 20
16.6958294608
 11
49.4619374953
 21
20.2006119023
  0
LINE
  5
2E9
100
AcDbEntity
  8
0
100
AcDbLine
 62
7
  6
CONTINUOUS
 10
49.7408173824
 20
80.9459955066
 11
49.7408173824
 21
77.6190338702
  0
LINE
  5
2EA
100
AcDbEntity
  8
0
100
AcDbLine
 62
7
  6
CONTINUOUS
 10
49.7606403957
 20
60.8642861282
 11
49.7606403957
 21
58.4390338702
  0
LINE
  5
2EB
100
AcDbEntity
  8
0
100
AcDbLine
 62
7
  6
CONTINUOUS
 10
49.7798774697
 20
60.8121150828
 11
49.7798774697
 21
58.4390338702
  0
LINE
  5
2EC
100
AcDbEntity
  8
0
100
AcDbLine
 62
7
  6
CONTINUOUS
 10
49.8525370096
 20
76.9399495629
 11
49.8525370096
 21
64.4882833144
  0
LINE
  5
2ED
100
AcDbEntity
  8
0
100
AcDbLine
 62
7
  6
CONTINUOUS
 10
50.0866418932
 20
35.7606162656
 11
50.0866418932
 21
33.5890338702
  0
LINE
  5
2EE
100
AcDbEntity
  8
0
100
AcDbLine
 62
7
  6
CONTINUOUS
 10
50.1945949444
 20
40.0890338702
 11
50.1945949444
 21
52.4890338702
  0
LINE
  5
2EF
100
AcDbEntity
  8
0
100
AcDbLine
 62
7
  6
CONTINUOUS
 10
50.3658173824
 20
58.1390338702
 11
50.3658173824
 21
57.5890338702
  0
LINE
  5
2F0
100
AcDbEntity
  8
0
100
AcDbLine
 62
7
  6
CONTINUOUS
 10
50.6658173824
 20
57.4890338702
 11
50.6658173824
 21
53.0890338702
  0
LINE
  5
2F1
100
AcDbEntity
  8
0
100
AcDbLine
 62
7
  6
CONTINUOUS
 10
51.0882830921
 20
20.4760561764
 11
51.0882830921
 21
14.6102499994
  0
LINE
  5
2F2
100
AcDbEntity
  8
0
100
AcDbLine
 62
7
  6
CONTINUOUS
 10
51.099974736
 20
33.5890338702
 11
51.099974736
 21
35.7606162656
  0
LINE
  5
2F3
100
AcDbEntity
  8
0
100
AcDbLine
 62
7
  6
CONTINUOUS
 10
43.1156541342
 20
10.4890338702
 11
44.176314306
 21
14.6102499994
  0
LINE
  5
2F4
100
AcDbEntity
  8
0
100
AcDbLine
 62
7
  6
CONTINUOUS
 10
41.4716308679
 20
31.5393670801
 11
41.8251842585
 21
31.8280422147
  0
LINE
  5
2F5
100
AcDbEntity
  8
0
100
AcDbLine
 62
7
  6
CONTINUOUS
 10
43.2393978209
 20
31.8280422147
 11
43.9465046021
 21
32.4053924839
  0
LINE
  5
2F6
100
AcDbEntity
  8
0
100
AcDbLine
 62
7
  6
CONTINUOUS
 10
54.6208072958
 20
62.0890338702
 11
18.210827469
 21
62.0890338702
  0
LINE
  5
2F7
100
AcDbEntity
  8
0
100
AcDbLine
 62
7
  6
CONTINUOUS
 10
18.2108173824
 20
63.6882833144
 11
54.6208173824
 21
63.6882833144
  0
LINE
  5
2F8
100
AcDbEntity
  8
0
100
AcDbLine
 62
7
  6
CONTINUOUS
 10
18.6110439749
 20
64.0882833144
 11
54.2205907899
 21
64.0882833144
  0
LINE
  5
2F9
100
AcDbEntity
  8
0
100
AcDbLine
 62
7
  6
CONTINUOUS
 10
49.8525370096
 20
64.4882833144
 11
22.9790977552
 21
64.4882833144
  0
LINE
  5
2FA
100
AcDbEntity
  8
0
100
AcDbLine
 62
7
  6
CONTINUOUS
 10
52.2358173824
 20
60.8890338702
 11
52.2358173824
 21
59.8498033856
  0
LINE
  5
2FB
100
AcDbEntity
  8
0
100
AcDbLine
 62
7
  6
CONTINUOUS
 10
52.5413964107
 20
48.0890338702
 11
52.5413964107
 21
47.0890338702
  0
LINE
  5
2FC
100
AcDbEntity
  8
0
100
AcDbLine
 62
7
  6
CONTINUOUS
 10
53.3510247919
 20
37.3890338702
 11
53.3510247919
 21
32.4053924839
  0
LINE
  5
2FD
100
AcDbEntity
  8
0
100
AcDbLine
 62
7
  6
CONTINUOUS
 10
53.8813548777
 20
47.0890338702
 11
53.8813548777
 21
48.0890338702
  0
LINE
  5
2FE
100
AcDbEntity
  8
0
100
AcDbLine
 62
7
  6
CONTINUOUS
 10
54.0158173824
 20
62.0890338702
 11
54.0158173824
 21
60.8890338702
  0
LINE
  5
2FF
100
AcDbEntity
  8
0
100
AcDbLine
 62
7
  6
CONTINUOUS
 10
54.6208173824
 20
63.6882833144
 11
54.6208173824
 21
62.0890338702
  0
LINE
  5
300
100
AcDbEntity
  8
0
100
AcDbLine
 62
7
  6
CONTINUOUS
 10
54.7652383542
 20
37.3890338702
 11
54.7652383542
 21
32.4053924839
  0
LINE
  5
301
100
AcDbEntity
  8
0
100
AcDbLine
 62
7
  6
CONTINUOUS
 10
54.7652383542
 20
38.8890338702
 11
54.7652383542
 21
40.0890338702
  0
LINE
  5
302
100
AcDbEntity
  8
0
100
AcDbLine
 62
7
  6
CONTINUOUS
 10
51.099974736
 20
35.7606162656
 11
51.7548256614
 21
37.3890338702
  0
LINE
  5
303
100
AcDbEntity
  8
0
100
AcDbLine
 62
7
  6
CONTINUOUS
 10
45.5234252398
 20
26.9138889771
 11
45.5231716548
 21
26.9135279962
  0
LINE
  5
304
100
AcDbEntity
  8
0
100
AcDbLine
 62
7
  6
CONTINUOUS
 10
56.7097820025
 20
48.0890338702
 11
56.7097820025
 21
47.0890338702
  0
LINE
  5
305
100
AcDbEntity
  8
0
100
AcDbLine
 62
7
  6
CONTINUOUS
 10
57.0026752213
 20
47.0890338702
 11
57.0026752213
 21
48.0890338702
  0
LINE
  5
306
100
AcDbEntity
  8
0
100
AcDbLine
 62
7
  6
CONTINUOUS
 10
50.2380982173
 20
29.9384456799
 11
50.2379229232
 21
29.938181375
  0
LINE
  5
307
100
AcDbEntity
  8
0
100
AcDbLine
 62
7
  6
CONTINUOUS
 10
58.1593509039
 20
37.3890338702
 11
58.1593509039
 21
31.5393670801
  0
LINE
  5
308
100
AcDbEntity
  8
0
100
AcDbLine
 62
7
  6
CONTINUOUS
 10
59.1237497297
 20
52.4890338702
 11
59.1237497297
 21
40.0890338702
  0
LINE
  5
309
100
AcDbEntity
  8
0
100
AcDbLine
 62
7
  6
CONTINUOUS
 10
59.7095361673
 20
40.0890338702
 11
59.7095361673
 21
52.4890338702
  0
LINE
  5
30A
100
AcDbEntity
  8
0
100
AcDbLine
 62
7
  6
CONTINUOUS
 10
59.7483925308
 20
47.0890338702
 11
59.7483925308
 21
48.0890338702
  0
LINE
  5
30B
100
AcDbEntity
  8
0
100
AcDbLine
 62
7
  6
CONTINUOUS
 10
51.0882830921
 20
14.6102499994
 11
50.0276229203
 21
10.4890338702
  0
LINE
  5
30C
100
AcDbEntity
  8
0
100
AcDbLine
 62
7
  6
CONTINUOUS
 10
50.9982055841
 20
24.4426178005
 11
50.9979668986
 21
24.4422568988
  0
LINE
  5
30D
100
AcDbEntity
  8
0
100
AcDbLine
 62
7
  6
CONTINUOUS
 10
50.0540087464
 20
26.9375475043
 11
50.0538504514
 21
26.9373096271
  0
LINE
  5
30E
100
AcDbEntity
  8
0
100
AcDbLine
 62
7
  6
CONTINUOUS
 10
50.9847142641
 20
26.9421218544
 11
50.9849678492
 21
26.9424828353
  0
LINE
  5
30F
100
AcDbEntity
  8
0
100
AcDbLine
 62
7
  6
CONTINUOUS
 10
54.7652383542
 20
32.4053924839
 11
53.7045781824
 21
31.5393670801
  0
LINE
  5
310
100
AcDbEntity
  8
0
100
AcDbLine
 62
7
  6
CONTINUOUS
 10
58.1593509039
 20
31.5393670801
 11
57.6078076146
 21
31.0890338702
  0
LINE
  5
311
100
AcDbEntity
  8
0
100
AcDbLine
 62
7
  6
CONTINUOUS
 10
25.0844312139
 20
11.666811648
 11
23.8823496859
 21
11.2890338702
  0
LINE
  5
312
100
AcDbEntity
  8
0
100
AcDbLine
 62
7
  6
CONTINUOUS
 10
22.9790977552
 20
76.9399495629
 11
49.8525370096
 21
76.9399495629
  0
LINE
  5
313
100
AcDbEntity
  8
0
100
AcDbLine
 62
7
  6
CONTINUOUS
 10
23.3281959626
 20
77.2890338702
 11
49.5034527024
 21
77.2890338702
  0
LINE
  5
314
100
AcDbEntity
  8
0
100
AcDbLine
 62
7
  6
CONTINUOUS
 10
49.7408031488
 20
77.6190338702
 11
23.090831616
 21
77.6190338702
  0
LINE
  5
315
100
AcDbEntity
  8
0
100
AcDbLine
 62
7
  6
CONTINUOUS
 10
23.0908173824
 20
80.9459955066
 11
49.7408173824
 21
80.9459955066
  0
LINE
  5
316
100
AcDbEntity
  8
0
100
AcDbLine
 62
7
  6
CONTINUOUS
 10
49.4929118357
 20
81.2414378325
 11
23.3387229291
 21
81.2414378325
  0
LINE
  5
317
100
AcDbEntity
  8
0
100
AcDbLine
 62
7
  6
CONTINUOUS
 10
28.3158282
 20
82.1190338702
 11
44.5158065649
 21
82.1190338702
  0
LINE
  5
318
100
AcDbEntity
  8
0
100
AcDbLine
 62
7
  6
CONTINUOUS
 10
28.3158173824
 20
82.1190338702
 11
23.3387229291
 21
81.2414378325
  0
LINE
  5
319
100
AcDbEntity
  8
0
100
AcDbLine
 62
7
  6
CONTINUOUS
 10
28.8660184288
 20
82.4690338702
 11
43.9656163361
 21
82.4690338702
  0
LINE
  5
31A
100
AcDbEntity
  8
0
100
AcDbLine
 62
7
  6
CONTINUOUS
 10
44.5158173824
 20
82.1190338702
 11
49.4929118357
 21
81.2414378325
  0
ARC
  5
31B
100
AcDbEntity
  8
0
100
AcDbCircle
 62
7
  6
CONTINUOUS
 10
46.8423524471
 20
293.2723736343
 40
266.3725958658
100
AcDbArc
 50
269.9107069903
 51
270.6956628398
  0
ARC
  5
31C
100
AcDbEntity
  8
0
100
AcDbCircle
 62
7
  6
CONTINUOUS
 10
-185.6791526312
 20
62.4945279557
 40
219.3220276962
100
AcDbArc
 50
359.3099845346
 51
359.5017541947
  0
ARC
  5
31D
100
AcDbEntity
  8
0
100
AcDbCircle
 62
7
  6
CONTINUOUS
 10
-67.81948575
 20
61.8148726496
 40
101.4614943557
100
AcDbArc
 50
359.3067790009
 51
359.477167477
  0
ARC
  5
31E
100
AcDbEntity
  8
0
100
AcDbCircle
 62
7
  6
CONTINUOUS
 10
11.1182522641
 20
54.8171390312
 40
39.7093466923
100
AcDbArc
 50
5.2256429484
 51
6.7047014079
  0
ARC
  5
31F
100
AcDbEntity
  8
0
100
AcDbCircle
 62
7
  6
CONTINUOUS
 10
61.7133729652
 20
54.8171389155
 40
39.7093372353
100
AcDbArc
 50
173.2952967964
 51
174.7743556361
  0
ARC
  5
320
100
AcDbEntity
  8
0
100
AcDbCircle
 62
7
  6
CONTINUOUS
 10
21.905292131
 20
56.7570989729
 40
28.8974947283
100
AcDbArc
 50
3.5179196862
 51
5.5457700488
  0
ARC
  5
321
100
AcDbEntity
  8
0
100
AcDbCircle
 62
7
  6
CONTINUOUS
 10
50.0814417977
 20
56.8240679485
 40
28.0500812555
100
AcDbArc
 50
174.4235976907
 51
176.5127029779
  0
ARC
  5
322
100
AcDbEntity
  8
0
100
AcDbCircle
 62
7
  6
CONTINUOUS
 10
25.7040545087
 20
57.0120294932
 40
25.0903271556
100
AcDbArc
 50
2.9173944871
 51
3.4692159538
  0
ARC
  5
323
100
AcDbEntity
  8
0
100
AcDbCircle
 62
7
  6
CONTINUOUS
 10
46.8681768885
 20
57.026503322
 40
24.8305238484
100
AcDbArc
 50
176.5278836437
 51
177.0854951474
  0
ARC
  5
324
100
AcDbEntity
  8
0
100
AcDbCircle
 62
7
  6
CONTINUOUS
 10
40.7101655913
 20
50.1637091648
 40
19.9164514531
100
AcDbArc
 50
227.0438142652
 51
227.7256426357
  0
ARC
  5
325
100
AcDbEntity
  8
0
100
AcDbCircle
 62
7
  6
CONTINUOUS
 10
44.1947194736
 20
66.2631140229
 40
12.2901116767
100
AcDbArc
 50
218.9903985442
 51
220.4527917416
  0
ARC
  5
326
100
AcDbEntity
  8
0
100
AcDbCircle
 62
7
  6
CONTINUOUS
 10
28.6408532287
 20
66.260020996
 40
12.2850998631
100
AcDbArc
 50
319.5462447034
 51
321.009275674
  0
ARC
  5
327
100
AcDbEntity
  8
0
100
AcDbCircle
 62
7
  6
CONTINUOUS
 10
24.9158173824
 20
52.0890338702
 40
1.0
100
AcDbArc
 50
24.0
 51
90.0
  0
ARC
  5
328
100
AcDbEntity
  8
0
100
AcDbCircle
 62
7
  6
CONTINUOUS
 10
47.9158173824
 20
52.0890338702
 40
1.0
100
AcDbArc
 50
90.0
 51
156.0
  0
ARC
  5
329
100
AcDbEntity
  8
0
100
AcDbCircle
 62
7
  6
CONTINUOUS
 10
21.1957817181
 20
59.8497927882
 40
0.5999610237
100
AcDbArc
 50
179.9989879561
 51
210.0009804155
  0
ARC
  5
32A
100
AcDbEntity
  8
0
100
AcDbCircle
 62
7
  6
CONTINUOUS
 10
51.6358530468
 20
59.8497927882
 40
0.5999610237
100
AcDbArc
 50
329.9990195845
 51
0.0010120439
  0
ARC
  5
32B
100
AcDbEntity
  8
0
100
AcDbCircle
 62
7
  6
CONTINUOUS
 10
43.9658173824
 20
82.0690338702
 40
0.4
100
AcDbArc
 50
7.1807557815
 51
90.0
  0
ARC
  5
32C
100
AcDbEntity
  8
0
100
AcDbCircle
 62
7
  6
CONTINUOUS
 10
28.8658173824
 20
82.0690338702
 40
0.4
100
AcDbArc
 50
90.0
 51
172.8192442185
  0
ARC
  5
32D
100
AcDbEntity
  8
0
100
AcDbCircle
 62
7
  6
CONTINUOUS
 10
50.2525370096
 20
64.4882833144
 40
0.4
100
AcDbArc
 50
180.0
 51
270.0
  0
ARC
  5
32E
100
AcDbEntity
  8
0
100
AcDbCircle
 62
7
  6
CONTINUOUS
 10
22.5790977552
 20
64.4882833144
 40
0.4
100
AcDbArc
 50
270.0
 51
360.0
  0
ARC
  5
32F
100
AcDbEntity
  8
0
100
AcDbCircle
 62
7
  6
CONTINUOUS
 10
54.2208173824
 20
63.6882833144
 40
0.4
100
AcDbArc
 50
0.0
 51
90.0
  0
ARC
  5
330
100
AcDbEntity
  8
0
100
AcDbCircle
 62
7
  6
CONTINUOUS
 10
18.6108173824
 20
63.6882833144
 40
0.4
100
AcDbArc
 50
90.0
 51
180.0
  0
ARC
  5
331
100
AcDbEntity
  8
0
100
AcDbCircle
 62
7
  6
CONTINUOUS
 10
49.5034527024
 20
76.9399495629
 40
0.3490843072
100
AcDbArc
 50
0.0
 51
90.0
  0
ARC
  5
332
100
AcDbEntity
  8
0
100
AcDbCircle
 62
7
  6
CONTINUOUS
 10
23.3281820625
 20
76.9399495629
 40
0.3490843072
100
AcDbArc
 50
90.0
 51
180.0
  0
ARC
  5
333
100
AcDbEntity
  8
0
100
AcDbCircle
 62
7
  6
CONTINUOUS
 10
48.4653084591
 20
58.4387121571
 40
0.3333523865
100
AcDbArc
 50
342.6013823907
 51
359.1553617859
  0
ARC
  5
334
100
AcDbEntity
  8
0
100
AcDbCircle
 62
7
  6
CONTINUOUS
 10
24.0549073793
 20
58.4389196086
 40
0.3281905
100
AcDbArc
 50
180.8940867754
 51
197.7191432695
  0
ARC
  5
335
100
AcDbEntity
  8
0
100
AcDbCircle
 62
7
  6
CONTINUOUS
 10
21.6639165233
 20
58.4390338702
 40
0.3
100
AcDbArc
 50
210.000014677
 51
270.0
  0
ARC
  5
336
100
AcDbEntity
  8
0
100
AcDbCircle
 62
7
  6
CONTINUOUS
 10
51.1677182416
 20
58.4390338702
 40
0.3
100
AcDbArc
 50
270.0
 51
329.999985323
  0
ARC
  5
337
100
AcDbEntity
  8
0
100
AcDbCircle
 62
7
  6
CONTINUOUS
 10
49.4408173824
 20
80.9459955066
 40
0.3
100
AcDbArc
 50
0.0
 51
79.9999999999
  0
ARC
  5
338
100
AcDbEntity
  8
0
100
AcDbCircle
 62
7
  6
CONTINUOUS
 10
23.3908173824
 20
80.9459955066
 40
0.3
100
AcDbArc
 50
100.0000000001
 51
180.0
  0
ARC
  5
339
100
AcDbEntity
  8
0
100
AcDbCircle
 62
7
  6
CONTINUOUS
 10
22.2658173824
 20
57.4890338702
 40
0.1
100
AcDbArc
 50
90.0
 51
180.0
  0
ARC
  5
33A
100
AcDbEntity
  8
0
100
AcDbCircle
 62
7
  6
CONTINUOUS
 10
50.5658173824
 20
57.4890338702
 40
0.1
100
AcDbArc
 50
0.0
 51
90.0
  0
SPLINE
  5
33B
100
AcDbEntity
  8
0
100
AcDbSpline
 62
7
  6
CONTINUOUS
 70
0
 71
3
 72
18
 73
14
 74
0
 42
0.0000001
 43
0.0000001
 44
0.0000000001
 40
0.0
 40
0.0
 40
0.0
 40
0.0
 40
0.0085247908
 40
0.0242116675
 40
0.0471670369
 40
0.0774055271
 40
0.1149210467
 40
0.1597002786
 40
0.2709817404
 40
0.4110575247
 40
0.5795423859
 40
0.7760019927
 40
1.0
 40
1.0
 40
1.0
 40
1.0
 10
50.2379229232
 20
29.938181375
 30
0.0
 10
50.2375259957
 20
29.9379375836
 30
0.0
 10
50.2362033251
 20
29.9376387112
 30
0.0
 10
50.2336858434
 20
29.9371954448
 30
0.0
 10
50.2299339141
 20
29.9367706173
 30
0.0
 10
50.2250028422
 20
29.9363141156
 30
0.0
 10
50.2188688805
 20
29.9358555846
 30
0.0
 10
50.2083135372
 20
29.9351814689
 30
0.0
 10
50.1921518053
 20
29.9343572266
 30
0.0
 10
50.1692306208
 20
29.9333993035
 30
0.0
 10
50.141651979
 20
29.9324238451
 30
0.0
 10
50.1094858061
 20
29.9314332732
 30
0.0
 10
50.0865193899
 20
29.9308063162
 30
0.0
 10
50.0742836806
 20
29.9304881339
 30
0.0
  0
LINE
  5
33C
100
AcDbEntity
  8
0
100
AcDbLine
 62
7
  6
CONTINUOUS
 10
50.0742836806
 20
29.9304881339
 11
50.0485707281
 21
29.9298416113
  0
SPLINE
  5
33D
100
AcDbEntity
  8
0
100
AcDbSpline
 62
7
  6
CONTINUOUS
 70
0
 71
3
 72
17
 73
13
 74
0
 42
0.0000001
 43
0.0000001
 44
0.0000000001
 40
0.0
 40
0.0
 40
0.0
 40
0.0
 40
0.0381716709
 40
0.0856109563
 40
0.2043096812
 40
0.3466048552
 40
0.5011063129
 40
0.6554537176
 40
0.7973001792
 40
0.9152948121
 40
0.9623026187
 40
1.0
 40
1.0
 40
1.0
 40
1.0
 10
50.0485707281
 20
29.9298416113
 30
0.0
 10
50.0024384839
 20
29.9287186671
 30
0.0
 10
49.8989644374
 20
29.9265826
 30
0.0
 10
49.6520076826
 20
29.9224583765
 30
0.0
 10
49.2791684918
 20
29.9178389478
 30
0.0
 10
48.7768948435
 20
29.9132398376
 30
0.0
 10
48.2315155955
 20
29.9096991655
 30
0.0
 10
47.686671767
 20
29.9074925073
 30
0.0
 10
47.1859574083
 20
29.9068039814
 30
0.0
 10
46.8150054698
 20
29.9075014052
 30
0.0
 10
46.5699652399
 20
29.9090342989
 30
0.0
 10
46.4675695159
 20
29.910086487
 30
0.0
 10
46.4220014964
 20
29.9107282515
 30
0.0
  0
SPLINE
  5
33E
100
AcDbEntity
  8
0
100
AcDbSpline
 62
7
  6
CONTINUOUS
 70
0
 71
3
 72
20
 73
16
 74
0
 42
0.0000001
 43
0.0000001
 44
0.0000000001
 40
0.0
 40
0.0
 40
0.0
 40
0.0
 40
0.2311506704
 40
0.4328336245
 40
0.6045288239
 40
0.7457648451
 40
0.804814748
 40
0.8560787147
 40
0.8995295242
 40
0.9351550581
 40
0.9629478324
 40
0.9829120608
 40
0.9950938292
 40
0.9983510991
 40
1.0
 40
1.0
 40
1.0
 40
1.0
 10
46.4220014964
 20
29.9107282515
 30
0.0
 10
46.4078141239
 20
29.9109280616
 30
0.0
 10
46.381248471
 20
29.9113359087
 30
0.0
 10
46.3441470046
 20
29.9120339442
 30
0.0
 10
46.3125668245
 20
29.9127743419
 30
0.0
 10
46.289743395
 20
29.9134552056
 30
0.0
 10
46.2743131697
 20
29.9140388235
 30
0.0
 10
46.2648843675
 20
29.9144586648
 30
0.0
 10
46.2568934524
 20
29.9148871683
 30
0.0
 10
46.2503517537
 20
29.9153188927
 30
0.0
 10
46.2452408784
 20
29.915760364
 30
0.0
 10
46.2416104883
 20
29.9161800954
 30
0.0
 10
46.2394274663
 20
29.9165914619
 30
0.0
 10
46.2384716524
 20
29.9169096169
 30
0.0
 10
46.2381973225
 20
29.9171396327
 30
0.0
 10
46.2381959168
 20
29.9172408378
 30
0.0
  0
SPLINE
  5
33F
100
AcDbEntity
  8
0
100
AcDbSpline
 62
7
  6
CONTINUOUS
 70
0
 71
3
 72
26
 73
22
 74
0
 42
0.0000001
 43
0.0000001
 44
0.0000000001
 40
0.0
 40
0.0
 40
0.0
 40
0.0
 40
0.000439443
 40
0.0012950194
 40
0.004483788
 40
0.0097058742
 40
0.0169748295
 40
0.0262925845
 40
0.0376578197
 40
0.051067729
 40
0.0665140305
 40
0.1034620036
 40
0.148391974
 40
0.2011923605
 40
0.261728533
 40
0.3298188067
 40
0.4052754726
 40
0.4879068731
 40
0.5774815132
 40
0.7764396835
 40
1.0
 40
1.0
 40
1.0
 40
1.0
 10
50.9850071599
 20
26.9424830437
 30
0.0
 10
50.9850054722
 20
26.9426155367
 30
0.0
 10
50.9846582188
 20
26.9429199143
 30
0.0
 10
50.9834258096
 20
26.9433440263
 30
0.0
 10
50.9806260101
 20
26.9438878713
 30
0.0
 10
50.975960534
 20
26.9444456909
 30
0.0
 10
50.9693967676
 20
26.9450311529
 30
0.0
 10
50.9609928234
 20
26.9456046796
 30
0.0
 10
50.9507266634
 20
26.94617412
 30
0.0
 10
50.9386121901
 20
26.9467325752
 30
0.0
 10
50.9187853266
 20
26.9475097619
 30
0.0
 10
50.8894532883
 20
26.9484182271
 30
0.0
 10
50.8488560561
 20
26.949408619
 30
0.0
 10
50.8011435571
 20
26.950345091
 30
0.0
 10
50.746445525
 20
26.9512242486
 30
0.0
 10
50.6849144267
 20
26.9520426174
 30
0.0
 10
50.6167197784
 20
26.952797178
 30
0.0
 10
50.5420460262
 20
26.953484957
 30
0.0
 10
50.430133391
 20
26.9543403057
 30
0.0
 10
50.2757259593
 20
26.9552023587
 30
0.0
 10
50.148326138
 20
26.9556532338
 30
0.0
 10
50.0809170195
 20
26.9558383334
 30
0.0
  0
SPLINE
  5
340
100
AcDbEntity
  8
0
100
AcDbSpline
 62
7
  6
CONTINUOUS
 70
0
 71
3
 72
23
 73
19
 74
0
 42
0.0000001
 43
0.0000001
 44
0.0000000001
 40
0.0
 40
0.0
 40
0.0
 40
0.0
 40
0.2199018521
 40
0.4161213561
 40
0.5865926357
 40
0.6615888714
 40
0.729498362
 40
0.7901307303
 40
0.8433158129
 40
0.8889289514
 40
0.9268521829
 40
0.9569712132
 40
0.9690796735
 40
0.9792141751
 40
0.9873709099
 40
0.9935479014
 40
0.9977484769
 40
1.0
 40
1.0
 40
1.0
 40
1.0
 10
46.4316759776
 20
26.936529755
 30
0.0
 10
46.3650695303
 20
26.9356431111
 30
0.0
 10
46.2390310804
 20
26.9338673149
 30
0.0
 10
46.061364192
 20
26.9310071428
 30
0.0
 10
45.9275920018
 20
26.9285137454
 30
0.0
 10
45.8326859381
 20
26.926484029
 30
0.0
 10
45.7710474883
 20
26.9250335501
 30
0.0
 10
45.7160177627
 20
26.9235937088
 30
0.0
 10
45.6677442625
 20
26.9221683914
 30
0.0
 10
45.6263522479
 20
26.920764539
 30
0.0
 10
45.5919517167
 20
26.9193860029
 30
0.0
 10
45.5676999459
 20
26.9182006595
 30
0.0
 10
45.5518693365
 20
26.9172306032
 30
0.0
 10
45.5426811716
 20
26.9165718425
 30
0.0
 10
45.5353057161
 20
26.9159146708
 30
0.0
 10
45.5297049082
 20
26.9153077434
 30
0.0
 10
45.5259677142
 20
26.9146666522
 30
0.0
 10
45.5240064027
 20
26.9142459253
 30
0.0
 10
45.5234252398
 20
26.9138889771
 30
0.0
  0
SPLINE
  5
341
100
AcDbEntity
  8
0
100
AcDbSpline
 62
7
  6
CONTINUOUS
 70
0
 71
3
 72
55
 73
51
 74
0
 42
0.0000001
 43
0.0000001
 44
0.0000000001
 40
0.0
 40
0.0
 40
0.0
 40
0.0
 40
0.0003467184
 40
0.000983717
 40
0.0019153815
 40
0.0031423618
 40
0.0046644615
 40
0.0064811892
 40
0.0109959359
 40
0.0166779535
 40
0.023511684
 40
0.0314805844
 40
0.0405678902
 40
0.0507523704
 40
0.0620075344
 40
0.0876222382
 40
0.1171709814
 40
0.150370758
 40
0.1869063246
 40
0.2264281533
 40
0.2685591801
 40
0.3128978517
 40
0.4064879803
 40
0.5036354712
 40
0.6006425162
 40
0.6479358168
 40
0.6938167603
 40
0.7378492473
 40
0.7796114944
 40
0.818706991
 40
0.8547612154
 40
0.8874310889
 40
0.9164043708
 40
0.9294179075
 40
0.9414053764
 40
0.9523402461
 40
0.9621971695
 40
0.9709508633
 40
0.9785795808
 40
0.9850676115
 40
0.9903999299
 40
0.9926280661
 40
0.9945619807
 40
0.9962010422
 40
0.9975449445
 40
0.9985935899
 40
0.999347417
 40
0.999808775
 40
0.9999336726
 40
1.0
 40
1.0
 40
1.0
 40
1.0
 10
50.9979668986
 20
24.4422568988
 30
0.0
 10
50.9974289319
 20
24.4419264815
 30
0.0
 10
50.9956389219
 20
24.4415195986
 30
0.0
 10
50.992232272
 20
24.4409179705
 30
0.0
 10
50.9871582528
 20
24.4403406187
 30
0.0
 10
50.9804907344
 20
24.4397207668
 30
0.0
 10
50.9721976291
 20
24.43909805
 30
0.0
 10
50.9579273806
 20
24.4381827111
 30
0.0
 10
50.9360793828
 20
24.437063756
 30
0.0
 10
50.9050961908
 20
24.4357631331
 30
0.0
 10
50.8678191633
 20
24.4344386123
 30
0.0
 10
50.8243390309
 20
24.4330935383
 30
0.0
 10
50.7747553669
 20
24.4317339205
 30
0.0
 10
50.7191860934
 20
24.4303633994
 30
0.0
 10
50.633526926
 20
24.4284426257
 30
0.0
 10
50.5126090564
 20
24.4260771656
 30
0.0
 10
50.3517325295
 20
24.4233552541
 30
0.0
 10
50.1709672608
 20
24.4206713706
 30
0.0
 10
49.9720394789
 20
24.4180525908
 30
0.0
 10
49.7568465153
 20
24.4155255487
 30
0.0
 10
49.5274428187
 20
24.4131149171
 30
0.0
 10
49.1995886919
 20
24.4100324825
 30
0.0
 10
48.7715543551
 20
24.4066624861
 30
0.0
 10
48.2476133884
 20
24.4034682755
 30
0.0
 10
47.8079681684
 20
24.4015438977
 30
0.0
 10
47.4616711019
 20
24.4004994513
 30
0.0
 10
47.2118336645
 20
24.3999845937
 30
0.0
 10
46.9720672456
 20
24.3997350635
 30
0.0
 10
46.7446562198
 20
24.399753683
 30
0.0
 10
46.5317728881
 20
24.4000389812
 30
0.0
 10
46.3354462935
 20
24.4005877907
 30
0.0
 10
46.1575521511
 20
24.4013933315
 30
0.0
 10
46.0216136248
 20
24.4022991509
 30
0.0
 10
45.923336356
 20
24.4031673851
 30
0.0
 10
45.8579047628
 20
24.4038540751
 30
0.0
 10
45.798222019
 20
24.4045972712
 30
0.0
 10
45.7444288791
 20
24.4053946349
 30
0.0
 10
45.6966574822
 20
24.4062438437
 30
0.0
 10
45.6550225458
 20
24.4071417411
 30
0.0
 10
45.619620367
 20
24.4080851614
 30
0.0
 10
45.5940538575
 20
24.4089461558
 30
0.0
 10
45.5767809591
 20
24.4096800121
 30
0.0
 10
45.5662312368
 20
24.410206306
 30
0.0
 10
45.5572926441
 20
24.4107416083
 30
0.0
 10
45.5499747296
 20
24.4112804249
 30
0.0
 10
45.5442614123
 20
24.4118280588
 30
0.0
 10
45.5401939193
 20
24.4123529179
 30
0.0
 10
45.537761975
 20
24.4128575174
 30
0.0
 10
45.5366796057
 20
24.4132597069
 30
0.0
 10
45.5363865521
 20
24.4135420679
 30
0.0
 10
45.536385
 20
24.4136628326
 30
0.0
  0
SPLINE
  5
342
100
AcDbEntity
  8
0
100
AcDbSpline
 62
7
  6
CONTINUOUS
 70
0
 71
3
 72
26
 73
22
 74
0
 42
0.0000001
 43
0.0000001
 44
0.0000000001
 40
0.0
 40
0.0
 40
0.0
 40
0.0
 40
0.000439443
 40
0.0012950194
 40
0.004483788
 40
0.0097058742
 40
0.0169748295
 40
0.0262925845
 40
0.0376578197
 40
0.051067729
 40
0.0665140305
 40
0.1034620036
 40
0.148391974
 40
0.2011923605
 40
0.261728533
 40
0.3298188067
 40
0.4052754726
 40
0.4879068731
 40
0.5774815132
 40
0.7764396835
 40
1.0
 40
1.0
 40
1.0
 40
1.0
 10
45.523132344
 20
26.9135277877
 30
0.0
 10
45.5231340318
 20
26.9133952948
 30
0.0
 10
45.5234812852
 20
26.9130909171
 30
0.0
 10
45.5247136944
 20
26.9126668051
 30
0.0
 10
45.5275134939
 20
26.9121229601
 30
0.0
 10
45.5321789699
 20
26.9115651405
 30
0.0
 10
45.5387427363
 20
26.9109796786
 30
0.0
 10
45.5471466806
 20
26.9104061518
 30
0.0
 10
45.5574128405
 20
26.9098367115
 30
0.0
 10
45.5695273139
 20
26.9092782562
 30
0.0
 10
45.5893541773
 20
26.9085010695
 30
0.0
 10
45.6186862157
 20
26.9075926043
 30
0.0
 10
45.6592834479
 20
26.9066022124
 30
0.0
 10
45.7069959468
 20
26.9056657404
 30
0.0
 10
45.7616939789
 20
26.9047865828
 30
0.0
 10
45.8232250772
 20
26.903968214
 30
0.0
 10
45.8914197256
 20
26.9032136534
 30
0.0
 10
45.9660934777
 20
26.9025258744
 30
0.0
 10
46.078006113
 20
26.9016705257
 30
0.0
 10
46.2324135446
 20
26.9008084727
 30
0.0
 10
46.3598133659
 20
26.9003575976
 30
0.0
 10
46.4272224845
 20
26.9001724981
 30
0.0
  0
SPLINE
  5
343
100
AcDbEntity
  8
0
100
AcDbSpline
 62
7
  6
CONTINUOUS
 70
0
 71
3
 72
23
 73
19
 74
0
 42
0.0000001
 43
0.0000001
 44
0.0000000001
 40
0.0
 40
0.0
 40
0.0
 40
0.0
 40
0.2199018521
 40
0.4161213561
 40
0.5865926357
 40
0.6615888714
 40
0.729498362
 40
0.7901307303
 40
0.8433158129
 40
0.8889289514
 40
0.9268521829
 40
0.9569712132
 40
0.9690796735
 40
0.9792141751
 40
0.9873709099
 40
0.9935479014
 40
0.9977484769
 40
1.0
 40
1.0
 40
1.0
 40
1.0
 10
50.0764635263
 20
26.9194810764
 30
0.0
 10
50.1430699736
 20
26.9203677203
 30
0.0
 10
50.2691084236
 20
26.9221435166
 30
0.0
 10
50.4467753119
 20
26.9250036886
 30
0.0
 10
50.5805475022
 20
26.9274970861
 30
0.0
 10
50.6754535659
 20
26.9295268024
 30
0.0
 10
50.7370920157
 20
26.9309772813
 30
0.0
 10
50.7921217413
 20
26.9324171226
 30
0.0
 10
50.8403952415
 20
26.93384244
 30
0.0
 10
50.8817872561
 20
26.9352462924
 30
0.0
 10
50.9161877873
 20
26.9366248285
 30
0.0
 10
50.940439558
 20
26.9378101719
 30
0.0
 10
50.9562701674
 20
26.9387802283
 30
0.0
 10
50.9654583324
 20
26.9394389889
 30
0.0
 10
50.9728337878
 20
26.9400961607
 30
0.0
 10
50.9784345957
 20
26.940703088
 30
0.0
 10
50.9821717897
 20
26.9413441792
 30
0.0
 10
50.9841331012
 20
26.9417649061
 30
0.0
 10
50.9847142641
 20
26.9421218544
 30
0.0
  0
SPLINE
  5
344
100
AcDbEntity
  8
0
100
AcDbSpline
 62
7
  6
CONTINUOUS
 70
0
 71
3
 72
54
 73
50
 74
0
 42
0.0000001
 43
0.0000001
 44
0.0000000001
 40
0.0
 40
0.0
 40
0.0
 40
0.0
 40
0.0003467299
 40
0.0009838147
 40
0.0019155973
 40
0.0031426846
 40
0.0046648383
 40
0.0064815247
 40
0.0109957531
 40
0.0166777399
 40
0.0235120783
 40
0.0314812538
 40
0.0405676695
 40
0.0507521318
 40
0.0620083402
 40
0.0876226331
 40
0.1171726232
 40
0.1503711244
 40
0.1869075417
 40
0.2264281994
 40
0.2685603274
 40
0.3128981018
 40
0.4064883372
 40
0.5036359212
 40
0.6006431542
 40
0.6479356522
 40
0.6938178275
 40
0.7378492805
 40
0.779613428
 40
0.8187078083
 40
0.8547639667
 40
0.8874326428
 40
0.9164082018
 40
0.929420886
 40
0.9414088051
 40
0.9523450138
 40
0.9622025886
 40
0.9709554808
 40
0.9785843626
 40
0.9850731094
 40
0.9904057149
 40
0.9926335535
 40
0.9945671894
 40
0.9962061436
 40
0.997550069
 40
0.9985988271
 40
0.9993528154
 40
0.9998143395
 40
1.0
 40
1.0
 40
1.0
 40
1.0
 10
50.0538504514
 20
26.9373096271
 30
0.0
 10
50.0534958653
 20
26.9370918415
 30
0.0
 10
50.0523159072
 20
26.9368237614
 30
0.0
 10
50.050070332
 20
26.9364272453
 30
0.0
 10
50.0467256523
 20
26.9360467567
 30
0.0
 10
50.0423307513
 20
26.9356382176
 30
0.0
 10
50.036864613
 20
26.935227782
 30
0.0
 10
50.027459688
 20
26.9346244775
 30
0.0
 10
50.0130603714
 20
26.9338867885
 30
0.0
 10
49.9926392518
 20
26.9330294906
 30
0.0
 10
49.9680689044
 20
26.9321565111
 30
0.0
 10
49.9394111167
 20
26.9312699997
 30
0.0
 10
49.9067312398
 20
26.93037379
 30
0.0
 10
49.8701053151
 20
26.929470524
 30
0.0
 10
49.8136465358
 20
26.9282047053
 30
0.0
 10
49.7339472043
 20
26.9266453447
 30
0.0
 10
49.6279138594
 20
26.924851565
 30
0.0
 10
49.5087703199
 20
26.923082374
 30
0.0
 10
49.3776587454
 20
26.9213566351
 30
0.0
 10
49.2358239295
 20
26.9196907904
 30
0.0
 10
49.084624898
 20
26.918102202
 30
0.0
 10
48.8685355687
 20
26.91607028
 30
0.0
 10
48.5864185757
 20
26.9138492285
 30
0.0
 10
48.2410881334
 20
26.9117439029
 30
0.0
 10
47.9513181871
 20
26.910475382
 30
0.0
 10
47.7230727277
 20
26.9097873035
 30
0.0
 10
47.5584053673
 20
26.9094476408
 30
0.0
 10
47.4003725798
 20
26.9092834928
 30
0.0
 10
47.2504860615
 20
26.909295417
 30
0.0
 10
47.1101711984
 20
26.9094837829
 30
0.0
 10
46.9807726122
 20
26.9098451249
 30
0.0
 10
46.8635188027
 20
26.9103763814
 30
0.0
 10
46.7739213188
 20
26.9109730754
 30
0.0
 10
46.7091444319
 20
26.9115455683
 30
0.0
 10
46.6660172828
 20
26.9119981683
 30
0.0
 10
46.6266774043
 20
26.9124879298
 30
0.0
 10
46.5912208564
 20
26.913013373
 30
0.0
 10
46.5597347036
 20
26.9135731902
 30
0.0
 10
46.5322928795
 20
26.9141649966
 30
0.0
 10
46.5089581736
 20
26.9147867469
 30
0.0
 10
46.4921056698
 20
26.9153543306
 30
0.0
 10
46.4807226613
 20
26.9158379848
 30
0.0
 10
46.4737672995
 20
26.9161853596
 30
0.0
 10
46.4678846766
 20
26.9165369697
 30
0.0
 10
46.4630381659
 20
26.9168955592
 30
0.0
 10
46.4593320303
 20
26.9172476388
 30
0.0
 10
46.456513809
 20
26.9176138115
 30
0.0
 10
46.4550875277
 20
26.9179244553
 30
0.0
 10
46.4540992426
 20
26.918240345
 30
0.0
 10
46.4540961465
 20
26.9184631436
 30
0.0
  0
SPLINE
  5
345
100
AcDbEntity
  8
0
100
AcDbSpline
 62
7
  6
CONTINUOUS
 70
0
 71
3
 72
11
 73
7
 74
0
 42
0.0000001
 43
0.0000001
 44
0.0000000001
 40
0.0
 40
0.0
 40
0.0
 40
0.0
 40
0.2481472678
 40
0.4966278518
 40
0.746920139
 40
1.0
 40
1.0
 40
1.0
 40
1.0
 10
25.8059166486
 20
58.1390382241
 30
0.0
 10
25.769003341
 20
58.1390475685
 30
0.0
 10
25.6941335108
 20
58.1560790253
 30
0.0
 10
25.6039492213
 20
58.2262827325
 30
0.0
 10
25.5477070434
 20
58.3258684152
 30
0.0
 10
25.5352447885
 20
58.4013868658
 30
0.0
 10
25.5352403903
 20
58.4390339254
 30
0.0
  0
SPLINE
  5
346
100
AcDbEntity
  8
0
100
AcDbSpline
 62
7
  6
CONTINUOUS
 70
0
 71
3
 72
13
 73
9
 74
0
 42
0.0000001
 43
0.0000001
 44
0.0000000001
 40
0.0
 40
0.0
 40
0.0
 40
0.0
 40
0.1264205337
 40
0.2521809865
 40
0.3774754226
 40
0.5015526155
 40
0.7471113112
 40
1.0
 40
1.0
 40
1.0
 40
1.0
 10
29.8085694267
 20
58.1390382167
 30
0.0
 10
29.7904861771
 20
58.1390391907
 30
0.0
 10
29.7542618877
 20
58.1435948729
 30
0.0
 10
29.703462105
 20
58.1634261254
 30
0.0
 10
29.659349959
 20
58.1948332067
 30
0.0
 10
29.6115436011
 20
58.2477862025
 30
0.0
 10
29.5748243027
 20
58.3312433066
 30
0.0
 10
29.5663041887
 20
58.4028610233
 30
0.0
 10
29.5663009076
 20
58.4390343343
 30
0.0
  0
SPLINE
  5
347
100
AcDbEntity
  8
0
100
AcDbSpline
 62
7
  6
CONTINUOUS
 70
0
 71
3
 72
11
 73
7
 74
0
 42
0.0000001
 43
0.0000001
 44
0.0000000001
 40
0.0
 40
0.0
 40
0.0
 40
0.0
 40
0.2514200915
 40
0.5018750405
 40
0.7512134203
 40
1.0
 40
1.0
 40
1.0
 40
1.0
 10
49.7798816805
 20
58.4390338604
 30
0.0
 10
49.7798762646
 20
58.4005392921
 30
0.0
 10
49.765408541
 20
58.3229263203
 30
0.0
 10
49.7025578281
 20
58.2233032726
 30
0.0
 10
49.6066152253
 20
58.1552519897
 30
0.0
 10
49.5294589924
 20
58.1390697421
 30
0.0
 10
49.4913676499
 20
58.1390383418
 30
0.0
  0
SPLINE
  5
348
100
AcDbEntity
  8
0
100
AcDbSpline
 62
7
  6
CONTINUOUS
 70
0
 71
3
 72
14
 73
10
 74
0
 42
0.0000001
 43
0.0000001
 44
0.0000000001
 40
0.0
 40
0.0
 40
0.0
 40
0.0
 40
0.2530681669
 40
0.3769682274
 40
0.5002341991
 40
0.6241050118
 40
0.7488824207
 40
0.8742369829
 40
1.0
 40
1.0
 40
1.0
 40
1.0
 10
43.824247803
 20
58.439045827
 30
0.0
 10
43.8242447468
 20
58.4026130226
 30
0.0
 10
43.8172285641
 20
58.3478525839
 30
0.0
 10
43.7920534149
 20
58.2800933712
 30
0.0
 10
43.7645157908
 20
58.2339263613
 30
0.0
 10
43.7281663342
 20
58.1940575685
 30
0.0
 10
43.6834455586
 20
58.1631847064
 30
0.0
 10
43.6324880504
 20
58.1435338114
 30
0.0
 10
43.5961785686
 20
58.1390400197
 30
0.0
 10
43.5780731725
 20
58.1390382506
 30
0.0
  0
SPLINE
  5
349
100
AcDbEntity
  8
0
100
AcDbSpline
 62
7
  6
CONTINUOUS
 70
0
 71
3
 72
11
 73
7
 74
0
 42
0.0000001
 43
0.0000001
 44
0.0000000001
 40
0.0
 40
0.0
 40
0.0
 40
0.0
 40
0.2489359015
 40
0.4984049373
 40
0.7488231357
 40
1.0
 40
1.0
 40
1.0
 40
1.0
 10
23.0827736716
 20
58.1390383872
 30
0.0
 10
23.0445447297
 20
58.1390809714
 30
0.0
 10
22.967129857
 20
58.1551866171
 30
0.0
 10
22.870583752
 20
58.2230216066
 30
0.0
 10
22.8070799481
 20
58.3226458637
 30
0.0
 10
22.7924200251
 20
58.4004607486
 30
0.0
 10
22.7924150873
 20
58.4390338574
 30
0.0
  0
LINE
  5
34A
100
AcDbEntity
  8
0
100
AcDbLine
 62
7
  6
CONTINUOUS
 10
44.9283685922
 20
60.0390338702
 11
45.1497671729
 21
60.8890328406
  0
SPLINE
  5
34B
100
AcDbEntity
  8
0
100
AcDbSpline
 62
7
  6
CONTINUOUS
 70
0
 71
3
 72
9
 73
5
 74
0
 42
0.0000001
 43
0.0000001
 44
0.0000000001
 40
0.0
 40
0.0
 40
0.0
 40
0.0
 40
0.2527855655
 40
1.0
 40
1.0
 40
1.0
 40
1.0
 10
44.9952975178
 20
59.8472151467
 30
0.0
 10
44.9989884191
 20
59.8458669109
 30
0.0
 10
45.01380699
 20
59.8411506805
 30
0.0
 10
45.0294566711
 20
59.8390338702
 30
0.0
 10
45.0410717871
 20
59.8390338702
 30
0.0
  0
SPLINE
  5
34C
100
AcDbEntity
  8
0
100
AcDbSpline
 62
7
  6
CONTINUOUS
 70
0
 71
3
 72
11
 73
7
 74
0
 42
0.0000001
 43
0.0000001
 44
0.0000000001
 40
0.0
 40
0.0
 40
0.0
 40
0.0
 40
0.2799587286
 40
0.539102216
 40
0.7757858111
 40
1.0
 40
1.0
 40
1.0
 40
1.0
 10
44.9283685922
 20
60.0390338702
 30
0.0
 10
44.9231737301
 20
60.0190948244
 30
0.0
 10
44.917491162
 20
59.9793341631
 30
0.0
 10
44.9253643879
 20
59.9218635477
 30
0.0
 10
44.9511455443
 20
59.8739051806
 30
0.0
 10
44.979984458
 20
59.8533652454
 30
0.0
 10
44.9952975178
 20
59.8472151467
 30
0.0
  0
SPLINE
  5
34D
100
AcDbEntity
  8
0
100
AcDbSpline
 62
7
  6
CONTINUOUS
 70
0
 71
3
 72
16
 73
12
 74
0
 42
0.0000001
 43
0.0000001
 44
0.0000000001
 40
0.0
 40
0.0
 40
0.0
 40
0.0
 40
0.2512412661
 40
0.3781787406
 40
0.505876094
 40
0.6341716817
 40
0.7625668365
 40
0.8263466555
 40
0.8889914971
 40
0.9484579617
 40
1.0
 40
1.0
 40
1.0
 40
1.0
 10
26.6544827585
 20
60.3393057623
 30
0.0
 10
26.6417078811
 20
60.3888770308
 30
0.0
 10
26.6199488766
 20
60.4628850317
 30
0.0
 10
26.5853761986
 20
60.5600075351
 30
0.0
 10
26.5560324589
 20
60.6323391301
 30
0.0
 10
26.5227121227
 20
60.7032555355
 30
0.0
 10
26.4906082708
 20
60.7602603808
 30
0.0
 10
26.460995641
 20
60.8029451917
 30
0.0
 10
26.436397782
 20
60.8319297243
 30
0.0
 10
26.4097629776
 20
60.8552419465
 30
0.0
 10
26.3875830219
 20
60.8642861274
 30
0.0
 10
26.3770812309
 20
60.8642861282
 30
0.0
  0
SPLINE
  5
34E
100
AcDbEntity
  8
0
100
AcDbSpline
 62
7
  6
CONTINUOUS
 70
0
 71
3
 72
13
 73
9
 74
0
 42
0.0000001
 43
0.0000001
 44
0.0000000001
 40
0.0
 40
0.0
 40
0.0
 40
0.0
 40
0.2896817787
 40
0.5574537502
 40
0.6792232027
 40
0.7922616485
 40
0.8982609911
 40
1.0
 40
1.0
 40
1.0
 40
1.0
 10
26.3770774261
 20
58.4390338695
 30
0.0
 10
26.3770792132
 20
58.4004013304
 30
0.0
 10
26.3868485112
 20
58.325700559
 30
0.0
 10
26.4240052764
 20
58.2412117562
 30
0.0
 10
26.4669493416
 20
58.1892250647
 30
0.0
 10
26.5029436585
 20
58.1608076608
 30
0.0
 10
26.5424071405
 20
58.1431204265
 30
0.0
 10
26.5702528938
 20
58.1390369207
 30
0.0
 10
26.5838210107
 20
58.1390382309
 30
0.0
  0
SPLINE
  5
34F
100
AcDbEntity
  8
0
100
AcDbSpline
 62
7
  6
CONTINUOUS
 70
0
 71
3
 72
12
 73
8
 74
0
 42
0.0000001
 43
0.0000001
 44
0.0000000001
 40
0.0
 40
0.0
 40
0.0
 40
0.0
 40
0.1033943531
 40
0.2109345134
 40
0.4456821654
 40
0.712553911
 40
1.0
 40
1.0
 40
1.0
 40
1.0
 10
26.583822898
 20
58.1390338702
 30
0.0
 10
26.5930902827
 20
58.1390338702
 30
0.0
 10
26.6120838832
 20
58.1417725385
 30
0.0
 10
26.6491014392
 20
58.1578503086
 30
0.0
 10
26.6890315259
 20
58.1978143117
 30
0.0
 10
26.7184691628
 20
58.2632718532
 30
0.0
 10
26.7252443507
 20
58.3132707227
 30
0.0
 10
26.7252442542
 20
58.3390349295
 30
0.0
  0
SPLINE
  5
350
100
AcDbEntity
  8
0
100
AcDbSpline
 62
7
  6
CONTINUOUS
 70
0
 71
3
 72
12
 73
8
 74
0
 42
0.0000001
 43
0.0000001
 44
0.0000000001
 40
0.0
 40
0.0
 40
0.0
 40
0.0
 40
0.3211159508
 40
0.6033559555
 40
0.724869526
 40
0.8309378756
 40
1.0
 40
1.0
 40
1.0
 40
1.0
 10
49.8488281613
 20
59.9224165376
 30
0.0
 10
49.8455201604
 20
59.9127503801
 30
0.0
 10
49.8387400899
 20
59.8947763322
 30
0.0
 10
49.8285050957
 20
59.8740198037
 30
0.0
 10
49.8190973329
 20
59.8607086882
 30
0.0
 10
49.8105016565
 20
59.8515646666
 30
0.0
 10
49.8019158751
 20
59.8472149637
 30
0.0
 10
49.7965370449
 20
59.8472149518
 30
0.0
  0
SPLINE
  5
351
100
AcDbEntity
  8
0
100
AcDbSpline
 62
7
  6
CONTINUOUS
 70
0
 71
3
 72
14
 73
10
 74
0
 42
0.0000001
 43
0.0000001
 44
0.0000000001
 40
0.0
 40
0.0
 40
0.0
 40
0.0
 40
0.0254670227
 40
0.0459577366
 40
0.0728544876
 40
0.1474245366
 40
0.2518394198
 40
0.5592588767
 40
1.0
 40
1.0
 40
1.0
 40
1.0
 10
26.863202845
 20
58.1390338702
 30
0.0
 10
26.8614322353
 20
58.1390338702
 30
0.0
 10
26.8586577872
 20
58.1415862964
 30
0.0
 10
26.8562051842
 20
58.1458543816
 30
0.0
 10
26.8527426251
 20
58.1536852546
 30
0.0
 10
26.8486087975
 20
58.1673723956
 30
0.0
 10
26.8405889387
 20
58.2002532759
 30
0.0
 10
26.8291691037
 20
58.2584104854
 30
0.0
 10
26.8183267338
 20
58.3093094716
 30
0.0
 10
26.8108851318
 20
58.3390349295
 30
0.0
  0
SPLINE
  5
352
100
AcDbEntity
  8
0
100
AcDbSpline
 62
7
  6
CONTINUOUS
 70
0
 71
3
 72
9
 73
5
 74
0
 42
0.0000001
 43
0.0000001
 44
0.0000000001
 40
0.0
 40
0.0
 40
0.0
 40
0.0
 40
0.2524903082
 40
1.0
 40
1.0
 40
1.0
 40
1.0
 10
26.7987692056
 20
58.4337984831
 30
0.0
 10
26.7988687001
 20
58.4257483974
 30
0.0
 10
26.8001706352
 20
58.3938851881
 30
0.0
 10
26.8050972551
 20
58.362155385
 30
0.0
 10
26.8108853755
 20
58.3390343906
 30
0.0
  0
SPLINE
  5
353
100
AcDbEntity
  8
0
100
AcDbSpline
 62
7
  6
CONTINUOUS
 70
0
 71
3
 72
11
 73
7
 74
0
 42
0.0000001
 43
0.0000001
 44
0.0000000001
 40
0.0
 40
0.0
 40
0.0
 40
0.0
 40
0.3369684784
 40
0.492506107
 40
0.6330959573
 40
1.0
 40
1.0
 40
1.0
 40
1.0
 10
30.9445034784
 20
58.439020138
 30
0.0
 10
30.9445055708
 20
58.4262122289
 30
0.0
 10
30.9459242361
 20
58.4075166684
 30
0.0
 10
30.9512752023
 20
58.3837663026
 30
0.0
 10
30.9588701137
 20
58.3607491052
 30
0.0
 10
30.9728684803
 20
58.3390224403
 30
0.0
 10
30.9868142109
 20
58.3390354674
 30
0.0
  0
SPLINE
  5
354
100
AcDbEntity
  8
0
100
AcDbSpline
 62
7
  6
CONTINUOUS
 70
0
 71
3
 72
16
 73
12
 74
0
 42
0.0000001
 43
0.0000001
 44
0.0000000001
 40
0.0
 40
0.0
 40
0.0
 40
0.0
 40
0.2455552914
 40
0.3695282207
 40
0.4943681778
 40
0.6201990118
 40
0.7471711976
 40
0.8111564143
 40
0.8753239529
 40
0.9390338066
 40
1.0
 40
1.0
 40
1.0
 40
1.0
 10
30.9445034784
 20
60.3393057623
 30
0.0
 10
30.9368803451
 20
60.3887987361
 30
0.0
 10
30.9221284205
 20
60.4628447848
 30
0.0
 10
30.8952289759
 20
60.5600416454
 30
0.0
 10
30.8706837085
 20
60.6324524626
 30
0.0
 10
30.8408710268
 20
60.7035298575
 30
0.0
 10
30.8102107314
 20
60.7606148567
 30
0.0
 10
30.7802842628
 20
60.803262755
 30
0.0
 10
30.7540833331
 20
60.8325138921
 30
0.0
 10
30.723439818
 20
60.8562902416
 30
0.0
 10
30.6980562726
 20
60.8642861275
 30
0.0
 10
30.6856233084
 20
60.8642861282
 30
0.0
  0
LINE
  5
355
100
AcDbEntity
  8
0
100
AcDbLine
 62
7
  6
CONTINUOUS
 10
22.1910861979
 20
59.8498033856
 11
22.1716954077
 21
60.8890338688
  0
SPLINE
  5
356
100
AcDbEntity
  8
0
100
AcDbSpline
 62
7
  6
CONTINUOUS
 70
0
 71
3
 72
9
 73
5
 74
0
 42
0.0000001
 43
0.0000001
 44
0.0000000001
 40
0.0
 40
0.0
 40
0.0
 40
0.0
 40
0.6494600536
 40
1.0
 40
1.0
 40
1.0
 40
1.0
 10
22.1910869971
 20
59.8498034369
 30
0.0
 10
22.2132897248
 20
59.8503685458
 30
0.0
 10
22.2474629804
 20
59.8514555673
 30
0.0
 10
22.2816620763
 20
59.852417944
 30
0.0
 10
22.2936176258
 20
59.8532938712
 30
0.0
  0
SPLINE
  5
357
100
AcDbEntity
  8
0
100
AcDbSpline
 62
7
  6
CONTINUOUS
 70
0
 71
3
 72
9
 73
5
 74
0
 42
0.0000001
 43
0.0000001
 44
0.0000000001
 40
0.0
 40
0.0
 40
0.0
 40
0.0
 40
0.5258941368
 40
1.0
 40
1.0
 40
1.0
 40
1.0
 10
22.2936177814
 20
59.8532939409
 30
0.0
 10
22.2950109593
 20
59.7830775846
 30
0.0
 10
22.293388282
 20
59.6494379888
 30
0.0
 10
22.2829964122
 20
59.5161751193
 30
0.0
 10
22.2756051427
 20
59.4532938801
 30
0.0
  0
LINE
  5
358
100
AcDbEntity
  8
0
100
AcDbLine
 62
7
  6
CONTINUOUS
 10
22.2732802207
 20
60.8890358008
 11
22.2932868538
 21
59.8532881638
  0
SPLINE
  5
359
100
AcDbEntity
  8
0
100
AcDbSpline
 62
7
  6
CONTINUOUS
 70
0
 71
3
 72
10
 73
6
 74
0
 42
0.0000001
 43
0.0000001
 44
0.0000000001
 40
0.0
 40
0.0
 40
0.0
 40
0.0
 40
0.2902826681
 40
0.5617858823
 40
1.0
 40
1.0
 40
1.0
 40
1.0
 10
22.1640334062
 20
59.5497984298
 30
0.0
 10
22.1778677741
 20
59.5448545353
 30
0.0
 10
22.204009983
 20
59.5331238275
 30
0.0
 10
22.2460349721
 20
59.5051853796
 30
0.0
 10
22.2698801995
 20
59.4747202697
 30
0.0
 10
22.2756051429
 20
59.4532938813
 30
0.0
  0
SPLINE
  5
35A
100
AcDbEntity
  8
0
100
AcDbSpline
 62
7
  6
CONTINUOUS
 70
0
 71
3
 72
10
 73
6
 74
0
 42
0.0000001
 43
0.0000001
 44
0.0000000001
 40
0.0
 40
0.0
 40
0.0
 40
0.0
 40
0.2807554402
 40
0.5456565446
 40
1.0
 40
1.0
 40
1.0
 40
1.0
 10
22.0832368159
 20
58.5303001361
 30
0.0
 10
22.0943952647
 20
58.5247900242
 30
0.0
 10
22.1153002242
 20
58.5122755778
 30
0.0
 10
22.1487910705
 20
58.4832088297
 30
0.0
 10
22.1656548235
 20
58.4536485604
 30
0.0
 10
22.1690787005
 20
58.4338025057
 30
0.0
  0
SPLINE
  5
35B
100
AcDbEntity
  8
0
100
AcDbSpline
 62
7
  6
CONTINUOUS
 70
0
 71
3
 72
9
 73
5
 74
0
 42
0.0000001
 43
0.0000001
 44
0.0000000001
 40
0.0
 40
0.0
 40
0.0
 40
0.0
 40
0.2763002026
 40
1.0
 40
1.0
 40
1.0
 40
1.0
 10
22.0697876491
 20
58.2890222811
 30
0.0
 10
22.0826944687
 20
58.2990215731
 30
0.0
 10
22.1262800855
 20
58.3389905285
 30
0.0
 10
22.1580227869
 20
58.3924737992
 30
0.0
 10
22.1690819401
 20
58.4337836746
 30
0.0
  0
SPLINE
  5
35C
100
AcDbEntity
  8
0
100
AcDbSpline
 62
7
  6
CONTINUOUS
 70
0
 71
3
 72
11
 73
7
 74
0
 42
0.0000001
 43
0.0000001
 44
0.0000000001
 40
0.0
 40
0.0
 40
0.0
 40
0.0
 40
0.2393727212
 40
0.4985933037
 40
0.7586984166
 40
1.0
 40
1.0
 40
1.0
 40
1.0
 10
22.4664575982
 20
58.1390237745
 30
0.0
 10
22.4296689343
 20
58.1390243306
 30
0.0
 10
22.3523017349
 20
58.153686483
 30
0.0
 10
22.2521212401
 20
58.2193375708
 30
0.0
 10
22.1855177546
 20
58.3191957742
 30
0.0
 10
22.1697228463
 20
58.3967186268
 30
0.0
 10
22.1690812647
 20
58.433798183
 30
0.0
  0
SPLINE
  5
35D
100
AcDbEntity
  8
0
100
AcDbSpline
 62
7
  6
CONTINUOUS
 70
0
 71
3
 72
14
 73
10
 74
0
 42
0.0000001
 43
0.0000001
 44
0.0000000001
 40
0.0
 40
0.0
 40
0.0
 40
0.0
 40
0.3343726194
 40
0.4883076391
 40
0.6271625296
 40
0.7476451778
 40
0.8481177913
 40
0.9301316819
 40
1.0
 40
1.0
 40
1.0
 40
1.0
 10
30.6856205659
 20
58.4390338695
 30
0.0
 10
30.6856215812
 20
58.4006387428
 30
0.0
 10
30.6897840554
 20
58.3443858989
 30
0.0
 10
30.7045478813
 20
58.2738136959
 30
0.0
 10
30.7190730174
 20
58.2285245325
 30
0.0
 10
30.7367496311
 20
58.1910087739
 30
0.0
 10
30.7571201319
 20
58.162491345
 30
0.0
 10
30.7799535731
 20
58.1438221551
 30
0.0
 10
30.7975088816
 20
58.1390369116
 30
0.0
 10
30.8055316764
 20
58.1390382484
 30
0.0
  0
SPLINE
  5
35E
100
AcDbEntity
  8
0
100
AcDbSpline
 62
7
  6
CONTINUOUS
 70
0
 71
3
 72
9
 73
5
 74
0
 42
0.0000001
 43
0.0000001
 44
0.0000000001
 40
0.0
 40
0.0
 40
0.0
 40
0.0
 40
0.4929260184
 40
1.0
 40
1.0
 40
1.0
 40
1.0
 10
30.8055341195
 20
58.1390338702
 30
0.0
 10
30.8292073089
 20
58.1390338702
 30
0.0
 10
30.8777729965
 20
58.1497887393
 30
0.0
 10
30.9173524877
 20
58.1795688422
 30
0.0
 10
30.9337062263
 20
58.1976134302
 30
0.0
  0
SPLINE
  5
35F
100
AcDbEntity
  8
0
100
AcDbSpline
 62
7
  6
CONTINUOUS
 70
0
 71
3
 72
9
 73
5
 74
0
 42
0.0000001
 43
0.0000001
 44
0.0000000001
 40
0.0
 40
0.0
 40
0.0
 40
0.0
 40
0.4937494161
 40
1.0
 40
1.0
 40
1.0
 40
1.0
 10
30.9337062263
 20
58.1976134302
 30
0.0
 10
30.9506854392
 20
58.2163481616
 30
0.0
 10
30.9777070537
 20
58.2614718316
 30
0.0
 10
30.9867958012
 20
58.3131107025
 30
0.0
 10
30.9867956769
 20
58.3390349288
 30
0.0
  0
SPLINE
  5
360
100
AcDbEntity
  8
0
100
AcDbSpline
 62
7
  6
CONTINUOUS
 70
0
 71
3
 72
14
 73
10
 74
0
 42
0.0000001
 43
0.0000001
 44
0.0000000001
 40
0.0
 40
0.0
 40
0.0
 40
0.0
 40
0.0612860952
 40
0.1313557599
 40
0.2166845719
 40
0.3218907423
 40
0.605715063
 40
0.7904515949
 40
1.0
 40
1.0
 40
1.0
 40
1.0
 10
30.9725118245
 20
58.1390338702
 30
0.0
 10
30.9771723177
 20
58.1390338702
 30
0.0
 10
30.9872424339
 20
58.1412873124
 30
0.0
 10
31.0010209775
 20
58.1508322029
 30
0.0
 10
31.0137353377
 20
58.1662735204
 30
0.0
 10
31.0304604191
 20
58.1984433167
 30
0.0
 10
31.0402334778
 20
58.2417214168
 30
0.0
 10
31.0427309905
 20
58.2932556515
 30
0.0
 10
31.0403389331
 20
58.3232752853
 30
0.0
 10
31.0379808724
 20
58.3390349288
 30
0.0
  0
LINE
  5
361
100
AcDbEntity
  8
0
100
AcDbLine
 62
7
  6
CONTINUOUS
 10
31.1085495907
 20
59.8472149518
 11
30.9790310267
 21
60.8890338838
  0
SPLINE
  5
362
100
AcDbEntity
  8
0
100
AcDbSpline
 62
7
  6
CONTINUOUS
 70
0
 71
3
 72
9
 73
5
 74
0
 42
0.0000001
 43
0.0000001
 44
0.0000000001
 40
0.0
 40
0.0
 40
0.0
 40
0.0
 40
0.2538720225
 40
1.0
 40
1.0
 40
1.0
 40
1.0
 10
31.0307395167
 20
58.4337984831
 30
0.0
 10
31.0307989528
 20
58.4257523332
 30
0.0
 10
31.0315742719
 20
58.3940661765
 30
0.0
 10
31.0344816858
 20
58.3624222705
 30
0.0
 10
31.0379810181
 20
58.3390343899
 30
0.0
  0
SPLINE
  5
363
100
AcDbEntity
  8
0
100
AcDbSpline
 62
7
  6
CONTINUOUS
 70
0
 71
3
 72
9
 73
5
 74
0
 42
0.0000001
 43
0.0000001
 44
0.0000000001
 40
0.0
 40
0.0
 40
0.0
 40
0.0
 40
0.2502356143
 40
1.0
 40
1.0
 40
1.0
 40
1.0
 10
33.8713572125
 20
59.5497782736
 30
0.0
 10
33.9334820848
 20
59.4631309907
 30
0.0
 10
34.1832154245
 20
59.1179441848
 30
0.0
 10
34.4410426405
 20
58.7784440788
 30
0.0
 10
34.6421807522
 20
58.5302667021
 30
0.0
  0
SPLINE
  5
364
100
AcDbEntity
  8
0
100
AcDbSpline
 62
7
  6
CONTINUOUS
 70
0
 71
3
 72
9
 73
5
 74
0
 42
0.0000001
 43
0.0000001
 44
0.0000000001
 40
0.0
 40
0.0
 40
0.0
 40
0.0
 40
0.2496986539
 40
1.0
 40
1.0
 40
1.0
 40
1.0
 10
38.1894560505
 20
58.530269716
 30
0.0
 10
38.2564437029
 20
58.6129233998
 30
0.0
 10
38.5212333403
 20
58.9467680417
 30
0.0
 10
38.7739996991
 20
59.2899717075
 30
0.0
 10
38.9602773687
 20
59.5497784264
 30
0.0
  0
SPLINE
  5
365
100
AcDbEntity
  8
0
100
AcDbSpline
 62
7
  6
CONTINUOUS
 70
0
 71
3
 72
9
 73
5
 74
0
 42
0.0000001
 43
0.0000001
 44
0.0000000001
 40
0.0
 40
0.0
 40
0.0
 40
0.0
 40
0.4982181687
 40
1.0
 40
1.0
 40
1.0
 40
1.0
 10
38.9602525018
 20
59.5498033856
 30
0.0
 10
38.9934605611
 20
59.5919362394
 30
0.0
 10
39.0482766755
 20
59.6869639153
 30
0.0
 10
39.0673259603
 20
59.7957777816
 30
0.0
 10
39.0666154314
 20
59.8498033856
 30
0.0
  0
SPLINE
  5
366
100
AcDbEntity
  8
0
100
AcDbSpline
 62
7
  6
CONTINUOUS
 70
0
 71
3
 72
9
 73
5
 74
0
 42
0.0000001
 43
0.0000001
 44
0.0000000001
 40
0.0
 40
0.0
 40
0.0
 40
0.0
 40
0.5017831513
 40
1.0
 40
1.0
 40
1.0
 40
1.0
 10
33.7650215659
 20
59.8498033856
 30
0.0
 10
33.764308423
 20
59.7957778595
 30
0.0
 10
33.7833617406
 20
59.6869642979
 30
0.0
 10
33.8381756186
 20
59.5919369638
 30
0.0
 10
33.8713822316
 20
59.5498033856
 30
0.0
  0
SPLINE
  5
367
100
AcDbEntity
  8
0
100
AcDbSpline
 62
7
  6
CONTINUOUS
 70
0
 71
3
 72
10
 73
6
 74
0
 42
0.0000001
 43
0.0000001
 44
0.0000000001
 40
0.0
 40
0.0
 40
0.0
 40
0.0
 40
0.172131853
 40
0.4085357763
 40
1.0
 40
1.0
 40
1.0
 40
1.0
 10
33.8713859363
 20
59.5497983457
 30
0.0
 10
33.8656044837
 20
59.5434623521
 30
0.0
 10
33.8509243666
 20
59.5293174218
 30
0.0
 10
33.8134359249
 20
59.4964906363
 30
0.0
 10
33.7809270283
 20
59.4710336187
 30
0.0
 10
33.7573912671
 20
59.4532938648
 30
0.0
  0
SPLINE
  5
368
100
AcDbEntity
  8
0
100
AcDbSpline
 62
7
  6
CONTINUOUS
 70
0
 71
3
 72
9
 73
5
 74
0
 42
0.0000001
 43
0.0000001
 44
0.0000000001
 40
0.0
 40
0.0
 40
0.0
 40
0.0
 40
0.5684158783
 40
1.0
 40
1.0
 40
1.0
 40
1.0
 10
34.5365851227
 20
58.4338004659
 30
0.0
 10
34.5572264763
 20
58.4513811
 30
0.0
 10
34.5930765312
 20
58.4828461441
 30
0.0
 10
34.627886437
 20
58.5155117807
 30
0.0
 10
34.6422097822
 20
58.5302986539
 30
0.0
  0
SPLINE
  5
369
100
AcDbEntity
  8
0
100
AcDbSpline
 62
7
  6
CONTINUOUS
 70
0
 71
3
 72
9
 73
5
 74
0
 42
0.0000001
 43
0.0000001
 44
0.0000000001
 40
0.0
 40
0.0
 40
0.0
 40
0.0
 40
0.4995608955
 40
1.0
 40
1.0
 40
1.0
 40
1.0
 10
33.7573912679
 20
59.4532938638
 30
0.0
 10
33.7159428798
 20
59.5108869745
 30
0.0
 10
33.6489643052
 20
59.6389333904
 30
0.0
 10
33.6263046376
 20
59.7822155885
 30
0.0
 10
33.6270412883
 20
59.8532937893
 30
0.0
  0
SPLINE
  5
36A
100
AcDbEntity
  8
0
100
AcDbSpline
 62
7
  6
CONTINUOUS
 70
0
 71
3
 72
9
 73
5
 74
0
 42
0.0000001
 43
0.0000001
 44
0.0000000001
 40
0.0
 40
0.0
 40
0.0
 40
0.0
 40
0.50025229
 40
1.0
 40
1.0
 40
1.0
 40
1.0
 10
34.5365869499
 20
58.4337981482
 30
0.0
 10
34.4002464037
 20
58.5987415741
 30
0.0
 10
34.1358649379
 20
58.9352222125
 30
0.0
 10
33.8822739121
 20
59.2797799811
 30
0.0
 10
33.7573912679
 20
59.4532938638
 30
0.0
  0
SPLINE
  5
36B
100
AcDbEntity
  8
0
100
AcDbSpline
 62
7
  6
CONTINUOUS
 70
0
 71
3
 72
20
 73
16
 74
0
 42
0.0000001
 43
0.0000001
 44
0.0000000001
 40
0.0
 40
0.0
 40
0.0
 40
0.0
 40
0.126639752
 40
0.2531833522
 40
0.379581424
 40
0.5057548816
 40
0.6315527582
 40
0.6942451708
 40
0.7567027194
 40
0.8187959648
 40
0.8802718957
 40
0.9106964746
 40
0.9408021152
 40
0.9705392022
 40
1.0
 40
1.0
 40
1.0
 40
1.0
 10
31.4811217517
 20
60.8888797735
 30
0.0
 10
31.4788998365
 20
60.8397849399
 30
0.0
 10
31.4725891094
 20
60.74170509
 30
0.0
 10
31.4571151172
 20
60.5951729115
 30
0.0
 10
31.4349211981
 20
60.4496683391
 30
0.0
 10
31.4048162685
 20
60.3058735453
 30
0.0
 10
31.3714362211
 20
60.1882379812
 30
0.0
 10
31.3377932188
 20
60.0967981825
 30
0.0
 10
31.3082673368
 20
60.0303214607
 30
0.0
 10
31.2732094813
 20
59.9671006039
 30
0.0
 10
31.2375391868
 20
59.9187364946
 30
0.0
 10
31.2035531387
 20
59.8855990628
 30
0.0
 10
31.1749784966
 20
59.8650313081
 30
0.0
 10
31.1430725769
 20
59.8507415689
 30
0.0
 10
31.1199824423
 20
59.8472149619
 30
0.0
 10
31.1085495907
 20
59.8472149518
 30
0.0
  0
SPLINE
  5
36C
100
AcDbEntity
  8
0
100
AcDbSpline
 62
7
  6
CONTINUOUS
 70
0
 71
3
 72
9
 73
5
 74
0
 42
0.0000001
 43
0.0000001
 44
0.0000000001
 40
0.0
 40
0.0
 40
0.0
 40
0.0
 40
0.5862826431
 40
1.0
 40
1.0
 40
1.0
 40
1.0
 10
33.6270422389
 20
59.8532937238
 30
0.0
 10
33.6540135877
 20
59.8529039989
 30
0.0
 10
33.7000131578
 20
59.8520293158
 30
0.0
 10
33.7460083403
 20
59.8507164169
 30
0.0
 10
33.7650210641
 20
59.8498032258
 30
0.0
  0
LINE
  5
36D
100
AcDbEntity
  8
0
100
AcDbLine
 62
7
  6
CONTINUOUS
 10
33.7753852027
 20
60.8890338687
 11
33.7650215664
 21
59.8498033856
  0
LINE
  5
36E
100
AcDbEntity
  8
0
100
AcDbLine
 62
7
  6
CONTINUOUS
 10
39.0666154319
 20
59.8498033856
 11
39.0562485217
 21
60.8890338688
  0
SPLINE
  5
36F
100
AcDbEntity
  8
0
100
AcDbSpline
 62
7
  6
CONTINUOUS
 70
0
 71
3
 72
9
 73
5
 74
0
 42
0.0000001
 43
0.0000001
 44
0.0000000001
 40
0.0
 40
0.0
 40
0.0
 40
0.0
 40
0.4137223133
 40
1.0
 40
1.0
 40
1.0
 40
1.0
 10
39.0666158554
 20
59.8498034369
 30
0.0
 10
39.0856285506
 20
59.8507165928
 30
0.0
 10
39.1316231082
 20
59.8520294773
 30
0.0
 10
39.1776220544
 20
59.8529041494
 30
0.0
 10
39.2045928092
 20
59.8532938712
 30
0.0
  0
SPLINE
  5
370
100
AcDbEntity
  8
0
100
AcDbSpline
 62
7
  6
CONTINUOUS
 70
0
 71
3
 72
9
 73
5
 74
0
 42
0.0000001
 43
0.0000001
 44
0.0000000001
 40
0.0
 40
0.0
 40
0.0
 40
0.0
 40
0.5004437664
 40
1.0
 40
1.0
 40
1.0
 40
1.0
 10
39.2045936033
 20
59.8532939409
 30
0.0
 10
39.2053266907
 20
59.7822149885
 30
0.0
 10
39.1826732487
 20
59.638932303
 30
0.0
 10
39.1156910143
 20
59.5108868747
 30
0.0
 10
39.0742435089
 20
59.4532938801
 30
0.0
  0
SPLINE
  5
371
100
AcDbEntity
  8
0
100
AcDbSpline
 62
7
  6
CONTINUOUS
 70
0
 71
3
 72
9
 73
5
 74
0
 42
0.0000001
 43
0.0000001
 44
0.0000000001
 40
0.0
 40
0.0
 40
0.0
 40
0.0
 40
0.5000006239
 40
1.0
 40
1.0
 40
1.0
 40
1.0
 10
39.1938343408
 20
60.8890358008
 30
0.0
 10
39.19582945
 20
60.7164130722
 30
0.0
 10
39.1988979548
 20
60.371158139
 30
0.0
 10
39.2026429548
 20
60.0259102285
 30
0.0
 10
39.2046581284
 20
59.8532881638
 30
0.0
  0
SPLINE
  5
372
100
AcDbEntity
  8
0
100
AcDbSpline
 62
7
  6
CONTINUOUS
 70
0
 71
3
 72
9
 73
5
 74
0
 42
0.0000001
 43
0.0000001
 44
0.0000000001
 40
0.0
 40
0.0
 40
0.0
 40
0.0
 40
0.4997475642
 40
1.0
 40
1.0
 40
1.0
 40
1.0
 10
39.0742435089
 20
59.4532938801
 30
0.0
 10
38.9493609974
 20
59.2797801432
 30
0.0
 10
38.695768079
 20
58.9352241516
 30
0.0
 10
38.4313897471
 20
58.5987413885
 30
0.0
 10
38.2950490884
 20
58.4337981482
 30
0.0
  0
SPLINE
  5
373
100
AcDbEntity
  8
0
100
AcDbSpline
 62
7
  6
CONTINUOUS
 70
0
 71
3
 72
10
 73
6
 74
0
 42
0.0000001
 43
0.0000001
 44
0.0000000001
 40
0.0
 40
0.0
 40
0.0
 40
0.0
 40
0.1721318082
 40
0.4085357236
 40
1.0
 40
1.0
 40
1.0
 40
1.0
 10
38.960248821
 20
59.5497983781
 30
0.0
 10
38.9660302723
 20
59.5434623843
 30
0.0
 10
38.9807103897
 20
59.5293174529
 30
0.0
 10
39.0181988376
 20
59.4964906618
 30
0.0
 10
39.0507077421
 20
59.4710336393
 30
0.0
 10
39.0742435098
 20
59.4532938814
 30
0.0
  0
SPLINE
  5
374
100
AcDbEntity
  8
0
100
AcDbSpline
 62
7
  6
CONTINUOUS
 70
0
 71
3
 72
9
 73
5
 74
0
 42
0.0000001
 43
0.0000001
 44
0.0000000001
 40
0.0
 40
0.0
 40
0.0
 40
0.0
 40
0.4315831597
 40
1.0
 40
1.0
 40
1.0
 40
1.0
 10
38.1894245515
 20
58.5302991523
 30
0.0
 10
38.2037480128
 20
58.5155121212
 30
0.0
 10
38.2385583259
 20
58.4828461027
 30
0.0
 10
38.2744088037
 20
58.4513806975
 30
0.0
 10
38.2950504394
 20
58.4337998362
 30
0.0
  0
SPLINE
  5
375
100
AcDbEntity
  8
0
100
AcDbSpline
 62
7
  6
CONTINUOUS
 70
0
 71
3
 72
9
 73
5
 74
0
 42
0.0000001
 43
0.0000001
 44
0.0000000001
 40
0.0
 40
0.0
 40
0.0
 40
0.0
 40
0.225211568
 40
1.0
 40
1.0
 40
1.0
 40
1.0
 10
37.9889456157
 20
58.2890233062
 30
0.0
 10
38.0118050816
 20
58.3001423239
 30
0.0
 10
38.1135104991
 20
58.3490952384
 30
0.0
 10
38.215694723
 20
58.3970490471
 30
0.0
 10
38.2950574476
 20
58.4337843462
 30
0.0
  0
SPLINE
  5
376
100
AcDbEntity
  8
0
100
AcDbSpline
 62
7
  6
CONTINUOUS
 70
0
 71
3
 72
15
 73
11
 74
0
 42
0.0000001
 43
0.0000001
 44
0.0000000001
 40
0.0
 40
0.0
 40
0.0
 40
0.0
 40
0.0285918515
 40
0.0530108996
 40
0.0859831991
 40
0.1281985516
 40
0.1794563609
 40
0.3071639402
 40
0.6388756052
 40
1.0
 40
1.0
 40
1.0
 40
1.0
 10
38.2558264655
 20
58.139033315
 30
0.0
 10
38.2587037425
 20
58.1390333339
 30
0.0
 10
38.2631657484
 20
58.1436127082
 30
0.0
 10
38.2669885439
 20
58.1510441436
 30
0.0
 10
38.2705955361
 20
58.1605364652
 30
0.0
 10
38.2740096182
 20
58.1727610669
 30
0.0
 10
38.2788602287
 20
58.194511499
 30
0.0
 10
38.2867445842
 20
58.2453211592
 30
0.0
 10
38.293161322
 20
58.3277412317
 30
0.0
 10
38.2949696391
 20
58.3974572995
 30
0.0
 10
38.2950525975
 20
58.4337981502
 30
0.0
  0
SPLINE
  5
377
100
AcDbEntity
  8
0
100
AcDbSpline
 62
7
  6
CONTINUOUS
 70
0
 71
3
 72
11
 73
7
 74
0
 42
0.0000001
 43
0.0000001
 44
0.0000000001
 40
0.0
 40
0.0
 40
0.0
 40
0.0
 40
0.2629646014
 40
0.521744026
 40
0.7676964934
 40
1.0
 40
1.0
 40
1.0
 40
1.0
 10
37.9889458771
 20
58.2890359168
 30
0.0
 10
37.9804657038
 20
58.2685713542
 30
0.0
 10
37.9595307476
 20
58.2295411643
 30
0.0
 10
37.9165220625
 20
58.1801882536
 30
0.0
 10
37.8625396469
 20
58.1474579014
 30
0.0
 10
37.8220373299
 20
58.139012424
 30
0.0
 10
37.8024681936
 20
58.1390094326
 30
0.0
  0
SPLINE
  5
378
100
AcDbEntity
  8
0
100
AcDbSpline
 62
7
  6
CONTINUOUS
 70
0
 71
3
 72
9
 73
5
 74
0
 42
0.0000001
 43
0.0000001
 44
0.0000000001
 40
0.0
 40
0.0
 40
0.0
 40
0.0
 40
0.2451740505
 40
1.0
 40
1.0
 40
1.0
 40
1.0
 10
42.3689983726
 20
58.3390338702
 30
0.0
 10
42.3702528693
 20
58.3467077528
 30
0.0
 10
42.3747229662
 20
58.3781107573
 30
0.0
 10
42.3767172003
 20
58.40985817
 30
0.0
 10
42.3769104059
 20
58.4337968545
 30
0.0
  0
SPLINE
  5
379
100
AcDbEntity
  8
0
100
AcDbSpline
 62
7
  6
CONTINUOUS
 70
0
 71
3
 72
13
 73
9
 74
0
 42
0.0000001
 43
0.0000001
 44
0.0000000001
 40
0.0
 40
0.0
 40
0.0
 40
0.0
 40
0.0776477067
 40
0.1652653801
 40
0.2684214044
 40
0.3888002665
 40
0.675429853
 40
1.0
 40
1.0
 40
1.0
 40
1.0
 10
42.4249164766
 20
58.3390338702
 30
0.0
 10
42.4279814081
 20
58.3390312133
 30
0.0
 10
42.4345510152
 20
58.3405483117
 30
0.0
 10
42.4434102388
 20
58.3466707374
 30
0.0
 10
42.4513266301
 20
58.3562010317
 30
0.0
 10
42.461031735
 20
58.3739441895
 30
0.0
 10
42.4690200549
 20
58.4020203362
 30
0.0
 10
42.4711295035
 20
58.4261794555
 30
0.0
 10
42.4711318035
 20
58.4389909816
 30
0.0
  0
SPLINE
  5
37A
100
AcDbEntity
  8
0
100
AcDbSpline
 62
7
  6
CONTINUOUS
 70
0
 71
3
 72
14
 73
10
 74
0
 42
0.0000001
 43
0.0000001
 44
0.0000000001
 40
0.0
 40
0.0
 40
0.0
 40
0.0
 40
0.074901863
 40
0.1604396357
 40
0.2625318443
 40
0.3829626175
 40
0.5204430875
 40
0.6720201355
 40
1.0
 40
1.0
 40
1.0
 40
1.0
 10
42.602326312
 20
58.1390382157
 30
0.0
 10
42.6111005013
 20
58.1390368467
 30
0.0
 10
42.6300339359
 20
58.1436480066
 30
0.0
 10
42.6552399423
 20
58.1621703362
 30
0.0
 10
42.677761716
 20
58.1907431239
 30
0.0
 10
42.6972724586
 20
58.2283292617
 30
0.0
 10
42.7132795923
 20
58.2736829676
 30
0.0
 10
42.7295156953
 20
58.3442198835
 30
0.0
 10
42.7341187903
 20
58.4006134963
 30
0.0
 10
42.7341199536
 20
58.4390338686
 30
0.0
  0
SPLINE
  5
37B
100
AcDbEntity
  8
0
100
AcDbSpline
 62
7
  6
CONTINUOUS
 70
0
 71
3
 72
9
 73
5
 74
0
 42
0.0000001
 43
0.0000001
 44
0.0000000001
 40
0.0
 40
0.0
 40
0.0
 40
0.0
 40
0.5075055934
 40
1.0
 40
1.0
 40
1.0
 40
1.0
 10
42.4249230318
 20
58.3390338702
 30
0.0
 10
42.4249230318
 20
58.3131269311
 30
0.0
 10
42.4337626228
 20
58.2616676672
 30
0.0
 10
42.460199714
 20
58.2164210073
 30
0.0
 10
42.4768824429
 20
58.1976130556
 30
0.0
  0
SPLINE
  5
37C
100
AcDbEntity
  8
0
100
AcDbSpline
 62
7
  6
CONTINUOUS
 70
0
 71
3
 72
9
 73
5
 74
0
 42
0.0000001
 43
0.0000001
 44
0.0000000001
 40
0.0
 40
0.0
 40
0.0
 40
0.0
 40
0.5087423433
 40
1.0
 40
1.0
 40
1.0
 40
1.0
 10
42.4768824429
 20
58.1976130556
 30
0.0
 10
42.4928201596
 20
58.1796450236
 30
0.0
 10
42.5313811142
 20
58.1498860442
 30
0.0
 10
42.579132727
 20
58.1390338702
 30
0.0
 10
42.6023251984
 20
58.1390338702
 30
0.0
  0
SPLINE
  5
37D
100
AcDbEntity
  8
0
100
AcDbSpline
 62
7
  6
CONTINUOUS
 70
0
 71
3
 72
15
 73
11
 74
0
 42
0.0000001
 43
0.0000001
 44
0.0000000001
 40
0.0
 40
0.0
 40
0.0
 40
0.0
 40
0.2464109836
 40
0.3708750033
 40
0.496233159
 40
0.6225860012
 40
0.750026915
 40
0.8141759165
 40
0.8783883406
 40
1.0
 40
1.0
 40
1.0
 40
1.0
 10
42.4711315603
 20
60.3393086144
 30
0.0
 10
42.4794641024
 20
60.3888223548
 30
0.0
 10
42.4952125452
 20
60.4628730747
 30
0.0
 10
42.5232731254
 20
60.5600515291
 30
0.0
 10
42.5485897848
 20
60.6324500511
 30
0.0
 10
42.5790870933
 20
60.7035312712
 30
0.0
 10
42.6100383059
 20
60.7605436982
 30
0.0
 10
42.6403295189
 20
60.8033119759
 30
0.0
 10
42.6736199622
 20
60.8409070684
 30
0.0
 10
42.7093378623
 20
60.8642861282
 30
0.0
 10
42.7341180831
 20
60.8642861282
 30
0.0
  0
LINE
  5
37E
100
AcDbEntity
  8
0
100
AcDbLine
 62
7
  6
CONTINUOUS
 10
41.8526037234
 20
60.8890338848
 11
41.7230851787
 21
59.8472149226
  0
SPLINE
  5
37F
100
AcDbEntity
  8
0
100
AcDbSpline
 62
7
  6
CONTINUOUS
 70
0
 71
3
 72
9
 73
5
 74
0
 42
0.0000001
 43
0.0000001
 44
0.0000000001
 40
0.0
 40
0.0
 40
0.0
 40
0.0
 40
0.2663635288
 40
1.0
 40
1.0
 40
1.0
 40
1.0
 10
34.5365761205
 20
58.4337823615
 30
0.0
 10
34.5638595987
 20
58.4211534372
 30
0.0
 10
34.6661829017
 20
58.3735134989
 30
0.0
 10
34.7682212182
 20
58.3252504592
 30
0.0
 10
34.8426821947
 20
58.2890237784
 30
0.0
  0
SPLINE
  5
380
100
AcDbEntity
  8
0
100
AcDbSpline
 62
7
  6
CONTINUOUS
 70
0
 71
3
 72
15
 73
11
 74
0
 42
0.0000001
 43
0.0000001
 44
0.0000000001
 40
0.0
 40
0.0
 40
0.0
 40
0.0
 40
0.3611248081
 40
0.6928354693
 40
0.8205426232
 40
0.8718003832
 40
0.9140158193
 40
0.9469883493
 40
0.9714077371
 40
1.0
 40
1.0
 40
1.0
 40
1.0
 10
34.5365788442
 20
58.4337981798
 30
0.0
 10
34.5366618452
 20
58.3974563555
 30
0.0
 10
34.5384702485
 20
58.327738561
 30
0.0
 10
34.5448870967
 20
58.2453164763
 30
0.0
 10
34.5527714923
 20
58.1945056426
 30
0.0
 10
34.5576220917
 20
58.1727546629
 30
0.0
 10
34.5610361764
 20
58.160529698
 30
0.0
 10
34.5646431345
 20
58.1510370166
 30
0.0
 10
34.5684659657
 20
58.1436052464
 30
0.0
 10
34.5729277584
 20
58.1390254541
 30
0.0
 10
34.5758051506
 20
58.1390251629
 30
0.0
  0
SPLINE
  5
381
100
AcDbEntity
  8
0
100
AcDbSpline
 62
7
  6
CONTINUOUS
 70
0
 71
3
 72
13
 73
9
 74
0
 42
0.0000001
 43
0.0000001
 44
0.0000000001
 40
0.0
 40
0.0
 40
0.0
 40
0.0
 40
0.317983919
 40
0.5965052017
 40
0.7156822648
 40
0.8195170067
 40
0.9107456704
 40
1.0
 40
1.0
 40
1.0
 40
1.0
 10
49.7798780943
 20
60.8121157324
 30
0.0
 10
49.7798772673
 20
60.8184960982
 30
0.0
 10
49.7794633422
 20
60.8304607236
 30
0.0
 10
49.7773218242
 20
60.8447587501
 30
0.0
 10
49.7739227345
 20
60.8542706583
 30
0.0
 10
49.7706357328
 20
60.8597310942
 30
0.0
 10
49.7661249399
 20
60.8634806617
 30
0.0
 10
49.762431289
 20
60.864286128
 30
0.0
 10
49.7606403957
 20
60.8642861282
 30
0.0
  0
SPLINE
  5
382
100
AcDbEntity
  8
0
100
AcDbSpline
 62
7
  6
CONTINUOUS
 70
0
 71
3
 72
11
 73
7
 74
0
 42
0.0000001
 43
0.0000001
 44
0.0000000001
 40
0.0
 40
0.0
 40
0.0
 40
0.0
 40
0.2322959271
 40
0.4782470947
 40
0.7370301178
 40
1.0
 40
1.0
 40
1.0
 40
1.0
 10
35.0291476002
 20
58.1389853958
 30
0.0
 10
35.0095789844
 20
58.1389921842
 30
0.0
 10
34.9690788673
 20
58.1474446783
 30
0.0
 10
34.915101409
 20
58.1801825706
 30
0.0
 10
34.8720970181
 20
58.2295402452
 30
0.0
 10
34.851163767
 20
58.2685723744
 30
0.0
 10
34.8426842037
 20
58.289037817
 30
0.0
  0
SPLINE
  5
383
100
AcDbEntity
  8
0
100
AcDbSpline
 62
7
  6
CONTINUOUS
 70
0
 71
3
 72
14
 73
10
 74
0
 42
0.0000001
 43
0.0000001
 44
0.0000000001
 40
0.0
 40
0.0
 40
0.0
 40
0.0
 40
0.3207793889
 40
0.4697350444
 40
0.6057358938
 40
0.7262025412
 40
0.8301971955
 40
0.9196611269
 40
1.0
 40
1.0
 40
1.0
 40
1.0
 10
43.723229241
 20
58.4390338695
 30
0.0
 10
43.7232277636
 20
58.4005863587
 30
0.0
 10
43.7181374157
 20
58.3440247303
 30
0.0
 10
43.7002456702
 20
58.2735390568
 30
0.0
 10
43.6825608094
 20
58.2281168945
 30
0.0
 10
43.6609717529
 20
58.1904611946
 30
0.0
 10
43.6360188533
 20
58.1618600693
 30
0.0
 10
43.6081851571
 20
58.1435024477
 30
0.0
 10
43.5876825528
 20
58.1390398687
 30
0.0
 10
43.5780534128
 20
58.1390382514
 30
0.0
  0
SPLINE
  5
384
100
AcDbEntity
  8
0
100
AcDbSpline
 62
7
  6
CONTINUOUS
 70
0
 71
3
 72
15
 73
11
 74
0
 42
0.0000001
 43
0.0000001
 44
0.0000000001
 40
0.0
 40
0.0
 40
0.0
 40
0.0
 40
0.2163903154
 40
0.4066123124
 40
0.5657936331
 40
0.696148331
 40
0.8005056477
 40
0.8824823491
 40
0.9466132718
 40
1.0
 40
1.0
 40
1.0
 40
1.0
 10
42.3689983643
 20
58.3390338702
 30
0.0
 10
42.3664228893
 20
58.3232794297
 30
0.0
 10
42.3634523884
 20
58.2933405595
 30
0.0
 10
42.3640815387
 20
58.2515205382
 30
0.0
 10
42.3687622666
 20
58.216351168
 30
0.0
 10
42.3761541122
 20
58.1881652491
 30
0.0
 10
42.3853285457
 20
58.1665607401
 30
0.0
 10
42.3957750865
 20
58.1511443478
 30
0.0
 10
42.4072164389
 20
58.1414441455
 30
0.0
 10
42.4159485272
 20
58.1390338702
 30
0.0
 10
42.419886978
 20
58.1390338702
 30
0.0
  0
SPLINE
  5
385
100
AcDbEntity
  8
0
100
AcDbSpline
 62
7
  6
CONTINUOUS
 70
0
 71
3
 72
13
 73
9
 74
0
 42
0.0000001
 43
0.0000001
 44
0.0000000001
 40
0.0
 40
0.0
 40
0.0
 40
0.0
 40
0.3629787008
 40
0.6394925078
 40
0.7481052071
 40
0.841389346
 40
0.923649432
 40
1.0
 40
1.0
 40
1.0
 40
1.0
 10
48.783409155
 20
58.3390338702
 30
0.0
 10
48.7738236822
 20
58.3085102609
 30
0.0
 10
48.7547718881
 20
58.2553603268
 30
0.0
 10
48.7222572124
 20
58.1972323496
 30
0.0
 10
48.693939674
 20
58.1657470992
 30
0.0
 10
48.673939757
 20
58.1503794379
 30
0.0
 10
48.653511594
 20
58.1411127226
 30
0.0
 10
48.6394582203
 20
58.1390338702
 30
0.0
 10
48.6327286036
 20
58.1390338702
 30
0.0
  0
SPLINE
  5
386
100
AcDbEntity
  8
0
100
AcDbSpline
 62
7
  6
CONTINUOUS
 70
0
 71
3
 72
11
 73
7
 74
0
 42
0.0000001
 43
0.0000001
 44
0.0000000001
 40
0.0
 40
0.0
 40
0.0
 40
0.0
 40
0.236057344
 40
0.4804738766
 40
0.7363159936
 40
1.0
 40
1.0
 40
1.0
 40
1.0
 10
48.8908268493
 20
58.3390338702
 30
0.0
 10
48.9024254809
 20
58.3390286363
 30
0.0
 10
48.9263299358
 20
58.3444676546
 30
0.0
 10
48.9557837426
 20
58.3671385228
 30
0.0
 10
48.9751295678
 20
58.4002781828
 30
0.0
 10
48.9796011741
 20
58.4260349187
 30
0.0
 10
48.9796056663
 20
58.4389909815
 30
0.0
  0
SPLINE
  5
387
100
AcDbEntity
  8
0
100
AcDbSpline
 62
7
  6
CONTINUOUS
 70
0
 71
3
 72
11
 73
7
 74
0
 42
0.0000001
 43
0.0000001
 44
0.0000000001
 40
0.0
 40
0.0
 40
0.0
 40
0.0
 40
0.2344647032
 40
0.478278968
 40
0.734792706
 40
1.0
 40
1.0
 40
1.0
 40
1.0
 10
48.9831897305
 20
58.1390382157
 30
0.0
 10
49.0175367318
 20
58.1390355264
 30
0.0
 10
49.0884912782
 20
58.1554643108
 30
0.0
 10
49.1755451612
 20
58.2236948096
 30
0.0
 10
49.2326247315
 20
58.3230709089
 30
0.0
 10
49.2457438774
 20
58.4001833501
 30
0.0
 10
49.2457461437
 20
58.4390338686
 30
0.0
  0
SPLINE
  5
388
100
AcDbEntity
  8
0
100
AcDbSpline
 62
7
  6
CONTINUOUS
 70
0
 71
3
 72
13
 73
9
 74
0
 42
0.0000001
 43
0.0000001
 44
0.0000000001
 40
0.0
 40
0.0
 40
0.0
 40
0.0
 40
0.3244946538
 40
0.6111590391
 40
0.7315696021
 40
0.8347486055
 40
0.9223675695
 40
1.0
 40
1.0
 40
1.0
 40
1.0
 10
48.8908394417
 20
58.3390338702
 30
0.0
 10
48.8908394417
 20
58.3134135121
 30
0.0
 10
48.8950349996
 20
58.2650910407
 30
0.0
 10
48.9109906687
 20
58.208925581
 30
0.0
 10
48.930388161
 20
58.1734187173
 30
0.0
 10
48.946211959
 20
58.154341348
 30
0.0
 10
48.9639224793
 20
58.1420790114
 30
0.0
 10
48.9770597238
 20
58.1390338702
 30
0.0
 10
48.9831891643
 20
58.1390338702
 30
0.0
  0
SPLINE
  5
389
100
AcDbEntity
  8
0
100
AcDbSpline
 62
7
  6
CONTINUOUS
 70
0
 71
3
 72
18
 73
14
 74
0
 42
0.0000001
 43
0.0000001
 44
0.0000000001
 40
0.0
 40
0.0
 40
0.0
 40
0.0
 40
0.1300355214
 40
0.2607197949
 40
0.3918459125
 40
0.523121073
 40
0.6540055554
 40
0.7831805645
 40
0.8460526105
 40
0.9061218402
 40
0.9597893812
 40
0.9820169291
 40
1.0
 40
1.0
 40
1.0
 40
1.0
 10
48.9796051992
 20
60.3393086144
 30
0.0
 10
48.9875831024
 20
60.3639870051
 30
0.0
 10
49.004135861
 20
60.4132888254
 30
0.0
 10
49.0307178085
 20
60.4867915475
 30
0.0
 10
49.0592253551
 20
60.5598366364
 30
0.0
 10
49.0898489936
 20
60.6320687898
 30
0.0
 10
49.1229154368
 20
60.7027925844
 30
0.0
 10
49.1530976165
 20
60.7597453031
 30
0.0
 10
49.179580101
 20
60.8025452076
 30
0.0
 10
49.2001677328
 20
60.8311090234
 30
0.0
 10
49.2186389671
 20
60.8513186456
 30
0.0
 10
49.2341924811
 20
60.8618907007
 30
0.0
 10
49.2421555811
 20
60.8642861282
 30
0.0
 10
49.2457423455
 20
60.8642861282
 30
0.0
  0
LINE
  5
38A
100
AcDbEntity
  8
0
100
AcDbLine
 62
7
  6
CONTINUOUS
 10
48.3317476882
 20
60.8890328406
 11
48.1103491076
 21
60.0390338702
  0
LINE
  5
38B
100
AcDbEntity
  8
0
100
AcDbLine
 62
7
  6
CONTINUOUS
 10
49.825062419
 20
59.9305523147
 11
50.1530892282
 21
60.8890338838
  0
SPLINE
  5
38C
100
AcDbEntity
  8
0
100
AcDbSpline
 62
7
  6
CONTINUOUS
 70
0
 71
3
 72
11
 73
7
 74
0
 42
0.0000001
 43
0.0000001
 44
0.0000000001
 40
0.0
 40
0.0
 40
0.0
 40
0.0
 40
0.2622537387
 40
0.5174504533
 40
0.7624403721
 40
1.0
 40
1.0
 40
1.0
 40
1.0
 10
49.7606438989
 20
58.4390338695
 30
0.0
 10
49.7606413285
 20
58.400173354
 30
0.0
 10
49.7470991314
 20
58.3227802675
 30
0.0
 10
49.6882817913
 20
58.2233431874
 30
0.0
 10
49.5989136199
 20
58.1553648297
 30
0.0
 10
49.5265350593
 20
58.1390688544
 30
0.0
 10
49.4913337073
 20
58.13903834
 30
0.0
  0
SPLINE
  5
38D
100
AcDbEntity
  8
0
100
AcDbSpline
 62
7
  6
CONTINUOUS
 70
0
 71
3
 72
20
 73
16
 74
0
 42
0.0000001
 43
0.0000001
 44
0.0000000001
 40
0.0
 40
0.0
 40
0.0
 40
0.0
 40
0.1266397454
 40
0.2531833391
 40
0.3795814044
 40
0.5057548559
 40
0.6315527267
 40
0.6942451367
 40
0.7567026828
 40
0.8187959266
 40
0.8802718555
 40
0.9106964383
 40
0.9408020803
 40
0.9705391895
 40
1.0
 40
1.0
 40
1.0
 40
1.0
 10
41.350513025
 20
60.8888797859
 30
0.0
 10
41.3527349397
 20
60.8397849451
 30
0.0
 10
41.359045665
 20
60.741705081
 30
0.0
 10
41.3745196533
 20
60.5951728807
 30
0.0
 10
41.3967135671
 20
60.4496682857
 30
0.0
 10
41.4268184879
 20
60.305873468
 30
0.0
 10
41.4601985262
 20
60.1882378826
 30
0.0
 10
41.4938415187
 20
60.096798064
 30
0.0
 10
41.5233673919
 20
60.0303213266
 30
0.0
 10
41.5584252362
 20
59.9671004469
 30
0.0
 10
41.5940955261
 20
59.9187363295
 30
0.0
 10
41.6280815565
 20
59.8855988484
 30
0.0
 10
41.6566562247
 20
59.8650311397
 30
0.0
 10
41.688562106
 20
59.850741159
 30
0.0
 10
41.71165232
 20
59.8472149347
 30
0.0
 10
41.7230851787
 20
59.8472149226
 30
0.0
  0
SPLINE
  5
38E
100
AcDbEntity
  8
0
100
AcDbSpline
 62
7
  6
CONTINUOUS
 70
0
 71
3
 72
11
 73
7
 74
0
 42
0.0000001
 43
0.0000001
 44
0.0000000001
 40
0.0
 40
0.0
 40
0.0
 40
0.0
 40
0.2295869119
 40
0.4743667334
 40
0.7342103463
 40
1.0
 40
1.0
 40
1.0
 40
1.0
 10
50.580955905
 20
58.1389853791
 30
0.0
 10
50.5999630747
 20
58.1389924357
 30
0.0
 10
50.6394462226
 20
58.1475196069
 30
0.0
 10
50.6918192538
 20
58.1803798869
 30
0.0
 10
50.7334408666
 20
58.2297265458
 30
0.0
 10
50.753657336
 20
58.2686238253
 30
0.0
 10
50.7618650664
 20
58.2890401011
 30
0.0
  0
SPLINE
  5
38F
100
AcDbEntity
  8
0
100
AcDbSpline
 62
7
  6
CONTINUOUS
 70
0
 71
3
 72
11
 73
7
 74
0
 42
0.0000001
 43
0.0000001
 44
0.0000000001
 40
0.0
 40
0.0
 40
0.0
 40
0.0
 40
0.2413012452
 40
0.5014062565
 40
0.7606269977
 40
1.0
 40
1.0
 40
1.0
 40
1.0
 10
50.6625537725
 20
58.4337981787
 30
0.0
 10
50.6619121845
 20
58.3967187001
 30
0.0
 10
50.6461172543
 20
58.3191959714
 30
0.0
 10
50.5795137097
 20
58.2193379489
 30
0.0
 10
50.4793331241
 20
58.1536870437
 30
0.0
 10
50.401965881
 20
58.1390250316
 30
0.0
 10
50.3651771993
 20
58.1390245453
 30
0.0
  0
SPLINE
  5
390
100
AcDbEntity
  8
0
100
AcDbSpline
 62
7
  6
CONTINUOUS
 70
0
 71
3
 72
9
 73
5
 74
0
 42
0.0000001
 43
0.0000001
 44
0.0000000001
 40
0.0
 40
0.0
 40
0.0
 40
0.0
 40
0.2284310937
 40
1.0
 40
1.0
 40
1.0
 40
1.0
 10
50.662553041
 20
58.4337838502
 30
0.0
 10
50.6660422842
 20
58.4207494151
 30
0.0
 10
50.6864592763
 20
58.3651417154
 30
0.0
 10
50.725817718
 20
58.3169350662
 30
0.0
 10
50.7618467447
 20
58.2890223483
 30
0.0
  0
SPLINE
  5
391
100
AcDbEntity
  8
0
100
AcDbSpline
 62
7
  6
CONTINUOUS
 70
0
 71
3
 72
10
 73
6
 74
0
 42
0.0000001
 43
0.0000001
 44
0.0000000001
 40
0.0
 40
0.0
 40
0.0
 40
0.0
 40
0.4543435286
 40
0.7192445203
 40
1.0
 40
1.0
 40
1.0
 40
1.0
 10
50.6625560967
 20
58.4338018521
 30
0.0
 10
50.6659799235
 20
58.4536477633
 30
0.0
 10
50.6828434324
 20
58.4832078475
 30
0.0
 10
50.7163338987
 20
58.5122745229
 30
0.0
 10
50.7372386389
 20
58.5247889665
 30
0.0
 10
50.7483969781
 20
58.5302990904
 30
0.0
  0
SPLINE
  5
392
100
AcDbEntity
  8
0
100
AcDbSpline
 62
7
  6
CONTINUOUS
 70
0
 71
3
 72
10
 73
6
 74
0
 42
0.0000001
 43
0.0000001
 44
0.0000000001
 40
0.0
 40
0.0
 40
0.0
 40
0.0
 40
0.2902826688
 40
0.5617858571
 40
1.0
 40
1.0
 40
1.0
 40
1.0
 10
50.6676011786
 20
59.5497983514
 30
0.0
 10
50.6537668311
 20
59.5448544539
 30
0.0
 10
50.6276246631
 20
59.5331237452
 30
0.0
 10
50.5855997416
 20
59.5051853071
 30
0.0
 10
50.5617545604
 20
59.4747202278
 30
0.0
 10
50.556029624
 20
59.4532938647
 30
0.0
  0
LINE
  5
393
100
AcDbEntity
  8
0
100
AcDbLine
 62
7
  6
CONTINUOUS
 10
50.5529078516
 20
60.6078605187
 11
50.5583492182
 21
60.8890338752
  0
LINE
  5
394
100
AcDbEntity
  8
0
100
AcDbLine
 62
7
  6
CONTINUOUS
 10
50.5383800247
 20
59.8532874635
 11
50.5529078516
 21
60.6078605187
  0
SPLINE
  5
395
100
AcDbEntity
  8
0
100
AcDbSpline
 62
7
  6
CONTINUOUS
 70
0
 71
3
 72
9
 73
5
 74
0
 42
0.0000001
 43
0.0000001
 44
0.0000000001
 40
0.0
 40
0.0
 40
0.0
 40
0.0
 40
0.4741109721
 40
1.0
 40
1.0
 40
1.0
 40
1.0
 10
50.5560296241
 20
59.4532938638
 30
0.0
 10
50.5486373546
 20
59.5161756469
 30
0.0
 10
50.5382491551
 20
59.6494386586
 30
0.0
 10
50.5366206408
 20
59.7830782068
 30
0.0
 10
50.5380170058
 20
59.8532937893
 30
0.0
  0
SPLINE
  5
396
100
AcDbEntity
  8
0
100
AcDbSpline
 62
7
  6
CONTINUOUS
 70
0
 71
3
 72
9
 73
5
 74
0
 42
0.0000001
 43
0.0000001
 44
0.0000000001
 40
0.0
 40
0.0
 40
0.0
 40
0.0
 40
0.3505407237
 40
1.0
 40
1.0
 40
1.0
 40
1.0
 10
50.5380171923
 20
59.8532937238
 30
0.0
 10
50.5499732374
 20
59.8524177796
 30
0.0
 10
50.5841736709
 20
59.851455391
 30
0.0
 10
50.618348264
 20
59.8503683457
 30
0.0
 10
50.6405518337
 20
59.8498032258
 30
0.0
  0
LINE
  5
397
100
AcDbEntity
  8
0
100
AcDbLine
 62
7
  6
CONTINUOUS
 10
50.6599374281
 20
60.8890338687
 11
50.6405527816
 21
59.8498033856
  0
SPLINE
  5
398
100
AcDbEntity
  8
0
100
AcDbSpline
 62
7
  6
CONTINUOUS
 70
0
 71
3
 72
14
 73
10
 74
0
 42
0.0000001
 43
0.0000001
 44
0.0000000001
 40
0.0
 40
0.0
 40
0.0
 40
0.0
 40
0.2811246777
 40
0.4167298292
 40
0.5476528728
 40
0.6722784314
 40
0.7885186657
 40
0.8953454248
 40
1.0
 40
1.0
 40
1.0
 40
1.0
 10
25.5352435823
 20
60.7194646391
 30
0.0
 10
25.5352443616
 20
60.7350670636
 30
0.0
 10
25.5359986109
 20
60.7582232194
 30
0.0
 10
25.53946675
 20
60.7884379662
 30
0.0
 10
25.5435259815
 20
60.8097890848
 30
0.0
 10
25.5495153998
 20
60.8296019541
 30
0.0
 10
25.5581064211
 20
60.8470000337
 30
0.0
 10
25.5707686259
 20
60.8607684227
 30
0.0
 10
25.5827748028
 20
60.8642861282
 30
0.0
 10
25.5885831336
 20
60.8642861282
 30
0.0
  0
SPLINE
  5
399
100
AcDbEntity
  8
0
100
AcDbSpline
 62
7
  6
CONTINUOUS
 70
0
 71
3
 72
12
 73
8
 74
0
 42
0.0000001
 43
0.0000001
 44
0.0000000001
 40
0.0
 40
0.0
 40
0.0
 40
0.0
 40
0.105074932
 40
0.2137895446
 40
0.4494495732
 40
0.7150379195
 40
1.0
 40
1.0
 40
1.0
 40
1.0
 10
25.8059436154
 20
58.1390382253
 30
0.0
 10
25.7916873282
 20
58.139042648
 30
0.0
 10
25.762545549
 20
58.1431042933
 30
0.0
 10
25.7058549782
 20
58.1671701663
 30
0.0
 10
25.6444957416
 20
58.2268478191
 30
0.0
 10
25.5990281147
 20
58.3251814532
 30
0.0
 10
25.5885817336
 20
58.40037097
 30
0.0
 10
25.5885799262
 20
58.4390338686
 30
0.0
  0
SPLINE
  5
39A
100
AcDbEntity
  8
0
100
AcDbSpline
 62
7
  6
CONTINUOUS
 70
0
 71
3
 72
9
 73
5
 74
0
 42
0.0000001
 43
0.0000001
 44
0.0000000001
 40
0.0
 40
0.0
 40
0.0
 40
0.0
 40
0.5297160804
 40
1.0
 40
1.0
 40
1.0
 40
1.0
 10
50.6405527808
 20
59.8498033856
 30
0.0
 10
50.6392254333
 20
59.7965380117
 30
0.0
 10
50.6424658614
 20
59.6957592494
 30
0.0
 10
50.6572905329
 20
59.5959700509
 30
0.0
 10
50.6676005276
 20
59.5498033856
 30
0.0
  0
SPLINE
  5
39B
100
AcDbEntity
  8
0
100
AcDbSpline
 62
7
  6
CONTINUOUS
 70
0
 71
3
 72
12
 73
8
 74
0
 42
0.0000001
 43
0.0000001
 44
0.0000000001
 40
0.0
 40
0.0
 40
0.0
 40
0.0
 40
0.2572617028
 40
0.5108302907
 40
0.7591959144
 40
0.88078067
 40
1.0
 40
1.0
 40
1.0
 40
1.0
 10
29.5663029099
 20
60.5686253833
 30
0.0
 10
29.5663028534
 20
60.5918215208
 30
0.0
 10
29.5676425875
 20
60.6379060511
 30
0.0
 10
29.5748148319
 20
60.7060377681
 30
0.0
 10
29.586709047
 20
60.7612375152
 30
0.0
 10
29.6021142017
 20
60.8026394956
 30
0.0
 10
29.6126266564
 20
60.8218245253
 30
0.0
 10
29.6188951741
 20
60.8305570436
 30
0.0
  0
SPLINE
  5
39C
100
AcDbEntity
  8
0
100
AcDbSpline
 62
7
  6
CONTINUOUS
 70
0
 71
3
 72
8
 73
4
 74
0
 42
0.0000001
 43
0.0000001
 44
0.0000000001
 40
0.0
 40
0.0
 40
0.0
 40
0.0
 40
1.0
 40
1.0
 40
1.0
 40
1.0
 10
29.6188951741
 20
60.8305570436
 30
0.0
 10
29.6250330716
 20
60.8391075981
 30
0.0
 10
29.632352251
 20
60.8470917938
 30
0.0
 10
29.6409694817
 20
60.8531357249
 30
0.0
  0
SPLINE
  5
39D
100
AcDbEntity
  8
0
100
AcDbSpline
 62
7
  6
CONTINUOUS
 70
0
 71
3
 72
9
 73
5
 74
0
 42
0.0000001
 43
0.0000001
 44
0.0000000001
 40
0.0
 40
0.0
 40
0.0
 40
0.0
 40
0.4921704493
 40
1.0
 40
1.0
 40
1.0
 40
1.0
 10
29.6409694817
 20
60.8531357249
 30
0.0
 10
29.6458378254
 20
60.8565502713
 30
0.0
 10
29.6566773459
 20
60.8622956441
 30
0.0
 10
29.66885962
 20
60.8642861282
 30
0.0
 10
29.6749952327
 20
60.8642861282
 30
0.0
  0
SPLINE
  5
39E
100
AcDbEntity
  8
0
100
AcDbSpline
 62
7
  6
CONTINUOUS
 70
0
 71
3
 72
11
 73
7
 74
0
 42
0.0000001
 43
0.0000001
 44
0.0000000001
 40
0.0
 40
0.0
 40
0.0
 40
0.0
 40
0.2130634655
 40
0.4621709813
 40
0.7308656354
 40
1.0
 40
1.0
 40
1.0
 40
1.0
 10
47.9745046679
 20
59.847214988
 30
0.0
 10
47.9902395153
 20
59.8540519836
 30
0.0
 10
48.0212077896
 20
59.8760639585
 30
0.0
 10
48.0593059833
 20
59.9213903028
 30
0.0
 10
48.090329412
 20
59.9770280722
 30
0.0
 10
48.1048854196
 20
60.0180630104
 30
0.0
 10
48.1103491076
 20
60.0390338702
 30
0.0
  0
SPLINE
  5
39F
100
AcDbEntity
  8
0
100
AcDbSpline
 62
7
  6
CONTINUOUS
 70
0
 71
3
 72
9
 73
5
 74
0
 42
0.0000001
 43
0.0000001
 44
0.0000000001
 40
0.0
 40
0.0
 40
0.0
 40
0.0
 40
0.2453409236
 40
1.0
 40
1.0
 40
1.0
 40
1.0
 10
47.9402095789
 20
59.8390338702
 30
0.0
 10
47.9431072993
 20
59.8390338702
 30
0.0
 10
47.9549159181
 20
59.8397273019
 30
0.0
 10
47.9664908972
 20
59.8433129447
 30
0.0
 10
47.9745046679
 20
59.847214988
 30
0.0
  0
SPLINE
  5
3A0
100
AcDbEntity
  8
0
100
AcDbSpline
 62
7
  6
CONTINUOUS
 70
0
 71
3
 72
9
 73
5
 74
0
 42
0.0000001
 43
0.0000001
 44
0.0000000001
 40
0.0
 40
0.0
 40
0.0
 40
0.0
 40
0.4702845184
 40
1.0
 40
1.0
 40
1.0
 40
1.0
 10
22.1640340468
 20
59.5498033856
 30
0.0
 10
22.1743481815
 20
59.595969291
 30
0.0
 10
22.1891743542
 20
59.6957591995
 30
0.0
 10
22.1924098004
 20
59.7965378654
 30
0.0
 10
22.191086197
 20
59.8498033856
 30
0.0
  0
SPLINE
  5
3A1
100
AcDbEntity
  8
0
100
AcDbSpline
 62
7
  6
CONTINUOUS
 70
0
 71
3
 72
14
 73
10
 74
0
 42
0.0000001
 43
0.0000001
 44
0.0000000001
 40
0.0
 40
0.0
 40
0.0
 40
0.0
 40
0.0756783332
 40
0.1617610976
 40
0.2641128929
 40
0.384541295
 40
0.5218100799
 40
0.6730194081
 40
1.0
 40
1.0
 40
1.0
 40
1.0
 10
29.8085840655
 20
58.1390382176
 30
0.0
 10
29.7996915303
 20
58.1390387763
 30
0.0
 10
29.7805428241
 20
58.1436285992
 30
0.0
 10
29.7549749879
 20
58.162132387
 30
0.0
 10
29.7321219513
 20
58.1907114738
 30
0.0
 10
29.7123313311
 20
58.228308407
 30
0.0
 10
29.6961009858
 20
58.2736708107
 30
0.0
 10
29.6796461845
 20
58.3441989413
 30
0.0
 10
29.6749943133
 20
58.4006122185
 30
0.0
 10
29.6749932359
 20
58.4390338686
 30
0.0
  0
SPLINE
  5
3A2
100
AcDbEntity
  8
0
100
AcDbSpline
 62
7
  6
CONTINUOUS
 70
0
 71
3
 72
16
 73
12
 74
0
 42
0.0000001
 43
0.0000001
 44
0.0000000001
 40
0.0
 40
0.0
 40
0.0
 40
0.0
 40
0.2615076697
 40
0.3902569013
 40
0.5172025425
 40
0.6417893653
 40
0.7631940475
 40
0.8225659863
 40
0.8811277208
 40
0.9396427673
 40
1.0
 40
1.0
 40
1.0
 40
1.0
 10
43.824245251
 20
60.5895731683
 30
0.0
 10
43.824244641
 20
60.6170054338
 30
0.0
 10
43.8227930667
 20
60.6579898086
 30
0.0
 10
43.8166227458
 20
60.71191737
 30
0.0
 10
43.8094136678
 20
60.7512000994
 30
0.0
 10
43.798799994
 20
60.7889103775
 30
0.0
 10
43.7858461443
 20
60.8184553517
 30
0.0
 10
43.7715955744
 20
60.8392334981
 30
0.0
 10
43.7584675876
 20
60.8524822831
 30
0.0
 10
43.7421608456
 20
60.8620360787
 30
0.0
 10
43.7295595341
 20
60.8642861278
 30
0.0
 10
43.7232280348
 20
60.8642861282
 30
0.0
  0
SPLINE
  5
3A3
100
AcDbEntity
  8
0
100
AcDbSpline
 62
7
  6
CONTINUOUS
 70
0
 71
3
 72
11
 73
7
 74
0
 42
0.0000001
 43
0.0000001
 44
0.0000000001
 40
0.0
 40
0.0
 40
0.0
 40
0.0
 40
0.2295863327
 40
0.4743661431
 40
0.7342099594
 40
1.0
 40
1.0
 40
1.0
 40
1.0
 10
22.2506789801
 20
58.1389845899
 30
0.0
 10
22.231671825
 20
58.1389916592
 30
0.0
 10
22.1921886749
 20
58.1475190078
 30
0.0
 10
22.1398157228
 20
58.1803795217
 30
0.0
 10
22.0981940836
 20
58.2297263629
 30
0.0
 10
22.077977625
 20
58.26862379
 30
0.0
 10
22.0697698879
 20
58.2890401393
 30
0.0
  0
SPLINE
  5
3A4
100
AcDbEntity
  8
0
100
AcDbSpline
 62
7
  6
CONTINUOUS
 70
0
 71
3
 72
13
 73
9
 74
0
 42
0.0000001
 43
0.0000001
 44
0.0000000001
 40
0.0
 40
0.0
 40
0.0
 40
0.0
 40
0.3250991056
 40
0.6047447791
 40
0.7224221674
 40
0.8239218488
 40
0.9128722384
 40
1.0
 40
1.0
 40
1.0
 40
1.0
 10
22.7924189617
 20
60.8217783199
 30
0.0
 10
22.7924180334
 20
60.8270952175
 30
0.0
 10
22.792767745
 20
60.8369812266
 30
0.0
 10
22.7945649508
 20
60.8487454251
 30
0.0
 10
22.7973967454
 20
60.8564301884
 30
0.0
 10
22.8000900338
 20
60.8607584568
 30
0.0
 10
22.8037366411
 20
60.8636677807
 30
0.0
 10
22.8066703297
 20
60.8642861282
 30
0.0
 10
22.8080952779
 20
60.8642861282
 30
0.0
  0
SPLINE
  5
3A5
100
AcDbEntity
  8
0
100
AcDbSpline
 62
7
  6
CONTINUOUS
 70
0
 71
3
 72
11
 73
7
 74
0
 42
0.0000001
 43
0.0000001
 44
0.0000000001
 40
0.0
 40
0.0
 40
0.0
 40
0.0
 40
0.2612656831
 40
0.5160386595
 40
0.7614230842
 40
1.0
 40
1.0
 40
1.0
 40
1.0
 10
23.5418230562
 20
58.4390129045
 30
0.0
 10
23.5418276987
 20
58.4260439816
 30
0.0
 10
23.5464171566
 20
58.4001880254
 30
0.0
 10
23.5662689305
 20
58.3670135652
 30
0.0
 10
23.5963941448
 20
58.3444089847
 30
0.0
 10
23.6207160367
 20
58.3390303088
 30
0.0
 10
23.6325587153
 20
58.3390354674
 30
0.0
  0
SPLINE
  5
3A6
100
AcDbEntity
  8
0
100
AcDbSpline
 62
7
  6
CONTINUOUS
 70
0
 71
3
 72
19
 73
15
 74
0
 42
0.0000001
 43
0.0000001
 44
0.0000000001
 40
0.0
 40
0.0
 40
0.0
 40
0.0
 40
0.1308786665
 40
0.2623410583
 40
0.3941597918
 40
0.5260094676
 40
0.6572916202
 40
0.722345423
 40
0.7865775377
 40
0.8492895306
 40
0.9089393196
 40
0.9616894702
 40
0.9831159782
 40
1.0
 40
1.0
 40
1.0
 40
1.0
 10
23.5418230562
 20
60.3393057623
 30
0.0
 10
23.5336734193
 20
60.3639786989
 30
0.0
 10
23.5168251273
 20
60.4132670476
 30
0.0
 10
23.4899403733
 20
60.4867648483
 30
0.0
 10
23.4612928036
 20
60.5598032747
 30
0.0
 10
23.4307132461
 20
60.6320172154
 30
0.0
 10
23.4033153904
 20
60.69115434
 30
0.0
 10
23.3798962824
 20
60.7372903402
 30
0.0
 10
23.3615939776
 20
60.7707306529
 30
0.0
 10
23.3424388143
 20
60.8024787198
 30
0.0
 10
23.3225694461
 20
60.8309804386
 30
0.0
 10
23.3049287633
 20
60.8511780589
 30
0.0
 10
23.2902336753
 20
60.8618119732
 30
0.0
 10
23.2827109642
 20
60.8642861278
 30
0.0
 10
23.2793588892
 20
60.8642861282
 30
0.0
  0
SPLINE
  5
3A7
100
AcDbEntity
  8
0
100
AcDbSpline
 62
7
  6
CONTINUOUS
 70
0
 71
3
 72
11
 73
7
 74
0
 42
0.0000001
 43
0.0000001
 44
0.0000000001
 40
0.0
 40
0.0
 40
0.0
 40
0.0
 40
0.262640852
 40
0.5180097502
 40
0.7628460075
 40
1.0
 40
1.0
 40
1.0
 40
1.0
 10
23.2793544586
 20
58.4390338695
 30
0.0
 10
23.2793568104
 20
58.4001566936
 30
0.0
 10
23.2928637737
 20
58.3227651918
 30
0.0
 10
23.3515096351
 20
58.2233049415
 30
0.0
 10
23.4406521694
 20
58.1553056797
 30
0.0
 10
23.5128896701
 20
58.1390356384
 30
0.0
 10
23.5479941765
 20
58.1390382484
 30
0.0
  0
SPLINE
  5
3A8
100
AcDbEntity
  8
0
100
AcDbSpline
 62
7
  6
CONTINUOUS
 70
0
 71
3
 72
12
 73
8
 74
0
 42
0.0000001
 43
0.0000001
 44
0.0000000001
 40
0.0
 40
0.0
 40
0.0
 40
0.0
 40
0.36690415
 40
0.5074687646
 40
0.662946637
 40
0.8291369512
 40
1.0
 40
1.0
 40
1.0
 40
1.0
 10
23.5479953162
 20
58.1390338702
 30
0.0
 10
23.5758912448
 20
58.1390338702
 30
0.0
 10
23.6038388952
 20
58.1825329006
 30
0.0
 10
23.6190036403
 20
58.228559799
 30
0.0
 10
23.6268390208
 20
58.2632866636
 30
0.0
 10
23.6314341708
 20
58.3003806464
 30
0.0
 10
23.6325189976
 20
58.3260441152
 30
0.0
 10
23.6325189685
 20
58.3390349288
 30
0.0
  0
SPLINE
  5
3A9
100
AcDbEntity
  8
0
100
AcDbSpline
 62
7
  6
CONTINUOUS
 70
0
 71
3
 72
13
 73
9
 74
0
 42
0.0000001
 43
0.0000001
 44
0.0000000001
 40
0.0
 40
0.0
 40
0.0
 40
0.0
 40
0.0813460772
 40
0.1677945816
 40
0.2638763751
 40
0.3736171612
 40
0.6470218307
 40
1.0
 40
1.0
 40
1.0
 40
1.0
 10
23.9060801602
 20
58.1390338702
 30
0.0
 10
23.8986576405
 20
58.1390338702
 30
0.0
 10
23.8832781259
 20
58.1410760049
 30
0.0
 10
23.8607833439
 20
58.1502543337
 30
0.0
 10
23.8387286584
 20
58.1655677771
 30
0.0
 10
23.8078241413
 20
58.1967769825
 30
0.0
 10
23.7723804416
 20
58.2547376173
 30
0.0
 10
23.7521262827
 20
58.3083670623
 30
0.0
 10
23.7422859746
 20
58.3390349288
 30
0.0
  0
SPLINE
  5
3AA
100
AcDbEntity
  8
0
100
AcDbSpline
 62
7
  6
CONTINUOUS
 70
0
 71
3
 72
13
 73
9
 74
0
 42
0.0000001
 43
0.0000001
 44
0.0000000001
 40
0.0
 40
0.0
 40
0.0
 40
0.0
 40
0.1197921035
 40
0.2406423005
 40
0.3629027696
 40
0.4871674414
 40
0.7407008805
 40
1.0
 40
1.0
 40
1.0
 40
1.0
 10
23.0828096685
 20
58.1390383842
 30
0.0
 10
23.0648484717
 20
58.1390592028
 30
0.0
 10
23.0286592695
 20
58.1430216995
 30
0.0
 10
22.9766595382
 20
58.1603011174
 30
0.0
 10
22.9287948444
 20
58.1883754655
 30
0.0
 10
22.8727294883
 20
58.2388138744
 30
0.0
 10
22.8219344012
 20
58.3225559482
 30
0.0
 10
22.8080935727
 20
58.4001554659
 30
0.0
 10
22.8080912471
 20
58.4390338686
 30
0.0
  0
SPLINE
  5
3AB
100
AcDbEntity
  8
0
100
AcDbSpline
 62
7
  6
CONTINUOUS
 70
0
 71
3
 72
11
 73
7
 74
0
 42
0.0000001
 43
0.0000001
 44
0.0000000001
 40
0.0
 40
0.0
 40
0.0
 40
0.0
 40
0.2880227206
 40
0.5553629228
 40
0.7905087564
 40
1.0
 40
1.0
 40
1.0
 40
1.0
 10
26.6544827585
 20
58.4390201334
 30
0.0
 10
26.6544863335
 20
58.4261311534
 30
0.0
 10
26.6578659328
 20
58.4011228346
 30
0.0
 10
26.6726878521
 20
58.3683874075
 30
0.0
 10
26.6957605654
 20
58.3450912708
 30
0.0
 10
26.7159005777
 20
58.3390302355
 30
0.0
 10
26.725275283
 20
58.3390354683
 30
0.0
  0
SPLINE
  5
3AC
100
AcDbEntity
  8
0
100
AcDbSpline
 62
7
  6
CONTINUOUS
 70
0
 71
3
 72
11
 73
7
 74
0
 42
0.0000001
 43
0.0000001
 44
0.0000000001
 40
0.0
 40
0.0
 40
0.0
 40
0.0
 40
0.2776360921
 40
0.5342294773
 40
0.7725233155
 40
1.0
 40
1.0
 40
1.0
 40
1.0
 10
38.4265513277
 20
30.6733723948
 30
0.0
 10
38.458247871
 20
30.615998139
 30
0.0
 10
38.5299780734
 20
30.5109364171
 30
0.0
 10
38.6656109944
 20
30.3862692203
 30
0.0
 10
38.8193724467
 20
30.3073017459
 30
0.0
 10
38.9300537727
 20
30.2890338702
 30
0.0
 10
38.9837590752
 20
30.2890338702
 30
0.0
  0
SPLINE
  5
3AD
100
AcDbEntity
  8
0
100
AcDbSpline
 62
7
  6
CONTINUOUS
 70
0
 71
3
 72
11
 73
7
 74
0
 42
0.0000001
 43
0.0000001
 44
0.0000000001
 40
0.0
 40
0.0
 40
0.0
 40
0.0
 40
0.2274766845
 40
0.4657705227
 40
0.7223639079
 40
1.0
 40
1.0
 40
1.0
 40
1.0
 10
38.276652294
 20
30.2890338702
 30
0.0
 10
38.2229469915
 20
30.2890338702
 30
0.0
 10
38.1122656655
 20
30.3073017459
 30
0.0
 10
37.9585042132
 20
30.3862692203
 30
0.0
 10
37.8228712922
 20
30.5109364171
 30
0.0
 10
37.7511410898
 20
30.615998139
 30
0.0
 10
37.7194445465
 20
30.6733723948
 30
0.0
  0
SPLINE
  5
3AE
100
AcDbEntity
  8
0
100
AcDbSpline
 62
7
  6
CONTINUOUS
 70
0
 71
3
 72
13
 73
9
 74
0
 42
0.0000001
 43
0.0000001
 44
0.0000000001
 40
0.0
 40
0.0
 40
0.0
 40
0.0
 40
0.1013723626
 40
0.206154174
 40
0.3169609538
 40
0.4358220233
 40
0.7005481252
 40
1.0
 40
1.0
 40
1.0
 40
1.0
 10
42.1386734621
 20
53.0890338702
 30
0.0
 10
42.1093207316
 20
53.0890338702
 30
0.0
 10
42.0494163156
 20
53.0818739795
 30
0.0
 10
41.9624484197
 20
53.0504248107
 30
0.0
 10
41.8796849613
 20
52.9989288646
 30
0.0
 10
41.7733456239
 20
52.9021229432
 30
0.0
 10
41.6614729785
 20
52.7356997231
 30
0.0
 10
41.603865976
 20
52.5814963315
 30
0.0
 10
41.5810336508
 20
52.4978491462
 30
0.0
  0
SPLINE
  5
3AF
100
AcDbEntity
  8
0
100
AcDbSpline
 62
7
  6
CONTINUOUS
 70
0
 71
3
 72
9
 73
5
 74
0
 42
0.0000001
 43
0.0000001
 44
0.0000000001
 40
0.0
 40
0.0
 40
0.0
 40
0.0
 40
0.4815721074
 40
1.0
 40
1.0
 40
1.0
 40
1.0
 10
35.249195796
 20
52.8456991055
 30
0.0
 10
35.2993531957
 20
52.7979500912
 30
0.0
 10
35.393002845
 20
52.6872688003
 30
0.0
 10
35.4612273725
 20
52.5592404369
 30
0.0
 10
35.4891545793
 20
52.4901177201
 30
0.0
  0
SPLINE
  5
3B0
100
AcDbEntity
  8
0
100
AcDbSpline
 62
7
  6
CONTINUOUS
 70
0
 71
3
 72
11
 73
7
 74
0
 42
0.0000001
 43
0.0000001
 44
0.0000000001
 40
0.0
 40
0.0
 40
0.0
 40
0.0
 40
0.2684933818
 40
0.5305192895
 40
0.7749370393
 40
1.0
 40
1.0
 40
1.0
 40
1.0
 10
34.9116563175
 20
52.955059274
 30
0.0
 10
34.9441037141
 20
52.955059274
 30
0.0
 10
35.0082978165
 20
52.9507394285
 30
0.0
 10
35.1002978355
 20
52.9313641071
 30
0.0
 10
35.1827654771
 20
52.8979117698
 30
0.0
 10
35.2294961777
 20
52.8644528161
 30
0.0
 10
35.249195796
 20
52.8456991055
 30
0.0
  0
SPLINE
  5
3B1
100
AcDbEntity
  8
0
100
AcDbSpline
 62
7
  6
CONTINUOUS
 70
0
 71
3
 72
11
 73
7
 74
0
 42
0.0000001
 43
0.0000001
 44
0.0000000001
 40
0.0
 40
0.0
 40
0.0
 40
0.0
 40
0.2725724896
 40
0.5289723165
 40
0.7694991482
 40
1.0
 40
1.0
 40
1.0
 40
1.0
 10
45.6578579923
 20
52.4980888026
 30
0.0
 10
45.6886936629
 20
52.5834753113
 30
0.0
 10
45.768743468
 20
52.7429525106
 30
0.0
 10
45.9431021911
 20
52.9354746375
 30
0.0
 10
46.1557959005
 20
53.0599847287
 30
0.0
 10
46.3139605433
 20
53.0890338702
 30
0.0
 10
46.3907318209
 20
53.0890338702
 30
0.0
  0
ELLIPSE
  5
3B2
100
AcDbEntity
  8
0
100
AcDbEllipse
 62
7
  6
CONTINUOUS
 10
36.13297467
 20
42.2667428095
 30
0.0
 11
8.746224182
 21
23.4593478914
 31
0.0
 40
0.2982166267
 41
-4.3148376185
 42
-4.2478709151
  0
ELLIPSE
  5
3B3
100
AcDbEntity
  8
0
100
AcDbEllipse
 62
7
  6
CONTINUOUS
 10
48.22702344
 20
32.0297930815
 30
0.0
 11
2.0683439367
 21
0.9845865539
 31
0.0
 40
0.3437446713
 41
-0.4504681758
 42
2.9815704497
  0
ENDSEC
  0
SECTION
  2
OBJECTS
  0
DICTIONARY
  5
C
100
AcDbDictionary
280
0
281
1
  3
ACAD_GROUP
350
D
  3
ACAD_MLINESTYLE
350
17
  3
ACAD_LAYOUT
350
1A
  3
ACAD_PLOTSETTINGS
350
19
  3
ACAD_PLOTSTYLENAME
350
E
  0
DICTIONARY
  5
D
102
{ACAD_REACTORS
330
C
102
}
100
AcDbDictionary
280
0
281
1
  0
ACDBDICTIONARYWDFLT
  5
E
102
{ACAD_REACTORS
330
C
102
}
100
AcDbDictionary
281
1
  3
Normal
350
F
100
AcDbDictionaryWithDefault
340
F
  0
DICTIONARY
  5
17
102
{ACAD_REACTORS
330
C
102
}
100
AcDbDictionary
280
0
281
1
  3
Standard
350
18
  0
DICTIONARY
  5
19
102
{ACAD_REACTORS
330
C
102
}
100
AcDbDictionary
281
1
  0
DICTIONARY
  5
1A
102
{ACAD_REACTORS
330
C
102
}
100
AcDbDictionary
281
1
  3
Model
350
3B4
  3
Layout1
350
3B5
  0
ACDBPLACEHOLDER
  5
F
102
{ACAD_REACTORS
330
E
102
}
  0
MLINESTYLE
  5
18
102
{ACAD_REACTORS
330
17
102
}
100
AcDbMlineStyle
  2
STANDARD
 70
0
  3

 62
256
 51
90.0
 52
90.0
 71
2
 49
0.5
 62
256
  6
BYLAYER
 49
-0.5
 62
256
  6
BYLAYER
  0
LAYOUT
  5
3B4
102
{ACAD_REACTORS
330
1A
102
}
100
AcDbPlotSettings
  1

  2
none_device
  4

  6

 40
0.0
 41
0.0
 42
0.0
 43
0.0
 44
210.0
 45
297.0
 46
0.0
 47
0.0
 48
0.0
 49
0.0
140
0.0
141
0.0
142
1.0
143
1.0
 70
1024
 72
1
 73
0
 74
0
  7

 75
0
147
1.0
148
0.0
149
0.0
100
AcDbLayout
  1
Model
 70
0
 71
0
 10
0.0
 20
0.0
 11
210.0
 21
297.0
 12
0.0
 22
0.0
 32
0.0
 14
0.0
 24
0.0
 34
0.0
 15
0.0
 25
0.0
 35
0.0
146
0.0
 13
0.0
 23
0.0
 33
0.0
 16
1.0
 26
0.0
 36
0.0
 17
0.0
 27
1.0
 37
0.0
 76
0
330
210
345
0
346
0
  0
LAYOUT
  5
3B5
102
{ACAD_REACTORS
330
1A
102
}
100
AcDbPlotSettings
  1

  2
none_device
  4

  6

 40
0.0
 41
0.0
 42
0.0
 43
0.0
 44
210.0
 45
297.0
 46
0.0
 47
0.0
 48
0.0
 49
0.0
140
0.0
141
0.0
142
1.0
143
1.0
 70
0
 72
1
 73
0
 74
0
  7

 75
0
147
1.0
148
0.0
149
0.0
100
AcDbLayout
  1
Layout1
 70
0
 71
1
 10
0.0
 20
0.0
 11
210.0
 21
297.0
 12
0.0
 22
0.0
 32
0.0
 14
0.0
 24
0.0
 34
0.0
 15
0.0
 25
0.0
 35
0.0
146
0.0
 13
0.0
 23
0.0
 33
0.0
 16
1.0
 26
0.0
 36
0.0
 17
0.0
 27
1.0
 37
0.0
 76
0
330
211
345
0
346
0
  0
ENDSEC
  0
EOF
