999
DXF file: Y:\001_SCHNEIDER_PARIS\maxime fuentes - génération CAD 2D\TRAVAIL\XB4FG21_2D-Views\xb4fg21_2d-views_5.dxf
999
Pro/ENGINEER 2018260 by Parametric Technology Corporation
  0
SECTION
  2
HEADER
  9
$ACADVER
  1
AC1027
  9
$DWGCODEPAGE
  3
ANSI_1252
  9
$EXTMAX
 10
558.8
 20
431.8
 30
0.0
  9
$EXTMIN
 10
0.0
 20
0.0
 30
0.0
  9
$LIMMIN
 10
0.0
 20
0.0
  9
$LIMMAX
 10
558.8
 20
431.8
  9
$VIEWCTR
 10
279.4
 20
215.9
  9
$VIEWSIZE
 40
431.8
  9
$CLAYER
  8
0
  9
$LTSCALE
 40
30.734
  9
$CELTYPE
  6
BYLAYER
  9
$DIMSCALE
 40
1.0
  9
$DIMASZ
 40
3.5
  9
$DIMEXO
 40
1.0
  9
$DIMDLI
 40
21.2344
  9
$DIMEXE
 40
3.0
  9
$DIMCEN
 40
5.0292
  9
$DIMLFAC
 40
1.0
  9
$DIMBLK
  1
_FILLED
  9
$DIMALT
 70
0
  9
$DIMALTF
 40
0.0393700787
  9
$DIMTXT
 40
4.0
  9
$DIMTOL
 70
1
  9
$DIMLIM
 70
0
  9
$DIMTFAC
 40
1.0
  9
$DIMTP
 40
0.0001
  9
$DIMTM
 40
0.0001
  9
$DIMGAP
 40
0.625
  9
$DIMDSEP
 70
46
  9
$AUNITS
 70
0
  9
$PDMODE
 70
0
  9
$PDSIZE
 40
0.01
  9
$HANDSEED
  5
3AC
  9
$TILEMODE
 70
1
  9
$MEASUREMENT
 70
1
  9
$INSUNITS
 70
4
  0
ENDSEC
  0
SECTION
  2
CLASSES
  0
CLASS
  1
ACDBDICTIONARYWDFLT
  2
AcDbDictionaryWithDefault
  3
AutoCAD 2000
 90
0
 91
1
280
0
281
0
  0
CLASS
  1
ACDBPLACEHOLDER
  2
AcDbPlaceHolder
  3
AutoCAD 2000
 90
0
 91
1
280
0
281
0
  0
CLASS
  1
LAYOUT
  2
AcDbLayout
  3
AutoCAD 2000
 90
0
 91
0
280
0
281
0
  0
ENDSEC
  0
SECTION
  2
TABLES
  0
TABLE
  2
VPORT
  5
8
100
AcDbSymbolTable
 70
2
  0
VPORT
  5
1F4
100
AcDbSymbolTableRecord
100
AcDbViewportTableRecord
  2
*ACTIVE
 70
0
 10
0.0
 20
0.0
 11
1.0
 21
1.0
 12
279.4
 22
215.9
 13
0.0
 23
0.0
 14
1.0
 24
1.0
 15
0.0
 25
0.0
 16
0.0
 26
0.0
 36
1.0
 17
0.0
 27
0.0
 37
0.0
 40
431.8
 41
1.2941176471
 42
50.0
 43
0.0
 44
0.0
 50
0.0
 51
0.0
 71
0
 72
100
 73
1
 74
1
 75
0
 76
0
 77
0
 78
0
  0
ENDTAB
  0
TABLE
  2
LTYPE
  5
5
100
AcDbSymbolTable
 70
6
  0
LTYPE
  5
14
100
AcDbSymbolTableRecord
100
AcDbLinetypeTableRecord
  2
BYBLOCK
 70
0
  3

 72
65
 73
0
 40
0.0
  0
LTYPE
  5
15
100
AcDbSymbolTableRecord
100
AcDbLinetypeTableRecord
  2
BYLAYER
 70
0
  3

 72
65
 73
0
 40
0.0
  0
LTYPE
  5
16
100
AcDbSymbolTableRecord
100
AcDbLinetypeTableRecord
  2
CONTINUOUS
 70
64
  3
Solid line
 72
65
 73
0
 40
0.0
  0
LTYPE
  5
1F5
100
AcDbSymbolTableRecord
100
AcDbLinetypeTableRecord
  2
CENTER
 70
64
  3
____ _ ____ _ ____ _ ____ _ ____ _ ____ _ ____
 72
65
 73
4
 40
0.6
 49
0.375
 74
0
 49
-0.075
 74
0
 49
0.075
 74
0
 49
-0.075
 74
0
  0
LTYPE
  5
1F6
100
AcDbSymbolTableRecord
100
AcDbLinetypeTableRecord
  2
HIDDEN
 70
64
  3
- - - - - - - - - - - - - - - - - - - -
 72
65
 73
2
 40
0.2
 49
0.1
 74
0
 49
-0.1
 74
0
  0
LTYPE
  5
1F7
100
AcDbSymbolTableRecord
100
AcDbLinetypeTableRecord
  2
PHANTOM
 70
64
  3
_____ _ _ _____ _ _ _____ _ _ _____
 72
65
 73
6
 40
0.8
 49
0.45
 74
0
 49
-0.05
 74
0
 49
0.1
 74
0
 49
-0.05
 74
0
 49
0.1
 74
0
 49
-0.05
 74
0
  0
LTYPE
  5
1F8
100
AcDbSymbolTableRecord
100
AcDbLinetypeTableRecord
  2
DOT
 70
64
  3
. . . . . . . . . . . . . . . . . . . .
 72
65
 73
2
 40
0.2
 49
0.1
 74
0
 49
-0.1
 74
0
  0
LTYPE
  5
1F9
100
AcDbSymbolTableRecord
100
AcDbLinetypeTableRecord
  2
DASHED
 70
64
  3
- - - - - - - - - - - - - - - - - - - -
 72
65
 73
2
 40
0.2
 49
0.1
 74
0
 49
-0.1
 74
0
  0
ENDTAB
  0
TABLE
  2
LAYER
  5
2
100
AcDbSymbolTable
 70
36
  0
LAYER
  5
10
100
AcDbSymbolTableRecord
100
AcDbLayerTableRecord
  2
0
 70
0
 62
7
  6
CONTINUOUS
370
-3
390
F
  0
LAYER
  5
1FA
100
AcDbSymbolTableRecord
100
AcDbLayerTableRecord
  2
DEFAULT_1
 70
0
 62
7
  6
CENTER
370
-3
390
F
  0
LAYER
  5
1FB
100
AcDbSymbolTableRecord
100
AcDbLayerTableRecord
  2
DEFAULT_2
 70
0
 62
8
  6
HIDDEN
370
-3
390
F
  0
LAYER
  5
1FC
100
AcDbSymbolTableRecord
100
AcDbLayerTableRecord
  2
DEFAULT_3
 70
0
 62
7
  6
PHANTOM
370
-3
390
F
  0
LAYER
  5
1FD
100
AcDbSymbolTableRecord
100
AcDbLayerTableRecord
  2
01_ALL_DTM_PLN
 70
0
 62
7
  6
CONTINUOUS
370
-3
390
F
  0
LAYER
  5
1FE
100
AcDbSymbolTableRecord
100
AcDbLayerTableRecord
  2
01__ASM_ALL_DTM_PLN
 70
0
 62
7
  6
CONTINUOUS
370
-3
390
F
  0
LAYER
  5
1FF
100
AcDbSymbolTableRecord
100
AcDbLayerTableRecord
  2
01__ASM_DEF_DTM_PLN
 70
0
 62
7
  6
CONTINUOUS
370
-3
390
F
  0
LAYER
  5
200
100
AcDbSymbolTableRecord
100
AcDbLayerTableRecord
  2
01___PRT_ALL_DTM_PLN
 70
0
 62
7
  6
CONTINUOUS
370
-3
390
F
  0
LAYER
  5
201
100
AcDbSymbolTableRecord
100
AcDbLayerTableRecord
  2
01___PRT_DEF_DTM_PLN
 70
0
 62
7
  6
CONTINUOUS
370
-3
390
F
  0
LAYER
  5
202
100
AcDbSymbolTableRecord
100
AcDbLayerTableRecord
  2
02_ALL_AXES
 70
0
 62
7
  6
CONTINUOUS
370
-3
390
F
  0
LAYER
  5
203
100
AcDbSymbolTableRecord
100
AcDbLayerTableRecord
  2
02__ASM_ALL_AXES
 70
0
 62
7
  6
CONTINUOUS
370
-3
390
F
  0
LAYER
  5
204
100
AcDbSymbolTableRecord
100
AcDbLayerTableRecord
  2
02___PRT_ALL_AXES
 70
0
 62
7
  6
CONTINUOUS
370
-3
390
F
  0
LAYER
  5
205
100
AcDbSymbolTableRecord
100
AcDbLayerTableRecord
  2
03_ALL_CURVES
 70
0
 62
7
  6
CONTINUOUS
370
-3
390
F
  0
LAYER
  5
206
100
AcDbSymbolTableRecord
100
AcDbLayerTableRecord
  2
03__ASM_ALL_CURVES
 70
0
 62
7
  6
CONTINUOUS
370
-3
390
F
  0
LAYER
  5
207
100
AcDbSymbolTableRecord
100
AcDbLayerTableRecord
  2
03___PRT_ALL_CURVES
 70
0
 62
7
  6
CONTINUOUS
370
-3
390
F
  0
LAYER
  5
208
100
AcDbSymbolTableRecord
100
AcDbLayerTableRecord
  2
04_ALL_DTM_PNT
 70
0
 62
7
  6
CONTINUOUS
370
-3
390
F
  0
LAYER
  5
209
100
AcDbSymbolTableRecord
100
AcDbLayerTableRecord
  2
04__ASM_ALL_DTM_PNT
 70
0
 62
7
  6
CONTINUOUS
370
-3
390
F
  0
LAYER
  5
20A
100
AcDbSymbolTableRecord
100
AcDbLayerTableRecord
  2
04___PRT_ALL_DTM_PNT
 70
0
 62
7
  6
CONTINUOUS
370
-3
390
F
  0
LAYER
  5
20B
100
AcDbSymbolTableRecord
100
AcDbLayerTableRecord
  2
05_ALL_DTM_CSYS
 70
0
 62
7
  6
CONTINUOUS
370
-3
390
F
  0
LAYER
  5
20C
100
AcDbSymbolTableRecord
100
AcDbLayerTableRecord
  2
05__ASM_ALL_DTM_CSYS
 70
0
 62
7
  6
CONTINUOUS
370
-3
390
F
  0
LAYER
  5
20D
100
AcDbSymbolTableRecord
100
AcDbLayerTableRecord
  2
05__ASM_DEF_DTM_CSYS
 70
0
 62
7
  6
CONTINUOUS
370
-3
390
F
  0
LAYER
  5
20E
100
AcDbSymbolTableRecord
100
AcDbLayerTableRecord
  2
05___PRT_ALL_DTM_CSYS
 70
0
 62
7
  6
CONTINUOUS
370
-3
390
F
  0
LAYER
  5
20F
100
AcDbSymbolTableRecord
100
AcDbLayerTableRecord
  2
05___PRT_DEF_DTM_CSYS
 70
0
 62
7
  6
CONTINUOUS
370
-3
390
F
  0
LAYER
  5
210
100
AcDbSymbolTableRecord
100
AcDbLayerTableRecord
  2
06_ALL_SURFS
 70
0
 62
7
  6
CONTINUOUS
370
-3
390
F
  0
LAYER
  5
211
100
AcDbSymbolTableRecord
100
AcDbLayerTableRecord
  2
06__ASM_ALL_SURFS
 70
0
 62
7
  6
CONTINUOUS
370
-3
390
F
  0
LAYER
  5
212
100
AcDbSymbolTableRecord
100
AcDbLayerTableRecord
  2
06___PRT_ALL_SURFS
 70
0
 62
7
  6
CONTINUOUS
370
-3
390
F
  0
LAYER
  5
213
100
AcDbSymbolTableRecord
100
AcDbLayerTableRecord
  2
07__ASM_ALL_SKELETONS
 70
0
 62
7
  6
CONTINUOUS
370
-3
390
F
  0
LAYER
  5
214
100
AcDbSymbolTableRecord
100
AcDbLayerTableRecord
  2
CLOSED_SHELL
 70
0
 62
7
  6
CONTINUOUS
370
-3
390
F
  0
LAYER
  5
215
100
AcDbSymbolTableRecord
100
AcDbLayerTableRecord
  2
ORIENTED_CLOSED_SHE
 70
0
 62
7
  6
CONTINUOUS
370
-3
390
F
  0
ENDTAB
  0
TABLE
  2
STYLE
  5
3
100
AcDbSymbolTable
 70
1
  0
STYLE
  5
11
100
AcDbSymbolTableRecord
100
AcDbTextStyleTableRecord
  2
STANDARD
 70
0
 40
0.0
 41
0.6
 50
0.0
 71
0
 42
0.2
  3
txt
  4

  0
STYLE
  5
216
100
AcDbSymbolTableRecord
100
AcDbTextStyleTableRecord
  2
TEXTSTYLE_1
 70
0
 40
0.0
 41
0.8
 50
0.0
 71
0
 42
0.2
  3
gdt
  4

  0
ENDTAB
  0
TABLE
  2
VIEW
  5
6
100
AcDbSymbolTable
 70
0
  0
ENDTAB
  0
TABLE
  2
UCS
  5
7
100
AcDbSymbolTable
 70
0
  0
ENDTAB
  0
TABLE
  2
APPID
  5
9
100
AcDbSymbolTable
 70
1
  0
APPID
  5
217
100
AcDbSymbolTableRecord
100
AcDbRegAppTableRecord
  2
ACAD
 70
0
  0
ENDTAB
  0
TABLE
  2
BLOCK_RECORD
  5
1
100
AcDbSymbolTable
 70
0
  0
BLOCK_RECORD
  5
218
100
AcDbSymbolTableRecord
100
AcDbBlockTableRecord
  2
*Model_Space
  0
BLOCK_RECORD
  5
219
100
AcDbSymbolTableRecord
100
AcDbBlockTableRecord
  2
*Paper_Space
  0
BLOCK_RECORD
  5
21A
100
AcDbSymbolTableRecord
100
AcDbBlockTableRecord
  2
_FILLED
  0
ENDTAB
  0
TABLE
  2
DIMSTYLE
  5
A
100
AcDbSymbolTable
 70
1
100
AcDbDimStyleTable
 71
0
  0
DIMSTYLE
105
21B
100
AcDbSymbolTableRecord
100
AcDbDimStyleTableRecord
  2
STANDARD
 70
0
  3

  4

 40
1.0
 41
3.5
 42
1.0
 43
0.38
 44
3.0
 45
0.0
 46
0.0
 47
0.0001
 48
0.0001
140
4.0
141
0.09
142
0.0
143
25.4
144
1.0
145
0.0
146
1.0
147
0.625
 71
1.0
 72
0.0
 73
0
 74
0
 75
0
 76
0
 77
1
 78
8
 79
2
170
0
171
3
172
0
173
0
174
0
175
0
176
0
177
0
178
0
270
2
179
4
271
4
272
4
273
2
274
2
275
0
280
0
281
0
282
0
283
1
284
8
285
0
286
0
287
3
288
0
340
11
278
46
341
21A
342
21A
343
21A
344
21A
  0
ENDTAB
  0
ENDSEC
  0
SECTION
  2
BLOCKS
  0
BLOCK
  5
20
100
AcDbEntity
  8
0
100
AcDbBlockBegin
  2
*Model_Space
 70
0
 10
0.0
 20
0.0
 30
0.0
  3
*Model_Space
  1

  0
ENDBLK
  5
21
100
AcDbEntity
  8
0
100
AcDbBlockEnd
  0
BLOCK
  5
1C
100
AcDbEntity
  8
0
100
AcDbBlockBegin
  2
*Paper_Space
 70
0
 10
0.0
 20
0.0
 30
0.0
  3
*Paper_Space
  1

  0
ENDBLK
  5
1D
100
AcDbEntity
  8
0
100
AcDbBlockEnd
  0
BLOCK
  5
21C
100
AcDbEntity
  8
0
100
AcDbBlockBegin
  2
_FILLED
 70
64
 10
0.0
 20
0.0
  3
_FILLED
  1

  0
SOLID
  5
21D
100
AcDbEntity
  8
0
  6
BYBLOCK
 62
0
100
AcDbTrace
 10
0.0
 20
0.0
 11
-1.0
 21
0.2857142857
 12
-1.0
 22
-0.2857142857
 13
-1.0
 23
-0.2857142857
  0
ENDBLK
  5
21E
100
AcDbEntity
  8
0
  6
BYBLOCK
 62
0
100
AcDbBlockEnd
  0
ENDSEC
  0
SECTION
  2
ENTITIES
  0
LINE
  5
21F
100
AcDbEntity
  8
0
100
AcDbLine
 62
7
  6
CONTINUOUS
 10
323.6143208089
 20
181.895532134
 11
323.6143208089
 21
210.895532134
  0
LINE
  5
220
100
AcDbEntity
  8
0
100
AcDbLine
 62
7
  6
CONTINUOUS
 10
327.6143208082
 20
212.3514130703
 11
327.6143208082
 21
209.627299003
  0
LINE
  5
221
100
AcDbEntity
  8
0
100
AcDbLine
 62
7
  6
CONTINUOUS
 10
328.6143208089
 20
212.3955321335
 11
328.6143208089
 21
210.2858307646
  0
LINE
  5
222
100
AcDbEntity
  8
0
100
AcDbLine
 62
7
  6
CONTINUOUS
 10
328.6143208082
 20
180.395532134
 11
328.6143208082
 21
182.5051248408
  0
LINE
  5
223
100
AcDbEntity
  8
0
100
AcDbLine
 62
7
  6
CONTINUOUS
 10
324.7210136847
 20
207.0049890462
 11
324.3355134903
 21
208.9882156132
  0
LINE
  5
224
100
AcDbEntity
  8
0
100
AcDbLine
 62
7
  6
CONTINUOUS
 10
327.5472641151
 20
209.4569119525
 11
325.1493637869
 21
206.8823042447
  0
LINE
  5
225
100
AcDbEntity
  8
0
100
AcDbLine
 62
7
  6
CONTINUOUS
 10
324.0910222466
 20
208.895532134
 11
323.6143208082
 21
208.4955321337
  0
LINE
  5
226
100
AcDbEntity
  8
0
100
AcDbLine
 62
7
  6
CONTINUOUS
 10
338.8678140199
 20
174.7496908961
 11
337.8999242725
 21
179.5227826751
  0
LINE
  5
227
100
AcDbEntity
  8
0
100
AcDbLine
 62
7
  6
CONTINUOUS
 10
339.684870988
 20
174.7458705214
 11
339.6731889955
 21
174.8034795854
  0
LINE
  5
228
100
AcDbEntity
  8
0
100
AcDbLine
 62
7
  6
CONTINUOUS
 10
338.6626343156
 20
179.7869709876
 11
338.6509523231
 21
179.8445800517
  0
LINE
  5
229
100
AcDbEntity
  8
0
100
AcDbLine
 62
7
  6
CONTINUOUS
 10
344.2143208089
 20
181.1756266207
 11
346.5462490196
 21
177.1363801784
  0
LINE
  5
22A
100
AcDbEntity
  8
0
100
AcDbLine
 62
7
  6
CONTINUOUS
 10
340.287497849
 20
180.3281291056
 11
341.3805053236
 21
174.9380265598
  0
LINE
  5
22B
100
AcDbEntity
  8
0
100
AcDbLine
 62
9
  6
CONTINUOUS
 10
341.2810013862
 20
176.1834959848
 11
340.6810185311
 21
179.1422764048
  0
LINE
  5
22C
100
AcDbEntity
  8
0
100
AcDbLine
 62
7
  6
CONTINUOUS
 10
343.8940816745
 20
176.2129429418
 11
343.0991580245
 21
180.1330625102
  0
LINE
  5
22D
100
AcDbEntity
  8
0
100
AcDbLine
 62
7
  6
CONTINUOUS
 10
343.4143208089
 20
188.7389141648
 11
343.4143208089
 21
184.3602324752
  0
LINE
  5
22E
100
AcDbEntity
  8
0
100
AcDbLine
 62
7
  6
CONTINUOUS
 10
327.7355369377
 20
212.395532134
 11
323.6143208089
 21
210.8955321343
  0
LINE
  5
22F
100
AcDbEntity
  8
0
100
AcDbLine
 62
7
  6
CONTINUOUS
 10
323.6143208082
 20
181.895532134
 11
327.7355369376
 21
180.395532134
  0
LINE
  5
230
100
AcDbEntity
  8
0
100
AcDbLine
 62
7
  6
CONTINUOUS
 10
344.2143208089
 20
183.0955321341
 11
345.7731665357
 21
180.3955321347
  0
LINE
  5
231
100
AcDbEntity
  8
0
100
AcDbLine
 62
7
  6
CONTINUOUS
 10
344.2143208089
 20
181.1755734721
 11
344.2143208089
 21
188.9021282559
  0
LINE
  5
232
100
AcDbEntity
  8
0
100
AcDbLine
 62
7
  6
CONTINUOUS
 10
344.8143208092
 20
208.6955321339
 11
344.8143208092
 21
211.895532134
  0
LINE
  5
233
100
AcDbEntity
  8
0
100
AcDbLine
 62
7
  6
CONTINUOUS
 10
344.9143208089
 20
211.995532134
 11
344.9143208089
 21
208.695532134
  0
LINE
  5
234
100
AcDbEntity
  8
0
100
AcDbLine
 62
7
  6
CONTINUOUS
 10
345.7143208089
 20
211.995532134
 11
345.7143208089
 21
211.845532134
  0
LINE
  5
235
100
AcDbEntity
  8
0
100
AcDbLine
 62
7
  6
CONTINUOUS
 10
345.7143208089
 20
209.295532134
 11
345.7143208089
 21
208.695532134
  0
LINE
  5
236
100
AcDbEntity
  8
0
100
AcDbLine
 62
7
  6
CONTINUOUS
 10
346.0143208086
 20
211.9955321347
 11
346.0143208087
 21
211.8455321344
  0
LINE
  5
237
100
AcDbEntity
  8
0
100
AcDbLine
 62
7
  6
CONTINUOUS
 10
346.0143208087
 20
209.2955321336
 11
346.0143208086
 21
209.195532134
  0
LINE
  5
238
100
AcDbEntity
  8
0
100
AcDbLine
 62
9
  6
CONTINUOUS
 10
346.0143208087
 20
209.2955321336
 11
346.0143208087
 21
211.8455321344
  0
LINE
  5
239
100
AcDbEntity
  8
0
100
AcDbLine
 62
7
  6
CONTINUOUS
 10
346.7143208089
 20
200.1955321348
 11
346.7143208089
 21
192.595532134
  0
LINE
  5
23A
100
AcDbEntity
  8
0
100
AcDbLine
 62
7
  6
CONTINUOUS
 10
346.7143208089
 20
176.1459268199
 11
346.7143208089
 21
177.0784779094
  0
LINE
  5
23B
100
AcDbEntity
  8
0
100
AcDbLine
 62
7
  6
CONTINUOUS
 10
347.0143208089
 20
200.8164782113
 11
347.0143208089
 21
202.3745860561
  0
LINE
  5
23C
100
AcDbEntity
  8
0
100
AcDbLine
 62
7
  6
CONTINUOUS
 10
347.2143208089
 20
191.6955321349
 11
347.2143208089
 21
215.095532134
  0
LINE
  5
23D
100
AcDbEntity
  8
0
100
AcDbLine
 62
7
  6
CONTINUOUS
 10
357.427160356
 20
219.9304617071
 11
354.406504794
 21
215.6152394757
  0
LINE
  5
23E
100
AcDbEntity
  8
0
100
AcDbLine
 62
7
  6
CONTINUOUS
 10
348.2143208089
 20
193.009532134
 11
348.2143208089
 21
195.1027118108
  0
LINE
  5
23F
100
AcDbEntity
  8
0
100
AcDbLine
 62
7
  6
CONTINUOUS
 10
348.2143208089
 20
198.0883524573
 11
348.2143208089
 21
199.9490886989
  0
LINE
  5
240
100
AcDbEntity
  8
0
100
AcDbLine
 62
7
  6
CONTINUOUS
 10
348.2143208089
 20
206.795532134
 11
348.2143208089
 21
207.0955321338
  0
LINE
  5
241
100
AcDbEntity
  8
0
100
AcDbLine
 62
7
  6
CONTINUOUS
 10
348.2143208089
 20
213.145532134
 11
348.2143208089
 21
215.095532134
  0
LINE
  5
242
100
AcDbEntity
  8
0
100
AcDbLine
 62
7
  6
CONTINUOUS
 10
348.4143201101
 20
199.2638649469
 11
348.4143201101
 21
199.7289521089
  0
LINE
  5
243
100
AcDbEntity
  8
0
100
AcDbLine
 62
7
  6
CONTINUOUS
 10
348.7143208089
 20
198.8455321338
 11
348.7143208089
 21
193.0922340731
  0
LINE
  5
244
100
AcDbEntity
  8
0
100
AcDbLine
 62
7
  6
CONTINUOUS
 10
349.6311221234
 20
183.4955321342
 11
349.6311221234
 21
180.395532134
  0
LINE
  5
245
100
AcDbEntity
  8
0
100
AcDbLine
 62
7
  6
CONTINUOUS
 10
349.8643208089
 20
184.1924895387
 11
349.8643208089
 21
182.620532134
  0
LINE
  5
246
100
AcDbEntity
  8
0
100
AcDbLine
 62
7
  6
CONTINUOUS
 10
350.5143208089
 20
179.5912632691
 11
350.5143208089
 21
176.9455321336
  0
LINE
  5
247
100
AcDbEntity
  8
0
100
AcDbLine
 62
7
  6
CONTINUOUS
 10
350.5143208089
 20
179.5954972622
 11
350.5143208089
 21
182.8457770177
  0
LINE
  5
248
100
AcDbEntity
  8
0
100
AcDbLine
 62
7
  6
CONTINUOUS
 10
352.4888286854
 20
210.4311734958
 11
349.1363926849
 21
207.2955321333
  0
LINE
  5
249
100
AcDbEntity
  8
0
100
AcDbLine
 62
7
  6
CONTINUOUS
 10
353.9257367138
 20
174.1569993622
 11
356.4257367142
 21
174.1569993622
  0
LINE
  5
24A
100
AcDbEntity
  8
0
100
AcDbLine
 62
7
  6
CONTINUOUS
 10
328.9664152491
 20
182.800675831
 11
336.3374025383
 21
181.5009718975
  0
LINE
  5
24B
100
AcDbEntity
  8
0
100
AcDbLine
 62
9
  6
CONTINUOUS
 10
348.8535751395
 20
179.5959165075
 11
348.3794133132
 21
179.7545688352
  0
LINE
  5
24C
100
AcDbEntity
  8
0
100
AcDbLine
 62
7
  6
CONTINUOUS
 10
348.4142053651
 20
207.2955321333
 11
348.0643208085
 21
209.095532134
  0
LINE
  5
24D
100
AcDbEntity
  8
0
100
AcDbLine
 62
7
  6
CONTINUOUS
 10
350.5143208089
 20
182.4955321341
 11
350.3851786984
 21
183.2279334372
  0
LINE
  5
24E
100
AcDbEntity
  8
0
100
AcDbLine
 62
7
  6
CONTINUOUS
 10
352.0143208089
 20
185.5632902275
 11
352.0143208089
 21
185.1955212972
  0
LINE
  5
24F
100
AcDbEntity
  8
0
100
AcDbLine
 62
7
  6
CONTINUOUS
 10
352.1143208089
 20
213.145532134
 11
352.1143208089
 21
219.595532134
  0
LINE
  5
250
100
AcDbEntity
  8
0
100
AcDbLine
 62
7
  6
CONTINUOUS
 10
352.4888286858
 20
210.4311734963
 11
352.4888286858
 21
213.145532134
  0
LINE
  5
251
100
AcDbEntity
  8
0
100
AcDbLine
 62
7
  6
CONTINUOUS
 10
353.6143208089
 20
213.145532134
 11
353.6143208089
 21
219.595532134
  0
LINE
  5
252
100
AcDbEntity
  8
0
100
AcDbLine
 62
7
  6
CONTINUOUS
 10
353.9257367138
 20
176.6569993622
 11
353.9257367138
 21
174.1569993622
  0
LINE
  5
253
100
AcDbEntity
  8
0
100
AcDbLine
 62
7
  6
CONTINUOUS
 10
354.0143208089
 20
213.145532134
 11
354.0143208089
 21
196.595532134
  0
LINE
  5
254
100
AcDbEntity
  8
0
100
AcDbLine
 62
7
  6
CONTINUOUS
 10
354.0143208089
 20
185.5632902218
 11
354.0143208089
 21
185.868227098
  0
LINE
  5
255
100
AcDbEntity
  8
0
100
AcDbLine
 62
7
  6
CONTINUOUS
 10
354.2257367146
 20
174.1569993622
 11
354.2257367146
 21
215.041777131
  0
LINE
  5
256
100
AcDbEntity
  8
0
100
AcDbLine
 62
7
  6
CONTINUOUS
 10
356.4257367142
 20
174.1569993622
 11
359.8257367146
 21
174.8727888359
  0
LINE
  5
257
100
AcDbEntity
  8
0
100
AcDbLine
 62
7
  6
CONTINUOUS
 10
339.684876533
 20
174.7458431768
 11
341.3805249598
 21
174.9379297247
  0
LWPOLYLINE
  5
258
100
AcDbEntity
  8
0
100
AcDbPolyline
 62
7
  6
CONTINUOUS
 90
3
 70
0
 10
347.1986155975
 20
176.1626260408
 10
347.9212425189
 20
176.2246757883
 10
348.7124893543
 20
176.2346817983
  0
LINE
  5
259
100
AcDbEntity
  8
0
100
AcDbLine
 62
7
  6
CONTINUOUS
 10
346.7143208089
 20
176.1459137475
 11
347.1986155889
 21
176.162626038
  0
LINE
  5
25A
100
AcDbEntity
  8
0
100
AcDbLine
 62
7
  6
CONTINUOUS
 10
353.9257367146
 20
176.6569993622
 11
354.2257367146
 21
176.6569993622
  0
LINE
  5
25B
100
AcDbEntity
  8
0
100
AcDbLine
 62
7
  6
CONTINUOUS
 10
359.8257367146
 20
177.6569993622
 11
360.2257367146
 21
177.6569993622
  0
LINE
  5
25C
100
AcDbEntity
  8
0
100
AcDbLine
 62
9
  6
CONTINUOUS
 10
360.2257367146
 20
177.9569993622
 11
354.2257367146
 21
177.9569993622
  0
LINE
  5
25D
100
AcDbEntity
  8
0
100
AcDbLine
 62
7
  6
CONTINUOUS
 10
375.1143208089
 20
178.390532134
 11
376.7143208089
 21
178.390532134
  0
LINE
  5
25E
100
AcDbEntity
  8
0
100
AcDbLine
 62
7
  6
CONTINUOUS
 10
374.1143208089
 20
178.995532134
 11
375.1143208089
 21
178.995532134
  0
LINE
  5
25F
100
AcDbEntity
  8
0
100
AcDbLine
 62
7
  6
CONTINUOUS
 10
346.546239892
 20
177.136395988
 11
346.5642573813
 21
177.1363213453
  0
LINE
  5
260
100
AcDbEntity
  8
0
100
AcDbLine
 62
7
  6
CONTINUOUS
 10
361.4151178607
 20
181.8065239986
 11
360.2610000972
 21
183.112714077
  0
LINE
  5
261
100
AcDbEntity
  8
0
100
AcDbLine
 62
7
  6
CONTINUOUS
 10
356.1221642667
 20
180.1094393894
 11
355.8774306448
 21
181.3163289568
  0
LINE
  5
262
100
AcDbEntity
  8
0
100
AcDbLine
 62
7
  6
CONTINUOUS
 10
347.4524371788
 20
176.9841292016
 11
348.5938766329
 21
180.395532134
  0
LINE
  5
263
100
AcDbEntity
  8
0
100
AcDbLine
 62
7
  6
CONTINUOUS
 10
349.6311221237
 20
183.4955321344
 11
354.0143208096
 21
196.595532134
  0
LINE
  5
264
100
AcDbEntity
  8
0
100
AcDbLine
 62
9
  6
CONTINUOUS
 10
349.9682358787
 20
182.927286297
 11
349.6311221234
 21
181.9197594859
  0
LINE
  5
265
100
AcDbEntity
  8
0
100
AcDbLine
 62
9
  6
CONTINUOUS
 10
349.1211227856
 20
180.395532134
 11
348.8536691307
 21
179.5961974175
  0
LINE
  5
266
100
AcDbEntity
  8
0
100
AcDbLine
 62
7
  6
CONTINUOUS
 10
350.3851786984
 20
183.2279334372
 11
350.5143155647
 21
183.6138828476
  0
LINE
  5
267
100
AcDbEntity
  8
0
100
AcDbLine
 62
7
  6
CONTINUOUS
 10
348.7143208089
 20
193.509532134
 11
347.8001072465
 21
192.5953185717
  0
LINE
  5
268
100
AcDbEntity
  8
0
100
AcDbLine
 62
7
  6
CONTINUOUS
 10
354.2257367146
 20
178.3080007053
 11
350.5143208089
 21
177.55539808
  0
LINE
  5
269
100
AcDbEntity
  8
0
100
AcDbLine
 62
7
  6
CONTINUOUS
 10
346.7143208089
 20
176.7848323313
 11
343.8940816743
 21
176.2129429418
  0
LINE
  5
26A
100
AcDbEntity
  8
0
100
AcDbLine
 62
7
  6
CONTINUOUS
 10
341.2810013862
 20
176.1834959848
 11
343.796611277
 21
176.6936125161
  0
LINE
  5
26B
100
AcDbEntity
  8
0
100
AcDbLine
 62
7
  6
CONTINUOUS
 10
360.2257367146
 20
180.0251181327
 11
360.8609829523
 21
180.1539336571
  0
LINE
  5
26C
100
AcDbEntity
  8
0
100
AcDbLine
 62
7
  6
CONTINUOUS
 10
356.5742217836
 20
179.7293861826
 11
358.1741484589
 21
180.0538200501
  0
LWPOLYLINE
  5
26D
100
AcDbEntity
  8
0
100
AcDbPolyline
 62
7
  6
CONTINUOUS
 90
9
 70
0
 10
419.5713733027
 20
189.6573065754
 10
419.7229867541
 20
189.6830615668
 10
419.8539847213
 20
189.746641294
 10
419.960873721
 20
189.8390727614
 10
420.0391147895
 20
189.9454513597
 10
420.0966884466
 20
190.0591865847
 10
420.1444666114
 20
190.1863827481
 10
420.1890235601
 20
190.337606682
 10
420.2249565383
 20
190.4856844282
  0
LINE
  5
26E
100
AcDbEntity
  8
0
100
AcDbLine
 62
7
  6
CONTINUOUS
 10
390.0169677647
 20
183.2079084307
 11
377.5107915345
 21
183.0975598169
  0
LINE
  5
26F
100
AcDbEntity
  8
0
100
AcDbLine
 62
7
  6
CONTINUOUS
 10
357.8582670534
 20
179.8569993622
 11
358.5218848543
 21
179.8569993622
  0
LINE
  5
270
100
AcDbEntity
  8
0
100
AcDbLine
 62
7
  6
CONTINUOUS
 10
344.9533749251
 20
179.895532134
 11
348.4265789732
 21
179.895532134
  0
LINE
  5
271
100
AcDbEntity
  8
0
100
AcDbLine
 62
7
  6
CONTINUOUS
 10
349.6311221233
 20
180.395532134
 11
345.7731665353
 21
180.395532134
  0
LINE
  5
272
100
AcDbEntity
  8
0
100
AcDbLine
 62
7
  6
CONTINUOUS
 10
333.6013431151
 20
180.395532134
 11
327.7355369378
 21
180.395532134
  0
LINE
  5
273
100
AcDbEntity
  8
0
100
AcDbLine
 62
7
  6
CONTINUOUS
 10
357.0317770358
 20
182.0569993622
 11
356.3597113108
 21
182.0569993622
  0
LINE
  5
274
100
AcDbEntity
  8
0
100
AcDbLine
 62
7
  6
CONTINUOUS
 10
371.1143208089
 20
182.225532134
 11
374.1143208089
 21
182.225532134
  0
LINE
  5
275
100
AcDbEntity
  8
0
100
AcDbLine
 62
7
  6
CONTINUOUS
 10
349.8643208091
 20
182.620532134
 11
349.6311221234
 21
182.620532134
  0
LINE
  5
276
100
AcDbEntity
  8
0
100
AcDbLine
 62
7
  6
CONTINUOUS
 10
349.9682358787
 20
182.927286297
 11
350.4381909009
 21
182.927286297
  0
LINE
  5
277
100
AcDbEntity
  8
0
100
AcDbLine
 62
7
  6
CONTINUOUS
 10
366.1143208089
 20
182.945532134
 11
371.1143208089
 21
182.945532134
  0
LINE
  5
278
100
AcDbEntity
  8
0
100
AcDbLine
 62
7
  6
CONTINUOUS
 10
393.6412824453
 20
183.270532134
 11
390.1977820789
 21
183.270532134
  0
LINE
  5
279
100
AcDbEntity
  8
0
100
AcDbLine
 62
7
  6
CONTINUOUS
 10
350.5143208089
 20
182.8444870962
 11
350.4523998394
 21
182.8467034026
  0
LINE
  5
27A
100
AcDbEntity
  8
0
100
AcDbLine
 62
9
  6
CONTINUOUS
 10
357.7571794758
 20
182.1100782453
 11
357.8419175159
 21
181.6921975481
  0
LINE
  5
27B
100
AcDbEntity
  8
0
100
AcDbLine
 62
9
  6
CONTINUOUS
 10
358.0796356165
 20
180.5199046142
 11
358.1741484589
 21
180.0538200501
  0
LINE
  5
27C
100
AcDbEntity
  8
0
100
AcDbLine
 62
7
  6
CONTINUOUS
 10
358.6769186732
 20
180.0903433172
 11
358.2245845846
 21
182.3210024657
  0
LINE
  5
27D
100
AcDbEntity
  8
0
100
AcDbLine
 62
7
  6
CONTINUOUS
 10
360.2610000974
 20
183.1127140771
 11
360.8609829523
 21
180.1539336571
  0
LINE
  5
27E
100
AcDbEntity
  8
0
100
AcDbLine
 62
7
  6
CONTINUOUS
 10
359.8257367146
 20
177.6569993615
 11
359.8257367146
 21
174.872788836
  0
LINE
  5
27F
100
AcDbEntity
  8
0
100
AcDbLine
 62
7
  6
CONTINUOUS
 10
360.2257367146
 20
219.8569993622
 11
360.2257367146
 21
177.6569993622
  0
LINE
  5
280
100
AcDbEntity
  8
0
100
AcDbLine
 62
7
  6
CONTINUOUS
 10
360.572430998
 20
195.6455321341
 11
360.572430998
 21
197.545532134
  0
LINE
  5
281
100
AcDbEntity
  8
0
100
AcDbLine
 62
7
  6
CONTINUOUS
 10
361.3143208089
 20
206.695532134
 11
361.3143208089
 21
206.9032961981
  0
LINE
  5
282
100
AcDbEntity
  8
0
100
AcDbLine
 62
7
  6
CONTINUOUS
 10
343.798659333
 20
189.5269249184
 11
347.2143208096
 21
192.1955321348
  0
LINE
  5
283
100
AcDbEntity
  8
0
100
AcDbLine
 62
7
  6
CONTINUOUS
 10
348.518536581
 20
192.6954308933
 11
344.6058892647
 21
189.6957346181
  0
LINE
  5
284
100
AcDbEntity
  8
0
100
AcDbLine
 62
7
  6
CONTINUOUS
 10
358.0796356165
 20
180.5199046142
 11
356.1195293429
 21
180.122433362
  0
LINE
  5
285
100
AcDbEntity
  8
0
100
AcDbLine
 62
7
  6
CONTINUOUS
 10
357.8419175156
 20
181.6921975473
 11
355.8818112425
 21
181.2947262953
  0
LINE
  5
286
100
AcDbEntity
  8
0
100
AcDbLine
 62
7
  6
CONTINUOUS
 10
356.0961414139
 20
181.7732521828
 11
357.7571794759
 21
182.1100782453
  0
LINE
  5
287
100
AcDbEntity
  8
0
100
AcDbLine
 62
7
  6
CONTINUOUS
 10
340.6810185311
 20
179.1422764048
 11
343.1966284219
 21
179.6523929361
  0
LINE
  5
288
100
AcDbEntity
  8
0
100
AcDbLine
 62
7
  6
CONTINUOUS
 10
360.2257367146
 20
183.1055633521
 11
360.2610000972
 21
183.1127140771
  0
LINE
  5
289
100
AcDbEntity
  8
0
100
AcDbLine
 62
7
  6
CONTINUOUS
 10
354.2257367146
 20
182.3893152573
 11
350.5143208091
 21
181.636712632
  0
LINE
  5
28A
100
AcDbEntity
  8
0
100
AcDbLine
 62
7
  6
CONTINUOUS
 10
344.6362812241
 20
180.44476106
 11
343.099158024
 21
180.1330625101
  0
LINE
  5
28B
100
AcDbEntity
  8
0
100
AcDbLine
 62
9
  6
CONTINUOUS
 10
354.2257367146
 20
183.9569993622
 11
360.2257367146
 21
183.9569993622
  0
LINE
  5
28C
100
AcDbEntity
  8
0
100
AcDbLine
 62
7
  6
CONTINUOUS
 10
354.2257367146
 20
184.4569993622
 11
360.2257367146
 21
184.4569993622
  0
LINE
  5
28D
100
AcDbEntity
  8
0
100
AcDbLine
 62
7
  6
CONTINUOUS
 10
344.2143208089
 20
184.595532134
 11
343.9967079001
 21
184.595532134
  0
LINE
  5
28E
100
AcDbEntity
  8
0
100
AcDbLine
 62
7
  6
CONTINUOUS
 10
352.0143321885
 20
185.195532134
 11
354.2257367146
 21
185.195532134
  0
LINE
  5
28F
100
AcDbEntity
  8
0
100
AcDbLine
 62
7
  6
CONTINUOUS
 10
354.0143208096
 20
185.5632902269
 11
352.0143208089
 21
185.5632902269
  0
LINE
  5
290
100
AcDbEntity
  8
0
100
AcDbLine
 62
7
  6
CONTINUOUS
 10
354.0143208089
 20
185.8682270982
 11
350.4250147533
 21
185.8682270982
  0
LINE
  5
291
100
AcDbEntity
  8
0
100
AcDbLine
 62
7
  6
CONTINUOUS
 10
360.2257367146
 20
186.495532134
 11
365.1143208089
 21
186.495532134
  0
LINE
  5
292
100
AcDbEntity
  8
0
100
AcDbLine
 62
7
  6
CONTINUOUS
 10
348.2143208089
 20
198.0883524577
 11
348.7143208089
 21
197.7996773231
  0
LINE
  5
293
100
AcDbEntity
  8
0
100
AcDbLine
 62
7
  6
CONTINUOUS
 10
362.5143208089
 20
194.095532134
 11
362.5143208089
 21
199.095532134
  0
LINE
  5
294
100
AcDbEntity
  8
0
100
AcDbLine
 62
9
  6
CONTINUOUS
 10
365.114320809
 20
207.0955259225
 11
365.1143208092
 21
206.695532134
  0
LINE
  5
295
100
AcDbEntity
  8
0
100
AcDbLine
 62
9
  6
CONTINUOUS
 10
365.1143208089
 20
204.4217700553
 11
365.1143208089
 21
193.3955321342
  0
LINE
  5
296
100
AcDbEntity
  8
0
100
AcDbLine
 62
9
  6
CONTINUOUS
 10
365.1143208089
 20
189.7955321338
 11
365.1143208089
 21
186.4955321342
  0
LINE
  5
297
100
AcDbEntity
  8
0
100
AcDbLine
 62
7
  6
CONTINUOUS
 10
348.7143208089
 20
195.3913869458
 11
348.2143208085
 21
195.1027118111
  0
LINE
  5
298
100
AcDbEntity
  8
0
100
AcDbLine
 62
7
  6
CONTINUOUS
 10
405.4037486568
 20
189.3610959888
 11
419.5713334763
 21
189.6572759607
  0
LINE
  5
299
100
AcDbEntity
  8
0
100
AcDbLine
 62
9
  6
CONTINUOUS
 10
405.370301685
 20
189.9985686862
 11
419.7369661691
 21
190.2916581474
  0
LINE
  5
29A
100
AcDbEntity
  8
0
100
AcDbLine
 62
9
  6
CONTINUOUS
 10
360.2257367146
 20
188.2569993623
 11
354.2257367146
 21
188.2569993623
  0
LINE
  5
29B
100
AcDbEntity
  8
0
100
AcDbLine
 62
7
  6
CONTINUOUS
 10
351.337558253
 20
188.5955321333
 11
354.2257367146
 21
188.5955321333
  0
LINE
  5
29C
100
AcDbEntity
  8
0
100
AcDbLine
 62
7
  6
CONTINUOUS
 10
360.2257367146
 20
189.795532134
 11
365.8709860443
 21
189.795532134
  0
LINE
  5
29D
100
AcDbEntity
  8
0
100
AcDbLine
 62
9
  6
CONTINUOUS
 10
360.2257367146
 20
189.9540227001
 11
365.9803462127
 21
189.9540227001
  0
LINE
  5
29E
100
AcDbEntity
  8
0
100
AcDbLine
 62
7
  6
CONTINUOUS
 10
375.1143208089
 20
190.0811250236
 11
374.1143208089
 21
190.0811250236
  0
LINE
  5
29F
100
AcDbEntity
  8
0
100
AcDbLine
 62
7
  6
CONTINUOUS
 10
344.8143208092
 20
211.895532134
 11
344.3143208092
 21
212.395532134
  0
LINE
  5
2A0
100
AcDbEntity
  8
0
100
AcDbLine
 62
7
  6
CONTINUOUS
 10
365.9803462127
 20
206.695532134
 11
365.9803462127
 21
205.2031115637
  0
LINE
  5
2A1
100
AcDbEntity
  8
0
100
AcDbLine
 62
7
  6
CONTINUOUS
 10
365.9803462127
 20
193.395532134
 11
365.9803462127
 21
189.9540227001
  0
LINE
  5
2A2
100
AcDbEntity
  8
0
100
AcDbLine
 62
7
  6
CONTINUOUS
 10
366.1143208089
 20
182.9455321342
 11
366.1143208089
 21
210.8455321344
  0
LINE
  5
2A3
100
AcDbEntity
  8
0
100
AcDbLine
 62
7
  6
CONTINUOUS
 10
361.4151178607
 20
181.8065239986
 11
360.8609829523
 21
180.1539336573
  0
LINE
  5
2A4
100
AcDbEntity
  8
0
100
AcDbLine
 62
7
  6
CONTINUOUS
 10
350.5143388939
 20
183.613860723
 11
352.0143268243
 21
185.1955155924
  0
LINE
  5
2A5
100
AcDbEntity
  8
0
100
AcDbLine
 62
7
  6
CONTINUOUS
 10
347.2143208096
 20
192.5955321333
 11
346.7143208096
 21
192.5955321333
  0
LINE
  5
2A6
100
AcDbEntity
  8
0
100
AcDbLine
 62
7
  6
CONTINUOUS
 10
365.9803462127
 20
193.395532134
 11
360.2257367146
 21
193.395532134
  0
LINE
  5
2A7
100
AcDbEntity
  8
0
100
AcDbLine
 62
7
  6
CONTINUOUS
 10
362.5143208089
 20
194.095532134
 11
360.2257367146
 21
194.095532134
  0
LINE
  5
2A8
100
AcDbEntity
  8
0
100
AcDbLine
 62
9
  6
CONTINUOUS
 10
370.5143208091
 20
210.845532134
 11
370.5143208093
 21
198.345532134
  0
LINE
  5
2A9
100
AcDbEntity
  8
0
100
AcDbLine
 62
9
  6
CONTINUOUS
 10
370.5143208096
 20
194.845532134
 11
370.5143208096
 21
182.9455321342
  0
LINE
  5
2AA
100
AcDbEntity
  8
0
100
AcDbLine
 62
7
  6
CONTINUOUS
 10
370.6143208089
 20
210.7454257045
 11
370.6143208089
 21
198.345532134
  0
LINE
  5
2AB
100
AcDbEntity
  8
0
100
AcDbLine
 62
7
  6
CONTINUOUS
 10
370.6143208089
 20
194.8455321337
 11
370.6143208089
 21
182.945532134
  0
LINE
  5
2AC
100
AcDbEntity
  8
0
100
AcDbLine
 62
7
  6
CONTINUOUS
 10
370.8143208089
 20
194.845532134
 11
370.8143208089
 21
198.3455321344
  0
LINE
  5
2AD
100
AcDbEntity
  8
0
100
AcDbLine
 62
7
  6
CONTINUOUS
 10
371.1143208089
 20
182.2255400972
 11
371.1143208089
 21
210.9655241709
  0
LINE
  5
2AE
100
AcDbEntity
  8
0
100
AcDbLine
 62
7
  6
CONTINUOUS
 10
366.9803462127
 20
194.845532134
 11
366.114320809
 21
194.3455321341
  0
LINE
  5
2AF
100
AcDbEntity
  8
0
100
AcDbLine
 62
7
  6
CONTINUOUS
 10
347.9444235349
 20
194.395532134
 11
347.2143208089
 21
194.395532134
  0
LINE
  5
2B0
100
AcDbEntity
  8
0
100
AcDbLine
 62
7
  6
CONTINUOUS
 10
401.3143208089
 20
194.4565341215
 11
395.1643208089
 21
194.4565341215
  0
LINE
  5
2B1
100
AcDbEntity
  8
0
100
AcDbLine
 62
7
  6
CONTINUOUS
 10
370.8143208082
 20
194.845532134
 11
366.9803462127
 21
194.845532134
  0
LINE
  5
2B2
100
AcDbEntity
  8
0
100
AcDbLine
 62
7
  6
CONTINUOUS
 10
362.5143208089
 20
195.6455321348
 11
360.2257367146
 21
195.6455321348
  0
LINE
  5
2B3
100
AcDbEntity
  8
0
100
AcDbLine
 62
7
  6
CONTINUOUS
 10
360.2257367146
 20
197.5455321333
 11
362.5143208089
 21
197.5455321333
  0
LINE
  5
2B4
100
AcDbEntity
  8
0
100
AcDbLine
 62
7
  6
CONTINUOUS
 10
348.2143208089
 20
198.3479419627
 11
347.9444235351
 21
198.395532134
  0
LINE
  5
2B5
100
AcDbEntity
  8
0
100
AcDbLine
 62
7
  6
CONTINUOUS
 10
366.1143208084
 20
198.8455321343
 11
366.9803462127
 21
198.345532134
  0
LINE
  5
2B6
100
AcDbEntity
  8
0
100
AcDbLine
 62
7
  6
CONTINUOUS
 10
374.1143208089
 20
178.9955396911
 11
374.1143208089
 21
214.195524577
  0
LINE
  5
2B7
100
AcDbEntity
  8
0
100
AcDbLine
 62
7
  6
CONTINUOUS
 10
375.1143208089
 20
178.3907015853
 11
375.1143208089
 21
214.8003626828
  0
LINE
  5
2B8
100
AcDbEntity
  8
0
100
AcDbLine
 62
7
  6
CONTINUOUS
 10
333.6013431148
 20
180.395532134
 11
344.2143208089
 21
184.683453456
  0
LINE
  5
2B9
100
AcDbEntity
  8
0
100
AcDbLine
 62
7
  6
CONTINUOUS
 10
347.944423535
 20
194.395532134
 11
348.2143208089
 21
194.4431223055
  0
LINE
  5
2BA
100
AcDbEntity
  8
0
100
AcDbLine
 62
7
  6
CONTINUOUS
 10
366.9803462127
 20
198.345532134
 11
370.8143208089
 21
198.345532134
  0
LINE
  5
2BB
100
AcDbEntity
  8
0
100
AcDbLine
 62
7
  6
CONTINUOUS
 10
347.9444235351
 20
198.395532134
 11
347.2143208089
 21
198.395532134
  0
LINE
  5
2BC
100
AcDbEntity
  8
0
100
AcDbLine
 62
7
  6
CONTINUOUS
 10
360.2257367146
 20
199.095532134
 11
362.5143208089
 21
199.095532134
  0
LINE
  5
2BD
100
AcDbEntity
  8
0
100
AcDbLine
 62
7
  6
CONTINUOUS
 10
348.4143208089
 20
199.2638649469
 11
348.6481464854
 21
199.2638649469
  0
LINE
  5
2BE
100
AcDbEntity
  8
0
100
AcDbLine
 62
7
  6
CONTINUOUS
 10
395.1643208089
 20
199.7810481837
 11
396.2797945833
 21
199.7810481837
  0
LINE
  5
2BF
100
AcDbEntity
  8
0
100
AcDbLine
 62
7
  6
CONTINUOUS
 10
395.1643208089
 20
200.1840990491
 11
401.3143208089
 21
200.1840990491
  0
LINE
  5
2C0
100
AcDbEntity
  8
0
100
AcDbLine
 62
7
  6
CONTINUOUS
 10
347.2143208089
 20
200.195532134
 11
346.7143208089
 21
200.195532134
  0
LINE
  5
2C1
100
AcDbEntity
  8
0
100
AcDbLine
 62
7
  6
CONTINUOUS
 10
347.0143208089
 20
200.816478212
 11
347.2143208089
 21
200.812987199
  0
LWPOLYLINE
  5
2C2
100
AcDbEntity
  8
0
100
AcDbPolyline
 62
7
  6
CONTINUOUS
 90
9
 70
0
 10
415.0143207987
 20
198.5391677538
 10
415.381691876
 20
198.5187884643
 10
415.7827665154
 20
198.4474167662
 10
416.1449276985
 20
198.3306789843
 10
416.4518815351
 20
198.178468018
 10
416.6953691276
 20
198.0011979357
 10
416.8716149628
 20
197.8082004456
 10
416.9828984296
 20
197.5940183171
 10
417.014313764
 20
197.4010031846
  0
LWPOLYLINE
  5
2C3
100
AcDbEntity
  8
0
100
AcDbPolyline
 62
7
  6
CONTINUOUS
 90
6
 70
0
 10
415.0143208064
 20
197.6076028786
 10
414.6431234295
 20
197.6284124673
 10
414.2427650226
 20
197.7001270926
 10
413.881394072
 20
197.8170323917
 10
413.5751977104
 20
197.9692452974
 10
413.4324494748
 20
198.0733731672
  0
LINE
  5
2C4
100
AcDbEntity
  8
0
100
AcDbLine
 62
7
  6
CONTINUOUS
 10
344.8143208093
 20
208.6955321347
 11
333.601343115
 21
212.395532134
  0
LINE
  5
2C5
100
AcDbEntity
  8
0
100
AcDbLine
 62
9
  6
CONTINUOUS
 10
376.7143208089
 20
214.800532134
 11
376.7143208089
 21
178.390532134
  0
LINE
  5
2C6
100
AcDbEntity
  8
0
100
AcDbLine
 62
7
  6
CONTINUOUS
 10
377.1143208089
 20
214.400359481
 11
377.1143208089
 21
178.790532134
  0
LINE
  5
2C7
100
AcDbEntity
  8
0
100
AcDbLine
 62
9
  6
CONTINUOUS
 10
377.5107915345
 20
183.0975598169
 11
377.5107915345
 21
210.0935044511
  0
LINE
  5
2C8
100
AcDbEntity
  8
0
100
AcDbLine
 62
7
  6
CONTINUOUS
 10
338.6509467782
 20
179.8446073962
 11
340.2874790164
 21
180.328221977
  0
LINE
  5
2C9
100
AcDbEntity
  8
0
100
AcDbLine
 62
7
  6
CONTINUOUS
 10
347.2143208089
 20
202.3780770691
 11
347.0143208089
 21
202.3745860561
  0
LINE
  5
2CA
100
AcDbEntity
  8
0
100
AcDbLine
 62
7
  6
CONTINUOUS
 10
395.1643208089
 20
201.5629572725
 11
401.3143208089
 21
201.5629572725
  0
LINE
  5
2CB
100
AcDbEntity
  8
0
100
AcDbLine
 62
7
  6
CONTINUOUS
 10
374.1143208089
 20
203.1099392444
 11
375.1143208089
 21
203.1099392444
  0
LINE
  5
2CC
100
AcDbEntity
  8
0
100
AcDbLine
 62
7
  6
CONTINUOUS
 10
365.1143208089
 20
204.4217700553
 11
360.2257367146
 21
204.4217700553
  0
LINE
  5
2CD
100
AcDbEntity
  8
0
100
AcDbLine
 62
9
  6
CONTINUOUS
 10
360.2257367146
 20
204.8901086751
 11
365.8772948202
 21
204.8901086751
  0
LINE
  5
2CE
100
AcDbEntity
  8
0
100
AcDbLine
 62
9
  6
CONTINUOUS
 10
419.7369661691
 20
202.5543333534
 11
405.3703016834
 21
202.7762437235
  0
LINE
  5
2CF
100
AcDbEntity
  8
0
100
AcDbLine
 62
7
  6
CONTINUOUS
 10
350.5143208087
 20
176.945532134
 11
348.7125739168
 21
176.2347151596
  0
LINE
  5
2D0
100
AcDbEntity
  8
0
100
AcDbLine
 62
7
  6
CONTINUOUS
 10
357.0317770359
 20
182.0569993622
 11
358.0674953992
 21
182.4339700176
  0
LINE
  5
2D1
100
AcDbEntity
  8
0
100
AcDbLine
 62
9
  6
CONTINUOUS
 10
360.2257367146
 20
205.2031115637
 11
365.9803462127
 21
205.2031115637
  0
LINE
  5
2D2
100
AcDbEntity
  8
0
100
AcDbLine
 62
7
  6
CONTINUOUS
 10
365.9803462135
 20
206.695532134
 11
360.2257367146
 21
206.695532134
  0
LINE
  5
2D3
100
AcDbEntity
  8
0
100
AcDbLine
 62
7
  6
CONTINUOUS
 10
347.2143208089
 20
206.795532134
 11
348.2143208085
 21
206.795532134
  0
LINE
  5
2D4
100
AcDbEntity
  8
0
100
AcDbLine
 62
7
  6
CONTINUOUS
 10
348.2143208089
 20
207.095532134
 11
347.2143208089
 21
207.095532134
  0
LINE
  5
2D5
100
AcDbEntity
  8
0
100
AcDbLine
 62
7
  6
CONTINUOUS
 10
360.2257367146
 20
207.095532134
 11
365.1143208089
 21
207.095532134
  0
LINE
  5
2D6
100
AcDbEntity
  8
0
100
AcDbLine
 62
7
  6
CONTINUOUS
 10
348.4142053658
 20
207.295532134
 11
349.1363926856
 21
207.295532134
  0
LINE
  5
2D7
100
AcDbEntity
  8
0
100
AcDbLine
 62
9
  6
CONTINUOUS
 10
405.4121878469
 20
205.0840188946
 11
419.5091948579
 21
204.8634939206
  0
LINE
  5
2D8
100
AcDbEntity
  8
0
100
AcDbLine
 62
7
  6
CONTINUOUS
 10
419.5713334763
 20
206.4894946527
 11
405.4037486568
 21
206.7856746247
  0
LINE
  5
2D9
100
AcDbEntity
  8
0
100
AcDbLine
 62
9
  6
CONTINUOUS
 10
419.5091948579
 20
206.113257146
 11
405.4121878469
 21
206.4101586641
  0
LWPOLYLINE
  5
2DA
100
AcDbEntity
  8
0
100
AcDbPolyline
 62
7
  6
CONTINUOUS
 90
5
 70
0
 10
401.5088957858
 20
204.185162547
 10
401.4751065999
 20
204.1566217239
 10
401.388090811
 20
204.0506812736
 10
401.3331273595
 20
203.9251223082
 10
401.3143208089
 20
203.7892766037
  0
LWPOLYLINE
  5
2DB
100
AcDbEntity
  8
0
100
AcDbPolyline
 62
7
  6
CONTINUOUS
 90
4
 70
0
 10
404.370563678
 20
206.435218149
 10
403.2050004687
 20
205.5091431122
 10
402.0052648396
 20
204.5696946082
 10
401.508747436
 20
204.1850325635
  0
LINE
  5
2DC
100
AcDbEntity
  8
0
100
AcDbLine
 62
7
  6
CONTINUOUS
 10
357.8582670533
 20
179.8569993622
 11
357.0608082403
 21
179.5667480913
  0
LINE
  5
2DD
100
AcDbEntity
  8
0
100
AcDbLine
 62
7
  6
CONTINUOUS
 10
324.3355134903
 20
208.9882156132
 11
327.2405547715
 21
209.1276004175
  0
LINE
  5
2DE
100
AcDbEntity
  8
0
100
AcDbLine
 62
7
  6
CONTINUOUS
 10
344.8143208094
 20
208.695532134
 11
347.2143208089
 21
208.695532134
  0
LINE
  5
2DF
100
AcDbEntity
  8
0
100
AcDbLine
 62
7
  6
CONTINUOUS
 10
324.0910222461
 20
208.895532134
 11
324.3535293342
 21
208.895532134
  0
LINE
  5
2E0
100
AcDbEntity
  8
0
100
AcDbLine
 62
7
  6
CONTINUOUS
 10
348.0643208085
 20
209.095532134
 11
347.2143208089
 21
209.095532134
  0
LINE
  5
2E1
100
AcDbEntity
  8
0
100
AcDbLine
 62
7
  6
CONTINUOUS
 10
347.2143208089
 20
209.195532134
 11
346.0143208089
 21
209.195532134
  0
LINE
  5
2E2
100
AcDbEntity
  8
0
100
AcDbLine
 62
7
  6
CONTINUOUS
 10
346.0143208089
 20
209.295532134
 11
344.9143208089
 21
209.295532134
  0
LINE
  5
2E3
100
AcDbEntity
  8
0
100
AcDbLine
 62
7
  6
CONTINUOUS
 10
393.6412824453
 20
209.920532134
 11
390.1977820789
 21
209.920532134
  0
LINE
  5
2E4
100
AcDbEntity
  8
0
100
AcDbLine
 62
7
  6
CONTINUOUS
 10
370.6143208093
 20
210.545532134
 11
371.1143208089
 21
210.545532134
  0
LINE
  5
2E5
100
AcDbEntity
  8
0
100
AcDbLine
 62
7
  6
CONTINUOUS
 10
370.5143208089
 20
210.845532134
 11
366.1143208089
 21
210.845532134
  0
LINE
  5
2E6
100
AcDbEntity
  8
0
100
AcDbLine
 62
7
  6
CONTINUOUS
 10
371.1143208089
 20
210.965532134
 11
374.1143208089
 21
210.965532134
  0
LINE
  5
2E7
100
AcDbEntity
  8
0
100
AcDbLine
 62
7
  6
CONTINUOUS
 10
344.9143208089
 20
211.845532134
 11
346.0143208089
 21
211.845532134
  0
LINE
  5
2E8
100
AcDbEntity
  8
0
100
AcDbLine
 62
7
  6
CONTINUOUS
 10
347.2143208085
 20
211.9955321347
 11
346.0143208086
 21
211.9955321347
  0
LINE
  5
2E9
100
AcDbEntity
  8
0
100
AcDbLine
 62
7
  6
CONTINUOUS
 10
344.9143208089
 20
211.995532134
 11
345.7143208089
 21
211.995532134
  0
LINE
  5
2EA
100
AcDbEntity
  8
0
100
AcDbLine
 62
7
  6
CONTINUOUS
 10
390.0169677647
 20
209.9831558373
 11
377.5107915345
 21
210.0935044511
  0
LWPOLYLINE
  5
2EB
100
AcDbEntity
  8
0
100
AcDbPolyline
 62
7
  6
CONTINUOUS
 90
4
 70
0
 10
401.508747436
 20
191.9617380499
 10
402.0052648371
 20
191.5770760072
 10
403.2050004662
 20
190.6376275032
 10
404.3706876499
 20
189.711453208
  0
LINE
  5
2EC
100
AcDbEntity
  8
0
100
AcDbLine
 62
9
  6
CONTINUOUS
 10
390.0169677653
 20
209.9831558373
 11
390.0169677653
 21
183.2079084307
  0
LINE
  5
2ED
100
AcDbEntity
  8
0
100
AcDbLine
 62
7
  6
CONTINUOUS
 10
390.1977820789
 20
183.270532134
 11
390.1977820789
 21
209.920532134
  0
LINE
  5
2EE
100
AcDbEntity
  8
0
100
AcDbLine
 62
7
  6
CONTINUOUS
 10
327.7355369377
 20
212.395532134
 11
344.3143208082
 21
212.395532134
  0
LINE
  5
2EF
100
AcDbEntity
  8
0
100
AcDbLine
 62
7
  6
CONTINUOUS
 10
347.2143208089
 20
213.145532134
 11
354.2257367146
 21
213.145532134
  0
LINE
  5
2F0
100
AcDbEntity
  8
0
100
AcDbLine
 62
9
  6
CONTINUOUS
 10
354.2257367146
 20
213.645532134
 11
353.6143208089
 21
213.645532134
  0
LINE
  5
2F1
100
AcDbEntity
  8
0
100
AcDbLine
 62
9
  6
CONTINUOUS
 10
352.1143208089
 20
213.645532134
 11
348.2143208089
 21
213.645532134
  0
LINE
  5
2F2
100
AcDbEntity
  8
0
100
AcDbLine
 62
7
  6
CONTINUOUS
 10
352.1143208089
 20
213.8955321337
 11
353.6143208089
 21
213.8955321337
  0
LINE
  5
2F3
100
AcDbEntity
  8
0
100
AcDbLine
 62
7
  6
CONTINUOUS
 10
374.1143208089
 20
214.195532134
 11
375.1143208089
 21
214.195532134
  0
LINE
  5
2F4
100
AcDbEntity
  8
0
100
AcDbLine
 62
9
  6
CONTINUOUS
 10
348.2143208089
 20
214.595532134
 11
352.1143208089
 21
214.595532134
  0
LINE
  5
2F5
100
AcDbEntity
  8
0
100
AcDbLine
 62
9
  6
CONTINUOUS
 10
353.6143208089
 20
214.595532134
 11
354.2257367146
 21
214.595532134
  0
LINE
  5
2F6
100
AcDbEntity
  8
0
100
AcDbLine
 62
7
  6
CONTINUOUS
 10
375.1143208089
 20
214.800532134
 11
376.7143208089
 21
214.800532134
  0
LINE
  5
2F7
100
AcDbEntity
  8
0
100
AcDbLine
 62
7
  6
CONTINUOUS
 10
354.2257367146
 20
215.095532134
 11
353.6143208089
 21
215.095532134
  0
LINE
  5
2F8
100
AcDbEntity
  8
0
100
AcDbLine
 62
7
  6
CONTINUOUS
 10
352.1143208089
 20
215.095532134
 11
347.2143208089
 21
215.095532134
  0
LINE
  5
2F9
100
AcDbEntity
  8
0
100
AcDbLine
 62
9
  6
CONTINUOUS
 10
393.6412824453
 20
209.920532134
 11
393.6412824453
 21
183.270532134
  0
LINE
  5
2FA
100
AcDbEntity
  8
0
100
AcDbLine
 62
9
  6
CONTINUOUS
 10
393.9367247712
 20
183.5184376807
 11
393.9367247712
 21
209.6726265874
  0
LINE
  5
2FB
100
AcDbEntity
  8
0
100
AcDbLine
 62
7
  6
CONTINUOUS
 10
336.737577158
 20
211.3606539528
 11
328.9664152609
 21
209.9903884388
  0
LINE
  5
2FC
100
AcDbEntity
  8
0
100
AcDbLine
 62
9
  6
CONTINUOUS
 10
352.1143208089
 20
217.6327425551
 11
353.6143208089
 21
217.6327425551
  0
LINE
  5
2FD
100
AcDbEntity
  8
0
100
AcDbLine
 62
7
  6
CONTINUOUS
 10
352.1143208089
 20
217.895532134
 11
353.6143208089
 21
217.895532134
  0
LINE
  5
2FE
100
AcDbEntity
  8
0
100
AcDbLine
 62
7
  6
CONTINUOUS
 10
394.8143208089
 20
188.495532134
 11
394.8143208089
 21
204.695532134
  0
LINE
  5
2FF
100
AcDbEntity
  8
0
100
AcDbLine
 62
7
  6
CONTINUOUS
 10
395.1643208089
 20
204.1455231447
 11
395.1643208089
 21
189.0455339144
  0
LINE
  5
300
100
AcDbEntity
  8
0
100
AcDbLine
 62
7
  6
CONTINUOUS
 10
394.8143208089
 20
188.495532134
 11
393.9367247712
 21
183.5184376807
  0
LWPOLYLINE
  5
301
100
AcDbEntity
  8
0
100
AcDbPolyline
 62
7
  6
CONTINUOUS
 90
6
 70
0
 10
416.5961994374
 20
198.0733979973
 10
416.4522361597
 20
197.9685164606
 10
416.14506763
 20
197.8161482896
 10
415.782735131
 20
197.6993452594
 10
415.3815631714
 20
197.6279680371
 10
415.0143208003
 20
197.607601883
  0
LINE
  5
302
100
AcDbEntity
  8
0
100
AcDbLine
 62
7
  6
CONTINUOUS
 10
352.1143208089
 20
219.595532134
 11
353.6143208089
 21
219.595532134
  0
LINE
  5
303
100
AcDbEntity
  8
0
100
AcDbLine
 62
7
  6
CONTINUOUS
 10
358.2463922758
 20
220.3569993622
 11
359.7257367146
 21
220.3569993622
  0
LINE
  5
304
100
AcDbEntity
  8
0
100
AcDbLine
 62
7
  6
CONTINUOUS
 10
394.8143208089
 20
204.695532134
 11
393.9367247712
 21
209.6726265874
  0
LINE
  5
305
100
AcDbEntity
  8
0
100
AcDbLine
 62
7
  6
CONTINUOUS
 10
401.3143208089
 20
192.357453518
 11
401.3143208089
 21
203.7892966777
  0
LINE
  5
306
100
AcDbEntity
  8
0
100
AcDbLine
 62
9
  6
CONTINUOUS
 10
401.4607683521
 20
203.0766431042
 11
401.4607683521
 21
203.8557352992
  0
LWPOLYLINE
  5
307
100
AcDbEntity
  8
0
100
AcDbPolyline
 62
7
  6
CONTINUOUS
 90
15
 70
0
 10
404.4135742503
 20
200.6634046748
 10
404.4603472253
 20
200.7661848117
 10
404.5592005303
 20
200.8837624874
 10
404.7089756915
 20
200.9984296084
 10
404.9076433402
 20
201.1010013259
 10
405.1496176509
 20
201.1825846203
 10
405.4232099002
 20
201.2350352347
 10
405.7133569603
 20
201.2531800935
 10
406.0033553623
 20
201.2352970917
 10
406.2768183375
 20
201.183162611
 10
406.5189021876
 20
201.1018854273
 10
406.7178884207
 20
200.9995480005
 10
406.8681481602
 20
200.8849826102
 10
406.9674299869
 20
200.7675448045
 10
407.0150717014
 20
200.6633933914
  0
LWPOLYLINE
  5
308
100
AcDbEntity
  8
0
100
AcDbPolyline
 62
7
  6
CONTINUOUS
 90
5
 70
0
 10
401.3143208089
 20
192.3574940097
 10
401.3331273555
 20
192.2216483197
 10
401.3880908109
 20
192.0960893399
 10
401.4751066014
 20
191.9901488883
 10
401.5088957858
 20
191.9616080664
  0
LINE
  5
309
100
AcDbEntity
  8
0
100
AcDbLine
 62
7
  6
CONTINUOUS
 10
403.9763276428
 20
197.1902433884
 11
403.9769723883
 21
197.1798399584
  0
LINE
  5
30A
100
AcDbEntity
  8
0
100
AcDbLine
 62
7
  6
CONTINUOUS
 10
403.9655743261
 20
197.190173914
 11
403.9657124602
 21
197.1797633025
  0
LINE
  5
30B
100
AcDbEntity
  8
0
100
AcDbLine
 62
7
  6
CONTINUOUS
 10
403.9643208089
 20
197.189499273
 11
403.9643244433
 21
197.1790561106
  0
LINE
  5
30C
100
AcDbEntity
  8
0
100
AcDbLine
 62
9
  6
CONTINUOUS
 10
401.8143208089
 20
192.7156891185
 11
401.8143208089
 21
200.6144336128
  0
LINE
  5
30D
100
AcDbEntity
  8
0
100
AcDbLine
 62
9
  6
CONTINUOUS
 10
404.2389307884
 20
206.0518693501
 11
404.2389307824
 21
204.7828037909
  0
LINE
  5
30E
100
AcDbEntity
  8
0
100
AcDbLine
 62
9
  6
CONTINUOUS
 10
404.42344959
 20
193.6868676357
 11
404.42344959
 21
193.3388525199
  0
LWPOLYLINE
  5
30F
100
AcDbEntity
  8
0
100
AcDbPolyline
 62
7
  6
CONTINUOUS
 90
3
 70
0
 10
403.9643298658
 20
197.1792286017
 10
404.0825693226
 20
199.0149477495
 10
404.4134993013
 20
200.6631458149
  0
LINE
  5
310
100
AcDbEntity
  8
0
100
AcDbLine
 62
7
  6
CONTINUOUS
 10
404.4135795492
 20
200.6634408368
 11
404.4134993013
 21
200.6631458149
  0
LINE
  5
311
100
AcDbEntity
  8
0
100
AcDbLine
 62
9
  6
CONTINUOUS
 10
405.4121878469
 20
205.0840188946
 11
405.4121878469
 21
206.4101586641
  0
LINE
  5
312
100
AcDbEntity
  8
0
100
AcDbLine
 62
9
  6
CONTINUOUS
 10
407.0051920277
 20
193.6868676357
 11
407.0051920277
 21
193.3388525198
  0
LINE
  5
313
100
AcDbEntity
  8
0
100
AcDbLine
 62
7
  6
CONTINUOUS
 10
407.4643171683
 20
197.1790473593
 11
407.4643208089
 21
197.1894992742
  0
LINE
  5
314
100
AcDbEntity
  8
0
100
AcDbLine
 62
7
  6
CONTINUOUS
 10
407.4629290393
 20
197.1797545781
 11
407.4630672922
 21
197.1901739152
  0
LINE
  5
315
100
AcDbEntity
  8
0
100
AcDbLine
 62
7
  6
CONTINUOUS
 10
407.4516686897
 20
197.1798312401
 11
407.4523139755
 21
197.1902433895
  0
LINE
  5
316
100
AcDbEntity
  8
0
100
AcDbLine
 62
7
  6
CONTINUOUS
 10
407.0150717014
 20
200.6633933914
 11
407.0151484963
 21
200.6631112306
  0
LWPOLYLINE
  5
317
100
AcDbEntity
  8
0
100
AcDbPolyline
 62
7
  6
CONTINUOUS
 90
3
 70
0
 10
407.0151420212
 20
200.6631465113
 10
407.3458271822
 20
199.0167926482
 10
407.4643117508
 20
197.1792194974
  0
LINE
  5
318
100
AcDbEntity
  8
0
100
AcDbLine
 62
7
  6
CONTINUOUS
 10
413.0143208089
 20
197.4016197289
 11
413.0143210335
 21
197.4009495185
  0
LINE
  5
319
100
AcDbEntity
  8
0
100
AcDbLine
 62
9
  6
CONTINUOUS
 10
415.014320825
 20
195.9450617323
 11
415.014320794
 21
194.838401523
  0
LINE
  5
31A
100
AcDbEntity
  8
0
100
AcDbLine
 62
9
  6
CONTINUOUS
 10
415.014320791
 20
197.373288475
 11
415.0143208064
 21
197.6076028786
  0
LINE
  5
31B
100
AcDbEntity
  8
0
100
AcDbLine
 62
9
  6
CONTINUOUS
 10
415.014320805
 20
198.5391687132
 11
415.0143208087
 21
198.7498087835
  0
LWPOLYLINE
  5
31C
100
AcDbEntity
  8
0
100
AcDbPolyline
 62
7
  6
CONTINUOUS
 90
9
 70
0
 10
413.0143279017
 20
197.4009746167
 10
413.0455602003
 20
197.5934643123
 10
413.1562963013
 20
197.8071796749
 10
413.3319045502
 20
197.9999825503
 10
413.5748487353
 20
198.1773144613
 10
413.8812600566
 20
198.3296838664
 10
414.2427988101
 20
198.4466527864
 10
414.643252445
 20
198.5183725333
 10
415.014320805
 20
198.5391687132
  0
LINE
  5
31D
100
AcDbEntity
  8
0
100
AcDbLine
 62
7
  6
CONTINUOUS
 10
417.0143206174
 20
197.4010008849
 11
417.0143208089
 21
197.4016197301
  0
LINE
  5
31E
100
AcDbEntity
  8
0
100
AcDbLine
 62
9
  6
CONTINUOUS
 10
420.2291139324
 20
205.6145736962
 11
420.2249565373
 21
205.6610861895
  0
LWPOLYLINE
  5
31F
100
AcDbEntity
  8
0
100
AcDbPolyline
 62
7
  6
CONTINUOUS
 90
5
 70
0
 10
421.0142016648
 20
199.0348600668
 10
421.00737463
 20
199.5529930606
 10
420.8895019142
 20
201.5320814523
 10
420.6257330486
 20
203.5830748839
 10
420.2249351128
 20
205.6611753629
  0
LINE
  5
320
100
AcDbEntity
  8
0
100
AcDbLine
 62
7
  6
CONTINUOUS
 10
421.0142030231
 20
199.0348374658
 11
421.0143208089
 21
197.1895018302
  0
LWPOLYLINE
  5
321
100
AcDbEntity
  8
0
100
AcDbPolyline
 62
7
  6
CONTINUOUS
 90
5
 70
0
 10
420.2249351139
 20
190.4855952554
 10
420.6251028891
 20
192.5597949594
 10
420.888788022
 20
194.6071575317
 10
421.0071202659
 20
196.5828989807
 10
421.0143208066
 20
197.1891664944
  0
LINE
  5
322
100
AcDbEntity
  8
0
100
AcDbLine
 62
7
  6
CONTINUOUS
 10
420.2249565383
 20
190.4856844282
 11
420.2249365594
 21
190.4855948982
  0
LWPOLYLINE
  5
323
100
AcDbEntity
  8
0
100
AcDbPolyline
 62
7
  6
CONTINUOUS
 90
9
 70
0
 10
420.2249565373
 20
205.6610861895
 10
420.1890306726
 20
205.8091370347
 10
420.1444794692
 20
205.960348988
 10
420.0967059743
 20
206.0875433313
 10
420.0391372886
 20
206.2012817467
 10
419.960898317
 20
206.3076706991
 10
419.8540205221
 20
206.4001054979
 10
419.723024822
 20
206.46369664
 10
419.5713732847
 20
206.4894640384
  0
LINE
  5
324
100
AcDbEntity
  8
0
100
AcDbLine
 62
7
  6
CONTINUOUS
 10
420.2249565373
 20
205.6610861895
 11
420.2249232048
 21
205.6612354395
  0
ARC
  5
325
100
AcDbEntity
  8
0
100
AcDbCircle
 62
7
  6
CONTINUOUS
 10
349.4773607088
 20
-310.506156712
 40
490.1027509762
100
AcDbArc
 50
89.8787734175
 51
90.0729130875
  0
ARC
  5
326
100
AcDbEntity
  8
0
100
AcDbCircle
 62
9
  6
CONTINUOUS
 10
276.6285529091
 20
25.1955462191
 40
209.1278875972
100
AcDbArc
 50
52.0035588895
 51
53.2296846639
  0
ARC
  5
327
100
AcDbEntity
  8
0
100
AcDbCircle
 62
9
  6
CONTINUOUS
 10
274.9732188397
 20
366.7208182423
 40
206.2138099733
100
AcDbArc
 50
307.8343454715
 51
308.8183104
  0
ARC
  5
328
100
AcDbEntity
  8
0
100
AcDbCircle
 62
7
  6
CONTINUOUS
 10
358.539210195
 20
196.2862816488
 40
10.5536433225
100
AcDbArc
 50
163.6121541926
 51
168.0488883069
  0
ARC
  5
329
100
AcDbEntity
  8
0
100
AcDbCircle
 62
7
  6
CONTINUOUS
 10
349.2143208089
 20
191.1811050093
 40
2.0
100
AcDbArc
 50
134.999999999
 51
162.7430140423
  0
ARC
  5
32A
100
AcDbEntity
  8
0
100
AcDbCircle
 62
7
  6
CONTINUOUS
 10
357.2257367146
 20
180.9569993622
 40
1.7
100
AcDbArc
 50
319.6797849288
 51
60.3202150696
  0
ARC
  5
32B
100
AcDbEntity
  8
0
100
AcDbCircle
 62
7
  6
CONTINUOUS
 10
347.2143208089
 20
198.845532134
 40
1.5
100
AcDbArc
 50
0.0
 51
90.0
  0
ARC
  5
32C
100
AcDbEntity
  8
0
100
AcDbCircle
 62
7
  6
CONTINUOUS
 10
357.2257367146
 20
180.9569993622
 40
1.4
100
AcDbArc
 50
128.213210694
 51
263.2344994764
  0
ARC
  5
32D
100
AcDbEntity
  8
0
100
AcDbCircle
 62
7
  6
CONTINUOUS
 10
344.4143208089
 20
188.7389141648
 40
1.0
100
AcDbArc
 50
128.0000000214
 51
179.9999999989
  0
ARC
  5
32E
100
AcDbEntity
  8
0
100
AcDbCircle
 62
7
  6
CONTINUOUS
 10
358.2463922762
 20
219.3569993622
 40
1.0
100
AcDbArc
 50
90.0
 51
145.0079797662
  0
ARC
  5
32F
100
AcDbEntity
  8
0
100
AcDbCircle
 62
7
  6
CONTINUOUS
 10
355.2257367146
 20
215.0417771314
 40
1.0
100
AcDbArc
 50
145.0079798074
 51
180.0000000258
  0
ARC
  5
330
100
AcDbEntity
  8
0
100
AcDbCircle
 62
7
  6
CONTINUOUS
 10
345.2143208089
 20
188.9021282559
 40
1.0
100
AcDbArc
 50
127.4761795515
 51
179.9999999553
  0
ARC
  5
331
100
AcDbEntity
  8
0
100
AcDbCircle
 62
7
  6
CONTINUOUS
 10
365.1143208089
 20
208.095532134
 40
1.0
100
AcDbArc
 50
270.0
 51
360.0
  0
ARC
  5
332
100
AcDbEntity
  8
0
100
AcDbCircle
 62
7
  6
CONTINUOUS
 10
365.1143208089
 20
185.495532134
 40
1.0
100
AcDbArc
 50
0.0
 51
90.0
  0
ARC
  5
333
100
AcDbEntity
  8
0
100
AcDbCircle
 62
7
  6
CONTINUOUS
 10
359.7257367146
 20
219.8569993622
 40
0.5
100
AcDbArc
 50
0.0000000458
 51
90.0
  0
ARC
  5
334
100
AcDbEntity
  8
0
100
AcDbCircle
 62
7
  6
CONTINUOUS
 10
348.2143208089
 20
193.0922340731
 40
0.5
100
AcDbArc
 50
307.4761796468
 51
359.9999999977
  0
ARC
  5
335
100
AcDbEntity
  8
0
100
AcDbCircle
 62
7
  6
CONTINUOUS
 10
328.9143208089
 20
182.5052335025
 40
0.3
100
AcDbArc
 50
80.0000025355
 51
180.0207528644
  0
ARC
  5
336
100
AcDbEntity
  8
0
100
AcDbCircle
 62
7
  6
CONTINUOUS
 10
328.9143208089
 20
210.2858307655
 40
0.3
100
AcDbArc
 50
180.0079857836
 51
279.9999997251
  0
ARC
  5
337
100
AcDbEntity
  8
0
100
AcDbCircle
 62
7
  6
CONTINUOUS
 10
324.9664204805
 20
207.0526912952
 40
0.25
100
AcDbArc
 50
191.0000000579
 51
317.0352563566
  0
ARC
  5
338
100
AcDbEntity
  8
0
100
AcDbCircle
 62
7
  6
CONTINUOUS
 10
327.3643208089
 20
209.627299003
 40
0.25
100
AcDbArc
 50
317.0352563188
 51
359.9999999957
  0
ARC
  5
339
100
AcDbEntity
  8
0
100
AcDbCircle
 62
7
  6
CONTINUOUS
 10
340.6512081872
 20
179.2892843752
 40
0.15
100
AcDbArc
 50
191.463176491
 51
281.4630316251
  0
ARC
  5
33A
100
AcDbEntity
  8
0
100
AcDbCircle
 62
7
  6
CONTINUOUS
 10
341.3108117301
 20
176.0364880142
 40
0.15
100
AcDbArc
 50
101.4630316251
 51
191.462886755
  0
ARC
  5
33B
100
AcDbEntity
  8
0
100
AcDbCircle
 62
7
  6
CONTINUOUS
 10
370.5143208089
 20
210.745532134
 40
0.1
100
AcDbArc
 50
0.0
 51
90.0
  0
ARC
  5
33C
100
AcDbEntity
  8
0
100
AcDbCircle
 62
9
  6
CONTINUOUS
 10
476.6420393403
 20
81.5344894473
 40
140.6386094818
100
AcDbArc
 50
120.4490575971
 51
122.1445220765
  0
ARC
  5
33D
100
AcDbEntity
  8
0
100
AcDbCircle
 62
9
  6
CONTINUOUS
 10
472.3600963213
 20
90.7453337438
 40
132.8346256407
100
AcDbArc
 50
120.852310386
 51
122.2585908056
  0
ARC
  5
33E
100
AcDbEntity
  8
0
100
AcDbCircle
 62
7
  6
CONTINUOUS
 10
393.489409917
 20
64.5985920564
 40
132.1215642813
100
AcDbArc
 50
87.461944584
 51
89.2736288162
  0
ARC
  5
33F
100
AcDbEntity
  8
0
100
AcDbCircle
 62
7
  6
CONTINUOUS
 10
463.9860900913
 20
196.5955306816
 40
103.4568622558
100
AcDbArc
 50
179.4738692288
 51
180.5261291624
  0
ARC
  5
340
100
AcDbEntity
  8
0
100
AcDbCircle
 62
9
  6
CONTINUOUS
 10
447.4420724395
 20
205.5357262843
 40
27.9404255813
100
AcDbArc
 50
180.0429148899
 51
181.3786440148
  0
ARC
  5
341
100
AcDbEntity
  8
0
100
AcDbCircle
 62
9
  6
CONTINUOUS
 10
441.2022384407
 20
205.5210719228
 40
21.7005846501
100
AcDbArc
 50
178.4363128357
 51
180.0165630155
  0
ARC
  5
342
100
AcDbEntity
  8
0
100
AcDbCircle
 62
9
  6
CONTINUOUS
 10
388.1238865562
 20
197.7022609506
 40
19.378893606
100
AcDbArc
 50
346.9880198009
 51
348.0143925294
  0
ARC
  5
343
100
AcDbEntity
  8
0
100
AcDbCircle
 62
9
  6
CONTINUOUS
 10
423.2371599086
 20
197.6872678984
 40
19.309658264
100
AcDbArc
 50
191.9837416934
 51
193.0137941844
  0
ARC
  5
344
100
AcDbEntity
  8
0
100
AcDbCircle
 62
7
  6
CONTINUOUS
 10
392.4657946782
 20
197.3839621863
 40
14.9985245859
100
AcDbArc
 50
359.2596899153
 51
359.6008657498
  0
ARC
  5
345
100
AcDbEntity
  8
0
100
AcDbCircle
 62
7
  6
CONTINUOUS
 10
418.9628460457
 20
197.3839621766
 40
14.9985236914
100
AcDbArc
 50
180.3989090304
 51
180.7403100963
  0
ARC
  5
346
100
AcDbEntity
  8
0
100
AcDbCircle
 62
9
  6
CONTINUOUS
 10
416.3731367262
 20
204.7521983148
 40
3.9512341759
100
AcDbArc
 50
12.6065457528
 51
13.3251530274
  0
ARC
  5
347
100
AcDbEntity
  8
0
100
AcDbCircle
 62
9
  6
CONTINUOUS
 10
405.3703078641
 20
202.5990749749
 40
2.4852968212
100
AcDbArc
 50
89.0344573925
 51
90.0000804796
  0
ARC
  5
348
100
AcDbEntity
  8
0
100
AcDbCircle
 62
9
  6
CONTINUOUS
 10
405.3717041593
 20
204.3800100083
 40
2.0304533416
100
AcDbArc
 50
88.8575466875
 51
90.0394994771
  0
ARC
  5
349
100
AcDbEntity
  8
0
100
AcDbCircle
 62
7
  6
CONTINUOUS
 10
405.3703043732
 20
205.1860109857
 40
1.6
100
AcDbArc
 50
88.8023803024
 51
128.672885604
  0
ARC
  5
34A
100
AcDbEntity
  8
0
100
AcDbCircle
 62
7
  6
CONTINUOUS
 10
405.3703043732
 20
190.9607596278
 40
1.6
100
AcDbArc
 50
231.3385730478
 51
271.1977353528
  0
ARC
  5
34B
100
AcDbEntity
  8
0
100
AcDbCircle
 62
7
  6
CONTINUOUS
 10
394.7643208089
 20
189.045532134
 40
0.4
100
AcDbArc
 50
277.2811531686
 51
360.0
  0
ARC
  5
34C
100
AcDbEntity
  8
0
100
AcDbCircle
 62
7
  6
CONTINUOUS
 10
394.7643208089
 20
204.145532134
 40
0.4
100
AcDbArc
 50
0.0
 51
82.7188442633
  0
ARC
  5
34D
100
AcDbEntity
  8
0
100
AcDbCircle
 62
7
  6
CONTINUOUS
 10
377.5143208089
 20
210.4934888811
 40
0.4
100
AcDbArc
 50
180.0
 51
269.494462121
  0
ARC
  5
34E
100
AcDbEntity
  8
0
100
AcDbCircle
 62
7
  6
CONTINUOUS
 10
377.5143208089
 20
182.6975753869
 40
0.4
100
AcDbArc
 50
90.505537879
 51
180.0
  0
ARC
  5
34F
100
AcDbEntity
  8
0
100
AcDbCircle
 62
7
  6
CONTINUOUS
 10
376.7143208089
 20
178.790532134
 40
0.4
100
AcDbArc
 50
270.0
 51
360.0
  0
ARC
  5
350
100
AcDbEntity
  8
0
100
AcDbCircle
 62
7
  6
CONTINUOUS
 10
376.7143208089
 20
214.400532134
 40
0.4
100
AcDbArc
 50
0.0
 51
90.0
  0
ARC
  5
351
100
AcDbEntity
  8
0
100
AcDbCircle
 62
7
  6
CONTINUOUS
 10
393.6412824453
 20
183.570532134
 40
0.3
100
AcDbArc
 50
270.0
 51
349.9999999999
  0
ARC
  5
352
100
AcDbEntity
  8
0
100
AcDbCircle
 62
7
  6
CONTINUOUS
 10
393.6412824453
 20
209.620532134
 40
0.3
100
AcDbArc
 50
10.0000000001
 51
90.0
  0
ARC
  5
353
100
AcDbEntity
  8
0
100
AcDbCircle
 62
7
  6
CONTINUOUS
 10
390.0143208089
 20
183.5078967532
 40
0.3
100
AcDbArc
 50
270.5055379936
 51
307.7007622451
  0
ARC
  5
354
100
AcDbEntity
  8
0
100
AcDbCircle
 62
7
  6
CONTINUOUS
 10
390.0143208089
 20
209.6831675148
 40
0.3
100
AcDbArc
 50
52.2992377549
 51
89.4944620064
  0
SPLINE
  5
355
100
AcDbEntity
  8
0
100
AcDbSpline
 62
7
  6
CONTINUOUS
 70
0
 71
3
 72
9
 73
5
 74
0
 42
0.0000001
 43
0.0000001
 44
0.0000000001
 40
0.0
 40
0.0
 40
0.0
 40
0.0
 40
0.4981242942
 40
1.0
 40
1.0
 40
1.0
 40
1.0
 10
403.9657124602
 20
197.1797633025
 30
0.0
 10
403.9736882934
 20
196.5939808955
 30
0.0
 10
404.058831543
 20
195.4179438266
 30
0.0
 10
404.2800491458
 20
194.2598837782
 30
0.0
 10
404.4233689146
 20
193.6872993288
 30
0.0
  0
SPLINE
  5
356
100
AcDbEntity
  8
0
100
AcDbSpline
 62
7
  6
CONTINUOUS
 70
0
 71
3
 72
9
 73
5
 74
0
 42
0.0000001
 43
0.0000001
 44
0.0000000001
 40
0.0
 40
0.0
 40
0.0
 40
0.0
 40
0.501875705
 40
1.0
 40
1.0
 40
1.0
 40
1.0
 10
407.0052727031
 20
193.6872993356
 30
0.0
 10
407.1485921176
 20
194.2598823695
 30
0.0
 10
407.3698093346
 20
195.4179395111
 30
0.0
 10
407.4549528851
 20
196.5939736222
 30
0.0
 10
407.4629290393
 20
197.1797545781
 30
0.0
  0
SPLINE
  5
357
100
AcDbEntity
  8
0
100
AcDbSpline
 62
7
  6
CONTINUOUS
 70
0
 71
3
 72
13
 73
9
 74
0
 42
0.0000001
 43
0.0000001
 44
0.0000000001
 40
0.0
 40
0.0
 40
0.0
 40
0.0
 40
0.2816715943
 40
0.5471284098
 40
0.6704911956
 40
0.7865974503
 40
0.8959797076
 40
1.0
 40
1.0
 40
1.0
 40
1.0
 10
405.7143208083
 20
192.9214518695
 30
0.0
 10
405.8649241978
 20
192.9214518694
 30
0.0
 10
406.1586467573
 20
192.9568064649
 30
0.0
 10
406.4969019113
 20
193.0902781802
 30
0.0
 10
406.7190207932
 20
193.2456966215
 30
0.0
 10
406.8518477959
 20
193.37820462
 30
0.0
 10
406.9504125069
 20
193.52570576
 30
0.0
 10
406.9917681307
 20
193.6333464985
 30
0.0
 10
407.0052727031
 20
193.6872993356
 30
0.0
  0
SPLINE
  5
358
100
AcDbEntity
  8
0
100
AcDbSpline
 62
7
  6
CONTINUOUS
 70
0
 71
3
 72
13
 73
9
 74
0
 42
0.0000001
 43
0.0000001
 44
0.0000000001
 40
0.0
 40
0.0
 40
0.0
 40
0.0
 40
0.1040202713
 40
0.2134024934
 40
0.3295087327
 40
0.4528715093
 40
0.7183283352
 40
1.0
 40
1.0
 40
1.0
 40
1.0
 10
404.4233689146
 20
193.6872993288
 30
0.0
 10
404.4368734842
 20
193.6333465029
 30
0.0
 10
404.4782290763
 20
193.5257057847
 30
0.0
 10
404.5767937782
 20
193.3782046844
 30
0.0
 10
404.7096207389
 20
193.2456966934
 30
0.0
 10
404.9317395987
 20
193.090278233
 30
0.0
 10
405.2699947788
 20
192.9568064799
 30
0.0
 10
405.5637173815
 20
192.9214518695
 30
0.0
 10
405.7143208083
 20
192.9214518695
 30
0.0
  0
SPLINE
  5
359
100
AcDbEntity
  8
0
100
AcDbSpline
 62
9
  6
CONTINUOUS
 70
0
 71
3
 72
13
 73
9
 74
0
 42
0.0000001
 43
0.0000001
 44
0.0000000001
 40
0.0
 40
0.0
 40
0.0
 40
0.0
 40
0.0916335788
 40
0.1924017626
 40
0.3053188081
 40
0.4311203771
 40
0.711673655
 40
1.0
 40
1.0
 40
1.0
 40
1.0
 10
420.224905008
 20
190.485601945
 30
0.0
 10
420.2211160198
 20
190.4686293675
 30
0.0
 10
420.2078410355
 20
190.4339478467
 30
0.0
 10
420.1717851845
 20
190.387697256
 30
0.0
 10
420.1205579855
 20
190.3476972524
 30
0.0
 10
420.0312493627
 20
190.3046601278
 30
0.0
 10
419.8997856412
 20
190.2792910106
 30
0.0
 10
419.7911463575
 20
190.284000572
 30
0.0
 10
419.7369661747
 20
190.2916608644
 30
0.0
  0
SPLINE
  5
35A
100
AcDbEntity
  8
0
100
AcDbSpline
 62
9
  6
CONTINUOUS
 70
0
 71
3
 72
9
 73
5
 74
0
 42
0.0000001
 43
0.0000001
 44
0.0000000001
 40
0.0
 40
0.0
 40
0.0
 40
0.0
 40
0.2427737611
 40
1.0
 40
1.0
 40
1.0
 40
1.0
 10
403.9643298826
 20
197.1792275126
 30
0.0
 10
403.9645294163
 20
196.893891064
 30
0.0
 10
403.999006267
 20
195.7186912012
 30
0.0
 10
404.1635490503
 20
194.5485132697
 30
0.0
 10
404.3483255509
 20
193.6779239523
 30
0.0
  0
SPLINE
  5
35B
100
AcDbEntity
  8
0
100
AcDbSpline
 62
9
  6
CONTINUOUS
 70
0
 71
3
 72
10
 73
6
 74
0
 42
0.0000001
 43
0.0000001
 44
0.0000000001
 40
0.0
 40
0.0
 40
0.0
 40
0.0
 40
0.4673747562
 40
0.7291884092
 40
1.0
 40
1.0
 40
1.0
 40
1.0
 10
416.701609696
 20
197.9982300042
 30
0.0
 10
416.5065155433
 20
197.7884747298
 30
0.0
 10
416.101682599
 20
197.5531422751
 30
0.0
 10
415.5079313392
 20
197.4005343028
 30
0.0
 10
415.1803043839
 20
197.3732970528
 30
0.0
 10
415.0143208085
 20
197.3732871557
 30
0.0
  0
SPLINE
  5
35C
100
AcDbEntity
  8
0
100
AcDbSpline
 62
9
  6
CONTINUOUS
 70
0
 71
3
 72
14
 73
10
 74
0
 42
0.0000001
 43
0.0000001
 44
0.0000000001
 40
0.0
 40
0.0
 40
0.0
 40
0.0
 40
0.284605493
 40
0.4295062557
 40
0.5679312242
 40
0.694917373
 40
0.8085938006
 40
0.9091505654
 40
1.0
 40
1.0
 40
1.0
 40
1.0
 10
401.8143208089
 20
192.7156881444
 30
0.0
 10
401.7525116227
 20
192.7156881444
 30
0.0
 10
401.6585566817
 20
192.7265913495
 30
0.0
 10
401.5411809285
 20
192.765512819
 30
0.0
 10
401.4613780629
 20
192.8062049209
 30
0.0
 10
401.3961279957
 20
192.8572989171
 30
0.0
 10
401.3483183141
 20
192.9148668031
 30
0.0
 10
401.3204781392
 20
192.9758878185
 30
0.0
 10
401.3143209136
 20
193.0176524605
 30
0.0
 10
401.3143208089
 20
193.0373826827
 30
0.0
  0
SPLINE
  5
35D
100
AcDbEntity
  8
0
100
AcDbSpline
 62
9
  6
CONTINUOUS
 70
0
 71
3
 72
9
 73
5
 74
0
 42
0.0000001
 43
0.0000001
 44
0.0000000001
 40
0.0
 40
0.0
 40
0.0
 40
0.0
 40
0.4581054149
 40
1.0
 40
1.0
 40
1.0
 40
1.0
 10
401.3143208089
 20
203.5883633545
 30
0.0
 10
401.3143218857
 20
203.6362098965
 30
0.0
 10
401.3422154696
 20
203.7418089592
 30
0.0
 10
401.4156444778
 20
203.8215860042
 30
0.0
 10
401.460790973
 20
203.8557197223
 30
0.0
  0
SPLINE
  5
35E
100
AcDbEntity
  8
0
100
AcDbSpline
 62
9
  6
CONTINUOUS
 70
0
 71
3
 72
14
 73
10
 74
0
 42
0.0000001
 43
0.0000001
 44
0.0000000001
 40
0.0
 40
0.0
 40
0.0
 40
0.0
 40
0.1033002113
 40
0.2112469765
 40
0.3261893757
 40
0.4489738461
 40
0.5793305726
 40
0.7160185287
 40
1.0
 40
1.0
 40
1.0
 40
1.0
 10
413.0143278985
 20
197.4009634316
 30
0.0
 10
413.0143916472
 20
197.3073578048
 30
0.0
 10
413.0422260813
 20
197.1151140436
 30
0.0
 10
413.1603111229
 20
196.8409564547
 30
0.0
 10
413.3498776272
 20
196.5883605441
 30
0.0
 10
413.6014748231
 20
196.3663178154
 30
0.0
 10
413.9062333959
 20
196.184017531
 30
0.0
 10
414.3721653876
 20
196.0002963964
 30
0.0
 10
414.7569905547
 20
195.9450860192
 30
0.0
 10
415.0143208095
 20
195.9450647203
 30
0.0
  0
SPLINE
  5
35F
100
AcDbEntity
  8
0
100
AcDbSpline
 62
9
  6
CONTINUOUS
 70
0
 71
3
 72
13
 73
9
 74
0
 42
0.0000001
 43
0.0000001
 44
0.0000000001
 40
0.0
 40
0.0
 40
0.0
 40
0.0
 40
0.1064479393
 40
0.2194419385
 40
0.3395004906
 40
0.4664223235
 40
0.7336364511
 40
1.0
 40
1.0
 40
1.0
 40
1.0
 10
404.4134741786
 20
200.6631526544
 30
0.0
 10
404.4079922428
 20
200.64299521
 30
0.0
 10
404.3920245873
 20
200.6025354103
 30
0.0
 10
404.353771711
 20
200.5473576201
 30
0.0
 10
404.3020323165
 20
200.49851023
 30
0.0
 10
404.21564529
 20
200.4452395297
 30
0.0
 10
404.0889720435
 20
200.4079956491
 30
0.0
 10
403.9830362538
 20
200.407504066
 30
0.0
 10
403.9311017311
 20
200.413432086
 30
0.0
  0
SPLINE
  5
360
100
AcDbEntity
  8
0
100
AcDbSpline
 62
9
  6
CONTINUOUS
 70
0
 71
3
 72
13
 73
9
 74
0
 42
0.0000001
 43
0.0000001
 44
0.0000000001
 40
0.0
 40
0.0
 40
0.0
 40
0.0
 40
0.0868882593
 40
0.181828543
 40
0.2893522753
 40
0.4110430701
 40
0.6912299577
 40
1.0
 40
1.0
 40
1.0
 40
1.0
 10
404.3707668744
 20
189.7114095705
 30
0.0
 10
404.3957683717
 20
189.691399463
 30
0.0
 10
404.455671515
 20
189.6583649153
 30
0.0
 10
404.5615969063
 20
189.6375448838
 30
0.0
 10
404.6818242366
 20
189.6436879152
 30
0.0
 10
404.8651192791
 20
189.687715185
 30
0.0
 10
405.1034019844
 20
189.8022938448
 30
0.0
 10
405.2813482535
 20
189.9275985713
 30
0.0
 10
405.37030521
 20
189.9985691009
 30
0.0
  0
SPLINE
  5
361
100
AcDbEntity
  8
0
100
AcDbSpline
 62
9
  6
CONTINUOUS
 70
0
 71
3
 72
12
 73
8
 74
0
 42
0.0000001
 43
0.0000001
 44
0.0000000001
 40
0.0
 40
0.0
 40
0.0
 40
0.0
 40
0.3846595684
 40
0.6790035019
 40
0.8807175142
 40
0.9492840072
 40
1.0
 40
1.0
 40
1.0
 40
1.0
 10
401.4607905322
 20
203.8557193891
 30
0.0
 10
401.46047869
 20
203.8990471841
 30
0.0
 10
401.4614320585
 20
203.9756273532
 30
0.0
 10
401.4694582248
 20
204.0744306257
 30
0.0
 10
401.4814415839
 20
204.1374595723
 30
0.0
 10
401.495860483
 20
204.1707352
 30
0.0
 10
401.5043140366
 20
204.1816181
 30
0.0
 10
401.5088331271
 20
204.1851128797
 30
0.0
  0
SPLINE
  5
362
100
AcDbEntity
  8
0
100
AcDbSpline
 62
9
  6
CONTINUOUS
 70
0
 71
3
 72
14
 73
10
 74
0
 42
0.0000001
 43
0.0000001
 44
0.0000000001
 40
0.0
 40
0.0
 40
0.0
 40
0.0
 40
0.0864324627
 40
0.1680801801
 40
0.2784041736
 40
0.4175394027
 40
0.5850108114
 40
0.7797467737
 40
1.0
 40
1.0
 40
1.0
 40
1.0
 10
419.5713615569
 20
206.4894659477
 30
0.0
 10
419.5601464005
 20
206.4897013328
 30
0.0
 10
419.5457984183
 20
206.4648348762
 30
0.0
 10
419.5364151306
 20
206.4325579922
 30
0.0
 10
419.5277303986
 20
206.3894595368
 30
0.0
 10
419.5209827569
 20
206.3361006852
 30
0.0
 10
419.5153911208
 20
206.2711379694
 30
0.0
 10
419.5113482843
 20
206.1956838629
 30
0.0
 10
419.5097614714
 20
206.1418323468
 30
0.0
 10
419.5091946962
 20
206.113252429
 30
0.0
  0
SPLINE
  5
363
100
AcDbEntity
  8
0
100
AcDbSpline
 62
9
  6
CONTINUOUS
 70
0
 71
3
 72
13
 73
9
 74
0
 42
0.0000001
 43
0.0000001
 44
0.0000000001
 40
0.0
 40
0.0
 40
0.0
 40
0.0
 40
0.1066948428
 40
0.2198880542
 40
0.3400968688
 40
0.4670892953
 40
0.7341612765
 40
1.0
 40
1.0
 40
1.0
 40
1.0
 10
407.0151751224
 20
200.6631184816
 30
0.0
 10
407.0206722923
 20
200.6429160558
 30
0.0
 10
407.0366852049
 20
200.6023793886
 30
0.0
 10
407.0750494571
 20
200.5471371213
 30
0.0
 10
407.1268969859
 20
200.4982884057
 30
0.0
 10
407.2133425054
 20
200.445093747
 30
0.0
 10
407.3399187202
 20
200.4079831576
 30
0.0
 10
407.4457103258
 20
200.407516477
 30
0.0
 10
407.4975398821
 20
200.4134328618
 30
0.0
  0
SPLINE
  5
364
100
AcDbEntity
  8
0
100
AcDbSpline
 62
9
  6
CONTINUOUS
 70
0
 71
3
 72
9
 73
5
 74
0
 42
0.0000001
 43
0.0000001
 44
0.0000000001
 40
0.0
 40
0.0
 40
0.0
 40
0.0
 40
0.4843432901
 40
1.0
 40
1.0
 40
1.0
 40
1.0
 10
421.0142029113
 20
199.0348373022
 30
0.0
 10
421.010916475
 20
200.1061842521
 30
0.0
 10
420.8628850493
 20
202.3189816909
 30
0.0
 10
420.4778989743
 20
204.50121856
 30
0.0
 10
420.2291063711
 20
205.6143707253
 30
0.0
  0
SPLINE
  5
365
100
AcDbEntity
  8
0
100
AcDbSpline
 62
9
  6
CONTINUOUS
 70
0
 71
3
 72
13
 73
9
 74
0
 42
0.0000001
 43
0.0000001
 44
0.0000000001
 40
0.0
 40
0.0
 40
0.0
 40
0.0
 40
0.2093286083
 40
0.3287727711
 40
0.4572778858
 40
0.5929441602
 40
0.7318609791
 40
1.0
 40
1.0
 40
1.0
 40
1.0
 10
401.3143208088
 20
200.9972147521
 30
0.0
 10
401.3143210262
 20
200.9488134552
 30
0.0
 10
401.3344038473
 20
200.8715780019
 30
0.0
 10
401.3950434251
 20
200.7842471309
 30
0.0
 10
401.4601821545
 20
200.723003939
 30
0.0
 10
401.5402476876
 20
200.6741773406
 30
0.0
 10
401.6573040389
 20
200.6277658972
 30
0.0
 10
401.7523212739
 20
200.6144442305
 30
0.0
 10
401.8143208089
 20
200.6144442305
 30
0.0
  0
SPLINE
  5
366
100
AcDbEntity
  8
0
100
AcDbSpline
 62
9
  6
CONTINUOUS
 70
0
 71
3
 72
11
 73
7
 74
0
 42
0.0000001
 43
0.0000001
 44
0.0000000001
 40
0.0
 40
0.0
 40
0.0
 40
0.0
 40
0.2926548795
 40
0.5553095281
 40
0.7886408935
 40
1.0
 40
1.0
 40
1.0
 40
1.0
 10
401.4607909749
 20
203.0766276679
 30
0.0
 10
401.437546429
 20
203.0614213465
 30
0.0
 10
401.3960048773
 20
203.0283240703
 30
0.0
 10
401.348249746
 20
202.9697637656
 30
0.0
 10
401.3204717917
 20
202.9077553785
 30
0.0
 10
401.3143213354
 20
202.8653572214
 30
0.0
 10
401.3143208089
 20
202.8452965838
 30
0.0
  0
SPLINE
  5
367
100
AcDbEntity
  8
0
100
AcDbSpline
 62
9
  6
CONTINUOUS
 70
0
 71
3
 72
19
 73
15
 74
0
 42
0.0000001
 43
0.0000001
 44
0.0000000001
 40
0.0
 40
0.0
 40
0.0
 40
0.0
 40
0.0170539055
 40
0.0348367276
 40
0.0580921339
 40
0.0887149871
 40
0.1271984023
 40
0.1735005345
 40
0.2273771168
 40
0.2885268039
 40
0.4312588842
 40
0.5990951393
 40
0.7895578604
 40
1.0
 40
1.0
 40
1.0
 40
1.0
 10
401.5088544217
 20
191.9616412802
 30
0.0
 10
401.512644408
 20
191.9587154214
 30
0.0
 10
401.5223628385
 20
191.95453233
 30
0.0
 10
401.5388448846
 20
191.9594369297
 30
0.0
 10
401.5544866025
 20
191.9724090152
 30
0.0
 10
401.5708931616
 20
191.9926148946
 30
0.0
 10
401.5881264812
 20
192.0201098265
 30
0.0
 10
401.6062348911
 20
192.0545993281
 30
0.0
 10
401.625120107
 20
192.0957857403
 30
0.0
 10
401.6526306649
 20
192.1627349323
 30
0.0
 10
401.6876452969
 20
192.2611029687
 30
0.0
 10
401.7295289509
 20
192.3954108746
 30
0.0
 10
401.7726372444
 20
192.5491784234
 30
0.0
 10
401.8003744637
 20
192.6582750582
 30
0.0
 10
401.8143208056
 20
192.7156881444
 30
0.0
  0
SPLINE
  5
368
100
AcDbEntity
  8
0
100
AcDbSpline
 62
9
  6
CONTINUOUS
 70
0
 71
3
 72
13
 73
9
 74
0
 42
0.0000001
 43
0.0000001
 44
0.0000000001
 40
0.0
 40
0.0
 40
0.0
 40
0.0
 40
0.1911047034
 40
0.3081190667
 40
0.4382810762
 40
0.5783963851
 40
0.7228376687
 40
1.0
 40
1.0
 40
1.0
 40
1.0
 10
404.4234528598
 20
193.3388517461
 30
0.0
 10
404.4225317396
 20
193.2961716068
 30
0.0
 10
404.3995342535
 20
193.2273898671
 30
0.0
 10
404.34051619
 20
193.1490051672
 30
0.0
 10
404.2765932674
 20
193.0899124296
 30
0.0
 10
404.1986221207
 20
193.0392186179
 30
0.0
 10
404.0848696501
 20
192.9856231703
 30
0.0
 10
403.9924634396
 20
192.9619526765
 30
0.0
 10
403.931101746
 20
192.9537002764
 30
0.0
  0
SPLINE
  5
369
100
AcDbEntity
  8
0
100
AcDbSpline
 62
9
  6
CONTINUOUS
 70
0
 71
3
 72
19
 73
15
 74
0
 42
0.0000001
 43
0.0000001
 44
0.0000000001
 40
0.0
 40
0.0
 40
0.0
 40
0.0
 40
0.0542022618
 40
0.1106227588
 40
0.1697260838
 40
0.2316688893
 40
0.3627002166
 40
0.4999714074
 40
0.6372422138
 40
0.7682713787
 40
0.8302140196
 40
0.8893431286
 40
0.9457897505
 40
1.0
 40
1.0
 40
1.0
 40
1.0
 10
403.9311017363
 20
192.9536997367
 30
0.0
 10
403.9497571246
 20
192.8737191529
 30
0.0
 10
404.0067500096
 20
192.7144070401
 30
0.0
 10
404.1428470716
 20
192.4942854294
 30
0.0
 10
404.3263430005
 20
192.295598448
 30
0.0
 10
404.6314561176
 20
192.0632310602
 30
0.0
 10
405.0978909729
 20
191.8603988246
 30
0.0
 10
405.714169262
 20
191.7789904639
 30
0.0
 10
406.3306199806
 20
191.859718373
 30
0.0
 10
406.7969403912
 20
192.0629935335
 30
0.0
 10
407.1018232279
 20
192.2956854824
 30
0.0
 10
407.2854836891
 20
192.4942841024
 30
0.0
 10
407.4219678404
 20
192.7142983951
 30
0.0
 10
407.4788833808
 20
192.8737069846
 30
0.0
 10
407.4975398822
 20
192.9536997367
 30
0.0
  0
SPLINE
  5
36A
100
AcDbEntity
  8
0
100
AcDbSpline
 62
9
  6
CONTINUOUS
 70
0
 71
3
 72
9
 73
5
 74
0
 42
0.0000001
 43
0.0000001
 44
0.0000000001
 40
0.0
 40
0.0
 40
0.0
 40
0.0
 40
0.2576983889
 40
1.0
 40
1.0
 40
1.0
 40
1.0
 10
407.0803163413
 20
193.6779240866
 30
0.0
 10
407.1431964366
 20
193.9741883123
 30
0.0
 10
407.3598951904
 20
195.129315118
 30
0.0
 10
407.4637009757
 20
196.3068185492
 30
0.0
 10
407.4643117269
 20
197.1792187616
 30
0.0
  0
SPLINE
  5
36B
100
AcDbEntity
  8
0
100
AcDbSpline
 62
9
  6
CONTINUOUS
 70
0
 71
3
 72
9
 73
5
 74
0
 42
0.0000001
 43
0.0000001
 44
0.0000000001
 40
0.0
 40
0.0
 40
0.0
 40
0.0
 40
0.5162215697
 40
1.0
 40
1.0
 40
1.0
 40
1.0
 10
420.5142025361
 20
196.8359484495
 30
0.0
 10
420.5142024646
 20
197.8315516156
 30
0.0
 10
420.3962572819
 20
199.7629681879
 30
0.0
 10
420.0013143898
 20
201.6595526163
 30
0.0
 10
419.7368472658
 20
202.554318614
 30
0.0
  0
SPLINE
  5
36C
100
AcDbEntity
  8
0
100
AcDbSpline
 62
9
  6
CONTINUOUS
 70
0
 71
3
 72
9
 73
5
 74
0
 42
0.0000001
 43
0.0000001
 44
0.0000000001
 40
0.0
 40
0.0
 40
0.0
 40
0.0
 40
0.5159753268
 40
1.0
 40
1.0
 40
1.0
 40
1.0
 10
419.7368480397
 20
190.2916735547
 30
0.0
 10
419.9861630306
 20
191.3991595532
 30
0.0
 10
420.3703000401
 20
193.5696400747
 30
0.0
 10
420.5142034401
 20
195.7710415291
 30
0.0
 10
420.5142033637
 20
196.8359484493
 30
0.0
  0
SPLINE
  5
36D
100
AcDbEntity
  8
0
100
AcDbSpline
 62
9
  6
CONTINUOUS
 70
0
 71
3
 72
13
 73
9
 74
0
 42
0.0000001
 43
0.0000001
 44
0.0000000001
 40
0.0
 40
0.0
 40
0.0
 40
0.0
 40
0.2120270157
 40
0.3346743542
 40
0.4660730745
 40
0.6030996025
 40
0.7410988551
 40
1.0
 40
1.0
 40
1.0
 40
1.0
 10
420.2291114899
 20
203.0145143327
 30
0.0
 10
420.230634887
 20
202.9627024621
 30
0.0
 10
420.2122551456
 20
202.8793550695
 30
0.0
 10
420.1540477666
 20
202.7808767314
 30
0.0
 10
420.0902502368
 20
202.708788751
 30
0.0
 10
420.0109492248
 20
202.6480202098
 30
0.0
 10
419.8955039131
 20
202.5862588649
 30
0.0
 10
419.7997782895
 20
202.5610833057
 30
0.0
 10
419.736847229
 20
202.5543187385
 30
0.0
  0
SPLINE
  5
36E
100
AcDbEntity
  8
0
100
AcDbSpline
 62
9
  6
CONTINUOUS
 70
0
 71
3
 72
14
 73
10
 74
0
 42
0.0000001
 43
0.0000001
 44
0.0000000001
 40
0.0
 40
0.0
 40
0.0
 40
0.0
 40
0.4044987829
 40
0.7132210657
 40
0.8269693049
 40
0.911994061
 40
0.9437081075
 40
0.9684537307
 40
1.0
 40
1.0
 40
1.0
 40
1.0
 10
419.7369661747
 20
190.2916608644
 30
0.0
 10
419.7243156084
 20
190.2029201667
 30
0.0
 10
419.6993195282
 20
190.0468352512
 30
0.0
 10
419.6625802526
 20
189.8671459668
 30
0.0
 10
419.6316890656
 20
189.7588900413
 30
0.0
 10
419.6142098068
 20
189.7109212774
 30
0.0
 10
419.5997364537
 20
189.6827872536
 30
0.0
 10
419.5892051384
 20
189.6669596886
 30
0.0
 10
419.5783558093
 20
189.6574540849
 30
0.0
 10
419.5713666772
 20
189.6573047741
 30
0.0
  0
SPLINE
  5
36F
100
AcDbEntity
  8
0
100
AcDbSpline
 62
9
  6
CONTINUOUS
 70
0
 71
3
 72
11
 73
7
 74
0
 42
0.0000001
 43
0.0000001
 44
0.0000000001
 40
0.0
 40
0.0
 40
0.0
 40
0.0
 40
0.223749235
 40
0.4664851141
 40
0.7277363757
 40
1.0
 40
1.0
 40
1.0
 40
1.0
 10
404.4234528728
 20
193.3388516884
 30
0.0
 10
404.4506937731
 20
193.2177660988
 30
0.0
 10
404.5657777544
 20
192.9764755193
 30
0.0
 10
404.8679894537
 20
192.6973705724
 30
0.0
 10
405.2655685593
 20
192.5161390096
 30
0.0
 10
405.5632982552
 20
192.4746213954
 30
0.0
 10
405.7143208089
 20
192.4746172754
 30
0.0
  0
SPLINE
  5
370
100
AcDbEntity
  8
0
100
AcDbSpline
 62
9
  6
CONTINUOUS
 70
0
 71
3
 72
11
 73
7
 74
0
 42
0.0000001
 43
0.0000001
 44
0.0000000001
 40
0.0
 40
0.0
 40
0.0
 40
0.0
 40
0.2722610768
 40
0.5335098026
 40
0.7762452403
 40
1.0
 40
1.0
 40
1.0
 40
1.0
 10
405.7143208088
 20
192.4746135754
 30
0.0
 10
405.8653419123
 20
192.4746094555
 30
0.0
 10
406.1630676419
 20
192.5161407026
 30
0.0
 10
406.5606481
 20
192.6973588079
 30
0.0
 10
406.8628565844
 20
192.976468888
 30
0.0
 10
406.9779486388
 20
193.2177593718
 30
0.0
 10
407.0051876138
 20
193.3388485043
 30
0.0
  0
SPLINE
  5
371
100
AcDbEntity
  8
0
100
AcDbSpline
 62
9
  6
CONTINUOUS
 70
0
 71
3
 72
9
 73
5
 74
0
 42
0.0000001
 43
0.0000001
 44
0.0000000001
 40
0.0
 40
0.0
 40
0.0
 40
0.0
 40
0.4914003763
 40
1.0
 40
1.0
 40
1.0
 40
1.0
 10
403.9311017363
 20
200.4134321769
 30
0.0
 10
403.7742013156
 20
199.8422976809
 30
0.0
 10
403.5382965967
 20
198.6557828896
 30
0.0
 10
403.4643375902
 20
197.4489731624
 30
0.0
 10
403.4643377341
 20
196.8359484396
 30
0.0
  0
SPLINE
  5
372
100
AcDbEntity
  8
0
100
AcDbSpline
 62
9
  6
CONTINUOUS
 70
0
 71
3
 72
9
 73
5
 74
0
 42
0.0000001
 43
0.0000001
 44
0.0000000001
 40
0.0
 40
0.0
 40
0.0
 40
0.0
 40
0.242149346
 40
1.0
 40
1.0
 40
1.0
 40
1.0
 10
403.4643377341
 20
196.8359484396
 30
0.0
 10
403.4643378082
 20
196.5199339476
 30
0.0
 10
403.5056972337
 20
195.2150107916
 30
0.0
 10
403.7065333041
 20
193.9168922073
 30
0.0
 10
403.9311017363
 20
192.9536997367
 30
0.0
  0
SPLINE
  5
373
100
AcDbEntity
  8
0
100
AcDbSpline
 62
9
  6
CONTINUOUS
 70
0
 71
3
 72
19
 73
15
 74
0
 42
0.0000001
 43
0.0000001
 44
0.0000000001
 40
0.0
 40
0.0
 40
0.0
 40
0.0
 40
0.0494724365
 40
0.1022233332
 40
0.1591713003
 40
0.220630804
 40
0.3552924625
 40
0.4999728144
 40
0.6446578725
 40
0.7793066411
 40
0.8407581154
 40
0.8977366293
 40
0.9505209142
 40
1.0
 40
1.0
 40
1.0
 40
1.0
 10
407.4975398822
 20
200.413432177
 30
0.0
 10
407.4787510002
 20
200.4817972073
 30
0.0
 10
407.4205708119
 20
200.6182456708
 30
0.0
 10
407.2833407841
 20
200.8025947078
 30
0.0
 10
407.0992766802
 20
200.9669300852
 30
0.0
 10
406.7903046738
 20
201.1595038132
 30
0.0
 10
406.3231957586
 20
201.3221657253
 30
0.0
 10
405.7144543734
 20
201.3864181193
 30
0.0
 10
405.10561957
 20
201.3227203683
 30
0.0
 10
404.6385928967
 20
201.1597192097
 30
0.0
 10
404.3298120687
 20
200.9668399954
 30
0.0
 10
404.1456125672
 20
200.8025843232
 30
0.0
 10
404.0080092771
 20
200.6183597423
 30
0.0
 10
403.9498914926
 20
200.4818068496
 30
0.0
 10
403.9311017363
 20
200.4134321769
 30
0.0
  0
SPLINE
  5
374
100
AcDbEntity
  8
0
100
AcDbSpline
 62
9
  6
CONTINUOUS
 70
0
 71
3
 72
13
 73
9
 74
0
 42
0.0000001
 43
0.0000001
 44
0.0000000001
 40
0.0
 40
0.0
 40
0.0
 40
0.0
 40
0.1905908595
 40
0.3073917156
 40
0.4374295176
 40
0.5775632797
 40
0.7221682385
 40
1.0
 40
1.0
 40
1.0
 40
1.0
 10
407.0051885198
 20
193.3390106081
 30
0.0
 10
407.0060757539
 20
193.2964344476
 30
0.0
 10
407.0289290919
 20
193.2277785841
 30
0.0
 10
407.0877338531
 20
193.1494398668
 30
0.0
 10
407.1515453595
 20
193.0903008545
 30
0.0
 10
407.229494987
 20
193.0395073328
 30
0.0
 10
407.3434048542
 20
192.9857263688
 30
0.0
 10
407.4360154259
 20
192.9619743469
 30
0.0
 10
407.4975398874
 20
192.9536996979
 30
0.0
  0
SPLINE
  5
375
100
AcDbEntity
  8
0
100
AcDbSpline
 62
9
  6
CONTINUOUS
 70
0
 71
3
 72
11
 73
7
 74
0
 42
0.0000001
 43
0.0000001
 44
0.0000000001
 40
0.0
 40
0.0
 40
0.0
 40
0.0
 40
0.2150264338
 40
0.4635129319
 40
0.733396141
 40
1.0
 40
1.0
 40
1.0
 40
1.0
 10
419.9858243937
 20
205.8027241417
 30
0.0
 10
419.9746153023
 20
205.8446002463
 30
0.0
 10
419.9305714039
 20
205.9301652994
 30
0.0
 10
419.817773177
 20
206.0300273891
 30
0.0
 10
419.6710978831
 20
206.0948935663
 30
0.0
 10
419.5629172428
 20
206.1115789845
 30
0.0
 10
419.5091948557
 20
206.1132570915
 30
0.0
  0
SPLINE
  5
376
100
AcDbEntity
  8
0
100
AcDbSpline
 62
9
  6
CONTINUOUS
 70
0
 71
3
 72
11
 73
7
 74
0
 42
0.0000001
 43
0.0000001
 44
0.0000000001
 40
0.0
 40
0.0
 40
0.0
 40
0.0
 40
0.2453762459
 40
0.5233899574
 40
0.7888708893
 40
1.0
 40
1.0
 40
1.0
 40
1.0
 10
419.5091947118
 20
204.8634903642
 30
0.0
 10
419.5124776734
 20
204.6735824278
 30
0.0
 10
419.5322718753
 20
204.2687408509
 30
0.0
 10
419.5846497556
 20
203.6602641891
 30
0.0
 10
419.6521080753
 20
203.0799953425
 30
0.0
 10
419.7069147765
 20
202.7149775278
 30
0.0
 10
419.7369661688
 20
202.5543373325
 30
0.0
  0
SPLINE
  5
377
100
AcDbEntity
  8
0
100
AcDbSpline
 62
9
  6
CONTINUOUS
 70
0
 71
3
 72
11
 73
7
 74
0
 42
0.0000001
 43
0.0000001
 44
0.0000000001
 40
0.0
 40
0.0
 40
0.0
 40
0.0
 40
0.1911332747
 40
0.4298734574
 40
0.7092503799
 40
1.0
 40
1.0
 40
1.0
 40
1.0
 10
419.9858214849
 20
204.6123310032
 30
0.0
 10
419.9747716807
 20
204.6469046736
 30
0.0
 10
419.9301580412
 20
204.718666891
 30
0.0
 10
419.819320765
 20
204.7993636476
 30
0.0
 10
419.6730431898
 20
204.8514410904
 30
0.0
 10
419.5644081705
 20
204.8632918363
 30
0.0
 10
419.5091947118
 20
204.8634903642
 30
0.0
  0
SPLINE
  5
378
100
AcDbEntity
  8
0
100
AcDbSpline
 62
9
  6
CONTINUOUS
 70
0
 71
3
 72
11
 73
7
 74
0
 42
0.0000001
 43
0.0000001
 44
0.0000000001
 40
0.0
 40
0.0
 40
0.0
 40
0.0
 40
0.2458938829
 40
0.5243573375
 40
0.7901432339
 40
1.0
 40
1.0
 40
1.0
 40
1.0
 10
405.4121878493
 20
205.0840189091
 30
0.0
 10
405.4125374556
 20
204.8948216639
 30
0.0
 10
405.410272136
 20
204.4913632249
 30
0.0
 10
405.4017976588
 20
203.8834576342
 30
0.0
 10
405.3889103861
 20
203.303368362
 30
0.0
 10
405.3773378641
 20
202.9375601575
 30
0.0
 10
405.3703045224
 20
202.7762437987
 30
0.0
  0
SPLINE
  5
379
100
AcDbEntity
  8
0
100
AcDbSpline
 62
9
  6
CONTINUOUS
 70
0
 71
3
 72
18
 73
14
 74
0
 42
0.0000001
 43
0.0000001
 44
0.0000000001
 40
0.0
 40
0.0
 40
0.0
 40
0.0
 40
0.2264895376
 40
0.426427189
 40
0.5982880841
 40
0.7407690767
 40
0.8527947479
 40
0.8971181773
 40
0.9335382896
 40
0.9619976227
 40
0.9824682163
 40
0.9949883238
 40
1.0
 40
1.0
 40
1.0
 40
1.0
 10
405.4121234375
 20
206.410062263
 30
0.0
 10
405.4122512245
 20
206.4384641764
 30
0.0
 10
405.4122803597
 20
206.4919395612
 30
0.0
 10
405.412011762
 20
206.5669646593
 30
0.0
 10
405.4114384851
 20
206.6314570615
 30
0.0
 10
405.4105651459
 20
206.6849096379
 30
0.0
 10
405.4095496222
 20
206.722389873
 30
0.0
 10
405.4085262874
 20
206.7465139133
 30
0.0
 10
405.4077470947
 20
206.7602467962
 30
0.0
 10
405.4069312098
 20
206.7707631649
 30
0.0
 10
405.4060298774
 20
206.7787786167
 30
0.0
 10
405.4052239507
 20
206.7828229549
 30
0.0
 10
405.4043767302
 20
206.7856488032
 30
0.0
 10
405.4037483823
 20
206.7856613596
 30
0.0
  0
SPLINE
  5
37A
100
AcDbEntity
  8
0
100
AcDbSpline
 62
9
  6
CONTINUOUS
 70
0
 71
3
 72
11
 73
7
 74
0
 42
0.0000001
 43
0.0000001
 44
0.0000000001
 40
0.0
 40
0.0
 40
0.0
 40
0.0
 40
0.2777872417
 40
0.535053171
 40
0.7730062914
 40
1.0
 40
1.0
 40
1.0
 40
1.0
 10
404.238939854
 20
206.0517695684
 30
0.0
 10
404.2372496243
 20
206.0905944529
 30
0.0
 10
404.2387074344
 20
206.1657520209
 30
0.0
 10
404.259577856
 20
206.2725791225
 30
0.0
 10
404.3016107978
 20
206.3657144914
 30
0.0
 10
404.3457462359
 20
206.4152905744
 30
0.0
 10
404.3705171495
 20
206.4351609482
 30
0.0
  0
SPLINE
  5
37B
100
AcDbEntity
  8
0
100
AcDbSpline
 62
9
  6
CONTINUOUS
 70
0
 71
3
 72
9
 73
5
 74
0
 42
0.0000001
 43
0.0000001
 44
0.0000000001
 40
0.0
 40
0.0
 40
0.0
 40
0.0
 40
0.5151109012
 40
1.0
 40
1.0
 40
1.0
 40
1.0
 10
405.3703043732
 20
206.4104628674
 30
0.0
 10
405.1638535843
 20
206.4104466162
 30
0.0
 10
404.7607325212
 20
206.351623949
 30
0.0
 10
404.3932625687
 20
206.1698885595
 30
0.0
 10
404.2389307884
 20
206.0517824778
 30
0.0
  0
SPLINE
  5
37C
100
AcDbEntity
  8
0
100
AcDbSpline
 62
9
  6
CONTINUOUS
 70
0
 71
3
 72
13
 73
9
 74
0
 42
0.0000001
 43
0.0000001
 44
0.0000000001
 40
0.0
 40
0.0
 40
0.0
 40
0.0
 40
0.2301456515
 40
0.506124249
 40
0.6464449039
 40
0.778670509
 40
0.8974462704
 40
1.0
 40
1.0
 40
1.0
 40
1.0
 10
405.3703045234
 20
202.7762437554
 30
0.0
 10
405.2129950891
 20
202.8707069915
 30
0.0
 10
404.9016075175
 20
203.1362533263
 30
0.0
 10
404.596460111
 20
203.5574061936
 30
0.0
 10
404.4039937791
 20
203.9511085528
 30
0.0
 10
404.3020907454
 20
204.2469371996
 30
0.0
 10
404.2458136842
 20
204.523985413
 30
0.0
 10
404.2361127561
 20
204.7010418007
 30
0.0
 10
404.2389337113
 20
204.7827581184
 30
0.0
  0
SPLINE
  5
37D
100
AcDbEntity
  8
0
100
AcDbSpline
 62
9
  6
CONTINUOUS
 70
0
 71
3
 72
9
 73
5
 74
0
 42
0.0000001
 43
0.0000001
 44
0.0000000001
 40
0.0
 40
0.0
 40
0.0
 40
0.0
 40
0.5220959386
 40
1.0
 40
1.0
 40
1.0
 40
1.0
 10
405.3703043732
 20
205.084371796
 30
0.0
 10
405.1645408509
 20
205.0843714912
 30
0.0
 10
404.7689770566
 20
205.0363633159
 30
0.0
 10
404.3973129255
 20
204.8846926025
 30
0.0
 10
404.2389337353
 20
204.7827581216
 30
0.0
  0
SPLINE
  5
37E
100
AcDbEntity
  8
0
100
AcDbSpline
 62
9
  6
CONTINUOUS
 70
0
 71
3
 72
14
 73
10
 74
0
 42
0.0000001
 43
0.0000001
 44
0.0000000001
 40
0.0
 40
0.0
 40
0.0
 40
0.0
 40
0.2499071684
 40
0.3894524418
 40
0.5286010845
 40
0.662277289
 40
0.7869546061
 40
0.9002438173
 40
1.0
 40
1.0
 40
1.0
 40
1.0
 10
401.4607672757
 20
203.0766431597
 30
0.0
 10
401.4602925609
 20
202.8689202989
 30
0.0
 10
401.4791028687
 20
202.5451696448
 30
0.0
 10
401.525518409
 20
202.1082814239
 30
0.0
 10
401.5714521922
 20
201.7685400502
 30
0.0
 10
401.6255054104
 20
201.4425479545
 30
0.0
 10
401.6838460531
 20
201.1391609247
 30
0.0
 10
401.7461385031
 20
200.8653510247
 30
0.0
 10
401.7928873533
 20
200.6945260346
 30
0.0
 10
401.8143254731
 20
200.6144277854
 30
0.0
  0
SPLINE
  5
37F
100
AcDbEntity
  8
0
100
AcDbSpline
 62
9
  6
CONTINUOUS
 70
0
 71
3
 72
9
 73
5
 74
0
 42
0.0000001
 43
0.0000001
 44
0.0000000001
 40
0.0
 40
0.0
 40
0.0
 40
0.0
 40
0.5108680395
 40
1.0
 40
1.0
 40
1.0
 40
1.0
 10
407.4975398822
 20
192.9536997367
 30
0.0
 10
407.6489801422
 20
193.6032374711
 30
0.0
 10
407.8809021903
 20
194.8908847883
 30
0.0
 10
407.9643040325
 20
196.197367411
 30
0.0
 10
407.9643038827
 20
196.8359484396
 30
0.0
  0
SPLINE
  5
380
100
AcDbEntity
  8
0
100
AcDbSpline
 62
9
  6
CONTINUOUS
 70
0
 71
3
 72
9
 73
5
 74
0
 42
0.0000001
 43
0.0000001
 44
0.0000000001
 40
0.0
 40
0.0
 40
0.0
 40
0.0
 40
0.5086001516
 40
1.0
 40
1.0
 40
1.0
 40
1.0
 10
407.9643038827
 20
196.8359484396
 30
0.0
 10
407.9643037388
 20
197.4489732053
 30
0.0
 10
407.8902937133
 20
198.6557767382
 30
0.0
 10
407.6544394561
 20
199.8422987027
 30
0.0
 10
407.4975398822
 20
200.413432177
 30
0.0
  0
SPLINE
  5
381
100
AcDbEntity
  8
0
100
AcDbSpline
 62
9
  6
CONTINUOUS
 70
0
 71
3
 72
9
 73
5
 74
0
 42
0.0000001
 43
0.0000001
 44
0.0000000001
 40
0.0
 40
0.0
 40
0.0
 40
0.0
 40
0.4888636019
 40
1.0
 40
1.0
 40
1.0
 40
1.0
 10
420.2291141016
 20
203.0145146551
 30
0.0
 10
420.4144760957
 20
202.381560511
 30
0.0
 10
420.7210015361
 20
201.0646698347
 30
0.0
 10
420.8892367686
 20
199.7236067753
 30
0.0
 10
420.943268709
 20
199.0361403477
 30
0.0
  0
SPLINE
  5
382
100
AcDbEntity
  8
0
100
AcDbSpline
 62
9
  6
CONTINUOUS
 70
0
 71
3
 72
9
 73
5
 74
0
 42
0.0000001
 43
0.0000001
 44
0.0000000001
 40
0.0
 40
0.0
 40
0.0
 40
0.0
 40
0.2463097324
 40
1.0
 40
1.0
 40
1.0
 40
1.0
 10
420.943268709
 20
199.0361403477
 30
0.0
 10
420.9551588696
 20
198.8848578628
 30
0.0
 10
420.9971443086
 20
198.2701786464
 30
0.0
 10
421.0143208091
 20
197.6538461235
 30
0.0
 10
421.0143208089
 20
197.1895049013
 30
0.0
  0
SPLINE
  5
383
100
AcDbEntity
  8
0
100
AcDbSpline
 62
9
  6
CONTINUOUS
 70
0
 71
3
 72
12
 73
8
 74
0
 42
0.0000001
 43
0.0000001
 44
0.0000000001
 40
0.0
 40
0.0
 40
0.0
 40
0.0
 40
0.2456743906
 40
0.5234565572
 40
0.7880061703
 40
0.9027426005
 40
1.0
 40
1.0
 40
1.0
 40
1.0
 10
419.9858213895
 20
204.6123310385
 30
0.0
 10
419.988871911
 20
204.4797569511
 30
0.0
 10
420.010431502
 20
204.1976769569
 30
0.0
 10
420.0662923179
 20
203.7759216615
 30
0.0
 10
420.1291080684
 20
203.4266667389
 30
0.0
 10
420.1853773098
 20
203.1756424387
 30
0.0
 10
420.2143615255
 20
203.0648963996
 30
0.0
 10
420.2291141016
 20
203.0145146551
 30
0.0
  0
SPLINE
  5
384
100
AcDbEntity
  8
0
100
AcDbSpline
 62
9
  6
CONTINUOUS
 70
0
 71
3
 72
9
 73
5
 74
0
 42
0.0000001
 43
0.0000001
 44
0.0000000001
 40
0.0
 40
0.0
 40
0.0
 40
0.0
 40
0.2337882189
 40
1.0
 40
1.0
 40
1.0
 40
1.0
 10
419.9858243927
 20
205.8027241062
 30
0.0
 10
419.9832954803
 20
205.7099855975
 30
0.0
 10
419.9755380883
 20
205.3132255095
 30
0.0
 10
419.9788422861
 20
204.9162934417
 30
0.0
 10
419.9858243893
 20
204.6123217173
 30
0.0
  0
SPLINE
  5
385
100
AcDbEntity
  8
0
100
AcDbSpline
 62
9
  6
CONTINUOUS
 70
0
 71
3
 72
21
 73
17
 74
0
 42
0.0000001
 43
0.0000001
 44
0.0000000001
 40
0.0
 40
0.0
 40
0.0
 40
0.0
 40
0.2173984379
 40
0.3103146022
 40
0.3915678888
 40
0.4605645673
 40
0.5170413282
 40
0.5610039184
 40
0.5931465135
 40
0.6163566686
 40
0.6381742291
 40
0.6672900464
 40
0.7079784784
 40
0.761688879
 40
0.8285177478
 40
1.0
 40
1.0
 40
1.0
 40
1.0
 10
420.2179949318
 20
205.6628666911
 30
0.0
 10
420.2060345518
 20
205.7133223304
 30
0.0
 10
420.1875332696
 20
205.7850411938
 30
0.0
 10
420.1597396705
 20
205.8742249091
 30
0.0
 10
420.1402133391
 20
205.9288624167
 30
0.0
 10
420.1210690605
 20
205.9743384232
 30
0.0
 10
420.1026276025
 20
206.0103566822
 30
0.0
 10
420.0848778974
 20
206.0366862124
 30
0.0
 10
420.0681724127
 20
206.0536938088
 30
0.0
 10
420.0497690122
 20
206.0608542903
 30
0.0
 10
420.0323092116
 20
206.052992201
 30
0.0
 10
420.0198060602
 20
206.0344691046
 30
0.0
 10
420.0090532445
 20
206.0069836331
 30
0.0
 10
420.0002319593
 20
205.9694377241
 30
0.0
 10
419.9900216942
 20
205.900510147
 30
0.0
 10
419.9869389005
 20
205.8436219396
 30
0.0
 10
419.9858214965
 20
205.8027352753
 30
0.0
  0
SPLINE
  5
386
100
AcDbEntity
  8
0
100
AcDbSpline
 62
9
  6
CONTINUOUS
 70
0
 71
3
 72
20
 73
16
 74
0
 42
0.0000001
 43
0.0000001
 44
0.0000000001
 40
0.0
 40
0.0
 40
0.0
 40
0.0
 40
0.2208884987
 40
0.4189124123
 40
0.591070587
 40
0.7351787927
 40
0.7961208641
 40
0.8493794636
 40
0.8947561975
 40
0.9321105729
 40
0.9613394019
 40
0.982348766
 40
0.9951050732
 40
0.9984482174
 40
1.0
 40
1.0
 40
1.0
 40
1.0
 10
405.3703052095
 20
189.9985691338
 30
0.0
 10
405.3718482414
 20
189.9515494426
 30
0.0
 10
405.3748956374
 20
189.8623810323
 30
0.0
 10
405.3796219858
 20
189.7365828898
 30
0.0
 10
405.3842106747
 20
189.6271444621
 30
0.0
 10
405.3880398654
 20
189.5468975102
 30
0.0
 10
405.3910438032
 20
189.4919633111
 30
0.0
 10
405.3930930868
 20
189.4580408908
 30
0.0
 10
405.3950636507
 20
189.4291358389
 30
0.0
 10
405.3969292251
 20
189.4053870463
 30
0.0
 10
405.398715356
 20
189.3867533988
 30
0.0
 10
405.4002921495
 20
189.373571233
 30
0.0
 10
405.4017499011
 20
189.3655418433
 30
0.0
 10
405.4027694624
 20
189.362173966
 30
0.0
 10
405.4034904494
 20
189.3611098126
 30
0.0
 10
405.4038208998
 20
189.3611155277
 30
0.0
  0
SPLINE
  5
387
100
AcDbEntity
  8
0
100
AcDbSpline
 62
9
  6
CONTINUOUS
 70
0
 71
3
 72
10
 73
6
 74
0
 42
0.0000001
 43
0.0000001
 44
0.0000000001
 40
0.0
 40
0.0
 40
0.0
 40
0.0
 40
0.2708162033
 40
0.5326173214
 40
1.0
 40
1.0
 40
1.0
 40
1.0
 10
415.0143208095
 20
197.373288475
 30
0.0
 10
414.8483556939
 20
197.3732986955
 30
0.0
 10
414.5207753054
 20
197.4005238575
 30
0.0
 10
413.9270970232
 20
197.5531010391
 30
0.0
 10
413.5223036528
 20
197.7883549895
 30
0.0
 10
413.327195649
 20
197.9980538349
 30
0.0
  0
SPLINE
  5
388
100
AcDbEntity
  8
0
100
AcDbSpline
 62
9
  6
CONTINUOUS
 70
0
 71
3
 72
14
 73
10
 74
0
 42
0.0000001
 43
0.0000001
 44
0.0000000001
 40
0.0
 40
0.0
 40
0.0
 40
0.0
 40
0.1030034855
 40
0.2105287232
 40
0.3250891023
 40
0.4477020875
 40
0.5781116678
 40
0.7150743941
 40
1.0
 40
1.0
 40
1.0
 40
1.0
 10
412.2143235768
 20
196.8359484396
 30
0.0
 10
412.2143247484
 20
196.7061793326
 30
0.0
 10
412.2530626432
 20
196.4396491604
 30
0.0
 10
412.4199575911
 20
196.0609965487
 30
0.0
 10
412.6864730871
 20
195.7135100862
 30
0.0
 10
413.0401065248
 20
195.410100761
 30
0.0
 10
413.4670198847
 20
195.161795195
 30
0.0
 10
414.1190915503
 20
194.9130893827
 30
0.0
 10
414.655356828
 20
194.8384317906
 30
0.0
 10
415.01432081
 20
194.8384012176
 30
0.0
  0
SPLINE
  5
389
100
AcDbEntity
  8
0
100
AcDbSpline
 62
9
  6
CONTINUOUS
 70
0
 71
3
 72
13
 73
9
 74
0
 42
0.0000001
 43
0.0000001
 44
0.0000000001
 40
0.0
 40
0.0
 40
0.0
 40
0.0
 40
0.2796138936
 40
0.544535821
 40
0.6682601121
 40
0.7851725822
 40
0.8954123326
 40
1.0
 40
1.0
 40
1.0
 40
1.0
 10
415.0143208082
 20
198.7498084508
 30
0.0
 10
414.7164336543
 20
198.7497878427
 30
0.0
 10
414.1345854267
 20
198.6883845782
 30
0.0
 10
413.453308831
 20
198.4556235482
 30
0.0
 10
412.9894067272
 20
198.1785148132
 30
0.0
 10
412.7002213657
 20
197.938946103
 30
0.0
 10
412.4705997221
 20
197.6676480615
 30
0.0
 10
412.3602485903
 20
197.4647660255
 30
0.0
 10
412.3184098786
 20
197.3614968121
 30
0.0
  0
SPLINE
  5
38A
100
AcDbEntity
  8
0
100
AcDbSpline
 62
9
  6
CONTINUOUS
 70
0
 71
3
 72
9
 73
5
 74
0
 42
0.0000001
 43
0.0000001
 44
0.0000000001
 40
0.0
 40
0.0
 40
0.0
 40
0.0
 40
0.5033689271
 40
1.0
 40
1.0
 40
1.0
 40
1.0
 10
412.3184098786
 20
197.3614968121
 30
0.0
 10
412.2844973219
 20
197.2777914846
 30
0.0
 10
412.2322424826
 20
197.1048953213
 30
0.0
 10
412.2143227722
 20
196.9250536751
 30
0.0
 10
412.2143235768
 20
196.8359484396
 30
0.0
  0
SPLINE
  5
38B
100
AcDbEntity
  8
0
100
AcDbSpline
 62
9
  6
CONTINUOUS
 70
0
 71
3
 72
14
 73
10
 74
0
 42
0.0000001
 43
0.0000001
 44
0.0000000001
 40
0.0
 40
0.0
 40
0.0
 40
0.0
 40
0.2839791615
 40
0.4206692336
 40
0.5510254788
 40
0.6738100609
 40
0.7887527673
 40
0.8966995541
 40
1.0
 40
1.0
 40
1.0
 40
1.0
 10
415.0143208085
 20
195.9450630142
 30
0.0
 10
415.2716539202
 20
195.9450834682
 30
0.0
 10
415.6564856594
 20
196.0002986183
 30
0.0
 10
416.1224266583
 20
196.1840219357
 30
0.0
 10
416.4271890588
 20
196.3663328161
 30
0.0
 10
416.6787866263
 20
196.5883846504
 30
0.0
 10
416.8683516495
 20
196.8409900415
 30
0.0
 10
416.9864296229
 20
197.1151578744
 30
0.0
 10
417.0142551671
 20
197.3074072033
 30
0.0
 10
417.0143137548
 20
197.4010148466
 30
0.0
  0
SPLINE
  5
38C
100
AcDbEntity
  8
0
100
AcDbSpline
 62
9
  6
CONTINUOUS
 70
0
 71
3
 72
9
 73
5
 74
0
 42
0.0000001
 43
0.0000001
 44
0.0000000001
 40
0.0
 40
0.0
 40
0.0
 40
0.0
 40
0.4966088084
 40
1.0
 40
1.0
 40
1.0
 40
1.0
 10
417.814318041
 20
196.8359484396
 30
0.0
 10
417.8143172364
 20
196.9250555284
 30
0.0
 10
417.7965159259
 20
197.1049250517
 30
0.0
 10
417.7440855075
 20
197.2778018281
 30
0.0
 10
417.7100676304
 20
197.36147512
 30
0.0
  0
SPLINE
  5
38D
100
AcDbEntity
  8
0
100
AcDbSpline
 62
9
  6
CONTINUOUS
 70
0
 71
3
 72
14
 73
10
 74
0
 42
0.0000001
 43
0.0000001
 44
0.0000000001
 40
0.0
 40
0.0
 40
0.0
 40
0.0
 40
0.104555883
 40
0.2147120707
 40
0.331523092
 40
0.4552137029
 40
0.5852647806
 40
0.720531555
 40
1.0
 40
1.0
 40
1.0
 40
1.0
 10
417.7100676304
 20
197.36147512
 30
0.0
 10
417.6680964158
 20
197.4647111237
 30
0.0
 10
417.5575131866
 20
197.6674145666
 30
0.0
 10
417.3283276491
 20
197.9389498953
 30
0.0
 10
417.0394453993
 20
198.1788327892
 30
0.0
 10
416.6990224018
 20
198.38179511
 30
0.0
 10
416.3159966261
 20
198.5437429711
 30
0.0
 10
415.7565555591
 20
198.7029521336
 30
0.0
 10
415.3121944541
 20
198.7497880743
 30
0.0
 10
415.0143208082
 20
198.7498084508
 30
0.0
  0
SPLINE
  5
38E
100
AcDbEntity
  8
0
100
AcDbSpline
 62
9
  6
CONTINUOUS
 70
0
 71
3
 72
13
 73
9
 74
0
 42
0.0000001
 43
0.0000001
 44
0.0000000001
 40
0.0
 40
0.0
 40
0.0
 40
0.0
 40
0.2851922018
 40
0.5518627252
 40
0.6746208062
 40
0.7893002312
 40
0.8969021231
 40
1.0
 40
1.0
 40
1.0
 40
1.0
 10
415.01432081
 20
194.8384012176
 30
0.0
 10
415.3733044693
 20
194.8384303582
 30
0.0
 10
416.0717360724
 20
194.9349007136
 30
0.0
 10
416.8573931943
 20
195.2984384778
 30
0.0
 10
417.3422466521
 20
195.7134403241
 30
0.0
 10
417.6092580063
 20
196.0607590802
 30
0.0
 10
417.7754316819
 20
196.4397272698
 30
0.0
 10
417.8143192127
 20
196.7061747185
 30
0.0
 10
417.814318041
 20
196.8359484396
 30
0.0
  0
SPLINE
  5
38F
100
AcDbEntity
  8
0
100
AcDbSpline
 62
7
  6
CONTINUOUS
 70
0
 71
3
 72
9
 73
5
 74
0
 42
0.0000001
 43
0.0000001
 44
0.0000000001
 40
0.0
 40
0.0
 40
0.0
 40
0.0
 40
0.5019323865
 40
1.0
 40
1.0
 40
1.0
 40
1.0
 10
399.3401409353
 20
196.5905489882
 30
0.0
 10
399.4948373042
 20
196.5837121468
 30
0.0
 10
399.8027269091
 20
196.5635236054
 30
0.0
 10
400.1092853369
 20
196.5240071888
 30
0.0
 10
400.2600487066
 20
196.4943375019
 30
0.0
  0
SPLINE
  5
390
100
AcDbEntity
  8
0
100
AcDbSpline
 62
7
  6
CONTINUOUS
 70
0
 71
3
 72
12
 73
8
 74
0
 42
0.0000001
 43
0.0000001
 44
0.0000000001
 40
0.0
 40
0.0
 40
0.0
 40
0.0
 40
0.2506671214
 40
0.5012501317
 40
0.7514253988
 40
0.8760794494
 40
1.0
 40
1.0
 40
1.0
 40
1.0
 10
396.2797945833
 20
199.7810481837
 30
0.0
 10
396.5767058725
 20
199.7810482651
 30
0.0
 10
397.1704487677
 20
199.7785606179
 30
0.0
 10
398.0603178567
 20
199.7582524203
 30
0.0
 10
398.8002769407
 20
199.7168227989
 30
0.0
 10
399.3880709859
 20
199.6567299193
 30
0.0
 10
399.6795540064
 20
199.6137738416
 30
0.0
 10
399.8239155228
 20
199.5872277449
 30
0.0
  0
SPLINE
  5
391
100
AcDbEntity
  8
0
100
AcDbSpline
 62
9
  6
CONTINUOUS
 70
0
 71
3
 72
9
 73
5
 74
0
 42
0.0000001
 43
0.0000001
 44
0.0000000001
 40
0.0
 40
0.0
 40
0.0
 40
0.0
 40
0.2513338068
 40
1.0
 40
1.0
 40
1.0
 40
1.0
 10
395.1646883125
 20
199.2154709825
 30
0.0
 10
395.5538066836
 20
199.1979758132
 30
0.0
 10
397.1007306712
 20
199.1024538075
 30
0.0
 10
398.6413718315
 20
198.9031649118
 30
0.0
 10
399.7827480183
 20
198.6946520817
 30
0.0
  0
SPLINE
  5
392
100
AcDbEntity
  8
0
100
AcDbSpline
 62
7
  6
CONTINUOUS
 70
0
 71
3
 72
16
 73
12
 74
0
 42
0.0000001
 43
0.0000001
 44
0.0000000001
 40
0.0
 40
0.0
 40
0.0
 40
0.0
 40
0.2686703741
 40
0.4014870877
 40
0.5325956412
 40
0.6609550648
 40
0.78448084
 40
0.8432846274
 40
0.8990525756
 40
0.951067824
 40
1.0
 40
1.0
 40
1.0
 40
1.0
 10
399.8239155228
 20
199.5872277449
 30
0.0
 10
399.9196681042
 20
199.5696201626
 30
0.0
 10
400.0622183277
 20
199.539922115
 30
0.0
 10
400.248704477
 20
199.4900413985
 30
0.0
 10
400.384130518
 20
199.4465179165
 30
0.0
 10
400.5130612567
 20
199.3948848355
 30
0.0
 10
400.6130092779
 20
199.3419957452
 30
0.0
 10
400.6825605898
 20
199.2906143566
 30
0.0
 10
400.7255706901
 20
199.2477878444
 30
0.0
 10
400.7562063861
 20
199.1991710231
 30
0.0
 10
400.7644447163
 20
199.1623836362
 30
0.0
 10
400.7644447163
 20
199.1446520953
 30
0.0
  0
SPLINE
  5
393
100
AcDbEntity
  8
0
100
AcDbSpline
 62
9
  6
CONTINUOUS
 70
0
 71
3
 72
9
 73
5
 74
0
 42
0.0000001
 43
0.0000001
 44
0.0000000001
 40
0.0
 40
0.0
 40
0.0
 40
0.0
 40
0.2515470997
 40
1.0
 40
1.0
 40
1.0
 40
1.0
 10
396.389556078
 20
196.6979675137
 30
0.0
 10
396.7450812054
 20
196.6696382482
 30
0.0
 10
398.156616282
 20
196.535403463
 30
0.0
 10
399.5600186428
 20
196.3145207696
 30
0.0
 10
400.599213864
 20
196.0996245175
 30
0.0
  0
SPLINE
  5
394
100
AcDbEntity
  8
0
100
AcDbSpline
 62
7
  6
CONTINUOUS
 70
0
 71
3
 72
16
 73
12
 74
0
 42
0.0000001
 43
0.0000001
 44
0.0000000001
 40
0.0
 40
0.0
 40
0.0
 40
0.0
 40
0.268864403
 40
0.4017021043
 40
0.5327724533
 40
0.6610302199
 40
0.7843985401
 40
0.8431185965
 40
0.8988448203
 40
0.9509028661
 40
1.0
 40
1.0
 40
1.0
 40
1.0
 10
400.2600487066
 20
196.4943375019
 30
0.0
 10
400.3116123778
 20
196.4841899576
 30
0.0
 10
400.3883363104
 20
196.4671874577
 30
0.0
 10
400.4886026555
 20
196.4389702253
 30
0.0
 10
400.5613158396
 20
196.4145466477
 30
0.0
 10
400.630432304
 20
196.3857995713
 30
0.0
 10
400.683896907
 20
196.3565783347
 30
0.0
 10
400.7209790187
 20
196.3283767143
 30
0.0
 10
400.7438489018
 20
196.3049738217
 30
0.0
 10
400.7600612879
 20
196.2785244494
 30
0.0
 10
400.7643774892
 20
196.2586392447
 30
0.0
 10
400.7643774892
 20
196.2490426367
 30
0.0
  0
SPLINE
  5
395
100
AcDbEntity
  8
0
100
AcDbSpline
 62
7
  6
CONTINUOUS
 70
0
 71
3
 72
10
 73
6
 74
0
 42
0.0000001
 43
0.0000001
 44
0.0000000001
 40
0.0
 40
0.0
 40
0.0
 40
0.0
 40
0.4911476077
 40
0.7437037273
 40
1.0
 40
1.0
 40
1.0
 40
1.0
 10
400.599213863
 20
196.0996245171
 30
0.0
 10
399.7495037219
 20
195.7379565653
 30
0.0
 10
398.426657997
 20
195.2672259649
 30
0.0
 10
396.5936744888
 20
194.8414342101
 30
0.0
 10
395.6452770082
 20
194.704070828
 30
0.0
 10
395.1657347369
 20
194.6564626623
 30
0.0
  0
SPLINE
  5
396
100
AcDbEntity
  8
0
100
AcDbSpline
 62
7
  6
CONTINUOUS
 70
0
 71
3
 72
11
 73
7
 74
0
 42
0.0000001
 43
0.0000001
 44
0.0000000001
 40
0.0
 40
0.0
 40
0.0
 40
0.0
 40
0.2166021824
 40
0.4602570287
 40
0.7242687267
 40
1.0
 40
1.0
 40
1.0
 40
1.0
 10
400.7643774892
 20
196.2490426367
 30
0.0
 10
400.7643774892
 20
196.2322386258
 30
0.0
 10
400.7501944285
 20
196.1967441234
 30
0.0
 10
400.708563831
 20
196.1581498239
 30
0.0
 10
400.6568726343
 20
196.1258164382
 30
0.0
 10
400.6188963761
 20
196.1080021201
 30
0.0
 10
400.599213863
 20
196.0996245171
 30
0.0
  0
SPLINE
  5
397
100
AcDbEntity
  8
0
100
AcDbSpline
 62
7
  6
CONTINUOUS
 70
0
 71
3
 72
9
 73
5
 74
0
 42
0.0000001
 43
0.0000001
 44
0.0000000001
 40
0.0
 40
0.0
 40
0.0
 40
0.0
 40
0.4982374654
 40
1.0
 40
1.0
 40
1.0
 40
1.0
 10
399.7827481127
 20
198.6946520939
 30
0.0
 10
399.022344407
 20
198.5601536406
 30
0.0
 10
397.4877286796
 20
198.3354895365
 30
0.0
 10
395.9415333509
 20
198.2108559224
 30
0.0
 10
395.1646928662
 20
198.1749375406
 30
0.0
  0
SPLINE
  5
398
100
AcDbEntity
  8
0
100
AcDbSpline
 62
7
  6
CONTINUOUS
 70
0
 71
3
 72
16
 73
12
 74
0
 42
0.0000001
 43
0.0000001
 44
0.0000000001
 40
0.0
 40
0.0
 40
0.0
 40
0.0
 40
0.0488192888
 40
0.1008853904
 40
0.1567963388
 40
0.2157505417
 40
0.3394813114
 40
0.4679067556
 40
0.5989789895
 40
0.7316869929
 40
1.0
 40
1.0
 40
1.0
 40
1.0
 10
400.7644447163
 20
199.1446520953
 30
0.0
 10
400.7644447163
 20
199.1262815525
 30
0.0
 10
400.755574976
 20
199.0881011312
 30
0.0
 10
400.7229021373
 20
199.0381119078
 30
0.0
 10
400.6774301247
 20
198.994289787
 30
0.0
 10
400.6042605967
 20
198.9419207693
 30
0.0
 10
400.4996605324
 20
198.8882506886
 30
0.0
 10
400.3651378444
 20
198.8360189705
 30
0.0
 10
400.2241294877
 20
198.7921270779
 30
0.0
 10
400.030241278
 20
198.7419719317
 30
0.0
 10
399.8821701747
 20
198.7122376389
 30
0.0
 10
399.7827481127
 20
198.6946520939
 30
0.0
  0
SPLINE
  5
399
100
AcDbEntity
  8
0
100
AcDbSpline
 62
7
  6
CONTINUOUS
 70
0
 71
3
 72
12
 73
8
 74
0
 42
0.0000001
 43
0.0000001
 44
0.0000000001
 40
0.0
 40
0.0
 40
0.0
 40
0.0
 40
0.1530628577
 40
0.2580279563
 40
0.3821458254
 40
0.6748359638
 40
1.0
 40
1.0
 40
1.0
 40
1.0
 10
346.7143210896
 20
177.0784842045
 30
0.0
 10
346.7143204204
 20
177.0871690143
 30
0.0
 10
346.7045279516
 20
177.1009236138
 30
0.0
 10
346.6864162617
 20
177.1123292946
 30
0.0
 10
346.6590860918
 20
177.1242920741
 30
0.0
 10
346.6177858909
 20
177.1335888096
 30
0.0
 10
346.5827046927
 20
177.1362430315
 30
0.0
 10
346.5642550061
 20
177.1363222894
 30
0.0
  0
SPLINE
  5
39A
100
AcDbEntity
  8
0
100
AcDbSpline
 62
7
  6
CONTINUOUS
 70
0
 71
3
 72
8
 73
4
 74
0
 42
0.0000001
 43
0.0000001
 44
0.0000000001
 40
0.0
 40
0.0
 40
0.0
 40
0.0
 40
1.0
 40
1.0
 40
1.0
 40
1.0
 10
349.9682358785
 20
182.9272862965
 30
0.0
 10
349.9330565901
 20
182.9272862963
 30
0.0
 10
349.8976962189
 20
182.9213223913
 30
0.0
 10
349.863851737
 20
182.9117237781
 30
0.0
  0
SPLINE
  5
39B
100
AcDbEntity
  8
0
100
AcDbSpline
 62
7
  6
CONTINUOUS
 70
0
 71
3
 72
10
 73
6
 74
0
 42
0.0000001
 43
0.0000001
 44
0.0000000001
 40
0.0
 40
0.0
 40
0.0
 40
0.0
 40
0.2050842801
 40
0.4423035422
 40
1.0
 40
1.0
 40
1.0
 40
1.0
 10
347.3126848173
 20
176.4474550559
 30
0.0
 10
347.3257109586
 20
176.4818252112
 30
0.0
 10
347.3570716752
 20
176.5546860904
 30
0.0
 10
347.4326639386
 20
176.7171852287
 30
0.0
 10
347.4983455876
 20
176.8437012753
 30
0.0
 10
347.5457703901
 20
176.9316858155
 30
0.0
  0
SPLINE
  5
39C
100
AcDbEntity
  8
0
100
AcDbSpline
 62
7
  6
CONTINUOUS
 70
0
 71
3
 72
12
 73
8
 74
0
 42
0.0000001
 43
0.0000001
 44
0.0000000001
 40
0.0
 40
0.0
 40
0.0
 40
0.0
 40
0.2175427712
 40
0.4642018143
 40
0.7274712803
 40
0.8630979315
 40
1.0
 40
1.0
 40
1.0
 40
1.0
 10
347.5457703901
 20
176.9316858155
 30
0.0
 10
347.6480391795
 20
177.1214192867
 30
0.0
 10
347.8749824581
 20
177.5215017084
 30
0.0
 10
348.2241423428
 20
178.1520920279
 30
0.0
 10
348.5095758438
 20
178.724966136
 30
0.0
 10
348.7188103849
 20
179.2131067187
 30
0.0
 10
348.8103374277
 20
179.4672939719
 30
0.0
 10
348.8540663041
 20
179.5956938845
 30
0.0
  0
SPLINE
  5
39D
100
AcDbEntity
  8
0
100
AcDbSpline
 62
7
  6
CONTINUOUS
 70
0
 71
3
 72
12
 73
8
 74
0
 42
0.0000001
 43
0.0000001
 44
0.0000000001
 40
0.0
 40
0.0
 40
0.0
 40
0.0
 40
0.2502586826
 40
0.4971167366
 40
0.621078443
 40
0.7473720924
 40
1.0
 40
1.0
 40
1.0
 40
1.0
 10
347.4516602178
 20
176.9838010001
 30
0.0
 10
347.4402085066
 20
176.9389879089
 30
0.0
 10
347.4146991573
 20
176.8506568928
 30
0.0
 10
347.3919336695
 20
176.7380865146
 30
0.0
 10
347.3734714475
 20
176.6480769596
 30
0.0
 10
347.3501803045
 20
176.5580565491
 30
0.0
 10
347.3283495435
 20
176.4914399387
 30
0.0
 10
347.3126848173
 20
176.4474550559
 30
0.0
  0
SPLINE
  5
39E
100
AcDbEntity
  8
0
100
AcDbSpline
 62
7
  6
CONTINUOUS
 70
0
 71
3
 72
8
 73
4
 74
0
 42
0.0000001
 43
0.0000001
 44
0.0000000001
 40
0.0
 40
0.0
 40
0.0
 40
0.0
 40
1.0
 40
1.0
 40
1.0
 40
1.0
 10
348.0920140598
 20
178.895628024
 30
0.0
 10
347.2382342349
 20
178.8953781356
 30
0.0
 10
346.3844543167
 20
178.8953615653
 30
0.0
 10
345.5306744766
 20
178.8955523576
 30
0.0
  0
SPLINE
  5
39F
100
AcDbEntity
  8
0
100
AcDbSpline
 62
7
  6
CONTINUOUS
 70
0
 71
3
 72
11
 73
7
 74
0
 42
0.0000001
 43
0.0000001
 44
0.0000000001
 40
0.0
 40
0.0
 40
0.0
 40
0.0
 40
0.2499223767
 40
0.4998274624
 40
0.7498608609
 40
1.0
 40
1.0
 40
1.0
 40
1.0
 10
357.8419175156
 20
181.6921975473
 30
0.0
 10
357.9067582282
 20
181.7053459769
 30
0.0
 10
358.0435513444
 20
181.7044808427
 30
0.0
 10
358.2298045463
 20
181.6220050341
 30
0.0
 10
358.3705553118
 20
181.4752574406
 30
0.0
 10
358.4216573807
 20
181.3491494775
 30
0.0
 10
358.4348172142
 20
181.2842525274
 30
0.0
  0
SPLINE
  5
3A0
100
AcDbEntity
  8
0
100
AcDbSpline
 62
7
  6
CONTINUOUS
 70
0
 71
3
 72
11
 73
7
 74
0
 42
0.0000001
 43
0.0000001
 44
0.0000000001
 40
0.0
 40
0.0
 40
0.0
 40
0.0
 40
0.2502548814
 40
0.500313783
 40
0.7501879621
 40
1.0
 40
1.0
 40
1.0
 40
1.0
 10
358.1741484587
 20
180.0538200506
 30
0.0
 10
358.2398747209
 20
180.0671480523
 30
0.0
 10
358.3670007402
 20
180.1232318428
 30
0.0
 10
358.505377212
 20
180.2763842315
 30
0.0
 10
358.5751772961
 20
180.4697569041
 30
0.0
 10
358.5721368181
 20
180.6070689183
 30
0.0
 10
358.5588324012
 20
180.6726788733
 30
0.0
  0
SPLINE
  5
3A1
100
AcDbEntity
  8
0
100
AcDbSpline
 62
7
  6
CONTINUOUS
 70
0
 71
3
 72
11
 73
7
 74
0
 42
0.0000001
 43
0.0000001
 44
0.0000000001
 40
0.0
 40
0.0
 40
0.0
 40
0.0
 40
0.2501298756
 40
0.500174346
 40
0.7500888903
 40
1.0
 40
1.0
 40
1.0
 40
1.0
 10
358.4667890549
 20
181.1265852614
 30
0.0
 10
358.4799484191
 20
181.0616906257
 30
0.0
 10
358.4820180853
 20
180.9256366747
 30
0.0
 10
358.4095372217
 20
180.7356519643
 30
0.0
 10
358.2701241198
 20
180.5871357042
 30
0.0
 10
358.1444734948
 20
180.5330524683
 30
0.0
 10
358.0796356165
 20
180.5199046135
 30
0.0
  0
SPLINE
  5
3A2
100
AcDbEntity
  8
0
100
AcDbSpline
 62
7
  6
CONTINUOUS
 70
0
 71
3
 72
18
 73
14
 74
0
 42
0.0000001
 43
0.0000001
 44
0.0000000001
 40
0.0
 40
0.0
 40
0.0
 40
0.0
 40
0.2282622035
 40
0.4376756226
 40
0.6199635194
 40
0.7643985843
 40
0.8706529902
 40
0.9108897585
 40
0.9432124158
 40
0.9680826636
 40
0.9858178855
 40
0.9964570892
 40
1.0
 40
1.0
 40
1.0
 40
1.0
 10
347.3122683074
 20
176.4466999601
 30
0.0
 10
347.3087642958
 20
176.4238323278
 30
0.0
 10
347.2973871266
 20
176.3806421917
 30
0.0
 10
347.2726512368
 20
176.3227711042
 30
0.0
 10
347.2474888982
 20
176.2745993696
 30
0.0
 10
347.2285619285
 20
176.2349982293
 30
0.0
 10
347.217913828
 20
176.207427184
 30
0.0
 10
347.2123854561
 20
176.1902216262
 30
0.0
 10
347.2095260081
 20
176.1806581153
 30
0.0
 10
347.2078248429
 20
176.1735259027
 30
0.0
 10
347.2058231887
 20
176.1678585457
 30
0.0
 10
347.2060418212
 20
176.165532242
 30
0.0
 10
347.2045802389
 20
176.1633172336
 30
0.0
 10
347.2049392066
 20
176.163308397
 30
0.0
  0
SPLINE
  5
3A3
100
AcDbEntity
  8
0
100
AcDbSpline
 62
7
  6
CONTINUOUS
 70
0
 71
3
 72
11
 73
7
 74
0
 42
0.0000001
 43
0.0000001
 44
0.0000000001
 40
0.0
 40
0.0
 40
0.0
 40
0.0
 40
0.2240482
 40
0.4309226823
 40
0.6799489346
 40
1.0
 40
1.0
 40
1.0
 40
1.0
 10
365.8709860443
 20
189.795532134
 30
0.0
 10
365.8873240936
 20
189.795532134
 30
0.0
 10
365.9198913573
 20
189.7995691623
 30
0.0
 10
365.9594940924
 20
189.8338602406
 30
0.0
 10
365.9776157578
 20
189.8891894772
 30
0.0
 10
365.9803462127
 20
189.9306839271
 30
0.0
 10
365.9803462127
 20
189.9540227001
 30
0.0
  0
SPLINE
  5
3A4
100
AcDbEntity
  8
0
100
AcDbSpline
 62
7
  6
CONTINUOUS
 70
0
 71
3
 72
11
 73
7
 74
0
 42
0.0000001
 43
0.0000001
 44
0.0000000001
 40
0.0
 40
0.0
 40
0.0
 40
0.0
 40
0.2498196248
 40
0.4997079205
 40
0.7498558353
 40
1.0
 40
1.0
 40
1.0
 40
1.0
 10
365.1143208089
 20
204.4217700553
 30
0.0
 10
365.1918636273
 20
204.4217700553
 30
0.0
 10
365.3479093251
 20
204.4467912632
 30
0.0
 10
365.5596598282
 20
204.5499463114
 30
0.0
 10
365.7386420811
 20
204.7018931003
 30
0.0
 10
365.8350950744
 20
204.8249342711
 30
0.0
 10
365.8772948202
 20
204.8901086751
 30
0.0
  0
SPLINE
  5
3A5
100
AcDbEntity
  8
0
100
AcDbSpline
 62
7
  6
CONTINUOUS
 70
0
 71
3
 72
9
 73
5
 74
0
 42
0.0000001
 43
0.0000001
 44
0.0000000001
 40
0.0
 40
0.0
 40
0.0
 40
0.0
 40
0.5538977455
 40
1.0
 40
1.0
 40
1.0
 40
1.0
 10
365.8772948203
 20
204.8901086751
 30
0.0
 10
365.910659408
 20
204.941637827
 30
0.0
 10
365.9578413272
 20
205.0432570181
 30
0.0
 10
365.9803462127
 20
205.1536706881
 30
0.0
 10
365.9803462127
 20
205.2031115637
 30
0.0
  0
ELLIPSE
  5
3A6
100
AcDbEntity
  8
0
100
AcDbEllipse
 62
7
  6
CONTINUOUS
 10
352.7399674862
 20
180.0473730134
 30
0.0
 11
21.1923502607
 21
4.2973945382
 31
0.0
 40
0.153091273
 41
2.2658444509
 42
2.3150444015
  0
ELLIPSE
  5
3A7
100
AcDbEntity
  8
0
100
AcDbEllipse
 62
7
  6
CONTINUOUS
 10
352.7399674862
 20
180.0473730134
 30
0.0
 11
21.1923502607
 21
4.2973945382
 31
0.0
 40
0.153091273
 41
-2.3150444015
 42
-2.2658444509
  0
ELLIPSE
  5
3A8
100
AcDbEntity
  8
0
100
AcDbEllipse
 62
7
  6
CONTINUOUS
 10
357.8576962398
 20
181.6143856922
 30
0.0
 11
-0.100516764
 21
0.4956925531
 31
0.0
 40
0.9885695586
 41
-1.5707963283
 42
-0.0000000003
  0
ELLIPSE
  5
3A9
100
AcDbEntity
  8
0
100
AcDbEllipse
 62
7
  6
CONTINUOUS
 10
356.8853844315
 20
196.595532134
 30
0.0
 11
23.2519159813
 21
-0.0
 31
0.0
 40
0.4515756899
 41
1.3791491318
 42
1.4266337596
  0
ENDSEC
  0
SECTION
  2
OBJECTS
  0
DICTIONARY
  5
C
100
AcDbDictionary
280
0
281
1
  3
ACAD_GROUP
350
D
  3
ACAD_MLINESTYLE
350
17
  3
ACAD_LAYOUT
350
1A
  3
ACAD_PLOTSETTINGS
350
19
  3
ACAD_PLOTSTYLENAME
350
E
  0
DICTIONARY
  5
D
102
{ACAD_REACTORS
330
C
102
}
100
AcDbDictionary
280
0
281
1
  0
ACDBDICTIONARYWDFLT
  5
E
102
{ACAD_REACTORS
330
C
102
}
100
AcDbDictionary
281
1
  3
Normal
350
F
100
AcDbDictionaryWithDefault
340
F
  0
DICTIONARY
  5
17
102
{ACAD_REACTORS
330
C
102
}
100
AcDbDictionary
280
0
281
1
  3
Standard
350
18
  0
DICTIONARY
  5
19
102
{ACAD_REACTORS
330
C
102
}
100
AcDbDictionary
281
1
  0
DICTIONARY
  5
1A
102
{ACAD_REACTORS
330
C
102
}
100
AcDbDictionary
281
1
  3
Model
350
3AA
  3
Layout1
350
3AB
  0
ACDBPLACEHOLDER
  5
F
102
{ACAD_REACTORS
330
E
102
}
  0
MLINESTYLE
  5
18
102
{ACAD_REACTORS
330
17
102
}
100
AcDbMlineStyle
  2
STANDARD
 70
0
  3

 62
256
 51
90.0
 52
90.0
 71
2
 49
0.5
 62
256
  6
BYLAYER
 49
-0.5
 62
256
  6
BYLAYER
  0
LAYOUT
  5
3AA
102
{ACAD_REACTORS
330
1A
102
}
100
AcDbPlotSettings
  1

  2
none_device
  4
ANSI_C_(22.00_x_17.00_Inches)
  6

 40
0.0
 41
0.0
 42
0.0
 43
0.0
 44
558.8
 45
431.8
 46
0.0
 47
0.0
 48
0.0
 49
0.0
140
0.0
141
0.0
142
1.0
143
1.0
 70
1024
 72
1
 73
0
 74
0
  7

 75
0
147
1.0
148
0.0
149
0.0
100
AcDbLayout
  1
Model
 70
0
 71
0
 10
0.0
 20
0.0
 11
558.8
 21
431.8
 12
0.0
 22
0.0
 32
0.0
 14
0.0
 24
0.0
 34
0.0
 15
0.0
 25
0.0
 35
0.0
146
0.0
 13
0.0
 23
0.0
 33
0.0
 16
1.0
 26
0.0
 36
0.0
 17
0.0
 27
1.0
 37
0.0
 76
0
330
218
345
0
346
0
  0
LAYOUT
  5
3AB
102
{ACAD_REACTORS
330
1A
102
}
100
AcDbPlotSettings
  1

  2
none_device
  4
ANSI_C_(22.00_x_17.00_Inches)
  6

 40
0.0
 41
0.0
 42
0.0
 43
0.0
 44
558.8
 45
431.8
 46
0.0
 47
0.0
 48
0.0
 49
0.0
140
0.0
141
0.0
142
1.0
143
1.0
 70
0
 72
1
 73
0
 74
0
  7

 75
0
147
1.0
148
0.0
149
0.0
100
AcDbLayout
  1
Layout1
 70
0
 71
1
 10
0.0
 20
0.0
 11
558.8
 21
431.8
 12
0.0
 22
0.0
 32
0.0
 14
0.0
 24
0.0
 34
0.0
 15
0.0
 25
0.0
 35
0.0
146
0.0
 13
0.0
 23
0.0
 33
0.0
 16
1.0
 26
0.0
 36
0.0
 17
0.0
 27
1.0
 37
0.0
 76
0
330
219
345
0
346
0
  0
ENDSEC
  0
EOF
