999
DXF file: C:\Users\sesa63760\Dev\_Creo\CAD\MCADID0002142_3D-CAD\drw0001_1.dxf
999
Pro/ENGINEER 2019471 by Parametric Technology Corporation
  0
SECTION
  2
HEADER
  9
$ACADVER
  1
AC1024
  9
$DWGCODEPAGE
  3
ANSI_1252
  9
$EXTMAX
 10
78.2675478024
 20
110.6926747491
 30
0.0
  9
$EXTMIN
 10
0.0
 20
0.0
 30
0.0
  9
$LIMMIN
 10
0.0
 20
0.0
  9
$LIMMAX
 10
78.2675478024
 20
110.6926747491
  9
$VIEWCTR
 10
39.1337739012
 20
55.3463373746
  9
$VIEWSIZE
 40
110.6926747491
  9
$CLAYER
  8
0
  9
$LTSCALE
 40
7.2155225022
  9
$CELTYPE
  6
BYLAYER
  9
$DIMSCALE
 40
1.0
  9
$DIMASZ
 40
0.9317565215
  9
$DIMEXO
 40
1.0
  9
$DIMDLI
 40
4.9852700924
  9
$DIMEXE
 40
1.0
  9
$DIMCEN
 40
1.180721864
  9
$DIMLFAC
 40
1.0
  9
$DIMBLK
  1
_FILLED
  9
$DIMALT
 70
0
  9
$DIMALTF
 40
0.0393700787
  9
$DIMTXT
 40
1.30445913
  9
$DIMTOL
 70
1
  9
$DIMLIM
 70
0
  9
$DIMTFAC
 40
1.0
  9
$DIMTP
 40
0.01
  9
$DIMTM
 40
0.01
  9
$DIMGAP
 40
0.625
  9
$DIMDSEP
 70
46
  9
$AUNITS
 70
0
  9
$PDMODE
 70
3
  9
$PDSIZE
 40
0.3125
  9
$HANDSEED
  5
479
  9
$TILEMODE
 70
1
  9
$MEASUREMENT
 70
1
  9
$INSUNITS
 70
4
  0
ENDSEC
  0
SECTION
  2
CLASSES
  0
CLASS
  1
ACDBDICTIONARYWDFLT
  2
AcDbDictionaryWithDefault
  3
AutoCAD 2000
 90
0
 91
1
280
0
281
0
  0
CLASS
  1
ACDBPLACEHOLDER
  2
AcDbPlaceHolder
  3
AutoCAD 2000
 90
0
 91
1
280
0
281
0
  0
CLASS
  1
LAYOUT
  2
AcDbLayout
  3
AutoCAD 2000
 90
0
 91
0
280
0
281
0
  0
ENDSEC
  0
SECTION
  2
TABLES
  0
TABLE
  2
VPORT
  5
8
100
AcDbSymbolTable
 70
2
  0
VPORT
  5
1F4
100
AcDbSymbolTableRecord
100
AcDbViewportTableRecord
  2
*ACTIVE
 70
0
 10
0.0
 20
0.0
 11
1.0
 21
1.0
 12
39.1337739012
 22
55.3463373746
 13
0.0
 23
0.0
 14
1.0
 24
1.0
 15
0.0
 25
0.0
 16
0.0
 26
0.0
 36
1.0
 17
0.0
 27
0.0
 37
0.0
 40
110.6926747491
 41
0.7070707071
 42
50.0
 43
0.0
 44
0.0
 50
0.0
 51
0.0
 71
0
 72
100
 73
1
 74
1
 75
0
 76
0
 77
0
 78
0
  0
ENDTAB
  0
TABLE
  2
LTYPE
  5
5
100
AcDbSymbolTable
 70
6
  0
LTYPE
  5
14
100
AcDbSymbolTableRecord
100
AcDbLinetypeTableRecord
  2
BYBLOCK
 70
0
  3

 72
65
 73
0
 40
0.0
  0
LTYPE
  5
15
100
AcDbSymbolTableRecord
100
AcDbLinetypeTableRecord
  2
BYLAYER
 70
0
  3

 72
65
 73
0
 40
0.0
  0
LTYPE
  5
16
100
AcDbSymbolTableRecord
100
AcDbLinetypeTableRecord
  2
CONTINUOUS
 70
64
  3
Solid line
 72
65
 73
0
 40
0.0
  0
LTYPE
  5
1F5
100
AcDbSymbolTableRecord
100
AcDbLinetypeTableRecord
  2
CENTER
 70
64
  3
____ _ ____ _ ____ _ ____ _ ____ _ ____ _ ____
 72
65
 73
4
 40
0.6
 49
0.375
 74
0
 49
-0.075
 74
0
 49
0.075
 74
0
 49
-0.075
 74
0
  0
LTYPE
  5
1F6
100
AcDbSymbolTableRecord
100
AcDbLinetypeTableRecord
  2
HIDDEN
 70
64
  3
- - - - - - - - - - - - - - - - - - - -
 72
65
 73
2
 40
0.2
 49
0.1
 74
0
 49
-0.1
 74
0
  0
LTYPE
  5
1F7
100
AcDbSymbolTableRecord
100
AcDbLinetypeTableRecord
  2
PHANTOM
 70
64
  3
_____ _ _ _____ _ _ _____ _ _ _____
 72
65
 73
6
 40
0.8
 49
0.45
 74
0
 49
-0.05
 74
0
 49
0.1
 74
0
 49
-0.05
 74
0
 49
0.1
 74
0
 49
-0.05
 74
0
  0
LTYPE
  5
1F8
100
AcDbSymbolTableRecord
100
AcDbLinetypeTableRecord
  2
DOT
 70
64
  3
. . . . . . . . . . . . . . . . . . . .
 72
65
 73
2
 40
0.2
 49
0.1
 74
0
 49
-0.1
 74
0
  0
LTYPE
  5
1F9
100
AcDbSymbolTableRecord
100
AcDbLinetypeTableRecord
  2
DASHED
 70
64
  3
- - - - - - - - - - - - - - - - - - - -
 72
65
 73
2
 40
0.2
 49
0.1
 74
0
 49
-0.1
 74
0
  0
ENDTAB
  0
TABLE
  2
LAYER
  5
2
100
AcDbSymbolTable
 70
36
  0
LAYER
  5
10
100
AcDbSymbolTableRecord
100
AcDbLayerTableRecord
  2
0
 70
0
 62
7
  6
CONTINUOUS
370
-3
390
F
  0
LAYER
  5
1FA
100
AcDbSymbolTableRecord
100
AcDbLayerTableRecord
  2
DEFAULT_1
 70
0
 62
7
  6
CENTER
370
-3
390
F
  0
LAYER
  5
1FB
100
AcDbSymbolTableRecord
100
AcDbLayerTableRecord
  2
DEFAULT_2
 70
0
 62
8
  6
HIDDEN
370
-3
390
F
  0
LAYER
  5
1FC
100
AcDbSymbolTableRecord
100
AcDbLayerTableRecord
  2
DEFAULT_3
 70
0
 62
7
  6
PHANTOM
370
-3
390
F
  0
LAYER
  5
1FD
100
AcDbSymbolTableRecord
100
AcDbLayerTableRecord
  2
00_COMPONENTS
 70
0
 62
7
  6
CONTINUOUS
370
-3
390
F
  0
LAYER
  5
1FE
100
AcDbSymbolTableRecord
100
AcDbLayerTableRecord
  2
01_1_DEFAULT_DATUMS
 70
0
 62
7
  6
CONTINUOUS
370
-3
390
F
  0
LAYER
  5
1FF
100
AcDbSymbolTableRecord
100
AcDbLayerTableRecord
  2
01_PLANES
 70
0
 62
7
  6
CONTINUOUS
370
-3
390
F
  0
LAYER
  5
200
100
AcDbSymbolTableRecord
100
AcDbLayerTableRecord
  2
02_COORD_SYS
 70
0
 62
7
  6
CONTINUOUS
370
-3
390
F
  0
LAYER
  5
201
100
AcDbSymbolTableRecord
100
AcDbLayerTableRecord
  2
03_AXES
 70
0
 62
7
  6
CONTINUOUS
370
-3
390
F
  0
LAYER
  5
202
100
AcDbSymbolTableRecord
100
AcDbLayerTableRecord
  2
04_POINTS
 70
0
 62
7
  6
CONTINUOUS
370
-3
390
F
  0
LAYER
  5
203
100
AcDbSymbolTableRecord
100
AcDbLayerTableRecord
  2
05_CURVES
 70
0
 62
7
  6
CONTINUOUS
370
-3
390
F
  0
LAYER
  5
204
100
AcDbSymbolTableRecord
100
AcDbLayerTableRecord
  2
06_SURFS
 70
0
 62
7
  6
CONTINUOUS
370
-3
390
F
  0
LAYER
  5
205
100
AcDbSymbolTableRecord
100
AcDbLayerTableRecord
  2
07_COSMETICS
 70
0
 62
7
  6
CONTINUOUS
370
-3
390
F
  0
LAYER
  5
206
100
AcDbSymbolTableRecord
100
AcDbLayerTableRecord
  2
10_NOTES
 70
0
 62
7
  6
CONTINUOUS
370
-3
390
F
  0
LAYER
  5
207
100
AcDbSymbolTableRecord
100
AcDbLayerTableRecord
  2
11_NOTES_PUB
 70
0
 62
7
  6
CONTINUOUS
370
-3
390
F
  0
LAYER
  5
208
100
AcDbSymbolTableRecord
100
AcDbLayerTableRecord
  2
13_REF_GTOL
 70
0
 62
7
  6
CONTINUOUS
370
-3
390
F
  0
LAYER
  5
209
100
AcDbSymbolTableRecord
100
AcDbLayerTableRecord
  2
16_MISC
 70
0
 62
7
  6
CONTINUOUS
370
-3
390
F
  0
LAYER
  5
20A
100
AcDbSymbolTableRecord
100
AcDbLayerTableRecord
  2
17_NO_PRINT
 70
0
 62
7
  6
CONTINUOUS
370
-3
390
F
  0
LAYER
  5
20B
100
AcDbSymbolTableRecord
100
AcDbLayerTableRecord
  2
18_DATUM_CAMS_JOINTS
 70
0
 62
7
  6
CONTINUOUS
370
-3
390
F
  0
LAYER
  5
20C
100
AcDbSymbolTableRecord
100
AcDbLayerTableRecord
  2
19_DATUM_FUNCTIONAL
 70
0
 62
7
  6
CONTINUOUS
370
-3
390
F
  0
LAYER
  5
20D
100
AcDbSymbolTableRecord
100
AcDbLayerTableRecord
  2
20_DATUM_KINEMATIC_SCHEME
 70
0
 62
7
  6
CONTINUOUS
370
-3
390
F
  0
ENDTAB
  0
TABLE
  2
STYLE
  5
3
100
AcDbSymbolTable
 70
1
  0
STYLE
  5
11
100
AcDbSymbolTableRecord
100
AcDbTextStyleTableRecord
  2
STANDARD
 70
0
 40
0.0
 41
0.8
 50
0.0
 71
0
 42
0.2
  3
txt
  4

  0
STYLE
  5
20E
100
AcDbSymbolTableRecord
100
AcDbTextStyleTableRecord
  2
TEXTSTYLE_1
 70
0
 40
0.0
 41
0.8
 50
0.0
 71
0
 42
0.2
  3
gdt
  4

  0
ENDTAB
  0
TABLE
  2
VIEW
  5
6
100
AcDbSymbolTable
 70
0
  0
ENDTAB
  0
TABLE
  2
UCS
  5
7
100
AcDbSymbolTable
 70
0
  0
ENDTAB
  0
TABLE
  2
APPID
  5
9
100
AcDbSymbolTable
 70
1
  0
APPID
  5
20F
100
AcDbSymbolTableRecord
100
AcDbRegAppTableRecord
  2
ACAD
 70
0
  0
ENDTAB
  0
TABLE
  2
BLOCK_RECORD
  5
1
100
AcDbSymbolTable
 70
0
  0
BLOCK_RECORD
  5
210
100
AcDbSymbolTableRecord
100
AcDbBlockTableRecord
  2
*Model_Space
  0
BLOCK_RECORD
  5
211
100
AcDbSymbolTableRecord
100
AcDbBlockTableRecord
  2
*Paper_Space
  0
BLOCK_RECORD
  5
212
100
AcDbSymbolTableRecord
100
AcDbBlockTableRecord
  2
_FILLED
  0
ENDTAB
  0
TABLE
  2
DIMSTYLE
  5
A
100
AcDbSymbolTable
 70
1
100
AcDbDimStyleTable
 71
0
  0
DIMSTYLE
105
213
100
AcDbSymbolTableRecord
100
AcDbDimStyleTableRecord
  2
STANDARD
 70
0
  3

  4

 40
1.0
 41
0.9317565215
 42
1.0
 43
0.38
 44
1.0
 45
0.0
 46
0.0
 47
0.01
 48
0.01
140
1.30445913
141
0.09
142
0.0
143
25.4
144
1.0
145
0.0
146
1.0
147
0.625
 71
1
 72
0
 73
0
 74
0
 75
0
 76
0
 77
1
 78
8
 79
2
170
0
171
1
172
0
173
0
174
0
175
0
176
0
177
0
178
0
270
2
179
2
271
2
272
2
273
2
274
2
275
0
280
0
281
0
282
0
283
1
284
8
285
0
286
0
287
3
288
0
340
11
278
46
341
212
342
212
343
212
344
212
  0
ENDTAB
  0
ENDSEC
  0
SECTION
  2
BLOCKS
  0
BLOCK
  5
20
100
AcDbEntity
  8
0
100
AcDbBlockBegin
  2
*Model_Space
 70
0
 10
0.0
 20
0.0
 30
0.0
  3
*Model_Space
  1

  0
ENDBLK
  5
21
100
AcDbEntity
  8
0
100
AcDbBlockEnd
  0
BLOCK
  5
1C
100
AcDbEntity
  8
0
100
AcDbBlockBegin
  2
*Paper_Space
 70
0
 10
0.0
 20
0.0
 30
0.0
  3
*Paper_Space
  1

  0
ENDBLK
  5
1D
100
AcDbEntity
  8
0
100
AcDbBlockEnd
  0
BLOCK
  5
214
100
AcDbEntity
  8
0
100
AcDbBlockBegin
  2
_FILLED
 70
64
 10
0.0
 20
0.0
  3
_FILLED
  1

  0
SOLID
  5
215
100
AcDbEntity
  8
0
  6
BYBLOCK
 62
0
100
AcDbTrace
 10
0.0
 20
0.0
 11
-1.0
 21
0.25
 12
-1.0
 22
-0.25
 13
-1.0
 23
-0.25
  0
ENDBLK
  5
216
100
AcDbEntity
  8
0
  6
BYBLOCK
 62
0
100
AcDbBlockEnd
  0
ENDSEC
  0
SECTION
  2
ENTITIES
  0
LINE
  5
217
100
AcDbEntity
  8
0
100
AcDbLine
 62
7
  6
CONTINUOUS
 10
30.7695871305
 20
12.5339477353
 11
37.6815846939
 21
8.5433943598
  0
LINE
  5
218
100
AcDbEntity
  8
0
100
AcDbLine
 62
7
  6
CONTINUOUS
 10
29.7089313747
 20
15.2865644355
 11
36.620928938
 21
11.29601106
  0
LWPOLYLINE
  5
219
100
AcDbEntity
  8
0
100
AcDbPolyline
 62
7
  6
CONTINUOUS
 90
5
 70
0
 10
25.3559842637
 20
90.1065599122
 10
24.6209663429
 20
89.7993117195
 10
21.5215580072
 20
87.4867473765
 10
19.6744649845
 20
84.7617706569
 10
19.2320725223
 20
81.8470137952
  0
LINE
  5
21A
100
AcDbEntity
  8
0
100
AcDbLine
 62
7
  6
CONTINUOUS
 10
30.5397853018
 20
16.5097622202
 11
34.9945765702
 21
13.9378454668
  0
LINE
  5
21B
100
AcDbEntity
  8
0
100
AcDbLine
 62
7
  6
CONTINUOUS
 10
31.9539929762
 20
17.326250528
 11
34.9945765702
 21
15.5708084849
  0
LINE
  5
21C
100
AcDbEntity
  8
0
100
AcDbLine
 62
7
  6
CONTINUOUS
 10
34.9945765702
 20
16.7995088018
 11
30.5397853018
 21
19.3714255552
  0
LINE
  5
21D
100
AcDbEntity
  8
0
100
AcDbLine
 62
7
  6
CONTINUOUS
 10
29.7089313747
 20
20.0760093574
 11
36.620928938
 21
16.085455982
  0
LINE
  5
21E
100
AcDbEntity
  8
0
100
AcDbLine
 62
7
  6
CONTINUOUS
 10
13.6772048478
 20
64.1020064003
 11
13.6772048478
 21
64.9185088174
  0
LINE
  5
21F
100
AcDbEntity
  8
0
100
AcDbLine
 62
7
  6
CONTINUOUS
 10
13.7160807178
 20
55.6815040012
 11
13.7160807178
 21
65.8061339736
  0
LINE
  5
220
100
AcDbEntity
  8
0
100
AcDbLine
 62
7
  6
CONTINUOUS
 10
14.3018730434
 20
54.8650156935
 11
14.3018730434
 21
64.9896456659
  0
LINE
  5
221
100
AcDbEntity
  8
0
100
AcDbLine
 62
7
  6
CONTINUOUS
 10
14.7312722419
 20
65.7492270712
 11
14.7312722419
 21
65.9063859953
  0
LINE
  5
222
100
AcDbEntity
  8
0
100
AcDbLine
 62
7
  6
CONTINUOUS
 10
13.7464637659
 20
66.006638017
 11
13.7161384438
 21
65.8061339475
  0
LINE
  5
223
100
AcDbEntity
  8
0
100
AcDbLine
 62
7
  6
CONTINUOUS
 10
14.7161095808
 20
65.8061339606
 11
14.7312722419
 21
65.9063859953
  0
LINE
  5
224
100
AcDbEntity
  8
0
100
AcDbLine
 62
7
  6
CONTINUOUS
 10
13.7008570364
 20
65.0716918529
 11
13.6772451297
 21
64.9185087992
  0
LINE
  5
225
100
AcDbEntity
  8
0
100
AcDbLine
 62
7
  6
CONTINUOUS
 10
16.1641796988
 20
73.9230837474
 11
13.7464637659
 21
66.006638017
  0
LINE
  5
226
100
AcDbEntity
  8
0
100
AcDbLine
 62
7
  6
CONTINUOUS
 10
14.7312722419
 20
65.9063859953
 11
17.1489881748
 21
73.8228317257
  0
LINE
  5
227
100
AcDbEntity
  8
0
100
AcDbLine
 62
7
  6
CONTINUOUS
 10
16.5109882746
 20
68.1411867596
 11
15.5736159613
 21
65.0719026694
  0
LINE
  5
228
100
AcDbEntity
  8
0
100
AcDbLine
 62
7
  6
CONTINUOUS
 10
17.5631225404
 20
70.2934290914
 11
17.0012898787
 21
68.4537928812
  0
LINE
  5
229
100
AcDbEntity
  8
0
100
AcDbLine
 62
7
  6
CONTINUOUS
 10
13.7160807178
 20
65.1205980652
 11
13.7008570364
 21
65.0716918529
  0
LINE
  5
22A
100
AcDbEntity
  8
0
100
AcDbLine
 62
7
  6
CONTINUOUS
 10
16.7195772005
 20
74.5390612131
 11
20.4015821387
 21
76.664855066
  0
LINE
  5
22B
100
AcDbEntity
  8
0
100
AcDbLine
 62
7
  6
CONTINUOUS
 10
20.7592253509
 20
76.0548509305
 11
17.4266869256
 21
74.1308204585
  0
LINE
  5
22C
100
AcDbEntity
  8
0
100
AcDbLine
 62
7
  6
CONTINUOUS
 10
39.4243837631
 20
25.7163417246
 11
38.7349517811
 21
26.1143764603
  0
LINE
  5
22D
100
AcDbEntity
  8
0
100
AcDbLine
 62
7
  6
CONTINUOUS
 10
32.5123861998
 20
29.7068951
 11
33.219495925
 21
29.2986543455
  0
LINE
  5
22E
100
AcDbEntity
  8
0
100
AcDbLine
 62
7
  6
CONTINUOUS
 10
34.4465418039
 20
29.2578733907
 11
37.8406684846
 21
27.298317769
  0
LINE
  5
22F
100
AcDbEntity
  8
0
100
AcDbLine
 62
7
  6
CONTINUOUS
 10
30.7695871305
 20
31.8034047795
 11
37.6815846939
 21
27.8128514041
  0
LINE
  5
230
100
AcDbEntity
  8
0
100
AcDbLine
 62
7
  6
CONTINUOUS
 10
16.4229599572
 20
58.8602611593
 11
16.4229599572
 21
59.6767635764
  0
LINE
  5
231
100
AcDbEntity
  8
0
100
AcDbLine
 62
7
  6
CONTINUOUS
 10
16.71585612
 20
58.4520170054
 11
16.71585612
 21
59.2685194226
  0
LINE
  5
232
100
AcDbEntity
  8
0
100
AcDbLine
 62
7
  6
CONTINUOUS
 10
17.1489881748
 20
73.8228317257
 11
17.1489881748
 21
68.9374086484
  0
LINE
  5
233
100
AcDbEntity
  8
0
100
AcDbLine
 62
7
  6
CONTINUOUS
 10
17.4266869256
 20
69.8466912735
 11
17.4266869256
 21
74.1308204585
  0
LINE
  5
234
100
AcDbEntity
  8
0
100
AcDbLine
 62
7
  6
CONTINUOUS
 10
20.2203428535
 20
72.1511181974
 11
22.7597480239
 21
73.6172357045
  0
LINE
  5
235
100
AcDbEntity
  8
0
100
AcDbLine
 62
7
  6
CONTINUOUS
 10
19.8848377101
 20
71.8553543303
 11
17.9796706667
 21
70.7554121907
  0
LINE
  5
236
100
AcDbEntity
  8
0
100
AcDbLine
 62
7
  6
CONTINUOUS
 10
39.4175518209
 20
81.4542855866
 11
39.3290331454
 21
81.4031796105
  0
LINE
  5
237
100
AcDbEntity
  8
0
100
AcDbLine
 62
7
  6
CONTINUOUS
 10
16.9457501286
 20
68.3921951347
 11
16.5109882746
 21
68.1411867596
  0
LINE
  5
238
100
AcDbEntity
  8
0
100
AcDbLine
 62
7
  6
CONTINUOUS
 10
39.5539882077
 20
81.5317764107
 11
39.3284958823
 21
81.4034930821
  0
LINE
  5
239
100
AcDbEntity
  8
0
100
AcDbLine
 62
7
  6
CONTINUOUS
 10
39.5547481069
 20
81.5313293147
 11
39.4175518209
 21
81.4542855866
  0
LINE
  5
23A
100
AcDbEntity
  8
0
100
AcDbLine
 62
7
  6
CONTINUOUS
 10
29.7089313747
 20
34.5560214797
 11
36.620928938
 21
30.5654681043
  0
LINE
  5
23B
100
AcDbEntity
  8
0
100
AcDbLine
 62
7
  6
CONTINUOUS
 10
41.8311344053
 20
27.9019476614
 11
42.5205663873
 21
27.5039129257
  0
LINE
  5
23C
100
AcDbEntity
  8
0
100
AcDbLine
 62
7
  6
CONTINUOUS
 10
43.0777718149
 20
28.1394270435
 11
42.3883398329
 21
28.5374617791
  0
LINE
  5
23D
100
AcDbEntity
  8
0
100
AcDbLine
 62
7
  6
CONTINUOUS
 10
56.9148090661
 20
20.3008372788
 11
56.2076993409
 21
20.7090780334
  0
LINE
  5
23E
100
AcDbEntity
  8
0
100
AcDbLine
 62
7
  6
CONTINUOUS
 10
30.5397853018
 20
35.7792192645
 11
34.9945765702
 21
33.207302511
  0
LINE
  5
23F
100
AcDbEntity
  8
0
100
AcDbLine
 62
7
  6
CONTINUOUS
 10
30.7695871305
 20
12.5339477353
 11
29.7089313747
 21
15.2865644355
  0
LINE
  5
240
100
AcDbEntity
  8
0
100
AcDbLine
 62
7
  6
CONTINUOUS
 10
18.8047480239
 20
82.0895945291
 11
18.8328165512
 21
81.5061684297
  0
LINE
  5
241
100
AcDbEntity
  8
0
100
AcDbLine
 62
7
  6
CONTINUOUS
 10
22.3426220466
 20
41.9529492666
 11
22.3202708888
 21
44.0017462943
  0
LINE
  5
242
100
AcDbEntity
  8
0
100
AcDbLine
 62
7
  6
CONTINUOUS
 10
18.8047480239
 20
80.7831906617
 11
18.8047480239
 21
82.0895945291
  0
LINE
  5
243
100
AcDbEntity
  8
0
100
AcDbLine
 62
7
  6
CONTINUOUS
 10
19.5442950206
 20
57.6355564045
 11
19.5442950206
 21
56.8190539873
  0
LINE
  5
244
100
AcDbEntity
  8
0
100
AcDbLine
 62
7
  6
CONTINUOUS
 10
20.8842537673
 20
56.7802793038
 11
20.8842537673
 21
57.5967817209
  0
LINE
  5
245
100
AcDbEntity
  8
0
100
AcDbLine
 62
7
  6
CONTINUOUS
 10
22.0428059914
 20
50.3958870773
 11
22.0428059914
 21
49.6200979229
  0
LINE
  5
246
100
AcDbEntity
  8
0
100
AcDbLine
 62
7
  6
CONTINUOUS
 10
23.1927579894
 20
81.5081558922
 11
23.3007225792
 21
83.2302549615
  0
LINE
  5
247
100
AcDbEntity
  8
0
100
AcDbLine
 62
7
  6
CONTINUOUS
 10
31.9539929762
 20
36.5957075722
 11
34.9945765702
 21
34.8402655292
  0
LINE
  5
248
100
AcDbEntity
  8
0
100
AcDbLine
 62
7
  6
CONTINUOUS
 10
34.9945765702
 20
36.068965846
 11
30.5397853018
 21
38.6408825995
  0
LINE
  5
249
100
AcDbEntity
  8
0
100
AcDbLine
 62
7
  6
CONTINUOUS
 10
29.7089313747
 20
39.3454664017
 11
36.620928938
 21
35.3549130262
  0
LINE
  5
24A
100
AcDbEntity
  8
0
100
AcDbLine
 62
7
  6
CONTINUOUS
 10
22.0428059914
 20
49.6200979229
 11
21.4699089144
 21
50.5222860696
  0
LINE
  5
24B
100
AcDbEntity
  8
0
100
AcDbLine
 62
7
  6
CONTINUOUS
 10
36.620928938
 20
11.29601106
 11
37.6815846939
 21
8.5433943598
  0
LINE
  5
24C
100
AcDbEntity
  8
0
100
AcDbLine
 62
7
  6
CONTINUOUS
 10
23.0243832417
 20
46.4682767802
 11
22.9960023639
 21
49.0697821905
  0
LINE
  5
24D
100
AcDbEntity
  8
0
100
AcDbLine
 62
7
  6
CONTINUOUS
 10
23.2511927306
 20
44.0119020983
 11
23.2295271559
 21
45.9978558186
  0
LINE
  5
24E
100
AcDbEntity
  8
0
100
AcDbLine
 62
7
  6
CONTINUOUS
 10
22.7597480239
 20
73.4346689075
 11
22.7597480239
 21
74.0222165284
  0
LINE
  5
24F
100
AcDbEntity
  8
0
100
AcDbLine
 62
7
  6
CONTINUOUS
 10
23.0561430532
 20
49.0350607329
 11
23.0561430532
 21
49.8108498873
  0
LINE
  5
250
100
AcDbEntity
  8
0
100
AcDbLine
 62
7
  6
CONTINUOUS
 10
23.2310650042
 20
59.8344909089
 11
23.2310650042
 21
49.7098609365
  0
LINE
  5
251
100
AcDbEntity
  8
0
100
AcDbLine
 62
7
  6
CONTINUOUS
 10
24.9925772342
 20
49.3892082931
 11
24.9925772342
 21
59.5138382655
  0
LINE
  5
252
100
AcDbEntity
  8
0
100
AcDbLine
 62
7
  6
CONTINUOUS
 10
25.3559842637
 20
91.6396873593
 11
25.3559842637
 21
78.4339514527
  0
LINE
  5
253
100
AcDbEntity
  8
0
100
AcDbLine
 62
7
  6
CONTINUOUS
 10
25.6852235579
 20
91.043203572
 11
25.6851629122
 21
77.7690611069
  0
LINE
  5
254
100
AcDbEntity
  8
0
100
AcDbLine
 62
7
  6
CONTINUOUS
 10
31.056621417
 20
70.1402564941
 11
30.912913485
 21
69.9808736242
  0
LINE
  5
255
100
AcDbEntity
  8
0
100
AcDbLine
 62
7
  6
CONTINUOUS
 10
30.88403722
 20
69.9002505019
 11
31.0584095627
 21
70.0936425022
  0
LWPOLYLINE
  5
256
100
AcDbEntity
  8
0
100
AcDbPolyline
 62
7
  6
CONTINUOUS
 90
8
 70
0
 10
46.84297449
 20
76.7391079817
 10
43.504624803
 20
75.3170102122
 10
39.5962240697
 20
74.5276429961
 10
35.4513145741
 20
74.438127067
 10
31.4513408677
 20
75.0567953649
 10
27.9438493012
 20
76.3282533119
 10
26.4740995323
 20
77.1759482686
 10
24.2681419095
 20
79.1999125958
  0
LINE
  5
257
100
AcDbEntity
  8
0
100
AcDbLine
 62
7
  6
CONTINUOUS
 10
60.3542745041
 20
78.9810324052
 11
57.6811284094
 21
78.0166503814
  0
LINE
  5
258
100
AcDbEntity
  8
0
100
AcDbLine
 62
7
  6
CONTINUOUS
 10
58.2110512044
 20
77.5270378581
 11
60.8841972991
 21
78.4914198819
  0
LINE
  5
259
100
AcDbEntity
  8
0
100
AcDbLine
 62
7
  6
CONTINUOUS
 10
57.1539245718
 20
39.7277029362
 11
57.2269233323
 21
39.725003109
  0
LINE
  5
25A
100
AcDbEntity
  8
0
100
AcDbLine
 62
7
  6
CONTINUOUS
 10
55.8421594687
 20
39.3350938979
 11
55.9623399765
 21
39.3275560109
  0
LINE
  5
25B
100
AcDbEntity
  8
0
100
AcDbLine
 62
7
  6
CONTINUOUS
 10
22.0428059914
 20
49.6200979229
 11
23.0561430532
 21
49.0350607329
  0
LINE
  5
25C
100
AcDbEntity
  8
0
100
AcDbLine
 62
7
  6
CONTINUOUS
 10
21.4699089144
 20
50.5222860696
 11
20.9851424113
 21
51.0065156158
  0
LINE
  5
25D
100
AcDbEntity
  8
0
100
AcDbLine
 62
7
  6
CONTINUOUS
 10
30.7695871305
 20
31.8034047795
 11
29.7089313747
 21
34.5560214797
  0
LINE
  5
25E
100
AcDbEntity
  8
0
100
AcDbLine
 62
7
  6
CONTINUOUS
 10
26.8509785225
 20
44.0511736217
 11
26.8294690022
 21
46.0228227712
  0
LINE
  5
25F
100
AcDbEntity
  8
0
100
AcDbLine
 62
7
  6
CONTINUOUS
 10
27.0241452326
 20
46.5119118063
 11
27.0112623584
 21
47.692807876
  0
LINE
  5
260
100
AcDbEntity
  8
0
100
AcDbLine
 62
7
  6
CONTINUOUS
 10
27.8042515222
 20
42.012532398
 11
27.7819003644
 21
44.0613294257
  0
LINE
  5
261
100
AcDbEntity
  8
0
100
AcDbLine
 62
7
  6
CONTINUOUS
 10
26.1093108912
 20
67.776598304
 11
26.1093108912
 21
68.2649629923
  0
LINE
  5
262
100
AcDbEntity
  8
0
100
AcDbLine
 62
7
  6
CONTINUOUS
 10
26.2264693563
 20
67.5677305676
 11
26.2264693563
 21
68.1902106986
  0
LINE
  5
263
100
AcDbEntity
  8
0
100
AcDbLine
 62
7
  6
CONTINUOUS
 10
26.5097480239
 20
67.0627071019
 11
26.5097480239
 21
68.0094663526
  0
LINE
  5
264
100
AcDbEntity
  8
0
100
AcDbLine
 62
7
  6
CONTINUOUS
 10
28.1158122019
 20
56.2391837339
 11
28.1158122019
 21
55.4226813168
  0
LINE
  5
265
100
AcDbEntity
  8
0
100
AcDbLine
 62
7
  6
CONTINUOUS
 10
28.9568667284
 20
89.1543622574
 11
28.9568667284
 21
75.8804564736
  0
LINE
  5
266
100
AcDbEntity
  8
0
100
AcDbLine
 62
7
  6
CONTINUOUS
 10
29.1962897774
 20
49.8171607448
 11
29.1962897774
 21
46.769003663
  0
LINE
  5
267
100
AcDbEntity
  8
0
100
AcDbLine
 62
7
  6
CONTINUOUS
 10
30.8840483809
 20
69.9002628822
 11
30.9129030397
 21
69.9808620395
  0
LINE
  5
268
100
AcDbEntity
  8
0
100
AcDbLine
 62
7
  6
CONTINUOUS
 10
38.5053591608
 20
69.3238475522
 11
38.539061014
 21
69.3551096081
  0
LINE
  5
269
100
AcDbEntity
  8
0
100
AcDbLine
 62
7
  6
CONTINUOUS
 10
39.3762781764
 20
69.7576470007
 11
39.5496330855
 21
69.8594951587
  0
LINE
  5
26A
100
AcDbEntity
  8
0
100
AcDbLine
 62
7
  6
CONTINUOUS
 10
38.5052498804
 20
69.3237845591
 11
38.5053591608
 21
69.3238475522
  0
LWPOLYLINE
  5
26B
100
AcDbEntity
  8
0
100
AcDbPolyline
 62
7
  6
CONTINUOUS
 90
4
 70
0
 10
38.5053823033
 20
69.3238674522
 10
38.5514300026
 20
69.3461266417
 10
38.6925794413
 20
69.3875357484
 10
38.8305558195
 20
69.4062827324
  0
LINE
  5
26C
100
AcDbEntity
  8
0
100
AcDbLine
 62
7
  6
CONTINUOUS
 10
47.7421263423
 20
71.9245377882
 11
44.7839862057
 21
70.8563924208
  0
LINE
  5
26D
100
AcDbEntity
  8
0
100
AcDbLine
 62
7
  6
CONTINUOUS
 10
60.0727794093
 20
74.6060767138
 11
58.2110512044
 21
73.9344272227
  0
LINE
  5
26E
100
AcDbEntity
  8
0
100
AcDbLine
 62
7
  6
CONTINUOUS
 10
43.7904794883
 20
69.9386288111
 11
43.809511337
 21
69.9446386927
  0
LINE
  5
26F
100
AcDbEntity
  8
0
100
AcDbLine
 62
7
  6
CONTINUOUS
 10
43.7804936941
 20
69.9452584013
 11
43.7804444227
 21
69.9452437773
  0
LINE
  5
270
100
AcDbEntity
  8
0
100
AcDbLine
 62
7
  6
CONTINUOUS
 10
36.125956252
 20
43.2858597958
 11
36.677497245
 21
43.2365920813
  0
LINE
  5
271
100
AcDbEntity
  8
0
100
AcDbLine
 62
7
  6
CONTINUOUS
 10
30.6105092277
 20
45.9525221539
 11
31.6711649836
 21
45.8577765492
  0
LINE
  5
272
100
AcDbEntity
  8
0
100
AcDbLine
 62
7
  6
CONTINUOUS
 10
55.8107526389
 20
39.3443488676
 11
55.8421594687
 21
39.3350938979
  0
LINE
  5
273
100
AcDbEntity
  8
0
100
AcDbLine
 62
7
  6
CONTINUOUS
 10
29.1962897774
 20
46.769003663
 11
24.6188058867
 21
48.7043106832
  0
LINE
  5
274
100
AcDbEntity
  8
0
100
AcDbLine
 62
7
  6
CONTINUOUS
 10
14.3018730434
 20
54.8650156935
 11
23.2310650042
 21
49.7098609365
  0
LINE
  5
275
100
AcDbEntity
  8
0
100
AcDbLine
 62
7
  6
CONTINUOUS
 10
30.6105092277
 20
45.9525221539
 11
29.1962897774
 21
46.769003663
  0
LINE
  5
276
100
AcDbEntity
  8
0
100
AcDbLine
 62
7
  6
CONTINUOUS
 10
36.125956252
 20
43.2858597958
 11
31.6711649836
 21
45.8577765492
  0
LINE
  5
277
100
AcDbEntity
  8
0
100
AcDbLine
 62
7
  6
CONTINUOUS
 10
36.620928938
 20
30.5654681043
 11
37.6815846939
 21
27.8128514041
  0
LWPOLYLINE
  5
278
100
AcDbEntity
  8
0
100
AcDbPolyline
 62
7
  6
CONTINUOUS
 90
3
 70
0
 10
18.8328165512
 20
81.5061684297
 10
19.8538114747
 20
78.5732135537
 10
21.8590976516
 20
76.3706218316
  0
LWPOLYLINE
  5
279
100
AcDbEntity
  8
0
100
AcDbPolyline
 62
7
  6
CONTINUOUS
 90
3
 70
0
 10
19.2320725223
 20
81.8470137952
 10
20.2287179093
 20
78.9804163546
 10
22.1070706158
 20
76.9144543527
  0
LINE
  5
27A
100
AcDbEntity
  8
0
100
AcDbLine
 62
7
  6
CONTINUOUS
 10
31.0584458774
 20
70.0936827822
 11
31.056621417
 21
70.1402564941
  0
LINE
  5
27B
100
AcDbEntity
  8
0
100
AcDbLine
 62
7
  6
CONTINUOUS
 10
31.0487094282
 20
70.2088567675
 11
31.046703117
 21
70.4096058214
  0
LINE
  5
27C
100
AcDbEntity
  8
0
100
AcDbLine
 62
7
  6
CONTINUOUS
 10
29.5135795928
 20
70.3578256223
 11
29.5135795928
 21
70.8038394801
  0
LINE
  5
27D
100
AcDbEntity
  8
0
100
AcDbLine
 62
7
  6
CONTINUOUS
 10
29.5958533153
 20
55.0784166617
 11
29.5958533153
 21
55.8949190788
  0
LINE
  5
27E
100
AcDbEntity
  8
0
100
AcDbLine
 62
7
  6
CONTINUOUS
 10
29.61468202
 20
70.2574622723
 11
29.61468202
 21
70.7707064618
  0
LINE
  5
27F
100
AcDbEntity
  8
0
100
AcDbLine
 62
7
  6
CONTINUOUS
 10
29.7089313747
 20
15.2865644355
 11
29.7089313747
 21
20.0760093574
  0
LINE
  5
280
100
AcDbEntity
  8
0
100
AcDbLine
 62
7
  6
CONTINUOUS
 10
29.7089313747
 20
34.5560214797
 11
29.7089313747
 21
39.3454664017
  0
LINE
  5
281
100
AcDbEntity
  8
0
100
AcDbLine
 62
7
  6
CONTINUOUS
 10
30.5397853018
 20
38.6408825995
 11
30.5397853018
 21
35.7792192645
  0
LINE
  5
282
100
AcDbEntity
  8
0
100
AcDbLine
 62
7
  6
CONTINUOUS
 10
30.5397853018
 20
19.3714255552
 11
30.5397853018
 21
16.5097622202
  0
LINE
  5
283
100
AcDbEntity
  8
0
100
AcDbLine
 62
7
  6
CONTINUOUS
 10
30.6036215887
 20
70.4742425207
 11
30.6036215887
 21
69.9602441681
  0
LINE
  5
284
100
AcDbEntity
  8
0
100
AcDbLine
 62
7
  6
CONTINUOUS
 10
30.6105092277
 20
49.961133168
 11
30.6105092277
 21
45.9525221539
  0
LINE
  5
285
100
AcDbEntity
  8
0
100
AcDbLine
 62
7
  6
CONTINUOUS
 10
30.8666961751
 20
70.0112469782
 11
30.8666961751
 21
70.4358652203
  0
LINE
  5
286
100
AcDbEntity
  8
0
100
AcDbLine
 62
7
  6
CONTINUOUS
 10
31.2970981403
 20
76.2583411119
 11
31.2970981403
 21
76.4461366679
  0
LINE
  5
287
100
AcDbEntity
  8
0
100
AcDbLine
 62
7
  6
CONTINUOUS
 10
31.4437930426
 20
89.3911867743
 11
31.4437931951
 21
76.5924865865
  0
LINE
  5
288
100
AcDbEntity
  8
0
100
AcDbLine
 62
7
  6
CONTINUOUS
 10
31.6711649836
 20
50.0691115862
 11
31.6711649836
 21
45.8577765492
  0
LINE
  5
289
100
AcDbEntity
  8
0
100
AcDbLine
 62
7
  6
CONTINUOUS
 10
31.9539929762
 20
37.8244078891
 11
31.9539929762
 21
36.5957075722
  0
LINE
  5
28A
100
AcDbEntity
  8
0
100
AcDbLine
 62
7
  6
CONTINUOUS
 10
31.9539929762
 20
18.5549508449
 11
31.9539929762
 21
17.326250528
  0
LINE
  5
28B
100
AcDbEntity
  8
0
100
AcDbLine
 62
7
  6
CONTINUOUS
 10
32.1886150295
 20
56.1639519604
 11
32.1886150295
 21
55.3474495432
  0
LINE
  5
28C
100
AcDbEntity
  8
0
100
AcDbLine
 62
7
  6
CONTINUOUS
 10
32.9839427306
 20
55.5874447569
 11
32.9839427306
 21
56.403947174
  0
LINE
  5
28D
100
AcDbEntity
  8
0
100
AcDbLine
 62
7
  6
CONTINUOUS
 10
47.8512222527
 20
71.9639308818
 11
47.8682473357
 21
71.9779683918
  0
LINE
  5
28E
100
AcDbEntity
  8
0
100
AcDbLine
 62
7
  6
CONTINUOUS
 10
47.9142515747
 20
72.0158997761
 11
48.1663814871
 21
72.2237857624
  0
LINE
  5
28F
100
AcDbEntity
  8
0
100
AcDbLine
 62
7
  6
CONTINUOUS
 10
48.2623167793
 20
72.3028862652
 11
49.1013119478
 21
72.9946539989
  0
LINE
  5
290
100
AcDbEntity
  8
0
100
AcDbLine
 62
7
  6
CONTINUOUS
 10
48.0030358842
 20
71.9082226476
 11
49.5471501901
 21
73.1814022643
  0
LINE
  5
291
100
AcDbEntity
  8
0
100
AcDbLine
 62
7
  6
CONTINUOUS
 10
52.3273498867
 20
75.2126407712
 11
50.2871736629
 21
73.688218528
  0
LINE
  5
292
100
AcDbEntity
  8
0
100
AcDbLine
 62
7
  6
CONTINUOUS
 10
49.3985297049
 20
75.0330792724
 11
52.2311677644
 21
77.1465980681
  0
LINE
  5
293
100
AcDbEntity
  8
0
100
AcDbLine
 62
7
  6
CONTINUOUS
 10
47.9408222722
 20
71.9214099731
 11
47.9597480825
 21
71.9347316624
  0
LINE
  5
294
100
AcDbEntity
  8
0
100
AcDbLine
 62
7
  6
CONTINUOUS
 10
24.6188058867
 20
48.7043106832
 11
23.0561430531
 21
49.0350607329
  0
LINE
  5
295
100
AcDbEntity
  8
0
100
AcDbLine
 62
7
  6
CONTINUOUS
 10
16.71585612
 20
58.4520170054
 11
19.5442950206
 21
56.8190539873
  0
LINE
  5
296
100
AcDbEntity
  8
0
100
AcDbLine
 62
7
  6
CONTINUOUS
 10
32.5029986066
 20
50.1537951212
 11
36.125956252
 21
48.0621268692
  0
LINE
  5
297
100
AcDbEntity
  8
0
100
AcDbLine
 62
7
  6
CONTINUOUS
 10
16.71585612
 20
59.2685194226
 11
19.5442950206
 21
57.6355564045
  0
LINE
  5
298
100
AcDbEntity
  8
0
100
AcDbLine
 62
7
  6
CONTINUOUS
 10
16.6486842803
 20
60.0421335831
 11
20.8842537673
 21
57.5967817209
  0
LINE
  5
299
100
AcDbEntity
  8
0
100
AcDbLine
 62
7
  6
CONTINUOUS
 10
33.679629134
 20
55.9890970916
 11
33.679629134
 21
56.8055995087
  0
LINE
  5
29A
100
AcDbEntity
  8
0
100
AcDbLine
 62
7
  6
CONTINUOUS
 10
34.4465418039
 20
29.2578733907
 11
34.4465418039
 21
29.6805620342
  0
LINE
  5
29B
100
AcDbEntity
  8
0
100
AcDbLine
 62
7
  6
CONTINUOUS
 10
34.4803234535
 20
69.9087095499
 11
34.4803234535
 21
69.7710505163
  0
LINE
  5
29C
100
AcDbEntity
  8
0
100
AcDbLine
 62
7
  6
CONTINUOUS
 10
34.9945765702
 20
13.9378454668
 11
34.9945765702
 21
16.7995088018
  0
LINE
  5
29D
100
AcDbEntity
  8
0
100
AcDbLine
 62
7
  6
CONTINUOUS
 10
34.9945765702
 20
33.207302511
 11
34.9945765702
 21
36.068965846
  0
LINE
  5
29E
100
AcDbEntity
  8
0
100
AcDbLine
 62
7
  6
CONTINUOUS
 10
36.125956252
 20
48.0621268692
 11
36.125956252
 21
43.2858597958
  0
LINE
  5
29F
100
AcDbEntity
  8
0
100
AcDbLine
 62
7
  6
CONTINUOUS
 10
36.620928938
 20
35.3549130262
 11
36.620928938
 21
30.5654681043
  0
LINE
  5
2A0
100
AcDbEntity
  8
0
100
AcDbLine
 62
7
  6
CONTINUOUS
 10
36.620928938
 20
16.085455982
 11
36.620928938
 21
11.29601106
  0
LINE
  5
2A1
100
AcDbEntity
  8
0
100
AcDbLine
 62
7
  6
CONTINUOUS
 10
29.7089313747
 20
39.3454664017
 11
31.6062869143
 21
45.8635719375
  0
LWPOLYLINE
  5
2A2
100
AcDbEntity
  8
0
100
AcDbPolyline
 62
7
  6
CONTINUOUS
 90
5
 70
0
 10
49.7754304136
 20
69.7786938712
 10
47.345277553
 20
67.7708543655
 10
43.9961839497
 20
66.2641811254
 10
40.021702475
 20
65.3934201925
 10
35.7678377924
 20
65.2388488915
  0
LINE
  5
2A3
100
AcDbEntity
  8
0
100
AcDbLine
 62
7
  6
CONTINUOUS
 10
64.0141336525
 20
76.0433925952
 11
39.0642445151
 21
61.6386533702
  0
LINE
  5
2A4
100
AcDbEntity
  8
0
100
AcDbLine
 62
7
  6
CONTINUOUS
 10
39.7713542403
 20
61.2304126157
 11
64.7212433776
 21
75.6351518407
  0
LINE
  5
2A5
100
AcDbEntity
  8
0
100
AcDbLine
 62
7
  6
CONTINUOUS
 10
32.9839427306
 20
56.403947174
 11
33.679629134
 21
56.8055995087
  0
LINE
  5
2A6
100
AcDbEntity
  8
0
100
AcDbLine
 62
7
  6
CONTINUOUS
 10
32.9839427306
 20
55.5874447569
 11
33.679629134
 21
55.9890970916
  0
LINE
  5
2A7
100
AcDbEntity
  8
0
100
AcDbLine
 62
7
  6
CONTINUOUS
 10
38.7044393456
 20
50.7851232012
 11
24.9925772343
 21
49.3892082931
  0
LINE
  5
2A8
100
AcDbEntity
  8
0
100
AcDbLine
 62
7
  6
CONTINUOUS
 10
36.3722068506
 20
50.5476938803
 11
38.4016754736
 21
49.3760061316
  0
LINE
  5
2A9
100
AcDbEntity
  8
0
100
AcDbLine
 62
7
  6
CONTINUOUS
 10
55.7127325428
 20
39.4008715154
 11
55.8107233139
 21
39.3442977972
  0
LINE
  5
2AA
100
AcDbEntity
  8
0
100
AcDbLine
 62
7
  6
CONTINUOUS
 10
55.8143365476
 20
39.5813551649
 11
55.7330960332
 21
39.6282583367
  0
LINE
  5
2AB
100
AcDbEntity
  8
0
100
AcDbLine
 62
7
  6
CONTINUOUS
 10
56.9855194498
 20
38.9579168048
 11
56.9148090661
 21
38.9987405403
  0
LINE
  5
2AC
100
AcDbEntity
  8
0
100
AcDbLine
 62
7
  6
CONTINUOUS
 10
56.9148090661
 20
39.0619219866
 11
56.9855194498
 21
39.0210982511
  0
LINE
  5
2AD
100
AcDbEntity
  8
0
100
AcDbLine
 62
7
  6
CONTINUOUS
 10
59.2482517289
 20
37.8964410875
 11
58.965410194
 21
38.0597443928
  0
LINE
  5
2AE
100
AcDbEntity
  8
0
100
AcDbLine
 62
7
  6
CONTINUOUS
 10
56.9148090661
 20
39.3885187718
 11
57.1269402172
 21
39.2660475653
  0
LINE
  5
2AF
100
AcDbEntity
  8
0
100
AcDbLine
 62
7
  6
CONTINUOUS
 10
43.0777718149
 20
47.4088840877
 11
42.9243152693
 21
47.4974802614
  0
LINE
  5
2B0
100
AcDbEntity
  8
0
100
AcDbLine
 62
7
  6
CONTINUOUS
 10
56.9148090661
 20
39.5702943231
 11
56.8363055417
 21
39.6156173287
  0
LINE
  5
2B1
100
AcDbEntity
  8
0
100
AcDbLine
 62
7
  6
CONTINUOUS
 10
57.2683609847
 20
39.5109968795
 11
56.9919887219
 21
39.67055687
  0
LINE
  5
2B2
100
AcDbEntity
  8
0
100
AcDbLine
 62
7
  6
CONTINUOUS
 10
57.1236500358
 20
39.7170192572
 11
57.2683609847
 21
39.633472242
  0
LINE
  5
2B3
100
AcDbEntity
  8
0
100
AcDbLine
 62
7
  6
CONTINUOUS
 10
14.3018730434
 20
64.9896456659
 11
23.2310650042
 21
59.8344909089
  0
LINE
  5
2B4
100
AcDbEntity
  8
0
100
AcDbLine
 62
7
  6
CONTINUOUS
 10
23.9381688414
 20
60.2427350627
 11
15.0089768806
 21
65.3978898197
  0
LINE
  5
2B5
100
AcDbEntity
  8
0
100
AcDbLine
 62
7
  6
CONTINUOUS
 10
24.2681419095
 20
79.1999125958
 11
23.1927579894
 21
81.5081558922
  0
LINE
  5
2B6
100
AcDbEntity
  8
0
100
AcDbLine
 62
7
  6
CONTINUOUS
 10
37.8406684846
 20
27.298317769
 11
37.8406684846
 21
27.9046979252
  0
LINE
  5
2B7
100
AcDbEntity
  8
0
100
AcDbLine
 62
7
  6
CONTINUOUS
 10
37.8587616583
 20
62.881006324
 11
37.8587616583
 21
65.3148261137
  0
LINE
  5
2B8
100
AcDbEntity
  8
0
100
AcDbLine
 62
7
  6
CONTINUOUS
 10
38.1764145054
 20
65.3263685622
 11
38.1764145054
 21
62.8810239473
  0
LINE
  5
2B9
100
AcDbEntity
  8
0
100
AcDbLine
 62
7
  6
CONTINUOUS
 10
38.513954456
 20
62.8810426739
 11
38.513954456
 21
65.3386336419
  0
LINE
  5
2BA
100
AcDbEntity
  8
0
100
AcDbLine
 62
7
  6
CONTINUOUS
 10
38.7044393456
 20
60.9097531736
 11
38.7044393456
 21
50.7851232012
  0
LINE
  5
2BB
100
AcDbEntity
  8
0
100
AcDbLine
 62
7
  6
CONTINUOUS
 10
39.3762781764
 20
69.7576470007
 11
39.3762781764
 21
69.8831724814
  0
LINE
  5
2BC
100
AcDbEntity
  8
0
100
AcDbLine
 62
7
  6
CONTINUOUS
 10
39.7713542403
 20
51.1057826433
 11
39.7713542403
 21
61.2304126157
  0
LINE
  5
2BD
100
AcDbEntity
  8
0
100
AcDbLine
 62
7
  6
CONTINUOUS
 10
29.7089313747
 20
20.0760093574
 11
32.5123861998
 21
29.7068951
  0
LINE
  5
2BE
100
AcDbEntity
  8
0
100
AcDbLine
 62
7
  6
CONTINUOUS
 10
52.7913867509
 20
77.7785622038
 11
54.3450310633
 21
80.070620335
  0
LINE
  5
2BF
100
AcDbEntity
  8
0
100
AcDbLine
 62
7
  6
CONTINUOUS
 10
43.6830033191
 20
59.8961801483
 11
60.758219889
 21
69.7545021851
  0
LINE
  5
2C0
100
AcDbEntity
  8
0
100
AcDbLine
 62
7
  6
CONTINUOUS
 10
45.660573976
 20
60.2826725994
 11
60.4326640513
 21
68.8112918718
  0
LINE
  5
2C1
100
AcDbEntity
  8
0
100
AcDbLine
 62
7
  6
CONTINUOUS
 10
45.660573976
 20
59.4661701823
 11
60.4326640513
 21
67.9947894547
  0
LINE
  5
2C2
100
AcDbEntity
  8
0
100
AcDbLine
 62
7
  6
CONTINUOUS
 10
57.2192498426
 20
42.0797952395
 11
57.2983431644
 21
42.0341317219
  0
LINE
  5
2C3
100
AcDbEntity
  8
0
100
AcDbLine
 62
7
  6
CONTINUOUS
 10
57.394728234
 20
42.1335808979
 11
57.2902088894
 21
42.1939238046
  0
LINE
  5
2C4
100
AcDbEntity
  8
0
100
AcDbLine
 62
7
  6
CONTINUOUS
 10
58.0352326498
 20
42.6666745708
 11
58.1766570386
 21
42.585025009
  0
LINE
  5
2C5
100
AcDbEntity
  8
0
100
AcDbLine
 62
7
  6
CONTINUOUS
 10
58.093809989
 20
42.7004940115
 11
58.2766553419
 21
42.5949305859
  0
LINE
  5
2C6
100
AcDbEntity
  8
0
100
AcDbLine
 62
7
  6
CONTINUOUS
 10
44.9647542172
 20
51.2872232332
 11
44.791311726
 21
51.3873580369
  0
LWPOLYLINE
  5
2C7
100
AcDbEntity
  8
0
100
AcDbPolyline
 62
7
  6
CONTINUOUS
 90
3
 70
0
 10
25.0680841972
 20
72.5628287457
 10
25.1367222358
 20
72.4778479564
 10
27.9868662375
 20
70.6594796585
  0
LWPOLYLINE
  5
2C8
100
AcDbEntity
  8
0
100
AcDbPolyline
 62
7
  6
CONTINUOUS
 90
3
 70
0
 10
25.3559842637
 20
80.351824822
 10
24.6944519652
 20
81.5123978359
 10
24.5347557887
 20
82.661146221
  0
LINE
  5
2C9
100
AcDbEntity
  8
0
100
AcDbLine
 62
7
  6
CONTINUOUS
 10
42.387639737
 20
69.9975395678
 11
42.3878579351
 21
69.9521872029
  0
LINE
  5
2CA
100
AcDbEntity
  8
0
100
AcDbLine
 62
7
  6
CONTINUOUS
 10
42.1888207099
 20
63.5241634792
 11
42.1888207099
 21
65.8682096482
  0
LINE
  5
2CB
100
AcDbEntity
  8
0
100
AcDbLine
 62
7
  6
CONTINUOUS
 10
42.5614729265
 20
70.2950794602
 11
42.5614729265
 21
69.8639484578
  0
LINE
  5
2CC
100
AcDbEntity
  8
0
100
AcDbLine
 62
7
  6
CONTINUOUS
 10
42.8204431948
 20
69.8063703897
 11
42.8204431948
 21
70.3428015562
  0
LINE
  5
2CD
100
AcDbEntity
  8
0
100
AcDbLine
 62
7
  6
CONTINUOUS
 10
43.6830033191
 20
59.0796777312
 11
43.6830033191
 21
59.8961801483
  0
LINE
  5
2CE
100
AcDbEntity
  8
0
100
AcDbLine
 62
7
  6
CONTINUOUS
 10
42.3966999812
 20
70.2647157032
 11
42.394881356
 21
70.0659489779
  0
LINE
  5
2CF
100
AcDbEntity
  8
0
100
AcDbLine
 62
7
  6
CONTINUOUS
 10
33.219495925
 20
29.2986543455
 11
33.4912149172
 21
30.2321077918
  0
LINE
  5
2D0
100
AcDbEntity
  8
0
100
AcDbLine
 62
7
  6
CONTINUOUS
 10
39.4243837631
 20
44.9857987689
 11
36.620928938
 21
35.3549130262
  0
LINE
  5
2D1
100
AcDbEntity
  8
0
100
AcDbLine
 62
7
  6
CONTINUOUS
 10
55.2057816894
 20
75.6936446845
 11
55.2427399535
 21
75.7605427384
  0
LINE
  5
2D2
100
AcDbEntity
  8
0
100
AcDbLine
 62
7
  6
CONTINUOUS
 10
39.3234649413
 20
50.9176636532
 11
38.4016754736
 21
49.3760061316
  0
LINE
  5
2D3
100
AcDbEntity
  8
0
100
AcDbLine
 62
7
  6
CONTINUOUS
 10
62.3962172766
 20
67.4341851043
 11
64.7212433776
 21
68.7765315368
  0
LINE
  5
2D4
100
AcDbEntity
  8
0
100
AcDbLine
 62
7
  6
CONTINUOUS
 10
39.7713542403
 20
51.1057826433
 11
62.3962172766
 21
64.1681754357
  0
LINE
  5
2D5
100
AcDbEntity
  8
0
100
AcDbLine
 62
7
  6
CONTINUOUS
 10
56.0662844614
 20
58.6133391418
 11
57.1539245718
 21
58.9971599805
  0
LINE
  5
2D6
100
AcDbEntity
  8
0
100
AcDbLine
 62
7
  6
CONTINUOUS
 10
44.9136991595
 20
59.2316794057
 11
43.6830033192
 21
59.0796777312
  0
LINE
  5
2D7
100
AcDbEntity
  8
0
100
AcDbLine
 62
7
  6
CONTINUOUS
 10
43.6830033192
 20
59.8961801483
 11
44.9136991595
 21
60.0481818229
  0
LINE
  5
2D8
100
AcDbEntity
  8
0
100
AcDbLine
 62
7
  6
CONTINUOUS
 10
32.1886150294
 20
55.3474495432
 11
29.5958533154
 21
55.0784166617
  0
LINE
  5
2D9
100
AcDbEntity
  8
0
100
AcDbLine
 62
7
  6
CONTINUOUS
 10
29.5958533154
 20
55.8949190788
 11
32.1886150294
 21
56.1639519604
  0
LINE
  5
2DA
100
AcDbEntity
  8
0
100
AcDbLine
 62
7
  6
CONTINUOUS
 10
33.679629134
 20
56.8055995087
 11
28.1158122019
 21
56.2391837339
  0
LINE
  5
2DB
100
AcDbEntity
  8
0
100
AcDbLine
 62
7
  6
CONTINUOUS
 10
58.2991310159
 20
42.5740847289
 11
58.2766440099
 21
42.5949110174
  0
LWPOLYLINE
  5
2DC
100
AcDbEntity
  8
0
100
AcDbPolyline
 62
7
  6
CONTINUOUS
 90
3
 70
0
 10
23.0103944639
 20
73.7675467945
 10
20.6806443569
 20
76.1346932807
 10
20.4912221316
 20
76.5663967526
  0
LINE
  5
2DD
100
AcDbEntity
  8
0
100
AcDbLine
 62
7
  6
CONTINUOUS
 10
43.8308930292
 20
70.580108187
 11
43.8308930292
 21
70.0784055885
  0
LINE
  5
2DE
100
AcDbEntity
  8
0
100
AcDbLine
 62
7
  6
CONTINUOUS
 10
43.9396707623
 20
70.6078624858
 11
43.9396707623
 21
70.1811635441
  0
LINE
  5
2DF
100
AcDbEntity
  8
0
100
AcDbLine
 62
7
  6
CONTINUOUS
 10
44.9136991594
 20
60.0481818229
 11
44.9136991594
 21
59.2316794057
  0
LINE
  5
2E0
100
AcDbEntity
  8
0
100
AcDbLine
 62
7
  6
CONTINUOUS
 10
45.660573976
 20
59.4661701823
 11
45.660573976
 21
60.2826725994
  0
LINE
  5
2E1
100
AcDbEntity
  8
0
100
AcDbLine
 62
7
  6
CONTINUOUS
 10
37.8406684846
 20
27.298317769
 11
38.0528366673
 21
28.0271925514
  0
LINE
  5
2E2
100
AcDbEntity
  8
0
100
AcDbLine
 62
7
  6
CONTINUOUS
 10
39.5420265918
 20
28.886971623
 11
38.7349517811
 21
26.1143764603
  0
LINE
  5
2E3
100
AcDbEntity
  8
0
100
AcDbLine
 62
7
  6
CONTINUOUS
 10
42.4898907869
 20
46.5923590262
 11
44.9293990253
 21
51.6750622341
  0
LINE
  5
2E4
100
AcDbEntity
  8
0
100
AcDbLine
 62
7
  6
CONTINUOUS
 10
44.9647542172
 20
51.2872232332
 11
43.0777718149
 21
47.4088840877
  0
LINE
  5
2E5
100
AcDbEntity
  8
0
100
AcDbLine
 62
7
  6
CONTINUOUS
 10
36.125956252
 20
48.0621268692
 11
38.4016754736
 21
49.3760061316
  0
LINE
  5
2E6
100
AcDbEntity
  8
0
100
AcDbLine
 62
7
  6
CONTINUOUS
 10
49.8215383972
 20
54.4995233576
 11
44.9293990253
 21
51.6750622341
  0
LINE
  5
2E7
100
AcDbEntity
  8
0
100
AcDbLine
 62
7
  6
CONTINUOUS
 10
59.2482517289
 20
59.5337551414
 11
44.9647542172
 21
51.2872232332
  0
LINE
  5
2E8
100
AcDbEntity
  8
0
100
AcDbLine
 62
7
  6
CONTINUOUS
 10
54.7934975544
 20
56.1453145549
 11
50.3248172918
 21
53.5653362028
  0
LINE
  5
2E9
100
AcDbEntity
  8
0
100
AcDbLine
 62
7
  6
CONTINUOUS
 10
24.9925772343
 20
59.5138382655
 11
38.7044393456
 21
60.9097531736
  0
LINE
  5
2EA
100
AcDbEntity
  8
0
100
AcDbLine
 62
7
  6
CONTINUOUS
 10
38.5307870678
 20
61.4783236492
 11
24.8189249564
 21
60.082408741
  0
LINE
  5
2EB
100
AcDbEntity
  8
0
100
AcDbLine
 62
7
  6
CONTINUOUS
 10
57.1539245718
 20
58.9971599805
 11
57.2269233323
 21
58.9944601532
  0
LINE
  5
2EC
100
AcDbEntity
  8
0
100
AcDbLine
 62
7
  6
CONTINUOUS
 10
55.8421594687
 20
58.6045509422
 11
55.9623399765
 21
58.5970130552
  0
LINE
  5
2ED
100
AcDbEntity
  8
0
100
AcDbLine
 62
7
  6
CONTINUOUS
 10
55.8107526389
 20
58.6138059119
 11
55.8421594687
 21
58.6045509422
  0
LWPOLYLINE
  5
2EE
100
AcDbEntity
  8
0
100
AcDbPolyline
 62
7
  6
CONTINUOUS
 90
3
 70
0
 10
25.8715625964
 20
72.4694110859
 10
22.26381345
 20
74.6194270333
 10
22.0342617063
 20
74.8715608948
  0
LWPOLYLINE
  5
2EF
100
AcDbEntity
  8
0
100
AcDbPolyline
 62
7
  6
CONTINUOUS
 90
3
 70
0
 10
26.4469507957
 20
71.8088269052
 10
28.0362117288
 20
70.7924273786
 10
29.4909909257
 20
70.2921371092
  0
LINE
  5
2F0
100
AcDbEntity
  8
0
100
AcDbLine
 62
7
  6
CONTINUOUS
 10
35.5141842311
 20
69.323881888
 11
35.480552389
 21
69.3551034858
  0
LINE
  5
2F1
100
AcDbEntity
  8
0
100
AcDbLine
 62
7
  6
CONTINUOUS
 10
42.5191811324
 20
69.8346781018
 11
42.5448430201
 21
69.7578238944
  0
LINE
  5
2F2
100
AcDbEntity
  8
0
100
AcDbLine
 62
7
  6
CONTINUOUS
 10
47.5097480239
 20
67.0622860941
 11
47.5097480239
 21
67.9067430639
  0
LINE
  5
2F3
100
AcDbEntity
  8
0
100
AcDbLine
 62
7
  6
CONTINUOUS
 10
47.8246430004
 20
68.1669154111
 11
47.8246430004
 21
67.6225166063
  0
LINE
  5
2F4
100
AcDbEntity
  8
0
100
AcDbLine
 62
7
  6
CONTINUOUS
 10
47.924095477
 20
98.9060370007
 11
47.9240953218
 21
86.1073368439
  0
LINE
  5
2F5
100
AcDbEntity
  8
0
100
AcDbLine
 62
7
  6
CONTINUOUS
 10
47.9417991103
 20
67.8309493613
 11
47.9417991103
 21
68.2637120652
  0
LINE
  5
2F6
100
AcDbEntity
  8
0
100
AcDbLine
 62
7
  6
CONTINUOUS
 10
48.6635117841
 20
86.5396263311
 11
48.6635117841
 21
99.7453622377
  0
LINE
  5
2F7
100
AcDbEntity
  8
0
100
AcDbLine
 62
7
  6
CONTINUOUS
 10
50.8211293813
 20
83.234773381
 11
50.6860083652
 21
81.0795132506
  0
LWPOLYLINE
  5
2F8
100
AcDbEntity
  8
0
100
AcDbPolyline
 62
7
  6
CONTINUOUS
 90
3
 70
0
 10
51.2597245745
 20
73.4346689054
 10
51.0742083963
 20
72.1114110898
 10
49.7754304136
 20
69.7786938712
  0
LWPOLYLINE
  5
2F9
100
AcDbEntity
  8
0
100
AcDbPolyline
 62
7
  6
CONTINUOUS
 90
5
 70
0
 10
54.3450310633
 20
80.070620335
 10
54.7874235255
 20
82.9853771968
 10
53.7907781385
 20
85.8519746373
 10
51.4388550694
 20
88.4388070652
 10
48.6635117841
 20
90.0956840796
  0
LINE
  5
2FA
100
AcDbEntity
  8
0
100
AcDbLine
 62
7
  6
CONTINUOUS
 10
39.4243837631
 20
25.7163417246
 11
36.620928938
 21
16.085455982
  0
LINE
  5
2FB
100
AcDbEntity
  8
0
100
AcDbLine
 62
7
  6
CONTINUOUS
 10
39.4243837631
 20
44.9857987689
 11
42.5205663873
 21
46.77336997
  0
LINE
  5
2FC
100
AcDbEntity
  8
0
100
AcDbLine
 62
7
  6
CONTINUOUS
 10
42.4898907869
 20
46.5923590262
 11
36.677497245
 21
43.2365920813
  0
LINE
  5
2FD
100
AcDbEntity
  8
0
100
AcDbLine
 62
7
  6
CONTINUOUS
 10
27.9868662375
 20
70.6594796585
 11
30.6289401336
 21
69.7532692393
  0
LINE
  5
2FE
100
AcDbEntity
  8
0
100
AcDbLine
 62
7
  6
CONTINUOUS
 10
30.9157762133
 20
69.9354514249
 11
30.8981876299
 21
69.941485393
  0
LWPOLYLINE
  5
2FF
100
AcDbEntity
  8
0
100
AcDbPolyline
 62
7
  6
CONTINUOUS
 90
3
 70
0
 10
29.5135795928
 20
70.4164912792
 10
28.1776716817
 20
70.874790021
 10
26.9954212796
 20
71.6290836184
  0
LINE
  5
300
100
AcDbEntity
  8
0
100
AcDbLine
 62
7
  6
CONTINUOUS
 10
29.5239598261
 20
70.2807992924
 11
30.6742509473
 21
69.8852207358
  0
LINE
  5
301
100
AcDbEntity
  8
0
100
AcDbLine
 62
7
  6
CONTINUOUS
 10
55.8143365476
 20
58.8508122092
 11
55.1072268225
 21
59.2590529637
  0
LINE
  5
302
100
AcDbEntity
  8
0
100
AcDbLine
 62
7
  6
CONTINUOUS
 10
59.2482517289
 20
57.1658981318
 11
58.965410194
 21
57.3292014371
  0
LINE
  5
303
100
AcDbEntity
  8
0
100
AcDbLine
 62
7
  6
CONTINUOUS
 10
35.5142590924
 20
69.3238386299
 11
35.5141842311
 21
69.323881888
  0
LINE
  5
304
100
AcDbEntity
  8
0
100
AcDbLine
 62
7
  6
CONTINUOUS
 10
34.4803234535
 20
69.7710505163
 11
34.1686115836
 21
69.9541820536
  0
LINE
  5
305
100
AcDbEntity
  8
0
100
AcDbLine
 62
7
  6
CONTINUOUS
 10
22.6511080788
 20
75.6948402362
 11
25.8701030725
 21
73.7764642028
  0
LINE
  5
306
100
AcDbEntity
  8
0
100
AcDbLine
 62
7
  6
CONTINUOUS
 10
22.5806409784
 20
76.3935839267
 11
26.1010729396
 21
74.2918897585
  0
LINE
  5
307
100
AcDbEntity
  8
0
100
AcDbLine
 62
7
  6
CONTINUOUS
 10
42.3878621533
 20
69.9521819803
 11
42.5448538413
 21
69.7578104945
  0
LINE
  5
308
100
AcDbEntity
  8
0
100
AcDbLine
 62
7
  6
CONTINUOUS
 10
42.5191715282
 20
69.8346899928
 11
42.387639737
 21
69.9975395678
  0
LINE
  5
309
100
AcDbEntity
  8
0
100
AcDbLine
 62
7
  6
CONTINUOUS
 10
58.9464634038
 20
41.6531406063
 11
58.2991310159
 21
42.5740847289
  0
LINE
  5
30A
100
AcDbEntity
  8
0
100
AcDbLine
 62
7
  6
CONTINUOUS
 10
49.8215383972
 20
54.4995233576
 11
50.3248172918
 21
53.5653362028
  0
LINE
  5
30B
100
AcDbEntity
  8
0
100
AcDbLine
 62
7
  6
CONTINUOUS
 10
51.2597480239
 20
73.4346689075
 11
51.2597480239
 21
74.0910476159
  0
LINE
  5
30C
100
AcDbEntity
  8
0
100
AcDbLine
 62
7
  6
CONTINUOUS
 10
42.3883398329
 20
28.5374617791
 11
43.7366927301
 21
31.3087487911
  0
LINE
  5
30D
100
AcDbEntity
  8
0
100
AcDbLine
 62
7
  6
CONTINUOUS
 10
57.2252072616
 20
61.1827092324
 11
55.8143365476
 21
58.8508122092
  0
LINE
  5
30E
100
AcDbEntity
  8
0
100
AcDbLine
 62
7
  6
CONTINUOUS
 10
30.5397853018
 20
35.7792192645
 11
31.9539929762
 21
36.5957075722
  0
LINE
  5
30F
100
AcDbEntity
  8
0
100
AcDbLine
 62
7
  6
CONTINUOUS
 10
60.9670658073
 20
74.7529689226
 11
60.3099239058
 21
74.5760519119
  0
LINE
  5
310
100
AcDbEntity
  8
0
100
AcDbLine
 62
7
  6
CONTINUOUS
 10
56.8242305444
 20
74.9384140394
 11
56.4434739556
 21
74.8359060158
  0
LINE
  5
311
100
AcDbEntity
  8
0
100
AcDbLine
 62
7
  6
CONTINUOUS
 10
42.7734860907
 20
69.6741465151
 11
42.7735102749
 21
69.6741524144
  0
LINE
  5
312
100
AcDbEntity
  8
0
100
AcDbLine
 62
7
  6
CONTINUOUS
 10
42.394881356
 20
70.0659489779
 11
42.3739553549
 21
70.0610767057
  0
LINE
  5
313
100
AcDbEntity
  8
0
100
AcDbLine
 62
7
  6
CONTINUOUS
 10
42.7359341572
 20
69.8455393742
 11
39.9581445732
 21
69.2369519951
  0
LINE
  5
314
100
AcDbEntity
  8
0
100
AcDbLine
 62
7
  6
CONTINUOUS
 10
39.9899310835
 20
69.1227854454
 11
43.2532442192
 21
69.8354627701
  0
LINE
  5
315
100
AcDbEntity
  8
0
100
AcDbLine
 62
7
  6
CONTINUOUS
 10
43.7793803019
 20
69.9503660111
 11
43.7998357014
 21
69.9548332807
  0
LINE
  5
316
100
AcDbEntity
  8
0
100
AcDbLine
 62
7
  6
CONTINUOUS
 10
40.0072918768
 20
68.9842353041
 11
43.2829528362
 21
69.6993993396
  0
LINE
  5
317
100
AcDbEntity
  8
0
100
AcDbLine
 62
7
  6
CONTINUOUS
 10
42.394881356
 20
70.0659489779
 11
42.3736024919
 21
70.0615830105
  0
LINE
  5
318
100
AcDbEntity
  8
0
100
AcDbLine
 62
7
  6
CONTINUOUS
 10
39.9581445732
 20
69.2369519951
 11
38.1070205616
 21
69.1696941397
  0
LINE
  5
319
100
AcDbEntity
  8
0
100
AcDbLine
 62
7
  6
CONTINUOUS
 10
37.01014472
 20
69.0151739976
 11
39.9899310835
 21
69.1227854454
  0
LINE
  5
31A
100
AcDbEntity
  8
0
100
AcDbLine
 62
7
  6
CONTINUOUS
 10
35.7678377924
 20
68.8314595269
 11
40.0072918768
 21
68.9842353041
  0
LWPOLYLINE
  5
31B
100
AcDbEntity
  8
0
100
AcDbPolyline
 62
7
  6
CONTINUOUS
 90
3
 70
0
 10
39.5493157812
 20
69.8853001896
 10
35.0223697929
 20
69.8296358715
 10
30.4516798026
 20
70.4964077768
  0
LWPOLYLINE
  5
31C
100
AcDbEntity
  8
0
100
AcDbPolyline
 62
7
  6
CONTINUOUS
 90
3
 70
0
 10
35.4231532334
 20
70.3126711254
 10
30.3736522702
 20
70.9958519346
 10
30.363377462
 20
70.9992149369
  0
LWPOLYLINE
  5
31D
100
AcDbEntity
  8
0
100
AcDbPolyline
 62
7
  6
CONTINUOUS
 90
4
 70
0
 10
35.1890552607
 20
69.4062733678
 10
35.3554609636
 20
69.3813455825
 10
35.4409635033
 20
69.3565627697
 10
35.5140417195
 20
69.3239667597
  0
LINE
  5
31E
100
AcDbEntity
  8
0
100
AcDbLine
 62
7
  6
CONTINUOUS
 10
30.3835151881
 20
70.9936246813
 11
30.3627659166
 21
70.9983147434
  0
LINE
  5
31F
100
AcDbEntity
  8
0
100
AcDbLine
 62
7
  6
CONTINUOUS
 10
31.0781842169
 20
70.202102993
 11
31.0487094282
 21
70.2088567675
  0
LINE
  5
320
100
AcDbEntity
  8
0
100
AcDbLine
 62
7
  6
CONTINUOUS
 10
31.0775453069
 20
70.2012891274
 11
31.0487094282
 21
70.2088567675
  0
LINE
  5
321
100
AcDbEntity
  8
0
100
AcDbLine
 62
7
  6
CONTINUOUS
 10
30.6542544847
 20
69.82702992
 11
30.6537864517
 21
69.8271585317
  0
LINE
  5
322
100
AcDbEntity
  8
0
100
AcDbLine
 62
7
  6
CONTINUOUS
 10
30.866899419
 20
69.8779170542
 11
30.8484472469
 21
69.8831518197
  0
LINE
  5
323
100
AcDbEntity
  8
0
100
AcDbLine
 62
7
  6
CONTINUOUS
 10
25.8701030725
 20
73.7764642028
 11
30.3779955818
 21
72.3012738331
  0
LINE
  5
324
100
AcDbEntity
  8
0
100
AcDbLine
 62
7
  6
CONTINUOUS
 10
30.1799247397
 20
71.0592600398
 11
25.8715625964
 21
72.4694110859
  0
LWPOLYLINE
  5
325
100
AcDbEntity
  8
0
100
AcDbPolyline
 62
7
  6
CONTINUOUS
 90
3
 70
0
 10
30.4516798026
 20
70.4964077768
 10
26.3482614315
 20
71.8411691209
 10
23.0103944639
 20
73.7675467945
  0
LINE
  5
326
100
AcDbEntity
  8
0
100
AcDbLine
 62
7
  6
CONTINUOUS
 10
26.1010729396
 20
74.2918897585
 11
30.5090797142
 21
72.8462524092
  0
LINE
  5
327
100
AcDbEntity
  8
0
100
AcDbLine
 62
7
  6
CONTINUOUS
 10
46.7003659158
 20
71.4733660666
 11
46.7417797603
 21
71.3818138143
  0
LINE
  5
328
100
AcDbEntity
  8
0
100
AcDbLine
 62
7
  6
CONTINUOUS
 10
54.7934975544
 20
56.961816972
 11
54.7934975544
 21
56.1453145549
  0
LINE
  5
329
100
AcDbEntity
  8
0
100
AcDbLine
 62
7
  6
CONTINUOUS
 10
55.2057816895
 20
75.0315344623
 11
55.2057816895
 21
75.6936446845
  0
LINE
  5
32A
100
AcDbEntity
  8
0
100
AcDbLine
 62
7
  6
CONTINUOUS
 10
55.2147480239
 20
80.7831906617
 11
55.2147480239
 21
82.0895945291
  0
LINE
  5
32B
100
AcDbEntity
  8
0
100
AcDbLine
 62
7
  6
CONTINUOUS
 10
55.2427676432
 20
75.0059039461
 11
55.2427676432
 21
75.7605427085
  0
LINE
  5
32C
100
AcDbEntity
  8
0
100
AcDbLine
 62
7
  6
CONTINUOUS
 10
55.7127325428
 20
39.5929869388
 11
55.7127325428
 21
39.1847357302
  0
LINE
  5
32D
100
AcDbEntity
  8
0
100
AcDbLine
 62
7
  6
CONTINUOUS
 10
55.7127325428
 20
20.3235298945
 11
55.7127325428
 21
19.915278686
  0
LINE
  5
32E
100
AcDbEntity
  8
0
100
AcDbLine
 62
7
  6
CONTINUOUS
 10
56.8242305444
 20
73.7745040503
 11
56.8242305444
 21
77.3671146857
  0
LINE
  5
32F
100
AcDbEntity
  8
0
100
AcDbLine
 62
7
  6
CONTINUOUS
 10
56.9148090661
 20
19.6476353451
 11
56.9148090661
 21
20.3008372788
  0
LINE
  5
330
100
AcDbEntity
  8
0
100
AcDbLine
 62
7
  6
CONTINUOUS
 10
56.9148090661
 20
38.9170923894
 11
56.9148090661
 21
39.5702943231
  0
LINE
  5
331
100
AcDbEntity
  8
0
100
AcDbLine
 62
7
  6
CONTINUOUS
 10
56.9855194498
 20
38.9579168048
 11
56.9855194498
 21
39.0210982511
  0
LINE
  5
332
100
AcDbEntity
  8
0
100
AcDbLine
 62
7
  6
CONTINUOUS
 10
56.9855194498
 20
58.227373849
 11
56.9855194498
 21
58.2905552953
  0
LINE
  5
333
100
AcDbEntity
  8
0
100
AcDbLine
 62
7
  6
CONTINUOUS
 10
57.2683609847
 20
39.5109968795
 11
57.2683609847
 21
39.633472242
  0
LINE
  5
334
100
AcDbEntity
  8
0
100
AcDbLine
 62
7
  6
CONTINUOUS
 10
57.2683609847
 20
58.7804539237
 11
57.2683609847
 21
58.9029292863
  0
LINE
  5
335
100
AcDbEntity
  8
0
100
AcDbLine
 62
7
  6
CONTINUOUS
 10
57.7826022719
 20
77.2022700102
 11
57.7826022719
 21
73.6096593749
  0
LINE
  5
336
100
AcDbEntity
  8
0
100
AcDbLine
 62
7
  6
CONTINUOUS
 10
44.9647542172
 20
32.017766189
 11
43.0777718149
 21
28.1394270435
  0
LINE
  5
337
100
AcDbEntity
  8
0
100
AcDbLine
 62
7
  6
CONTINUOUS
 10
40.5968473591
 20
71.7851353748
 11
44.8943550781
 21
72.6659776617
  0
LWPOLYLINE
  5
338
100
AcDbEntity
  8
0
100
AcDbPolyline
 62
7
  6
CONTINUOUS
 90
3
 70
0
 10
41.2785121522
 20
72.4937084161
 10
45.2918107371
 20
73.3164109507
 10
49.3985297049
 20
75.0330792724
  0
LINE
  5
339
100
AcDbEntity
  8
0
100
AcDbLine
 62
7
  6
CONTINUOUS
 10
40.1049662816
 20
71.7693474372
 11
40.5968473591
 21
71.7851353748
  0
LINE
  5
33A
100
AcDbEntity
  8
0
100
AcDbLine
 62
7
  6
CONTINUOUS
 10
30.3779955818
 20
72.3012738331
 11
34.6235276012
 21
71.7271992015
  0
LINE
  5
33B
100
AcDbEntity
  8
0
100
AcDbLine
 62
7
  6
CONTINUOUS
 10
30.5090797142
 20
72.8462524092
 11
35.4580138715
 21
72.1757340654
  0
LINE
  5
33C
100
AcDbEntity
  8
0
100
AcDbLine
 62
7
  6
CONTINUOUS
 10
30.5090797142
 20
72.8462524092
 11
30.5622169905
 21
72.834277174
  0
LINE
  5
33D
100
AcDbEntity
  8
0
100
AcDbLine
 62
7
  6
CONTINUOUS
 10
46.6561468071
 20
71.4312529036
 11
46.7417883799
 21
71.381808837
  0
LINE
  5
33E
100
AcDbEntity
  8
0
100
AcDbLine
 62
7
  6
CONTINUOUS
 10
58.2110512044
 20
73.9344272227
 11
58.2110512044
 21
77.5270378581
  0
LINE
  5
33F
100
AcDbEntity
  8
0
100
AcDbLine
 62
7
  6
CONTINUOUS
 10
58.965410194
 20
60.8518862779
 11
58.965410194
 21
57.3292014371
  0
LINE
  5
340
100
AcDbEntity
  8
0
100
AcDbLine
 62
7
  6
CONTINUOUS
 10
58.965410194
 20
41.5824292337
 11
58.965410194
 21
38.0597443928
  0
LINE
  5
341
100
AcDbEntity
  8
0
100
AcDbLine
 62
7
  6
CONTINUOUS
 10
59.2482517289
 20
62.3507075282
 11
59.2482517289
 21
59.5337551414
  0
LINE
  5
342
100
AcDbEntity
  8
0
100
AcDbLine
 62
7
  6
CONTINUOUS
 10
59.2482517289
 20
24.3598239839
 11
59.2482517289
 21
37.8964410875
  0
LINE
  5
343
100
AcDbEntity
  8
0
100
AcDbLine
 62
7
  6
CONTINUOUS
 10
59.2482517289
 20
43.6292810282
 11
59.2482517289
 21
57.1658981318
  0
LINE
  5
344
100
AcDbEntity
  8
0
100
AcDbLine
 62
7
  6
CONTINUOUS
 10
60.4326640513
 20
68.8112918718
 11
60.4326640513
 21
67.9947894547
  0
LINE
  5
345
100
AcDbEntity
  8
0
100
AcDbLine
 62
7
  6
CONTINUOUS
 10
60.8719994635
 20
68.6071505865
 11
60.8719994635
 21
69.4236530036
  0
LINE
  5
346
100
AcDbEntity
  8
0
100
AcDbLine
 62
7
  6
CONTINUOUS
 10
60.8841972991
 20
78.4914198819
 11
60.8841972991
 21
74.7306589029
  0
LINE
  5
347
100
AcDbEntity
  8
0
100
AcDbLine
 62
7
  6
CONTINUOUS
 10
58.1724794018
 20
42.6550752323
 11
58.2011119932
 21
42.7624444828
  0
LINE
  5
348
100
AcDbEntity
  8
0
100
AcDbLine
 62
7
  6
CONTINUOUS
 10
59.1655820203
 20
43.3192781887
 11
59.2482517289
 21
43.6292810282
  0
LINE
  5
349
100
AcDbEntity
  8
0
100
AcDbLine
 62
7
  6
CONTINUOUS
 10
55.7127325428
 20
39.5929869388
 11
57.3271120436
 21
42.2578433886
  0
LINE
  5
34A
100
AcDbEntity
  8
0
100
AcDbLine
 62
7
  6
CONTINUOUS
 10
33.4566505192
 20
30.2520631048
 11
32.5123861998
 21
29.7068951
  0
LINE
  5
34B
100
AcDbEntity
  8
0
100
AcDbLine
 62
7
  6
CONTINUOUS
 10
59.1655820203
 20
43.3192781887
 11
57.3271120436
 21
42.2578433886
  0
LINE
  5
34C
100
AcDbEntity
  8
0
100
AcDbLine
 62
7
  6
CONTINUOUS
 10
57.394728234
 20
42.1335808979
 11
58.1766570386
 21
42.585025009
  0
LINE
  5
34D
100
AcDbEntity
  8
0
100
AcDbLine
 62
7
  6
CONTINUOUS
 10
56.0662844614
 20
39.3438820976
 11
57.1539245718
 21
39.7277029362
  0
LINE
  5
34E
100
AcDbEntity
  8
0
100
AcDbLine
 62
7
  6
CONTINUOUS
 10
56.9148090661
 20
39.5702943231
 11
55.7127325428
 21
39.1847357302
  0
LINE
  5
34F
100
AcDbEntity
  8
0
100
AcDbLine
 62
7
  6
CONTINUOUS
 10
57.7826022719
 20
73.6096593749
 11
56.8242305444
 21
73.7745040503
  0
LINE
  5
350
100
AcDbEntity
  8
0
100
AcDbLine
 62
7
  6
CONTINUOUS
 10
50.2056375729
 20
73.6272946588
 11
50.5453619052
 21
73.4311591613
  0
LINE
  5
351
100
AcDbEntity
  8
0
100
AcDbLine
 62
7
  6
CONTINUOUS
 10
58.9464634038
 20
60.9225976505
 11
58.3195338217
 21
61.8145151951
  0
LINE
  5
352
100
AcDbEntity
  8
0
100
AcDbLine
 62
7
  6
CONTINUOUS
 10
62.3962172766
 20
67.4341851043
 11
62.3962172766
 21
64.1681754357
  0
LINE
  5
353
100
AcDbEntity
  8
0
100
AcDbLine
 62
7
  6
CONTINUOUS
 10
64.3291190113
 20
76.3326730628
 11
64.3291190113
 21
78.03225531
  0
LINE
  5
354
100
AcDbEntity
  8
0
100
AcDbLine
 62
7
  6
CONTINUOUS
 10
64.3946612973
 20
77.9716987076
 11
64.3946612973
 21
76.3928666642
  0
LINE
  5
355
100
AcDbEntity
  8
0
100
AcDbLine
 62
7
  6
CONTINUOUS
 10
64.7212433776
 20
75.6351518407
 11
64.7212433776
 21
68.7765315368
  0
LINE
  5
356
100
AcDbEntity
  8
0
100
AcDbLine
 62
7
  6
CONTINUOUS
 10
57.2983431644
 20
42.0341317219
 11
55.8143365476
 21
39.5813551649
  0
LINE
  5
357
100
AcDbEntity
  8
0
100
AcDbLine
 62
7
  6
CONTINUOUS
 10
56.9855194498
 20
38.9579168048
 11
37.6815846939
 21
27.8128514041
  0
LINE
  5
358
100
AcDbEntity
  8
0
100
AcDbLine
 62
7
  6
CONTINUOUS
 10
38.7349517811
 20
26.1143764603
 11
41.8311344053
 21
27.9019476614
  0
LINE
  5
359
100
AcDbEntity
  8
0
100
AcDbLine
 62
7
  6
CONTINUOUS
 10
56.8242305444
 20
77.3671146857
 11
57.7826022719
 21
77.2022700102
  0
LINE
  5
35A
100
AcDbEntity
  8
0
100
AcDbLine
 62
7
  6
CONTINUOUS
 10
55.1841884107
 20
75.8421915393
 11
53.6226339419
 21
76.7437350365
  0
LINE
  5
35B
100
AcDbEntity
  8
0
100
AcDbLine
 62
7
  6
CONTINUOUS
 10
60.8719173267
 20
69.423652977
 11
60.758219889
 21
69.7545021851
  0
LINE
  5
35C
100
AcDbEntity
  8
0
100
AcDbLine
 62
7
  6
CONTINUOUS
 10
65.8049373946
 20
70.2870223285
 11
65.8049373946
 21
77.1456426324
  0
LINE
  5
35D
100
AcDbEntity
  8
0
100
AcDbLine
 62
7
  6
CONTINUOUS
 10
57.4804862479
 20
20.7907155766
 11
58.2011119932
 21
23.4929874385
  0
LINE
  5
35E
100
AcDbEntity
  8
0
100
AcDbLine
 62
7
  6
CONTINUOUS
 10
59.1655820203
 20
24.0498211444
 11
59.2482517289
 21
24.3598239839
  0
LINE
  5
35F
100
AcDbEntity
  8
0
100
AcDbLine
 62
7
  6
CONTINUOUS
 10
39.4243837631
 20
25.7163417246
 11
42.5205663873
 21
27.5039129257
  0
LINE
  5
360
100
AcDbEntity
  8
0
100
AcDbLine
 62
7
  6
CONTINUOUS
 10
48.6635117841
 20
86.6305728725
 11
49.6442039749
 21
85.730788584
  0
LINE
  5
361
100
AcDbEntity
  8
0
100
AcDbLine
 62
7
  6
CONTINUOUS
 10
55.7127325428
 20
20.3235298945
 11
57.3271120436
 21
22.9883863444
  0
LINE
  5
362
100
AcDbEntity
  8
0
100
AcDbLine
 62
7
  6
CONTINUOUS
 10
30.5397853018
 20
16.5097622202
 11
31.9539929762
 21
17.326250528
  0
LINE
  5
363
100
AcDbEntity
  8
0
100
AcDbLine
 62
7
  6
CONTINUOUS
 10
64.3291190114
 20
78.0322553099
 11
64.3946612973
 21
77.9716987076
  0
LINE
  5
364
100
AcDbEntity
  8
0
100
AcDbLine
 62
7
  6
CONTINUOUS
 10
65.2427071872
 20
78.2776454021
 11
65.1771649012
 21
78.3382020045
  0
LINE
  5
365
100
AcDbEntity
  8
0
100
AcDbLine
 62
7
  6
CONTINUOUS
 10
59.1655820203
 20
24.0498211444
 11
57.3271120436
 21
22.9883863444
  0
LINE
  5
366
100
AcDbEntity
  8
0
100
AcDbLine
 62
7
  6
CONTINUOUS
 10
57.4804862479
 20
20.7907155766
 11
56.7733968964
 21
20.382479786
  0
LINE
  5
367
100
AcDbEntity
  8
0
100
AcDbLine
 62
7
  6
CONTINUOUS
 10
56.9148090661
 20
19.6476353451
 11
37.6815846939
 21
8.5433943598
  0
LINE
  5
368
100
AcDbEntity
  8
0
100
AcDbLine
 62
7
  6
CONTINUOUS
 10
55.8832573954
 20
20.6050152906
 11
56.2076993409
 21
20.7090780334
  0
LINE
  5
369
100
AcDbEntity
  8
0
100
AcDbLine
 62
7
  6
CONTINUOUS
 10
56.9148090661
 20
20.3008372788
 11
55.7127325428
 21
19.915278686
  0
ARC
  5
36A
100
AcDbEntity
  8
0
100
AcDbCircle
 62
7
  6
CONTINUOUS
 10
-26.2583730141
 20
193.7611519188
 40
129.8416809582
100
AcDbArc
 50
301.3817379077
 51
302.8265655796
  0
ARC
  5
36B
100
AcDbEntity
  8
0
100
AcDbCircle
 62
7
  6
CONTINUOUS
 10
25.6939545424
 20
42.8758736721
 40
2.6155363459
100
AcDbArc
 50
59.7072297106
 51
63.5486373388
  0
ARC
  5
36C
100
AcDbEntity
  8
0
100
AcDbCircle
 62
7
  6
CONTINUOUS
 10
29.9955585164
 20
84.3425853588
 40
12.4223203732
100
AcDbArc
 50
227.8163909406
 51
229.825918113
  0
ARC
  5
36D
100
AcDbEntity
  8
0
100
AcDbCircle
 62
7
  6
CONTINUOUS
 10
30.102073748
 20
77.8747336981
 40
11.9911545758
100
AcDbArc
 50
316.0970240676
 51
317.2260932924
  0
ARC
  5
36E
100
AcDbEntity
  8
0
100
AcDbCircle
 62
7
  6
CONTINUOUS
 10
30.7563909136
 20
77.3102399458
 40
11.2246586874
100
AcDbArc
 50
316.1169038373
 51
317.5816869261
  0
ARC
  5
36F
100
AcDbEntity
  8
0
100
AcDbCircle
 62
7
  6
CONTINUOUS
 10
31.766195264
 20
76.271760991
 40
9.6805658132
100
AcDbArc
 50
314.9568466027
 51
316.1029348572
  0
ARC
  5
370
100
AcDbEntity
  8
0
100
AcDbCircle
 62
7
  6
CONTINUOUS
 10
31.3619318449
 20
79.6363913592
 40
9.4867190159
100
AcDbArc
 50
228.011399382
 51
228.2793666558
  0
ARC
  5
371
100
AcDbEntity
  8
0
100
AcDbCircle
 62
7
  6
CONTINUOUS
 10
32.5623238005
 20
75.4771576829
 40
8.5557498869
100
AcDbArc
 50
314.3118863785
 51
314.943950816
  0
ARC
  5
372
100
AcDbEntity
  8
0
100
AcDbCircle
 62
7
  6
CONTINUOUS
 10
28.3535944092
 20
82.2642615129
 40
5.2708051413
100
AcDbArc
 50
158.8113024163
 51
160.0797758627
  0
ARC
  5
373
100
AcDbEntity
  8
0
100
AcDbCircle
 62
7
  6
CONTINUOUS
 10
36.5121030355
 20
71.1423183748
 40
2.0635488353
100
AcDbArc
 50
240.0071624933
 51
241.0765216344
  0
ARC
  5
374
100
AcDbEntity
  8
0
100
AcDbCircle
 62
7
  6
CONTINUOUS
 10
34.3540794723
 20
67.695220774
 40
2.0087071644
100
AcDbArc
 50
62.2425837311
 51
65.9409758436
  0
ARC
  5
375
100
AcDbEntity
  8
0
100
AcDbCircle
 62
7
  6
CONTINUOUS
 10
37.0087197289
 20
103.056503598
 40
31.4773877318
100
AcDbArc
 50
267.1126978394
 51
274.4002533403
  0
ARC
  5
376
100
AcDbEntity
  8
0
100
AcDbCircle
 62
7
  6
CONTINUOUS
 10
36.9918414219
 20
102.6874079366
 40
31.1079104817
100
AcDbArc
 50
265.6097119498
 51
267.1095021381
  0
ARC
  5
377
100
AcDbEntity
  8
0
100
AcDbCircle
 62
7
  6
CONTINUOUS
 10
37.0441198933
 20
102.4827674458
 40
30.9026279257
100
AcDbArc
 50
274.4164267862
 51
275.0871720931
  0
ARC
  5
378
100
AcDbEntity
  8
0
100
AcDbCircle
 62
7
  6
CONTINUOUS
 10
37.0609962427
 20
102.2931836796
 40
30.7122944931
100
AcDbArc
 50
275.0871735202
 51
275.7083923471
  0
ARC
  5
379
100
AcDbEntity
  8
0
100
AcDbCircle
 62
7
  6
CONTINUOUS
 10
37.010019972
 20
99.6142258291
 40
29.9501999529
100
AcDbArc
 50
265.1548294745
 51
274.5314572669
  0
ARC
  5
37A
100
AcDbEntity
  8
0
100
AcDbCircle
 62
7
  6
CONTINUOUS
 10
36.3870240457
 20
97.6027515216
 40
27.2779717407
100
AcDbArc
 50
256.8225612931
 51
257.2412139674
  0
ARC
  5
37B
100
AcDbEntity
  8
0
100
AcDbCircle
 62
7
  6
CONTINUOUS
 10
37.0099225476
 20
93.4882803242
 40
24.5487160048
100
AcDbArc
 50
269.1717705661
 51
270.0005228623
  0
ARC
  5
37C
100
AcDbEntity
  8
0
100
AcDbCircle
 62
7
  6
CONTINUOUS
 10
37.0064301615
 20
93.3314814424
 40
24.3918830537
100
AcDbArc
 50
267.1098309284
 51
269.1746492758
  0
ARC
  5
37D
100
AcDbEntity
  8
0
100
AcDbCircle
 62
7
  6
CONTINUOUS
 10
37.0027212791
 20
93.0201020386
 40
23.9649511099
100
AcDbArc
 50
267.1089035933
 51
267.8378472679
  0
ARC
  5
37E
100
AcDbEntity
  8
0
100
AcDbCircle
 62
7
  6
CONTINUOUS
 10
36.1718347048
 20
90.3063726891
 40
21.0943106778
100
AcDbArc
 50
253.7145947154
 51
254.6943876233
  0
ARC
  5
37F
100
AcDbEntity
  8
0
100
AcDbCircle
 62
7
  6
CONTINUOUS
 10
36.1616595213
 20
89.9577211736
 40
20.8704612629
100
AcDbArc
 50
253.2215070099
 51
254.6992434193
  0
ARC
  5
380
100
AcDbEntity
  8
0
100
AcDbCircle
 62
7
  6
CONTINUOUS
 10
36.0622109707
 20
89.9277258187
 40
20.700115441
100
AcDbArc
 50
253.2156970589
 51
253.7119493834
  0
ARC
  5
381
100
AcDbEntity
  8
0
100
AcDbCircle
 62
7
  6
CONTINUOUS
 10
35.9625239339
 20
89.5973804965
 40
20.3550566996
100
AcDbArc
 50
252.2893641814
 51
253.2158281622
  0
ARC
  5
382
100
AcDbEntity
  8
0
100
AcDbCircle
 62
7
  6
CONTINUOUS
 10
35.9546849255
 20
89.2657032898
 40
20.1481562219
100
AcDbArc
 50
251.8194280835
 51
253.2169478783
  0
ARC
  5
383
100
AcDbEntity
  8
0
100
AcDbCircle
 62
7
  6
CONTINUOUS
 10
35.8418757678
 20
89.2169994916
 40
19.9560014913
100
AcDbArc
 50
251.8174147143
 51
252.2871085915
  0
ARC
  5
384
100
AcDbEntity
  8
0
100
AcDbCircle
 62
7
  6
CONTINUOUS
 10
36.2094091718
 20
88.9521856576
 40
19.9319974926
100
AcDbArc
 50
254.0783288456
 51
254.2808252494
  0
ARC
  5
385
100
AcDbEntity
  8
0
100
AcDbCircle
 62
7
  6
CONTINUOUS
 10
36.1715592278
 20
88.8197556907
 40
19.7942647457
100
AcDbArc
 50
253.7049477305
 51
254.0785295817
  0
ARC
  5
386
100
AcDbEntity
  8
0
100
AcDbCircle
 62
7
  6
CONTINUOUS
 10
36.2370034507
 20
88.8425403381
 40
19.7102753307
100
AcDbArc
 50
254.1897723268
 51
254.4265916324
  0
ARC
  5
387
100
AcDbEntity
  8
0
100
AcDbCircle
 62
7
  6
CONTINUOUS
 10
36.1766492615
 20
88.6306757944
 40
19.4899818341
100
AcDbArc
 50
253.5481115752
 51
254.1344099492
  0
ARC
  5
388
100
AcDbEntity
  8
0
100
AcDbCircle
 62
7
  6
CONTINUOUS
 10
35.4965742613
 20
87.63308807
 40
17.9782117468
100
AcDbArc
 50
248.3771519731
 51
250.5080396963
  0
ARC
  5
389
100
AcDbEntity
  8
0
100
AcDbCircle
 62
7
  6
CONTINUOUS
 10
35.3170733622
 20
86.8750747739
 40
17.3081763074
100
AcDbArc
 50
246.9731299382
 51
250.3305876969
  0
ARC
  5
38A
100
AcDbEntity
  8
0
100
AcDbCircle
 62
7
  6
CONTINUOUS
 10
34.6891498305
 20
85.4156565491
 40
15.7194235787
100
AcDbArc
 50
243.6400489417
 51
246.9987224442
  0
ARC
  5
38B
100
AcDbEntity
  8
0
100
AcDbCircle
 62
7
  6
CONTINUOUS
 10
30.7162114974
 20
86.5262166862
 40
13.5577029734
100
AcDbArc
 50
231.3353110643
 51
233.2016125967
  0
ARC
  5
38C
100
AcDbEntity
  8
0
100
AcDbCircle
 62
7
  6
CONTINUOUS
 10
30.19939889
 20
85.8862375422
 40
12.7351131644
100
AcDbArc
 50
228.8571920097
 51
231.3519618856
  0
ARC
  5
38D
100
AcDbEntity
  8
0
100
AcDbCircle
 62
7
  6
CONTINUOUS
 10
30.2779368329
 20
86.0439204171
 40
12.344122401
100
AcDbArc
 50
228.2487947518
 51
231.4234571784
  0
ARC
  5
38E
100
AcDbEntity
  8
0
100
AcDbCircle
 62
7
  6
CONTINUOUS
 10
29.9310724765
 20
85.5768406646
 40
12.325572955
100
AcDbArc
 50
228.5533344353
 51
228.8502430608
  0
ARC
  5
38F
100
AcDbEntity
  8
0
100
AcDbCircle
 62
7
  6
CONTINUOUS
 10
29.9517101909
 20
85.6749048421
 40
11.8515875515
100
AcDbArc
 50
227.9211835821
 51
228.2374469961
  0
ARC
  5
390
100
AcDbEntity
  8
0
100
AcDbCircle
 62
7
  6
CONTINUOUS
 10
40.2457341812
 20
84.2222338067
 40
14.4170025321
100
AcDbArc
 50
298.1550481167
 51
299.3287722746
  0
ARC
  5
391
100
AcDbEntity
  8
0
100
AcDbCircle
 62
7
  6
CONTINUOUS
 10
40.2499549933
 20
83.963594804
 40
14.278749123
100
AcDbArc
 50
298.1448731548
 51
299.9222616174
  0
ARC
  5
392
100
AcDbEntity
  8
0
100
AcDbCircle
 62
7
  6
CONTINUOUS
 10
40.4219738616
 20
83.9083466127
 40
14.0570225528
100
AcDbArc
 50
299.3291735366
 51
299.9257235956
  0
ARC
  5
393
100
AcDbEntity
  8
0
100
AcDbCircle
 62
7
  6
CONTINUOUS
 10
40.2509475981
 20
83.0503114449
 40
13.5302682415
100
AcDbArc
 50
299.1719845881
 51
300.0467639586
  0
ARC
  5
394
100
AcDbEntity
  8
0
100
AcDbCircle
 62
7
  6
CONTINUOUS
 10
40.6402868306
 20
83.2904076003
 40
13.5005888908
100
AcDbArc
 50
299.9116539232
 51
301.909119089
  0
ARC
  5
395
100
AcDbEntity
  8
0
100
AcDbCircle
 62
7
  6
CONTINUOUS
 10
40.1636922983
 20
83.0401639447
 40
13.4236932744
100
AcDbArc
 50
299.1180399382
 51
299.5495326619
  0
ARC
  5
396
100
AcDbEntity
  8
0
100
AcDbCircle
 62
7
  6
CONTINUOUS
 10
40.3141398117
 20
82.7760081874
 40
13.1196992848
100
AcDbArc
 50
299.5468969659
 51
300.4441423133
  0
ARC
  5
397
100
AcDbEntity
  8
0
100
AcDbCircle
 62
7
  6
CONTINUOUS
 10
40.4620799463
 20
82.6848056824
 40
13.1081648589
100
AcDbArc
 50
300.0478629093
 51
301.2540383088
  0
ARC
  5
398
100
AcDbEntity
  8
0
100
AcDbCircle
 62
7
  6
CONTINUOUS
 10
40.5505542898
 20
82.53284159
 40
13.0737493239
100
AcDbArc
 50
299.9861667371
 51
302.086286302
  0
ARC
  5
399
100
AcDbEntity
  8
0
100
AcDbCircle
 62
7
  6
CONTINUOUS
 10
40.6704019314
 20
82.3393681624
 40
12.7047744772
100
AcDbArc
 50
301.2591580018
 51
302.002538344
  0
ARC
  5
39A
100
AcDbEntity
  8
0
100
AcDbCircle
 62
7
  6
CONTINUOUS
 10
40.7964765827
 20
82.1369948263
 40
12.4663427875
100
AcDbArc
 50
302.0040767501
 51
302.4434937428
  0
ARC
  5
39B
100
AcDbEntity
  8
0
100
AcDbCircle
 62
7
  6
CONTINUOUS
 10
40.9853818524
 20
81.8350534485
 40
12.251570588
100
AcDbArc
 50
302.0968314854
 51
304.4069136465
  0
ARC
  5
39C
100
AcDbEntity
  8
0
100
AcDbCircle
 62
7
  6
CONTINUOUS
 10
40.9900563986
 20
81.833989099
 40
12.1067806443
100
AcDbArc
 50
302.4396447238
 51
304.3260781536
  0
ARC
  5
39D
100
AcDbEntity
  8
0
100
AcDbCircle
 62
7
  6
CONTINUOUS
 10
43.9228275719
 20
77.879775217
 40
11.9984649416
100
AcDbArc
 50
222.7625030748
 51
223.9028693492
  0
ARC
  5
39E
100
AcDbEntity
  8
0
100
AcDbCircle
 62
7
  6
CONTINUOUS
 10
41.2675860986
 20
81.4230296712
 40
11.6108939327
100
AcDbArc
 50
304.3386380095
 51
305.0813719676
  0
ARC
  5
39F
100
AcDbEntity
  8
0
100
AcDbCircle
 62
7
  6
CONTINUOUS
 10
41.3491586086
 20
81.2973752256
 40
11.6024041927
100
AcDbArc
 50
304.425144126
 51
305.5904182074
  0
ARC
  5
3A0
100
AcDbEntity
  8
0
100
AcDbCircle
 62
7
  6
CONTINUOUS
 10
41.4058467154
 20
81.2258009877
 40
11.3700304458
100
AcDbArc
 50
305.1990650053
 51
305.5137239688
  0
ARC
  5
3A1
100
AcDbEntity
  8
0
100
AcDbCircle
 62
7
  6
CONTINUOUS
 10
43.279805988
 20
77.3260180528
 40
11.2475538631
100
AcDbArc
 50
222.4021099042
 51
223.8825041257
  0
ARC
  5
3A2
100
AcDbEntity
  8
0
100
AcDbCircle
 62
7
  6
CONTINUOUS
 10
44.6394326597
 20
85.0664104547
 40
11.0166395697
100
AcDbArc
 50
313.9104263024
 51
315.5065468648
  0
ARC
  5
3A3
100
AcDbEntity
  8
0
100
AcDbCircle
 62
7
  6
CONTINUOUS
 10
44.8671417228
 20
84.8404598484
 40
10.6958554034
100
AcDbArc
 50
315.5150783187
 51
315.8422860554
  0
ARC
  5
3A4
100
AcDbEntity
  8
0
100
AcDbCircle
 62
7
  6
CONTINUOUS
 10
45.1102871276
 20
84.6062370269
 40
10.3582489079
100
AcDbArc
 50
315.8348379924
 51
318.578226544
  0
ARC
  5
3A5
100
AcDbEntity
  8
0
100
AcDbCircle
 62
7
  6
CONTINUOUS
 10
42.2684615753
 20
76.2862631306
 40
9.7014666096
100
AcDbArc
 50
223.8972508534
 51
225.0408385023
  0
ARC
  5
3A6
100
AcDbEntity
  8
0
100
AcDbCircle
 62
7
  6
CONTINUOUS
 10
41.427128572
 20
75.4466016265
 40
8.5128253805
100
AcDbArc
 50
225.0544957629
 51
225.6897307315
  0
ARC
  5
3A7
100
AcDbEntity
  8
0
100
AcDbCircle
 62
7
  6
CONTINUOUS
 10
44.081107978
 20
81.3380889251
 40
7.1129088597
100
AcDbArc
 50
37.1386507812
 51
38.2085336235
  0
ARC
  5
3A8
100
AcDbEntity
  8
0
100
AcDbCircle
 62
7
  6
CONTINUOUS
 10
44.1815432224
 20
81.4144275821
 40
6.9867550628
100
AcDbArc
 50
36.6277622898
 51
37.1368626907
  0
ARC
  5
3A9
100
AcDbEntity
  8
0
100
AcDbCircle
 62
7
  6
CONTINUOUS
 10
44.3942957056
 20
81.5707864678
 40
6.7227294214
100
AcDbArc
 50
32.7622370434
 51
36.6401083446
  0
ARC
  5
3AA
100
AcDbEntity
  8
0
100
AcDbCircle
 62
7
  6
CONTINUOUS
 10
45.7701599348
 20
82.5306156934
 40
5.1600044883
100
AcDbArc
 50
339.9561309801
 51
341.9733369411
  0
ARC
  5
3AB
100
AcDbEntity
  8
0
100
AcDbCircle
 62
7
  6
CONTINUOUS
 10
45.8595497306
 20
82.5015450643
 40
5.0660064206
100
AcDbArc
 50
341.9731232126
 51
343.6578069142
  0
ARC
  5
3AC
100
AcDbEntity
  8
0
100
AcDbCircle
 62
7
  6
CONTINUOUS
 10
44.4399056699
 20
68.7012748518
 40
3.7699172367
100
AcDbArc
 50
351.5570681224
 51
356.2006391986
  0
ARC
  5
3AD
100
AcDbEntity
  8
0
100
AcDbCircle
 62
7
  6
CONTINUOUS
 10
37.5073059379
 20
71.1426558606
 40
2.063938018
100
AcDbArc
 50
298.917555828
 51
299.9931367468
  0
ARC
  5
3AE
100
AcDbEntity
  8
0
100
AcDbCircle
 62
7
  6
CONTINUOUS
 10
39.6653364648
 20
67.6957162193
 40
2.0081823928
100
AcDbArc
 50
114.0595177338
 51
117.768696181
  0
ARC
  5
3AF
100
AcDbEntity
  8
0
100
AcDbCircle
 62
7
  6
CONTINUOUS
 10
37.1456763457
 20
101.4234986594
 40
29.2801914564
100
AcDbArc
 50
277.2687202478
 51
278.1601518462
  0
ARC
  5
3B0
100
AcDbEntity
  8
0
100
AcDbCircle
 62
7
  6
CONTINUOUS
 10
37.6540987319
 20
91.0310745456
 40
21.8444314147
100
AcDbArc
 50
283.6804274438
 51
284.5653423554
  0
ARC
  5
3B1
100
AcDbEntity
  8
0
100
AcDbCircle
 62
7
  6
CONTINUOUS
 10
37.6713188773
 20
90.6453324074
 40
21.5829259216
100
AcDbArc
 50
283.6740583499
 51
285.0105735962
  0
ARC
  5
3B2
100
AcDbEntity
  8
0
100
AcDbCircle
 62
7
  6
CONTINUOUS
 10
37.7267370782
 20
90.7509929854
 40
21.5550838866
100
AcDbArc
 50
284.5656936562
 51
285.0118605473
  0
ARC
  5
3B3
100
AcDbEntity
  8
0
100
AcDbCircle
 62
7
  6
CONTINUOUS
 10
37.8683334027
 20
90.2315196463
 40
21.0166629939
100
AcDbArc
 50
285.0058342741
 51
286.4815332307
  0
ARC
  5
3B4
100
AcDbEntity
  8
0
100
AcDbCircle
 62
7
  6
CONTINUOUS
 10
37.8514025056
 20
89.9803371255
 40
20.8939804748
100
AcDbArc
 50
285.0058930666
 51
286.4852334765
  0
ARC
  5
3B5
100
AcDbEntity
  8
0
100
AcDbCircle
 62
7
  6
CONTINUOUS
 10
37.9198627979
 20
88.593143864
 40
19.6970702005
100
AcDbArc
 50
285.9230416402
 51
287.4349296388
  0
ARC
  5
3B6
100
AcDbEntity
  8
0
100
AcDbCircle
 62
7
  6
CONTINUOUS
 10
39.7740390701
 20
89.8139106873
 40
19.6312105102
100
AcDbArc
 50
294.0864040462
 51
294.5896835243
  0
ARC
  5
3B7
100
AcDbEntity
  8
0
100
AcDbCircle
 62
7
  6
CONTINUOUS
 10
37.9200517172
 20
88.5714303311
 40
19.5356907914
100
AcDbArc
 50
285.9639720021
 51
287.4874912655
  0
ARC
  5
3B8
100
AcDbEntity
  8
0
100
AcDbCircle
 62
7
  6
CONTINUOUS
 10
39.9831894164
 20
89.3600715827
 40
19.131498615
100
AcDbArc
 50
294.5856928358
 51
295.6316898892
  0
ARC
  5
3B9
100
AcDbEntity
  8
0
100
AcDbCircle
 62
7
  6
CONTINUOUS
 10
38.0933712915
 20
88.0136990605
 40
18.9516542707
100
AcDbArc
 50
287.5547464412
 51
287.9390806728
  0
ARC
  5
3BA
100
AcDbEntity
  8
0
100
AcDbCircle
 62
7
  6
CONTINUOUS
 10
38.1439047812
 20
87.857423153
 40
18.78741119
100
AcDbArc
 50
287.9392547378
 51
288.2243834044
  0
ARC
  5
3BB
100
AcDbEntity
  8
0
100
AcDbCircle
 62
7
  6
CONTINUOUS
 10
38.3232797118
 20
88.1865903002
 40
18.5666137628
100
AcDbArc
 50
287.6189569214
 51
290.3026670777
  0
ARC
  5
3BC
100
AcDbEntity
  8
0
100
AcDbCircle
 62
7
  6
CONTINUOUS
 10
38.2721978996
 20
88.039522237
 40
18.5494417307
100
AcDbArc
 50
287.8046423186
 51
290.7713622036
  0
ARC
  5
3BD
100
AcDbEntity
  8
0
100
AcDbCircle
 62
7
  6
CONTINUOUS
 10
38.5321893909
 20
87.6144291962
 40
17.957512287
100
AcDbArc
 50
290.3109543003
 51
290.4630829016
  0
ARC
  5
3BE
100
AcDbEntity
  8
0
100
AcDbCircle
 62
7
  6
CONTINUOUS
 10
41.6954751937
 20
87.550970377
 40
16.3909054983
100
AcDbArc
 50
300.9638655972
 51
301.9545154144
  0
ARC
  5
3BF
100
AcDbEntity
  8
0
100
AcDbCircle
 62
7
  6
CONTINUOUS
 10
39.214996993
 20
87.9216126622
 40
15.4578275786
100
AcDbArc
 50
64.3241932827
 51
67.7714841643
  0
ARC
  5
3C0
100
AcDbEntity
  8
0
100
AcDbCircle
 62
7
  6
CONTINUOUS
 10
41.7234856055
 20
92.2125289999
 40
10.4779917054
100
AcDbArc
 50
50.8823136783
 51
55.3536912081
  0
ARC
  5
3C1
100
AcDbEntity
  8
0
100
AcDbCircle
 62
7
  6
CONTINUOUS
 10
74.8758614117
 20
19.1798982997
 40
71.6616420669
100
AcDbArc
 50
119.7386514115
 51
119.986214289
  0
ARC
  5
3C2
100
AcDbEntity
  8
0
100
AcDbCircle
 62
7
  6
CONTINUOUS
 10
57.0700151836
 20
53.7947154358
 40
34.2992947864
100
AcDbArc
 50
137.0751327252
 51
138.34285467
  0
ARC
  5
3C3
100
AcDbEntity
  8
0
100
AcDbCircle
 62
7
  6
CONTINUOUS
 10
52.6856623447
 20
59.3885008269
 40
27.1397995317
100
AcDbArc
 50
100.1046087732
 51
101.5900616606
  0
SPLINE
  5
3C4
100
AcDbEntity
  8
0
100
AcDbSpline
 62
7
  6
CONTINUOUS
 70
0
 71
3
 72
14
 73
10
 74
0
 42
0.0000001
 43
0.0000001
 44
0.0000000001
 40
0.0
 40
0.0
 40
0.0
 40
0.0
 40
0.2886242494
 40
0.4217009273
 40
0.5475614675
 40
0.6670078067
 40
0.7811871308
 40
0.8915812566
 40
1.0
 40
1.0
 40
1.0
 40
1.0
 10
23.5872736492
 20
45.6825117664
 30
0.0
 10
23.5034006918
 20
45.7315496611
 30
0.0
 10
23.3859391137
 20
45.8132457529
 30
0.0
 10
23.2529534937
 20
45.9413155939
 30
0.0
 10
23.1718460749
 20
46.0399545404
 30
0.0
 10
23.1075444777
 20
46.1429034051
 30
0.0
 10
23.0606482535
 20
46.2492678223
 30
0.0
 10
23.0317954016
 20
46.358057912
 30
0.0
 10
23.0247864602
 20
46.4317831622
 30
0.0
 10
23.0243860182
 20
46.4682768145
 30
0.0
  0
SPLINE
  5
3C5
100
AcDbEntity
  8
0
100
AcDbSpline
 62
7
  6
CONTINUOUS
 70
0
 71
3
 72
15
 73
11
 74
0
 42
0.0000001
 43
0.0000001
 44
0.0000000001
 40
0.0
 40
0.0
 40
0.0
 40
0.0
 40
0.1083839402
 40
0.2187416929
 40
0.3328831653
 40
0.4522972791
 40
0.5781186681
 40
0.7111432778
 40
0.8518072932
 40
1.0
 40
1.0
 40
1.0
 40
1.0
 10
27.7818962696
 20
44.0613294095
 30
0.0
 10
27.7813566273
 20
44.1111607725
 30
0.0
 10
27.771778159
 20
44.2118307544
 30
0.0
 10
27.7323823847
 20
44.3603798182
 30
0.0
 10
27.6683501221
 20
44.505621327
 30
0.0
 10
27.5805356314
 20
44.6461963189
 30
0.0
 10
27.4697990079
 20
44.7808741606
 30
0.0
 10
27.3372324022
 20
44.9085663074
 30
0.0
 10
27.1840775417
 20
45.028096494
 30
0.0
 10
27.0721019701
 20
45.0998911958
 30
0.0
 10
27.0132799193
 20
45.134282609
 30
0.0
  0
SPLINE
  5
3C6
100
AcDbEntity
  8
0
100
AcDbSpline
 62
7
  6
CONTINUOUS
 70
0
 71
3
 72
25
 73
21
 74
0
 42
0.0000001
 43
0.0000001
 44
0.0000000001
 40
0.0
 40
0.0
 40
0.0
 40
0.0
 40
0.0212157859
 40
0.042668213
 40
0.0645816569
 40
0.0871561479
 40
0.1348708784
 40
0.1868279308
 40
0.2434296345
 40
0.3046272689
 40
0.3700196588
 40
0.4389408508
 40
0.5105335138
 40
0.5838102377
 40
0.6577053265
 40
0.7311235268
 40
0.8029972214
 40
0.8723175122
 40
0.9382278974
 40
1.0
 40
1.0
 40
1.0
 40
1.0
 10
27.804247032
 20
42.0125323914
 30
0.0
 10
27.8046672721
 20
41.9737151301
 30
0.0
 10
27.8004125127
 20
41.8955003263
 30
0.0
 10
27.7788569098
 20
41.7790085711
 30
0.0
 10
27.7422030002
 20
41.6637339208
 30
0.0
 10
27.6723737554
 20
41.509787113
 30
0.0
 10
27.546071356
 20
41.3230578892
 30
0.0
 10
27.3435941678
 20
41.1192885097
 30
0.0
 10
27.0921128178
 20
40.9351370635
 30
0.0
 10
26.7971052065
 20
40.7742383322
 30
0.0
 10
26.4648471904
 20
40.6397894797
 30
0.0
 10
26.1024570794
 20
40.5345967992
 30
0.0
 10
25.71774024
 20
40.460895161
 30
0.0
 10
25.319024795
 20
40.4202768231
 30
0.0
 10
24.9149727748
 20
40.4136250396
 30
0.0
 10
24.5143618532
 20
40.4410833433
 30
0.0
 10
24.1259142249
 20
40.5020658032
 30
0.0
 10
23.7579786276
 20
40.5952286935
 30
0.0
 10
23.4186218899
 20
40.7186049182
 30
0.0
 10
23.2088163852
 20
40.8229476799
 30
0.0
 10
23.1112424917
 20
40.8799960833
 30
0.0
  0
SPLINE
  5
3C7
100
AcDbEntity
  8
0
100
AcDbSpline
 62
7
  6
CONTINUOUS
 70
0
 71
3
 72
14
 73
10
 74
0
 42
0.0000001
 43
0.0000001
 44
0.0000000001
 40
0.0
 40
0.0
 40
0.0
 40
0.0
 40
0.2933388126
 40
0.4277585502
 40
0.5540965307
 40
0.6730551146
 40
0.7858231216
 40
0.8940972552
 40
1.0
 40
1.0
 40
1.0
 40
1.0
 10
23.232232774
 20
45.1854688156
 30
0.0
 10
23.0959519552
 20
45.1147338842
 30
0.0
 10
22.9044985057
 20
44.9950691356
 30
0.0
 10
22.6865291494
 20
44.8029386372
 30
0.0
 10
22.5540470441
 20
44.6540123204
 30
0.0
 10
22.449410285
 20
44.4977278364
 30
0.0
 10
22.3740095314
 20
44.3356396562
 30
0.0
 10
22.3289653973
 20
44.1696568854
 30
0.0
 10
22.3196747095
 20
44.0571764905
 30
0.0
 10
22.3202749835
 20
44.0017463105
 30
0.0
  0
SPLINE
  5
3C8
100
AcDbEntity
  8
0
100
AcDbSpline
 62
7
  6
CONTINUOUS
 70
0
 71
3
 72
15
 73
11
 74
0
 42
0.0000001
 43
0.0000001
 44
0.0000000001
 40
0.0
 40
0.0
 40
0.0
 40
0.0
 40
0.148192524
 40
0.2888543834
 40
0.4218775159
 40
0.5476989246
 40
0.6671137384
 40
0.7812557516
 40
0.8916145722
 40
1.0
 40
1.0
 40
1.0
 40
1.0
 10
23.1112424917
 20
40.8799960833
 30
0.0
 10
23.0524205138
 20
40.9143874538
 30
0.0
 10
22.9404455079
 20
40.9861810606
 30
0.0
 10
22.7872922487
 20
41.1057104373
 30
0.0
 10
22.6547264525
 20
41.2334010282
 30
0.0
 10
22.5439900284
 20
41.3680785183
 30
0.0
 10
22.4561738356
 20
41.5086531683
 30
0.0
 10
22.3921415043
 20
41.6538958239
 30
0.0
 10
22.3527444103
 20
41.8024459889
 30
0.0
 10
22.3431660241
 20
41.9031172249
 30
0.0
 10
22.3426265368
 20
41.9529492732
 30
0.0
  0
SPLINE
  5
3C9
100
AcDbEntity
  8
0
100
AcDbSpline
 62
7
  6
CONTINUOUS
 70
0
 71
3
 72
25
 73
21
 74
0
 42
0.0000001
 43
0.0000001
 44
0.0000000001
 40
0.0
 40
0.0
 40
0.0
 40
0.0
 40
0.0212152543
 40
0.0426678366
 40
0.0645806964
 40
0.0871556307
 40
0.1348695753
 40
0.1868266247
 40
0.2434289464
 40
0.3046261326
 40
0.3700173768
 40
0.4389382705
 40
0.5105313869
 40
0.5838081824
 40
0.6577021919
 40
0.7311213868
 40
0.802996295
 40
0.8723154664
 40
0.9382311992
 40
1.0
 40
1.0
 40
1.0
 40
1.0
 10
27.0241424561
 20
46.511911772
 30
0.0
 10
27.0244543789
 20
46.4834851749
 30
0.0
 10
27.0213362958
 20
46.4262049795
 30
0.0
 10
27.0055331172
 20
46.3408994551
 30
0.0
 10
26.9787139877
 20
46.2564717306
 30
0.0
 10
26.9275527244
 20
46.143741331
 30
0.0
 10
26.8350779589
 20
46.0069822076
 30
0.0
 10
26.6867914729
 20
45.857755198
 30
0.0
 10
26.5026185597
 20
45.7229000181
 30
0.0
 10
26.2865739112
 20
45.6050696765
 30
0.0
 10
26.0432540015
 20
45.506601997
 30
0.0
 10
25.7778641637
 20
45.4295614959
 30
0.0
 10
25.4961201522
 20
45.3755911043
 30
0.0
 10
25.2041262657
 20
45.3458482852
 30
0.0
 10
24.9082239129
 20
45.3409720163
 30
0.0
 10
24.6148392647
 20
45.3610758104
 30
0.0
 10
24.3303630928
 20
45.4057369825
 30
0.0
 10
24.0609020608
 20
45.473963387
 30
0.0
 10
23.8123797715
 20
45.5643240467
 30
0.0
 10
23.6587268983
 20
45.6407352867
 30
0.0
 10
23.5872736492
 20
45.6825117664
 30
0.0
  0
SPLINE
  5
3CA
100
AcDbEntity
  8
0
100
AcDbSpline
 62
7
  6
CONTINUOUS
 70
0
 71
3
 72
14
 73
10
 74
0
 42
0.0000001
 43
0.0000001
 44
0.0000000001
 40
0.0
 40
0.0
 40
0.0
 40
0.0
 40
0.2886244188
 40
0.4217011104
 40
0.5475615663
 40
0.667007956
 40
0.7811874008
 40
0.8915815013
 40
1.0
 40
1.0
 40
1.0
 40
1.0
 10
23.7577940975
 20
43.3047135858
 30
0.0
 10
23.6823083927
 20
43.3488477162
 30
0.0
 10
23.5765929706
 20
43.422374281
 30
0.0
 10
23.4569058354
 20
43.5376370968
 30
0.0
 10
23.3839092013
 20
43.6264121786
 30
0.0
 10
23.3260378175
 20
43.7190662188
 30
0.0
 10
23.2838312221
 20
43.8147942376
 30
0.0
 10
23.2578636281
 20
43.9127052689
 30
0.0
 10
23.2515556668
 20
43.9790579164
 30
0.0
 10
23.2511952538
 20
44.0119021286
 30
0.0
  0
SPLINE
  5
3CB
100
AcDbEntity
  8
0
100
AcDbSpline
 62
7
  6
CONTINUOUS
 70
0
 71
3
 72
15
 73
11
 74
0
 42
0.0000001
 43
0.0000001
 44
0.0000000001
 40
0.0
 40
0.0
 40
0.0
 40
0.0
 40
0.1083839402
 40
0.2187416929
 40
0.3328831653
 40
0.4522972791
 40
0.5781186681
 40
0.7111432778
 40
0.8518072932
 40
1.0
 40
1.0
 40
1.0
 40
1.0
 10
22.3202749835
 20
44.0017463105
 30
0.0
 10
22.3208146259
 20
43.9519149475
 30
0.0
 10
22.3303930942
 20
43.8512449656
 30
0.0
 10
22.3697888685
 20
43.7026959019
 30
0.0
 10
22.4338211311
 20
43.5574543931
 30
0.0
 10
22.5216356218
 20
43.4168794011
 30
0.0
 10
22.6323722453
 20
43.2822015594
 30
0.0
 10
22.7649388509
 20
43.1545094126
 30
0.0
 10
22.9180937114
 20
43.034979226
 30
0.0
 10
23.030069283
 20
42.9631845242
 30
0.0
 10
23.0888913338
 20
42.928793111
 30
0.0
  0
SPLINE
  5
3CC
100
AcDbEntity
  8
0
100
AcDbSpline
 62
7
  6
CONTINUOUS
 70
0
 71
3
 72
23
 73
19
 74
0
 42
0.0000001
 43
0.0000001
 44
0.0000000001
 40
0.0
 40
0.0
 40
0.0
 40
0.0
 40
0.0425871412
 40
0.0870047237
 40
0.1347265185
 40
0.1866920822
 40
0.2433036469
 40
0.3045108233
 40
0.3699127689
 40
0.4388450098
 40
0.5104500068
 40
0.5837388167
 40
0.6576449284
 40
0.7310764156
 40
0.8029634877
 40
0.8722942642
 40
0.9382209606
 40
1.0
 40
1.0
 40
1.0
 40
1.0
 10
26.8509759993
 20
44.0511735914
 30
0.0
 10
26.8515394651
 20
43.9998253023
 30
0.0
 10
26.8386837251
 20
43.8943098623
 30
0.0
 10
26.7788841484
 20
43.7416991425
 30
0.0
 10
26.6808270702
 20
43.5967702632
 30
0.0
 10
26.5473586985
 20
43.4624237396
 30
0.0
 10
26.3816067671
 20
43.3410668937
 30
0.0
 10
26.1871659909
 20
43.235015723
 30
0.0
 10
25.9681786869
 20
43.1463958741
 30
0.0
 10
25.7293278853
 20
43.0770587991
 30
0.0
 10
25.4757583638
 20
43.0284854015
 30
0.0
 10
25.2129640039
 20
43.0017165598
 30
0.0
 10
24.9466518745
 20
42.9973278472
 30
0.0
 10
24.6826051949
 20
43.0154209749
 30
0.0
 10
24.426575843
 20
43.0556160464
 30
0.0
 10
24.184060216
 20
43.1170198237
 30
0.0
 10
23.9603898239
 20
43.1983445806
 30
0.0
 10
23.8221020708
 20
43.2671147253
 30
0.0
 10
23.7577940975
 20
43.3047135858
 30
0.0
  0
SPLINE
  5
3CD
100
AcDbEntity
  8
0
100
AcDbSpline
 62
7
  6
CONTINUOUS
 70
0
 71
3
 72
25
 73
21
 74
0
 42
0.0000001
 43
0.0000001
 44
0.0000000001
 40
0.0
 40
0.0
 40
0.0
 40
0.0
 40
0.061771418
 40
0.1276806372
 40
0.1970006774
 40
0.2688743815
 40
0.3422931127
 40
0.41618926
 40
0.4894672705
 40
0.561061147
 40
0.6299832151
 40
0.6953759718
 40
0.7565734869
 40
0.8131747355
 40
0.8651310905
 40
0.9128450281
 40
0.9354191562
 40
0.957332269
 40
0.978784434
 40
1.0
 40
1.0
 40
1.0
 40
1.0
 10
23.0888913338
 20
42.928793111
 30
0.0
 10
23.1864641486
 20
42.8717453383
 30
0.0
 10
23.396266221
 20
42.7674032937
 30
0.0
 10
23.7356193728
 20
42.6440284208
 30
0.0
 10
24.1035521491
 20
42.5508649436
 30
0.0
 10
24.4920002307
 20
42.4898817757
 30
0.0
 10
24.8926140066
 20
42.4624222911
 30
0.0
 10
25.2966713419
 20
42.4690734649
 30
0.0
 10
25.6953932779
 20
42.5096927378
 30
0.0
 10
26.0801160813
 20
42.5833962323
 30
0.0
 10
26.4425102376
 20
42.6885912259
 30
0.0
 10
26.7747695454
 20
42.8230424934
 30
0.0
 10
27.0697756797
 20
42.983943192
 30
0.0
 10
27.3212538839
 20
43.1680949468
 30
0.0
 10
27.523727285
 20
43.3718631382
 30
0.0
 10
27.6500260804
 20
43.5585905982
 30
0.0
 10
27.7198537671
 20
43.712535131
 30
0.0
 10
27.7565062463
 20
43.827808394
 30
0.0
 10
27.7780616985
 20
43.9442986154
 30
0.0
 10
27.7823166318
 20
44.022512551
 30
0.0
 10
27.7818962696
 20
44.0613294095
 30
0.0
  0
SPLINE
  5
3CE
100
AcDbEntity
  8
0
100
AcDbSpline
 62
7
  6
CONTINUOUS
 70
0
 71
3
 72
11
 73
7
 74
0
 42
0.0000001
 43
0.0000001
 44
0.0000000001
 40
0.0
 40
0.0
 40
0.0
 40
0.0
 40
0.253695867
 40
0.5058740801
 40
0.754499877
 40
1.0
 40
1.0
 40
1.0
 40
1.0
 10
29.668241314
 20
70.1233883113
 30
0.0
 10
29.6441613799
 20
70.1312994599
 30
0.0
 10
29.5985738721
 20
70.1559250675
 30
0.0
 10
29.5478015575
 20
70.2135922238
 30
0.0
 10
29.5188610059
 20
70.2836157771
 30
0.0
 10
29.51358035
 20
70.3332885503
 30
0.0
 10
29.5135774957
 20
70.3578159244
 30
0.0
  0
SPLINE
  5
3CF
100
AcDbEntity
  8
0
100
AcDbSpline
 62
7
  6
CONTINUOUS
 70
0
 71
3
 72
9
 73
5
 74
0
 42
0.0000001
 43
0.0000001
 44
0.0000000001
 40
0.0
 40
0.0
 40
0.0
 40
0.0
 40
0.4936490474
 40
1.0
 40
1.0
 40
1.0
 40
1.0
 10
43.9923803396
 20
70.6057587054
 30
0.0
 10
43.273716471
 20
70.4214491177
 30
0.0
 10
41.8008024059
 20
70.1124682747
 30
0.0
 10
40.3078332312
 20
69.9248518554
 30
0.0
 10
39.5496330855
 20
69.8594951587
 30
0.0
  0
SPLINE
  5
3D0
100
AcDbEntity
  8
0
100
AcDbSpline
 62
7
  6
CONTINUOUS
 70
0
 71
3
 72
11
 73
7
 74
0
 42
0.0000001
 43
0.0000001
 44
0.0000000001
 40
0.0
 40
0.0
 40
0.0
 40
0.0
 40
0.252928254
 40
0.5050792633
 40
0.7539871517
 40
1.0
 40
1.0
 40
1.0
 40
1.0
 10
30.6537947364
 20
69.8271562436
 30
0.0
 10
30.6744263
 20
69.8214585667
 30
0.0
 10
30.7176335746
 20
69.816256624
 30
0.0
 10
30.7812467854
 20
69.8279872788
 30
0.0
 10
30.8385222547
 20
69.8565689508
 30
0.0
 10
30.870107435
 20
69.8848004831
 30
0.0
 10
30.884046217
 20
69.9002641902
 30
0.0
  0
SPLINE
  5
3D1
100
AcDbEntity
  8
0
100
AcDbSpline
 62
7
  6
CONTINUOUS
 70
0
 71
3
 72
9
 73
5
 74
0
 42
0.0000001
 43
0.0000001
 44
0.0000000001
 40
0.0
 40
0.0
 40
0.0
 40
0.0
 40
0.4931417554
 40
1.0
 40
1.0
 40
1.0
 40
1.0
 10
31.0529931183
 20
70.092162544
 30
0.0
 10
31.7197895974
 20
69.9150925601
 30
0.0
 10
33.090566662
 20
69.6236880132
 30
0.0
 10
34.4819108005
 20
69.4588928276
 30
0.0
 10
35.1890522298
 20
69.4062776125
 30
0.0
  0
SPLINE
  5
3D2
100
AcDbEntity
  8
0
100
AcDbSpline
 62
7
  6
CONTINUOUS
 70
0
 71
3
 72
11
 73
7
 74
0
 42
0.0000001
 43
0.0000001
 44
0.0000000001
 40
0.0
 40
0.0
 40
0.0
 40
0.0
 40
0.2628788314
 40
0.520166206
 40
0.7669967846
 40
1.0
 40
1.0
 40
1.0
 40
1.0
 10
37.0120684295
 20
68.9619060276
 30
0.0
 10
36.8756492851
 20
68.9618200294
 30
0.0
 10
36.6054455197
 20
68.9769477583
 30
0.0
 10
36.2123707102
 20
69.0452206999
 30
0.0
 10
35.8455784541
 20
69.1573447639
 30
0.0
 10
35.6189787862
 20
69.2633876107
 30
0.0
 10
35.5142590924
 20
69.3238386299
 30
0.0
  0
SPLINE
  5
3D3
100
AcDbEntity
  8
0
100
AcDbSpline
 62
7
  6
CONTINUOUS
 70
0
 71
3
 72
11
 73
7
 74
0
 42
0.0000001
 43
0.0000001
 44
0.0000000001
 40
0.0
 40
0.0
 40
0.0
 40
0.0
 40
0.2330192325
 40
0.4798375042
 40
0.7371081192
 40
1.0
 40
1.0
 40
1.0
 40
1.0
 10
38.5053591608
 20
69.3238475522
 30
0.0
 10
38.4009360126
 20
69.2635665308
 30
0.0
 10
38.1750220461
 20
69.1577769092
 30
0.0
 10
37.8093660771
 20
69.0457727407
 30
0.0
 10
37.4174985753
 20
68.97737215
 30
0.0
 10
37.1480993332
 20
68.961991781
 30
0.0
 10
37.0120684295
 20
68.9619060276
 30
0.0
  0
SPLINE
  5
3D4
100
AcDbEntity
  8
0
100
AcDbSpline
 62
7
  6
CONTINUOUS
 70
0
 71
3
 72
9
 73
5
 74
0
 42
0.0000001
 43
0.0000001
 44
0.0000000001
 40
0.0
 40
0.0
 40
0.0
 40
0.0
 40
0.4991474499
 40
1.0
 40
1.0
 40
1.0
 40
1.0
 10
47.8787375815
 20
71.9649829423
 30
0.0
 10
47.8703784789
 20
71.9375556077
 30
0.0
 10
47.8441716156
 20
71.8849567557
 30
0.0
 10
47.8007213028
 20
71.8450993171
 30
0.0
 10
47.7762946562
 20
71.8298973874
 30
0.0
  0
SPLINE
  5
3D5
100
AcDbEntity
  8
0
100
AcDbSpline
 62
7
  6
CONTINUOUS
 70
0
 71
3
 72
11
 73
7
 74
0
 42
0.0000001
 43
0.0000001
 44
0.0000000001
 40
0.0
 40
0.0
 40
0.0
 40
0.0
 40
0.2495509383
 40
0.4988876599
 40
0.7491664922
 40
1.0
 40
1.0
 40
1.0
 40
1.0
 10
46.7417814355
 20
71.3818166526
 30
0.0
 10
46.7600732037
 20
71.371252794
 30
0.0
 10
46.799086902
 20
71.3539962378
 30
0.0
 10
46.8621835725
 20
71.3428985062
 30
0.0
 10
46.9262021628
 20
71.3482335455
 30
0.0
 10
46.966569586
 20
71.3631798043
 30
0.0
 10
46.9852865413
 20
71.3732026579
 30
0.0
  0
SPLINE
  5
3D6
100
AcDbEntity
  8
0
100
AcDbSpline
 62
7
  6
CONTINUOUS
 70
0
 71
3
 72
9
 73
5
 74
0
 42
0.0000001
 43
0.0000001
 44
0.0000000001
 40
0.0
 40
0.0
 40
0.0
 40
0.0
 40
0.2559051313
 40
1.0
 40
1.0
 40
1.0
 40
1.0
 10
44.8505657921
 20
70.695737633
 30
0.0
 10
45.002474249
 20
70.7534477199
 30
0.0
 10
45.5929304566
 20
70.9871249704
 30
0.0
 10
46.1704000674
 20
71.2540639825
 30
0.0
 10
46.5891996661
 20
71.4728499059
 30
0.0
  0
SPLINE
  5
3D7
100
AcDbEntity
  8
0
100
AcDbSpline
 62
7
  6
CONTINUOUS
 70
0
 71
3
 72
11
 73
7
 74
0
 42
0.0000001
 43
0.0000001
 44
0.0000000001
 40
0.0
 40
0.0
 40
0.0
 40
0.0
 40
0.2444770533
 40
0.4928404052
 40
0.7455665878
 40
1.0
 40
1.0
 40
1.0
 40
1.0
 10
43.9396726775
 20
70.1811543801
 30
0.0
 10
43.9396700664
 20
70.1563186859
 30
0.0
 10
43.9344368222
 20
70.1059378655
 30
0.0
 10
43.9049304546
 20
70.0347790433
 30
0.0
 10
43.8524214963
 20
69.9766387123
 30
0.0
 10
43.8052915497
 20
69.9526254455
 30
0.0
 10
43.780513753
 20
69.9452677976
 30
0.0
  0
SPLINE
  5
3D8
100
AcDbEntity
  8
0
100
AcDbSpline
 62
7
  6
CONTINUOUS
 70
0
 71
3
 72
11
 73
7
 74
0
 42
0.0000001
 43
0.0000001
 44
0.0000000001
 40
0.0
 40
0.0
 40
0.0
 40
0.0
 40
0.2449155026
 40
0.4941971465
 40
0.7465875481
 40
1.0
 40
1.0
 40
1.0
 40
1.0
 10
42.5448451068
 20
69.7578250213
 30
0.0
 10
42.5579995054
 20
69.7415339085
 30
0.0
 10
42.5883068775
 20
69.7113962271
 30
0.0
 10
42.6446760893
 20
69.6796849751
 30
0.0
 10
42.708564037
 20
69.6652692005
 30
0.0
 10
42.7524652033
 20
69.6690276086
 30
0.0
 10
42.7735125733
 20
69.6741653448
 30
0.0
  0
SPLINE
  5
3D9
100
AcDbEntity
  8
0
100
AcDbSpline
 62
7
  6
CONTINUOUS
 70
0
 71
3
 72
9
 73
5
 74
0
 42
0.0000001
 43
0.0000001
 44
0.0000000001
 40
0.0
 40
0.0
 40
0.0
 40
0.0
 40
0.5054012175
 40
1.0
 40
1.0
 40
1.0
 40
1.0
 10
38.8305560556
 20
69.4062859639
 30
0.0
 10
39.4357081445
 20
69.4513154315
 30
0.0
 10
40.6301993257
 20
69.5852397055
 30
0.0
 10
41.8108391356
 20
69.8115758063
 30
0.0
 10
42.3889069153
 20
69.9475949466
 30
0.0
  0
SPLINE
  5
3DA
100
AcDbEntity
  8
0
100
AcDbSpline
 62
7
  6
CONTINUOUS
 70
0
 71
3
 72
9
 73
5
 74
0
 42
0.0000001
 43
0.0000001
 44
0.0000000001
 40
0.0
 40
0.0
 40
0.0
 40
0.0
 40
0.4920816928
 40
1.0
 40
1.0
 40
1.0
 40
1.0
 10
44.816162933
 20
70.8188552463
 30
0.0
 10
43.9717264563
 20
70.577579536
 30
0.0
 10
42.2287776148
 20
70.1781913198
 30
0.0
 10
40.4561503463
 20
69.9474294381
 30
0.0
 10
39.5528608083
 20
69.8712829363
 30
0.0
  0
SPLINE
  5
3DB
100
AcDbEntity
  8
0
100
AcDbSpline
 62
7
  6
CONTINUOUS
 70
0
 71
3
 72
9
 73
5
 74
0
 42
0.0000001
 43
0.0000001
 44
0.0000000001
 40
0.0
 40
0.0
 40
0.0
 40
0.0
 40
0.2430316347
 40
1.0
 40
1.0
 40
1.0
 40
1.0
 10
53.4978427393
 20
76.3714847532
 30
0.0
 10
53.4268333703
 20
76.2616884395
 30
0.0
 10
53.1238153304
 20
75.8169575419
 30
0.0
 10
52.7792593718
 20
75.4009794154
 30
0.0
 10
52.5012784851
 20
75.1033300236
 30
0.0
  0
SPLINE
  5
3DC
100
AcDbEntity
  8
0
100
AcDbSpline
 62
7
  6
CONTINUOUS
 70
0
 71
3
 72
9
 73
5
 74
0
 42
0.0000001
 43
0.0000001
 44
0.0000000001
 40
0.0
 40
0.0
 40
0.0
 40
0.0
 40
0.4859078678
 40
1.0
 40
1.0
 40
1.0
 40
1.0
 10
52.5012784851
 20
75.1033300236
 30
0.0
 10
52.2163986482
 20
74.7982935472
 30
0.0
 10
51.5914534401
 20
74.2059657443
 30
0.0
 10
50.9080277447
 20
73.6830959417
 30
0.0
 10
50.5453619052
 20
73.4311591613
 30
0.0
  0
SPLINE
  5
3DD
100
AcDbEntity
  8
0
100
AcDbSpline
 62
7
  6
CONTINUOUS
 70
0
 71
3
 72
11
 73
7
 74
0
 42
0.0000001
 43
0.0000001
 44
0.0000000001
 40
0.0
 40
0.0
 40
0.0
 40
0.0
 40
0.2151326334
 40
0.4468823598
 40
0.7072863007
 40
1.0
 40
1.0
 40
1.0
 40
1.0
 10
46.9852808011
 20
71.3732148781
 30
0.0
 10
46.9953219256
 20
71.37859433
 30
0.0
 10
47.0142482028
 20
71.3937487661
 30
0.0
 10
47.0343097598
 20
71.4260315817
 30
0.0
 10
47.0461883751
 20
71.466250396
 30
0.0
 10
47.0485314958
 20
71.4956373578
 30
0.0
 10
47.0485324389
 20
71.5111366428
 30
0.0
  0
SPLINE
  5
3DE
100
AcDbEntity
  8
0
100
AcDbSpline
 62
7
  6
CONTINUOUS
 70
0
 71
3
 72
11
 73
7
 74
0
 42
0.0000001
 43
0.0000001
 44
0.0000000001
 40
0.0
 40
0.0
 40
0.0
 40
0.0
 40
0.2019935671
 40
0.4298077749
 40
0.6965694811
 40
1.0
 40
1.0
 40
1.0
 40
1.0
 10
43.9396729187
 20
70.1811540129
 30
0.0
 10
43.939669938
 20
70.1704401246
 30
0.0
 10
43.933757434
 20
70.1474351599
 30
0.0
 10
43.910118082
 20
70.1180526784
 30
0.0
 10
43.8746949636
 20
70.094096354
 30
0.0
 10
43.8463257441
 20
70.0829722
 30
0.0
 10
43.8308930292
 20
70.0784055885
 30
0.0
  0
SPLINE
  5
3DF
100
AcDbEntity
  8
0
100
AcDbSpline
 62
7
  6
CONTINUOUS
 70
0
 71
3
 72
13
 73
9
 74
0
 42
0.0000001
 43
0.0000001
 44
0.0000000001
 40
0.0
 40
0.0
 40
0.0
 40
0.0
 40
0.0766181346
 40
0.1607917354
 40
0.2581400255
 40
0.3718682734
 40
0.6523328472
 40
1.0
 40
1.0
 40
1.0
 40
1.0
 10
42.7735077942
 20
69.6741543688
 30
0.0
 10
42.7771834449
 20
69.6750569925
 30
0.0
 10
42.7845922134
 20
69.678402116
 30
0.0
 10
42.7940580232
 20
69.687185928
 30
0.0
 10
42.8020955115
 20
69.6994829844
 30
0.0
 10
42.8115961671
 20
69.7219264299
 30
0.0
 10
42.8188807619
 20
69.7581457003
 30
0.0
 10
42.8204443407
 20
69.789193596
 30
0.0
 10
42.8204449573
 20
69.8063679924
 30
0.0
  0
SPLINE
  5
3E0
100
AcDbEntity
  8
0
100
AcDbSpline
 62
7
  6
CONTINUOUS
 70
0
 71
3
 72
14
 73
10
 74
0
 42
0.0000001
 43
0.0000001
 44
0.0000000001
 40
0.0
 40
0.0
 40
0.0
 40
0.0
 40
0.0345281232
 40
0.0609907515
 40
0.0950938393
 40
0.1862056552
 40
0.3061452516
 40
0.6195510989
 40
1.0
 40
1.0
 40
1.0
 40
1.0
 10
38.8305508933
 20
69.4063547783
 30
0.0
 10
38.8320030158
 20
69.4064443633
 30
0.0
 10
38.8342203824
 20
69.4084432311
 30
0.0
 10
38.836047583
 20
69.4119207431
 30
0.0
 10
38.8383348118
 20
69.4179436291
 30
0.0
 10
38.8406094235
 20
69.4280284516
 30
0.0
 10
38.8438407276
 20
69.4499073688
 30
0.0
 10
38.8460345371
 20
69.4841663608
 30
0.0
 10
38.8465923552
 20
69.5133984497
 30
0.0
 10
38.8466367284
 20
69.5294290518
 30
0.0
  0
SPLINE
  5
3E1
100
AcDbEntity
  8
0
100
AcDbSpline
 62
7
  6
CONTINUOUS
 70
0
 71
3
 72
11
 73
7
 74
0
 42
0.0000001
 43
0.0000001
 44
0.0000000001
 40
0.0
 40
0.0
 40
0.0
 40
0.0
 40
0.1783961978
 40
0.3956920154
 40
0.6695760895
 40
1.0
 40
1.0
 40
1.0
 40
1.0
 10
29.6682033003
 20
70.1233902888
 30
0.0
 10
29.6596079411
 20
70.1262253096
 30
0.0
 10
29.6424568119
 20
70.1386072953
 30
0.0
 10
29.6261544758
 20
70.1691420222
 30
0.0
 10
29.6164849471
 20
70.2099547477
 30
0.0
 10
29.6146803999
 20
70.2406961402
 30
0.0
 10
29.6146797771
 20
70.257460012
 30
0.0
  0
SPLINE
  5
3E2
100
AcDbEntity
  8
0
100
AcDbSpline
 62
7
  6
CONTINUOUS
 70
0
 71
3
 72
14
 73
10
 74
0
 42
0.0000001
 43
0.0000001
 44
0.0000000001
 40
0.0
 40
0.0
 40
0.0
 40
0.0
 40
0.0345290807
 40
0.0609932288
 40
0.0950977954
 40
0.1862117933
 40
0.3061522832
 40
0.6195562982
 40
1.0
 40
1.0
 40
1.0
 40
1.0
 10
35.1890601285
 20
69.4063454108
 30
0.0
 10
35.187607988
 20
69.4064353302
 30
0.0
 10
35.1853910269
 20
69.4084347061
 30
0.0
 10
35.1835640132
 20
69.4119124695
 30
0.0
 10
35.1812770557
 20
69.4179356906
 30
0.0
 10
35.1790026683
 20
69.428020726
 30
0.0
 10
35.1757717248
 20
69.4498997297
 30
0.0
 10
35.1735781266
 20
69.4841584167
 30
0.0
 10
35.1730203623
 20
69.5133901785
 30
0.0
 10
35.1729759906
 20
69.5294205422
 30
0.0
  0
SPLINE
  5
3E3
100
AcDbEntity
  8
0
100
AcDbSpline
 62
7
  6
CONTINUOUS
 70
0
 71
3
 72
14
 73
10
 74
0
 42
0.0000001
 43
0.0000001
 44
0.0000000001
 40
0.0
 40
0.0
 40
0.0
 40
0.0
 40
0.3282236536
 40
0.4509218232
 40
0.5497357981
 40
0.637737788
 40
0.7341498123
 40
0.8534453329
 40
1.0
 40
1.0
 40
1.0
 40
1.0
 10
30.8666961751
 20
70.0112469782
 30
0.0
 10
30.8666981656
 20
70.0020564157
 30
0.0
 10
30.8676902767
 20
69.9891711041
 30
0.0
 10
30.8736855575
 20
69.9748509887
 30
0.0
 10
30.8795813121
 20
69.9681329145
 30
0.0
 10
30.8874516381
 20
69.9654217334
 30
0.0
 10
30.8960707261
 20
69.967214728
 30
0.0
 10
30.9047757441
 20
69.9726272257
 30
0.0
 10
30.9101664838
 20
69.9778250099
 30
0.0
 10
30.912913485
 20
69.9808736242
 30
0.0
  0
SPLINE
  5
3E4
100
AcDbEntity
  8
0
100
AcDbSpline
 62
7
  6
CONTINUOUS
 70
0
 71
3
 72
11
 73
7
 74
0
 42
0.0000001
 43
0.0000001
 44
0.0000000001
 40
0.0
 40
0.0
 40
0.0
 40
0.0
 40
0.3019650996
 40
0.567620769
 40
0.7959231458
 40
1.0
 40
1.0
 40
1.0
 40
1.0
 10
29.61468202
 20
70.2574622723
 30
0.0
 10
29.6002281949
 20
70.2622097137
 30
0.0
 10
29.5737179466
 20
70.2734880933
 30
0.0
 10
29.5407871698
 20
70.297080325
 30
0.0
 10
29.5189762422
 20
70.325553898
 30
0.0
 10
29.5135856146
 20
70.3475336792
 30
0.0
 10
29.5135789244
 20
70.3578154208
 30
0.0
  0
SPLINE
  5
3E5
100
AcDbEntity
  8
0
100
AcDbSpline
 62
7
  6
CONTINUOUS
 70
0
 71
3
 72
11
 73
7
 74
0
 42
0.0000001
 43
0.0000001
 44
0.0000000001
 40
0.0
 40
0.0
 40
0.0
 40
0.0
 40
0.2102241255
 40
0.4603698584
 40
0.7322085671
 40
1.0
 40
1.0
 40
1.0
 40
1.0
 10
30.8666961751
 20
70.0112654013
 30
0.0
 10
30.8536158275
 20
69.9967583152
 30
0.0
 10
30.8170964573
 20
69.9722317342
 30
0.0
 10
30.7515337234
 20
69.9520595026
 30
0.0
 10
30.677784639
 20
69.9466046906
 30
0.0
 10
30.6276212402
 20
69.9536756548
 30
0.0
 10
30.6036215887
 20
69.9602441681
 30
0.0
  0
SPLINE
  5
3E6
100
AcDbEntity
  8
0
100
AcDbSpline
 62
7
  6
CONTINUOUS
 70
0
 71
3
 72
13
 73
9
 74
0
 42
0.0000001
 43
0.0000001
 44
0.0000000001
 40
0.0
 40
0.0
 40
0.0
 40
0.0
 40
0.339308907
 40
0.616211052
 40
0.7304908236
 40
0.8301427689
 40
0.918289385
 40
1.0
 40
1.0
 40
1.0
 40
1.0
 10
30.603616656
 20
69.9602426209
 30
0.0
 10
30.6036172879
 20
69.9431914438
 30
0.0
 10
30.6053181603
 20
69.9121971675
 30
0.0
 10
30.6132357837
 20
69.876013398
 30
0.0
 10
30.6234579353
 20
69.8534595718
 30
0.0
 10
30.6321607097
 20
69.8408888454
 30
0.0
 10
30.6423774673
 20
69.8317672993
 30
0.0
 10
30.6502786999
 20
69.8281268652
 30
0.0
 10
30.6542379391
 20
69.8270382387
 30
0.0
  0
SPLINE
  5
3E7
100
AcDbEntity
  8
0
100
AcDbSpline
 62
7
  6
CONTINUOUS
 70
0
 71
3
 72
9
 73
5
 74
0
 42
0.0000001
 43
0.0000001
 44
0.0000000001
 40
0.0
 40
0.0
 40
0.0
 40
0.0
 40
0.5068546172
 40
1.0
 40
1.0
 40
1.0
 40
1.0
 10
35.172987396
 20
69.5294187801
 30
0.0
 10
34.4730238951
 20
69.5814995798
 30
0.0
 10
33.0957370253
 20
69.7435006068
 30
0.0
 10
31.7382150573
 20
70.0284119012
 30
0.0
 10
31.0775453069
 20
70.2012891274
 30
0.0
  0
SPLINE
  5
3E8
100
AcDbEntity
  8
0
100
AcDbSpline
 62
7
  6
CONTINUOUS
 70
0
 71
3
 72
9
 73
5
 74
0
 42
0.0000001
 43
0.0000001
 44
0.0000000001
 40
0.0
 40
0.0
 40
0.0
 40
0.0
 40
0.2747903011
 40
1.0
 40
1.0
 40
1.0
 40
1.0
 10
31.0487094282
 20
70.2088567675
 30
0.0
 10
31.0487727186
 20
70.2025240284
 30
0.0
 10
31.0495349836
 20
70.179501485
 30
0.0
 10
31.0524556806
 20
70.15644285
 30
0.0
 10
31.056621417
 20
70.1402564941
 30
0.0
  0
SPLINE
  5
3E9
100
AcDbEntity
  8
0
100
AcDbSpline
 62
7
  6
CONTINUOUS
 70
0
 71
3
 72
11
 73
7
 74
0
 42
0.0000001
 43
0.0000001
 44
0.0000000001
 40
0.0
 40
0.0
 40
0.0
 40
0.0
 40
0.3189844486
 40
0.5983879109
 40
0.8248618298
 40
1.0
 40
1.0
 40
1.0
 40
1.0
 10
35.1729834671
 20
69.5294230745
 30
0.0
 10
35.1830766832
 20
69.5356775492
 30
0.0
 10
35.2026160187
 20
69.5464659274
 30
0.0
 10
35.2312451987
 20
69.5579296242
 30
0.0
 10
35.2562560855
 20
69.5628784344
 30
0.0
 10
35.2715565828
 20
69.5616760426
 30
0.0
 10
35.277732891
 20
69.5595889849
 30
0.0
  0
SPLINE
  5
3EA
100
AcDbEntity
  8
0
100
AcDbSpline
 62
7
  6
CONTINUOUS
 70
0
 71
3
 72
9
 73
5
 74
0
 42
0.0000001
 43
0.0000001
 44
0.0000000001
 40
0.0
 40
0.0
 40
0.0
 40
0.0
 40
0.5138183716
 40
1.0
 40
1.0
 40
1.0
 40
1.0
 10
35.2895927874
 20
69.4727807055
 30
0.0
 10
35.3236086548
 20
69.4548656902
 30
0.0
 10
35.3888313271
 20
69.4181136859
 30
0.0
 10
35.4513757638
 20
69.376826825
 30
0.0
 10
35.4805575252
 20
69.3551074659
 30
0.0
  0
SPLINE
  5
3EB
100
AcDbEntity
  8
0
100
AcDbSpline
 62
7
  6
CONTINUOUS
 70
0
 71
3
 72
11
 73
7
 74
0
 42
0.0000001
 43
0.0000001
 44
0.0000000001
 40
0.0
 40
0.0
 40
0.0
 40
0.0
 40
0.2651648889
 40
0.5239765666
 40
0.770525611
 40
1.0
 40
1.0
 40
1.0
 40
1.0
 10
37.0098104034
 20
68.9894320948
 30
0.0
 10
36.8728070244
 20
68.9894043363
 30
0.0
 10
36.6018421414
 20
69.0042308613
 30
0.0
 10
36.2083742799
 20
69.0702730068
 30
0.0
 10
35.8432523152
 20
69.1777312761
 30
0.0
 10
35.6178571397
 20
69.278815641
 30
0.0
 10
35.5140860358
 20
69.3361633803
 30
0.0
  0
SPLINE
  5
3EC
100
AcDbEntity
  8
0
100
AcDbSpline
 62
7
  6
CONTINUOUS
 70
0
 71
3
 72
11
 73
7
 74
0
 42
0.0000001
 43
0.0000001
 44
0.0000000001
 40
0.0
 40
0.0
 40
0.0
 40
0.0
 40
0.2294798246
 40
0.476028638
 40
0.7348368975
 40
1.0
 40
1.0
 40
1.0
 40
1.0
 10
38.5053244235
 20
69.336057055
 30
0.0
 10
38.4015608561
 20
69.2787274011
 30
0.0
 10
38.1761898095
 20
69.1776750723
 30
0.0
 10
37.8111190623
 20
69.0702548042
 30
0.0
 10
37.4177121275
 20
69.0042064461
 30
0.0
 10
37.1467918852
 20
68.989459849
 30
0.0
 10
37.0098104034
 20
68.9894320948
 30
0.0
  0
SPLINE
  5
3ED
100
AcDbEntity
  8
0
100
AcDbSpline
 62
7
  6
CONTINUOUS
 70
0
 71
3
 72
9
 73
5
 74
0
 42
0.0000001
 43
0.0000001
 44
0.0000000001
 40
0.0
 40
0.0
 40
0.0
 40
0.0
 40
0.5374928027
 40
1.0
 40
1.0
 40
1.0
 40
1.0
 10
47.8368263564
 20
71.9560859056
 30
0.0
 10
47.8360038026
 20
71.9349767955
 30
0.0
 10
47.8298925954
 20
71.8955179919
 30
0.0
 10
47.809834991
 20
71.8601747477
 30
0.0
 10
47.7972872556
 20
71.8470220785
 30
0.0
  0
SPLINE
  5
3EE
100
AcDbEntity
  8
0
100
AcDbSpline
 62
7
  6
CONTINUOUS
 70
0
 71
3
 72
9
 73
5
 74
0
 42
0.0000001
 43
0.0000001
 44
0.0000000001
 40
0.0
 40
0.0
 40
0.0
 40
0.0
 40
0.2526499144
 40
1.0
 40
1.0
 40
1.0
 40
1.0
 10
47.7972872556
 20
71.8470220785
 30
0.0
 10
47.7957130671
 20
71.8453719974
 30
0.0
 10
47.7892845081
 20
71.8390327892
 30
0.0
 10
47.7820575746
 20
71.83350133
 30
0.0
 10
47.7763309084
 20
71.8299358273
 30
0.0
  0
SPLINE
  5
3EF
100
AcDbEntity
  8
0
100
AcDbSpline
 62
7
  6
CONTINUOUS
 70
0
 71
3
 72
11
 73
7
 74
0
 42
0.0000001
 43
0.0000001
 44
0.0000000001
 40
0.0
 40
0.0
 40
0.0
 40
0.0
 40
0.2394868191
 40
0.502205092
 40
0.7638013543
 40
1.0
 40
1.0
 40
1.0
 40
1.0
 10
47.0485292535
 20
71.5111386571
 30
0.0
 10
47.0283295845
 20
71.5003257481
 30
0.0
 10
46.9821475121
 20
71.4846957453
 30
0.0
 10
46.908889343
 20
71.4776947537
 30
0.0
 10
46.8361084796
 20
71.4862025038
 30
0.0
 10
46.7906974883
 20
71.5028645821
 30
0.0
 10
46.771127704
 20
71.5141629467
 30
0.0
  0
SPLINE
  5
3F0
100
AcDbEntity
  8
0
100
AcDbSpline
 62
7
  6
CONTINUOUS
 70
0
 71
3
 72
13
 73
9
 74
0
 42
0.0000001
 43
0.0000001
 44
0.0000000001
 40
0.0
 40
0.0
 40
0.0
 40
0.0
 40
0.3375216071
 40
0.6139446928
 40
0.7285119946
 40
0.8287497403
 40
0.9176351324
 40
1.0
 40
1.0
 40
1.0
 40
1.0
 10
43.8308921531
 20
70.0784023874
 30
0.0
 10
43.8308916101
 20
70.0614834582
 30
0.0
 10
43.8291988747
 20
70.0306790914
 30
0.0
 10
43.8213154535
 20
69.9946889922
 30
0.0
 10
43.8111506079
 20
69.9721582088
 30
0.0
 10
43.8024866419
 20
69.9595134537
 30
0.0
 10
43.792320849
 20
69.9502488196
 30
0.0
 10
43.7844509808
 20
69.9464455148
 30
0.0
 10
43.7804950566
 20
69.945263641
 30
0.0
  0
SPLINE
  5
3F1
100
AcDbEntity
  8
0
100
AcDbSpline
 62
7
  6
CONTINUOUS
 70
0
 71
3
 72
11
 73
7
 74
0
 42
0.0000001
 43
0.0000001
 44
0.0000000001
 40
0.0
 40
0.0
 40
0.0
 40
0.0
 40
0.2717169698
 40
0.5444771562
 40
0.7929913392
 40
1.0
 40
1.0
 40
1.0
 40
1.0
 10
42.8204431948
 20
69.8063703897
 30
0.0
 10
42.7961166308
 20
69.8004480482
 30
0.0
 10
42.7457807237
 20
69.7946135332
 30
0.0
 10
42.6724875604
 20
69.8018315254
 30
0.0
 10
42.6083785649
 20
69.8235475301
 30
0.0
 10
42.573458179
 20
69.8491279576
 30
0.0
 10
42.5614729265
 20
69.8639669046
 30
0.0
  0
SPLINE
  5
3F2
100
AcDbEntity
  8
0
100
AcDbSpline
 62
7
  6
CONTINUOUS
 70
0
 71
3
 72
14
 73
10
 74
0
 42
0.0000001
 43
0.0000001
 44
0.0000000001
 40
0.0
 40
0.0
 40
0.0
 40
0.0
 40
0.1470805485
 40
0.2643278052
 40
0.3564648382
 40
0.4400715245
 40
0.5371404425
 40
0.6613370639
 40
1.0
 40
1.0
 40
1.0
 40
1.0
 10
42.5191715282
 20
69.8346899928
 30
0.0
 10
42.5216675182
 20
69.8315978455
 30
0.0
 10
42.5265440117
 20
69.8263235921
 30
0.0
 10
42.5344648295
 20
69.8206841557
 30
0.0
 10
42.5424490212
 20
69.8186046666
 30
0.0
 10
42.5498014792
 20
69.8212202381
 30
0.0
 10
42.5551338772
 20
69.8278496098
 30
0.0
 10
42.5606032022
 20
69.8420607417
 30
0.0
 10
42.5614710093
 20
69.8547984405
 30
0.0
 10
42.5614729265
 20
69.8639484578
 30
0.0
  0
SPLINE
  5
3F3
100
AcDbEntity
  8
0
100
AcDbSpline
 62
7
  6
CONTINUOUS
 70
0
 71
3
 72
9
 73
5
 74
0
 42
0.0000001
 43
0.0000001
 44
0.0000000001
 40
0.0
 40
0.0
 40
0.0
 40
0.0
 40
0.2238441447
 40
1.0
 40
1.0
 40
1.0
 40
1.0
 10
42.387639737
 20
69.9975395678
 30
0.0
 10
42.3888249955
 20
70.0025400937
 30
0.0
 10
42.3932501719
 20
70.0250855976
 30
0.0
 10
42.3947183249
 20
70.0481305239
 30
0.0
 10
42.394881356
 20
70.0659489779
 30
0.0
  0
SPLINE
  5
3F4
100
AcDbEntity
  8
0
100
AcDbSpline
 62
7
  6
CONTINUOUS
 70
0
 71
3
 72
9
 73
5
 74
0
 42
0.0000001
 43
0.0000001
 44
0.0000000001
 40
0.0
 40
0.0
 40
0.0
 40
0.0
 40
0.4945902547
 40
1.0
 40
1.0
 40
1.0
 40
1.0
 10
42.3739553549
 20
70.0610767057
 30
0.0
 10
41.8006913623
 20
69.927904076
 30
0.0
 10
40.63021359
 20
69.706006545
 30
0.0
 10
39.4463726704
 20
69.5740546396
 30
0.0
 10
38.8466271156
 20
69.5294275946
 30
0.0
  0
SPLINE
  5
3F5
100
AcDbEntity
  8
0
100
AcDbSpline
 62
7
  6
CONTINUOUS
 70
0
 71
3
 72
9
 73
5
 74
0
 42
0.0000001
 43
0.0000001
 44
0.0000000001
 40
0.0
 40
0.0
 40
0.0
 40
0.0
 40
0.4861451873
 40
1.0
 40
1.0
 40
1.0
 40
1.0
 10
38.5390535519
 20
69.3551185061
 30
0.0
 10
38.5681885729
 20
69.3768031042
 30
0.0
 10
38.6306360958
 20
69.4180288007
 30
0.0
 10
38.6957546822
 20
69.4547323511
 30
0.0
 10
38.7297177096
 20
69.4726276037
 30
0.0
  0
SPLINE
  5
3F6
100
AcDbEntity
  8
0
100
AcDbSpline
 62
7
  6
CONTINUOUS
 70
0
 71
3
 72
11
 73
7
 74
0
 42
0.0000001
 43
0.0000001
 44
0.0000000001
 40
0.0
 40
0.0
 40
0.0
 40
0.0
 40
0.1751371342
 40
0.4016105517
 40
0.6810143588
 40
1.0
 40
1.0
 40
1.0
 40
1.0
 10
38.741882214
 20
69.5595970345
 30
0.0
 10
38.7480584132
 20
69.5616841345
 30
0.0
 10
38.7633587361
 20
69.5628866177
 30
0.0
 10
38.7883694006
 20
69.5579379427
 30
0.0
 10
38.8169984255
 20
69.5464744043
 30
0.0
 10
38.8365376897
 20
69.5356861422
 30
0.0
 10
38.846630885
 20
69.5294317266
 30
0.0
  0
SPLINE
  5
3F7
100
AcDbEntity
  8
0
100
AcDbSpline
 62
7
  6
CONTINUOUS
 70
0
 71
3
 72
9
 73
5
 74
0
 42
0.0000001
 43
0.0000001
 44
0.0000000001
 40
0.0
 40
0.0
 40
0.0
 40
0.0
 40
0.2346680016
 40
1.0
 40
1.0
 40
1.0
 40
1.0
 10
55.9623399765
 20
39.3275560109
 30
0.0
 10
55.9705867693
 20
39.3270387607
 30
0.0
 10
56.0058636827
 20
39.3269492823
 30
0.0
 10
56.0408719589
 20
39.3349141973
 30
0.0
 10
56.0662844614
 20
39.3438820976
 30
0.0
  0
SPLINE
  5
3F8
100
AcDbEntity
  8
0
100
AcDbSpline
 62
7
  6
CONTINUOUS
 70
0
 71
3
 72
9
 73
5
 74
0
 42
0.0000001
 43
0.0000001
 44
0.0000000001
 40
0.0
 40
0.0
 40
0.0
 40
0.0
 40
0.2798195139
 40
1.0
 40
1.0
 40
1.0
 40
1.0
 10
58.965410194
 20
41.5824292337
 30
0.0
 10
58.965410194
 20
41.5893122249
 30
0.0
 10
58.9641091008
 20
41.6137950051
 30
0.0
 10
58.956650472
 20
41.6386477108
 30
0.0
 10
58.9464634038
 20
41.6531406063
 30
0.0
  0
SPLINE
  5
3F9
100
AcDbEntity
  8
0
100
AcDbSpline
 62
7
  6
CONTINUOUS
 70
0
 71
3
 72
13
 73
9
 74
0
 42
0.0000001
 43
0.0000001
 44
0.0000000001
 40
0.0
 40
0.0
 40
0.0
 40
0.0
 40
0.3057267825
 40
0.582935338
 40
0.704184796
 40
0.8124451494
 40
0.9094948624
 40
1.0
 40
1.0
 40
1.0
 40
1.0
 10
55.8143365476
 20
39.5813551649
 30
0.0
 10
55.8006952842
 20
39.5588087889
 30
0.0
 10
55.7794289345
 20
39.5127806903
 30
0.0
 10
55.7676383965
 20
39.4522964192
 30
0.0
 10
55.7704599213
 20
39.4084708443
 30
0.0
 10
55.7781013667
 20
39.381108846
 30
0.0
 10
55.7913417628
 20
39.3588979131
 30
0.0
 10
55.8039714667
 20
39.3482055365
 30
0.0
 10
55.8107327782
 20
39.3443144305
 30
0.0
  0
SPLINE
  5
3FA
100
AcDbEntity
  8
0
100
AcDbSpline
 62
7
  6
CONTINUOUS
 70
0
 71
3
 72
9
 73
5
 74
0
 42
0.0000001
 43
0.0000001
 44
0.0000000001
 40
0.0
 40
0.0
 40
0.0
 40
0.0
 40
0.4744975559
 40
1.0
 40
1.0
 40
1.0
 40
1.0
 10
57.394728234
 20
42.1335808979
 30
0.0
 10
57.3756158104
 20
42.1225464009
 30
0.0
 10
57.3392629314
 20
42.0924440026
 30
0.0
 10
57.310995414
 20
42.0550434487
 30
0.0
 10
57.2983431644
 20
42.0341317219
 30
0.0
  0
SPLINE
  5
3FB
100
AcDbEntity
  8
0
100
AcDbSpline
 62
7
  6
CONTINUOUS
 70
0
 71
3
 72
11
 73
7
 74
0
 42
0.0000001
 43
0.0000001
 44
0.0000000001
 40
0.0
 40
0.0
 40
0.0
 40
0.0
 40
0.2178896478
 40
0.4510014495
 40
0.7106601585
 40
1.0
 40
1.0
 40
1.0
 40
1.0
 10
58.2766474924
 20
42.5949170437
 30
0.0
 10
58.2700518931
 20
42.5987354302
 30
0.0
 10
58.2548950693
 20
42.6042534701
 30
0.0
 10
58.2297019347
 20
42.604880446
 30
0.0
 10
58.2028839403
 20
42.5983677867
 30
0.0
 10
58.1854214695
 20
42.5900851253
 30
0.0
 10
58.1766570386
 20
42.585025009
 30
0.0
  0
SPLINE
  5
3FC
100
AcDbEntity
  8
0
100
AcDbSpline
 62
7
  6
CONTINUOUS
 70
0
 71
3
 72
11
 73
7
 74
0
 42
0.0000001
 43
0.0000001
 44
0.0000000001
 40
0.0
 40
0.0
 40
0.0
 40
0.0
 40
0.2176546471
 40
0.4508356544
 40
0.7105615936
 40
1.0
 40
1.0
 40
1.0
 40
1.0
 10
57.2269359975
 20
39.7250250499
 30
0.0
 10
57.2335300584
 20
39.7212199579
 30
0.0
 10
57.2458705311
 20
39.7108459262
 30
0.0
 10
57.2590274593
 20
39.6893576057
 30
0.0
 10
57.2668066114
 20
39.6628671136
 30
0.0
 10
57.2683609847
 20
39.64359628
 30
0.0
 10
57.2683609847
 20
39.633472242
 30
0.0
  0
SPLINE
  5
3FD
100
AcDbEntity
  8
0
100
AcDbSpline
 62
7
  6
CONTINUOUS
 70
0
 71
3
 72
11
 73
7
 74
0
 42
0.0000001
 43
0.0000001
 44
0.0000000001
 40
0.0
 40
0.0
 40
0.0
 40
0.0
 40
0.2644313096
 40
0.5247067432
 40
0.7722688895
 40
1.0
 40
1.0
 40
1.0
 40
1.0
 10
43.0777718149
 20
28.1394270435
 30
0.0
 10
43.044754531
 20
28.0715661961
 30
0.0
 10
42.9702829062
 20
27.9410765899
 30
0.0
 10
42.836727726
 20
27.7649441779
 30
0.0
 10
42.6875202953
 20
27.616299682
 30
0.0
 10
42.5768518987
 20
27.5364091869
 30
0.0
 10
42.5205663873
 20
27.5039129257
 30
0.0
  0
SPLINE
  5
3FE
100
AcDbEntity
  8
0
100
AcDbSpline
 62
7
  6
CONTINUOUS
 70
0
 71
3
 72
11
 73
7
 74
0
 42
0.0000001
 43
0.0000001
 44
0.0000000001
 40
0.0
 40
0.0
 40
0.0
 40
0.0
 40
0.2277311105
 40
0.4752932568
 40
0.7355686904
 40
1.0
 40
1.0
 40
1.0
 40
1.0
 10
41.8311344053
 20
27.9019476614
 30
0.0
 10
41.8874199167
 20
27.9344439226
 30
0.0
 10
41.9980883133
 20
28.0143344177
 30
0.0
 10
42.147295744
 20
28.1629789135
 30
0.0
 10
42.2808509241
 20
28.3391113256
 30
0.0
 10
42.355322549
 20
28.4696009318
 30
0.0
 10
42.3883398329
 20
28.5374617791
 30
0.0
  0
SPLINE
  5
3FF
100
AcDbEntity
  8
0
100
AcDbSpline
 62
7
  6
CONTINUOUS
 70
0
 71
3
 72
11
 73
7
 74
0
 42
0.0000001
 43
0.0000001
 44
0.0000000001
 40
0.0
 40
0.0
 40
0.0
 40
0.0
 40
0.2372423294
 40
0.4999983821
 40
0.7627553152
 40
1.0
 40
1.0
 40
1.0
 40
1.0
 10
57.1269402172
 20
39.2660475653
 30
0.0
 10
57.1068622424
 20
39.2544556103
 30
0.0
 10
57.0688691541
 20
39.2224765219
 30
0.0
 10
57.0245250584
 20
39.161878044
 30
0.0
 10
56.9942175504
 20
39.0931753217
 30
0.0
 10
56.9855194498
 20
39.044282495
 30
0.0
 10
56.9855194498
 20
39.0210982511
 30
0.0
  0
SPLINE
  5
400
100
AcDbEntity
  8
0
100
AcDbSpline
 62
7
  6
CONTINUOUS
 70
0
 71
3
 72
11
 73
7
 74
0
 42
0.0000001
 43
0.0000001
 44
0.0000000001
 40
0.0
 40
0.0
 40
0.0
 40
0.0
 40
0.2372446848
 40
0.5000016179
 40
0.7627576706
 40
1.0
 40
1.0
 40
1.0
 40
1.0
 10
57.2683609847
 20
39.5109968795
 30
0.0
 10
57.2683609847
 20
39.4878126355
 30
0.0
 10
57.2596628841
 20
39.4389198088
 30
0.0
 10
57.2293553761
 20
39.3702170865
 30
0.0
 10
57.1850112804
 20
39.3096186086
 30
0.0
 10
57.1470181921
 20
39.2776395202
 30
0.0
 10
57.1269402172
 20
39.2660475653
 30
0.0
  0
SPLINE
  5
401
100
AcDbEntity
  8
0
100
AcDbSpline
 62
7
  6
CONTINUOUS
 70
0
 71
3
 72
9
 73
5
 74
0
 42
0.0000001
 43
0.0000001
 44
0.0000000001
 40
0.0
 40
0.0
 40
0.0
 40
0.0
 40
0.2346680016
 40
1.0
 40
1.0
 40
1.0
 40
1.0
 10
55.9623399765
 20
58.5970130552
 30
0.0
 10
55.9705867693
 20
58.596495805
 30
0.0
 10
56.0058636827
 20
58.5964063265
 30
0.0
 10
56.0408719589
 20
58.6043712416
 30
0.0
 10
56.0662844614
 20
58.6133391418
 30
0.0
  0
SPLINE
  5
402
100
AcDbEntity
  8
0
100
AcDbSpline
 62
7
  6
CONTINUOUS
 70
0
 71
3
 72
9
 73
5
 74
0
 42
0.0000001
 43
0.0000001
 44
0.0000000001
 40
0.0
 40
0.0
 40
0.0
 40
0.0
 40
0.2798195139
 40
1.0
 40
1.0
 40
1.0
 40
1.0
 10
58.965410194
 20
60.8518862779
 30
0.0
 10
58.965410194
 20
60.8587692692
 30
0.0
 10
58.9641091008
 20
60.8832520493
 30
0.0
 10
58.956650472
 20
60.908104755
 30
0.0
 10
58.9464634038
 20
60.9225976505
 30
0.0
  0
SPLINE
  5
403
100
AcDbEntity
  8
0
100
AcDbSpline
 62
7
  6
CONTINUOUS
 70
0
 71
3
 72
13
 73
9
 74
0
 42
0.0000001
 43
0.0000001
 44
0.0000000001
 40
0.0
 40
0.0
 40
0.0
 40
0.0
 40
0.3057267825
 40
0.582935338
 40
0.704184796
 40
0.8124451494
 40
0.9094948624
 40
1.0
 40
1.0
 40
1.0
 40
1.0
 10
55.8143365476
 20
58.8508122092
 30
0.0
 10
55.8006952842
 20
58.8282658331
 30
0.0
 10
55.7794289345
 20
58.7822377346
 30
0.0
 10
55.7676383965
 20
58.7217534634
 30
0.0
 10
55.7704599213
 20
58.6779278886
 30
0.0
 10
55.7781013667
 20
58.6505658902
 30
0.0
 10
55.7913417628
 20
58.6283549574
 30
0.0
 10
55.8039714667
 20
58.6176625807
 30
0.0
 10
55.8107327782
 20
58.6137714747
 30
0.0
  0
SPLINE
  5
404
100
AcDbEntity
  8
0
100
AcDbSpline
 62
7
  6
CONTINUOUS
 70
0
 71
3
 72
11
 73
7
 74
0
 42
0.0000001
 43
0.0000001
 44
0.0000000001
 40
0.0
 40
0.0
 40
0.0
 40
0.0
 40
0.2176546471
 40
0.4508356544
 40
0.7105615936
 40
1.0
 40
1.0
 40
1.0
 40
1.0
 10
57.2269359975
 20
58.9944820941
 30
0.0
 10
57.2335300584
 20
58.9906770022
 30
0.0
 10
57.2458705311
 20
58.9803029705
 30
0.0
 10
57.2590274593
 20
58.95881465
 30
0.0
 10
57.2668066114
 20
58.9323241578
 30
0.0
 10
57.2683609847
 20
58.9130533243
 30
0.0
 10
57.2683609847
 20
58.9029292863
 30
0.0
  0
SPLINE
  5
405
100
AcDbEntity
  8
0
100
AcDbSpline
 62
7
  6
CONTINUOUS
 70
0
 71
3
 72
10
 73
6
 74
0
 42
0.0000001
 43
0.0000001
 44
0.0000000001
 40
0.0
 40
0.0
 40
0.0
 40
0.0
 40
0.5163390818
 40
0.7651314226
 40
1.0
 40
1.0
 40
1.0
 40
1.0
 10
43.0777718149
 20
47.4088840877
 30
0.0
 10
43.0220239122
 20
47.2943047079
 30
0.0
 10
42.9202645357
 20
47.1327336612
 30
0.0
 10
42.754651787
 20
46.9492737476
 30
0.0
 10
42.6637958196
 20
46.8711493102
 30
0.0
 10
42.6171254959
 20
46.8367790709
 30
0.0
  0
SPLINE
  5
406
100
AcDbEntity
  8
0
100
AcDbSpline
 62
7
  6
CONTINUOUS
 70
0
 71
3
 72
9
 73
5
 74
0
 42
0.0000001
 43
0.0000001
 44
0.0000000001
 40
0.0
 40
0.0
 40
0.0
 40
0.0
 40
0.2561725049
 40
1.0
 40
1.0
 40
1.0
 40
1.0
 10
42.6171254959
 20
46.8367790709
 30
0.0
 10
42.6091805406
 20
46.8309280291
 30
0.0
 10
42.5778732367
 20
46.8084906837
 30
0.0
 10
42.5453779772
 20
46.7876948626
 30
0.0
 10
42.5205663873
 20
46.77336997
 30
0.0
  0
SPLINE
  5
407
100
AcDbEntity
  8
0
100
AcDbSpline
 62
7
  6
CONTINUOUS
 70
0
 71
3
 72
11
 73
7
 74
0
 42
0.0000001
 43
0.0000001
 44
0.0000000001
 40
0.0
 40
0.0
 40
0.0
 40
0.0
 40
0.2372423294
 40
0.4999983821
 40
0.7627553152
 40
1.0
 40
1.0
 40
1.0
 40
1.0
 10
57.1269402172
 20
58.5355046095
 30
0.0
 10
57.1068622424
 20
58.5239126545
 30
0.0
 10
57.0688691541
 20
58.4919335662
 30
0.0
 10
57.0245250584
 20
58.4313350883
 30
0.0
 10
56.9942175504
 20
58.362632366
 30
0.0
 10
56.9855194498
 20
58.3137395392
 30
0.0
 10
56.9855194498
 20
58.2905552953
 30
0.0
  0
SPLINE
  5
408
100
AcDbEntity
  8
0
100
AcDbSpline
 62
7
  6
CONTINUOUS
 70
0
 71
3
 72
11
 73
7
 74
0
 42
0.0000001
 43
0.0000001
 44
0.0000000001
 40
0.0
 40
0.0
 40
0.0
 40
0.0
 40
0.2372446848
 40
0.5000016179
 40
0.7627576706
 40
1.0
 40
1.0
 40
1.0
 40
1.0
 10
57.2683609847
 20
58.7804539237
 30
0.0
 10
57.2683609847
 20
58.7572696798
 30
0.0
 10
57.2596628841
 20
58.708376853
 30
0.0
 10
57.2293553761
 20
58.6396741307
 30
0.0
 10
57.1850112804
 20
58.5790756528
 30
0.0
 10
57.1470181921
 20
58.5470965645
 30
0.0
 10
57.1269402172
 20
58.5355046095
 30
0.0
  0
SPLINE
  5
409
100
AcDbEntity
  8
0
100
AcDbSpline
 62
7
  6
CONTINUOUS
 70
0
 71
3
 72
11
 73
7
 74
0
 42
0.0000001
 43
0.0000001
 44
0.0000000001
 40
0.0
 40
0.0
 40
0.0
 40
0.0
 40
0.2272579109
 40
0.4647601201
 40
0.7206691772
 40
1.0
 40
1.0
 40
1.0
 40
1.0
 10
48.6635117841
 20
99.7453622165
 30
0.0
 10
48.663511786
 20
99.7986352786
 30
0.0
 10
48.6485477453
 20
99.9080858468
 30
0.0
 10
48.5828493784
 20
100.0654647353
 30
0.0
 10
48.4765886731
 20
100.2137534199
 30
0.0
 10
48.3850008085
 20
100.3005683233
 30
0.0
 10
48.3342112127
 20
100.3418965759
 30
0.0
  0
SPLINE
  5
40A
100
AcDbEntity
  8
0
100
AcDbSpline
 62
7
  6
CONTINUOUS
 70
0
 71
3
 72
11
 73
7
 74
0
 42
0.0000001
 43
0.0000001
 44
0.0000000001
 40
0.0
 40
0.0
 40
0.0
 40
0.0
 40
0.2350841792
 40
0.4765827214
 40
0.7301891687
 40
1.0
 40
1.0
 40
1.0
 40
1.0
 10
49.4847481966
 20
82.848941777
 30
0.0
 10
49.4847471745
 20
83.1352796238
 30
0.0
 10
49.4238878846
 20
83.7174319317
 30
0.0
 10
49.1537959677
 20
84.5704924669
 30
0.0
 10
48.7106224895
 20
85.3954075401
 30
0.0
 10
48.3186335575
 20
85.9019296071
 30
0.0
 10
48.0998427586
 20
86.1471478893
 30
0.0
  0
SPLINE
  5
40B
100
AcDbEntity
  8
0
100
AcDbSpline
 62
7
  6
CONTINUOUS
 70
0
 71
3
 72
15
 73
11
 74
0
 42
0.0000001
 43
0.0000001
 44
0.0000000001
 40
0.0
 40
0.0
 40
0.0
 40
0.0
 40
0.1487786615
 40
0.2899317441
 40
0.423368471
 40
0.5493796499
 40
0.6686865021
 40
0.7824582636
 40
0.8922572135
 40
1.0
 40
1.0
 40
1.0
 40
1.0
 10
48.6904756652
 20
90.294256797
 30
0.0
 10
49.1821371756
 20
90.0539154018
 30
0.0
 10
50.1211117506
 20
89.5446080883
 30
0.0
 10
51.4143264202
 20
88.6723221446
 30
0.0
 10
52.5423168896
 20
87.7191028197
 30
0.0
 10
53.4912732354
 20
86.693693089
 30
0.0
 10
54.2483816707
 20
85.6055476222
 30
0.0
 10
54.8012472246
 20
84.4655246449
 30
0.0
 10
55.138767352
 20
83.2880489414
 30
0.0
 10
55.2147480239
 20
82.4859112208
 30
0.0
 10
55.2147480239
 20
82.0895945291
 30
0.0
  0
SPLINE
  5
40C
100
AcDbEntity
  8
0
100
AcDbSpline
 62
7
  6
CONTINUOUS
 70
0
 71
3
 72
15
 73
11
 74
0
 42
0.0000001
 43
0.0000001
 44
0.0000000001
 40
0.0
 40
0.0
 40
0.0
 40
0.0
 40
0.1077315343
 40
0.2175202744
 40
0.3312860223
 40
0.4505905857
 40
0.5766041299
 40
0.7100471194
 40
0.8512094863
 40
1.0
 40
1.0
 40
1.0
 40
1.0
 10
18.8047480239
 20
82.0895945291
 30
0.0
 10
18.8047480239
 20
82.48610829
 30
0.0
 10
18.880809509
 20
83.2886510111
 30
0.0
 10
19.2186638486
 20
84.466697084
 30
0.0
 10
19.7720663864
 20
85.6072361346
 30
0.0
 10
20.5299050642
 20
86.695822076
 30
0.0
 10
21.4797516873
 20
87.7215872322
 30
0.0
 10
22.6087715667
 20
88.6750684676
 30
0.0
 10
23.903132371
 20
89.5475163862
 30
0.0
 10
24.8429198496
 20
90.0568371894
 30
0.0
 10
25.3349984433
 20
90.2971744785
 30
0.0
  0
SPLINE
  5
40D
100
AcDbEntity
  8
0
100
AcDbSpline
 62
7
  6
CONTINUOUS
 70
0
 71
3
 72
13
 73
9
 74
0
 42
0.0000001
 43
0.0000001
 44
0.0000000001
 40
0.0
 40
0.0
 40
0.0
 40
0.0
 40
0.1147356602
 40
0.2305914786
 40
0.3486335565
 40
0.4698303164
 40
0.7245646139
 40
1.0
 40
1.0
 40
1.0
 40
1.0
 10
55.2147200366
 20
80.7831906735
 30
0.0
 10
55.2147145158
 20
80.5367650066
 30
0.0
 10
55.1844304213
 20
80.0409838974
 30
0.0
 10
55.0484761124
 20
79.3029286852
 30
0.0
 10
54.8229183996
 20
78.5725720265
 30
0.0
 10
54.3975653889
 20
77.5985180548
 30
0.0
 10
53.6340664104
 20
76.4144848516
 30
0.0
 10
52.8496037163
 20
75.58101665
 30
0.0
 10
52.4134923306
 20
75.1813121084
 30
0.0
  0
SPLINE
  5
40E
100
AcDbEntity
  8
0
100
AcDbSpline
 62
7
  6
CONTINUOUS
 70
0
 71
3
 72
15
 73
11
 74
0
 42
0.0000001
 43
0.0000001
 44
0.0000000001
 40
0.0
 40
0.0
 40
0.0
 40
0.0
 40
0.1105796105
 40
0.226847837
 40
0.3481883083
 40
0.4738225183
 40
0.6028486155
 40
0.7342575219
 40
0.8670226331
 40
1.0
 40
1.0
 40
1.0
 40
1.0
 10
50.1285532546
 20
73.4959009189
 30
0.0
 10
49.6465721985
 20
73.2066697652
 30
0.0
 10
48.6274167641
 20
72.6629562846
 30
0.0
 10
46.996877051
 20
71.9695581658
 30
0.0
 10
45.2434922701
 20
71.3848137388
 30
0.0
 10
43.3889062625
 20
70.9159264182
 30
0.0
 10
41.455853574
 20
70.5686253714
 30
0.0
 10
39.4679730772
 20
70.3470481436
 30
0.0
 10
37.4499649889
 20
70.2540951756
 30
0.0
 10
36.0982495523
 20
70.2785730505
 30
0.0
 10
35.4231532334
 20
70.3126711254
 30
0.0
  0
SPLINE
  5
40F
100
AcDbEntity
  8
0
100
AcDbSpline
 62
7
  6
CONTINUOUS
 70
0
 71
3
 72
11
 73
7
 74
0
 42
0.0000001
 43
0.0000001
 44
0.0000000001
 40
0.0
 40
0.0
 40
0.0
 40
0.0
 40
0.2626421013
 40
0.5147241976
 40
0.7593082768
 40
1.0
 40
1.0
 40
1.0
 40
1.0
 10
25.3525885869
 20
85.4138129094
 30
0.0
 10
25.2209744237
 20
85.2144276437
 30
0.0
 10
24.9866945139
 20
84.8072258149
 30
0.0
 10
24.7270172932
 20
84.1647074498
 30
0.0
 10
24.569901041
 20
83.5100677622
 30
0.0
 10
24.5347540429
 20
83.0678824829
 30
0.0
 10
24.5347507157
 20
82.848941777
 30
0.0
  0
SPLINE
  5
410
100
AcDbEntity
  8
0
100
AcDbSpline
 62
7
  6
CONTINUOUS
 70
0
 71
3
 72
9
 73
5
 74
0
 42
0.0000001
 43
0.0000001
 44
0.0000000001
 40
0.0
 40
0.0
 40
0.0
 40
0.0
 40
0.2415370472
 40
1.0
 40
1.0
 40
1.0
 40
1.0
 10
47.680316641
 20
100.8325333034
 30
0.0
 10
47.5451493781
 20
100.9261873883
 30
0.0
 10
46.9770865498
 20
101.3016804106
 30
0.0
 10
46.3778717239
 20
101.6292814994
 30
0.0
 10
45.9125423284
 20
101.8531351896
 30
0.0
  0
SPLINE
  5
411
100
AcDbEntity
  8
0
100
AcDbSpline
 62
7
  6
CONTINUOUS
 70
0
 71
3
 72
15
 73
11
 74
0
 42
0.0000001
 43
0.0000001
 44
0.0000000001
 40
0.0
 40
0.0
 40
0.0
 40
0.0
 40
0.1227763396
 40
0.2524665046
 40
0.3860329432
 40
0.5201284537
 40
0.6513868982
 40
0.7766989466
 40
0.8934861125
 40
1.0
 40
1.0
 40
1.0
 40
1.0
 10
45.0627169945
 20
102.2306519141
 30
0.0
 10
44.9643779094
 20
102.2709340664
 30
0.0
 10
44.755807937
 20
102.3387501311
 30
0.0
 10
44.4268842814
 20
102.4015789873
 30
0.0
 10
44.0831273276
 20
102.4267834076
 30
0.0
 10
43.7373774469
 20
102.4134549552
 30
0.0
 10
43.4023763021
 20
102.3622067058
 30
0.0
 10
43.0902773669
 20
102.2749911625
 30
0.0
 10
42.8123329913
 20
102.1551080388
 30
0.0
 10
42.6481145122
 20
102.0509089628
 30
0.0
 10
42.5756825075
 20
101.9938716289
 30
0.0
  0
SPLINE
  5
412
100
AcDbEntity
  8
0
100
AcDbSpline
 62
7
  6
CONTINUOUS
 70
0
 71
3
 72
11
 73
7
 74
0
 42
0.0000001
 43
0.0000001
 44
0.0000000001
 40
0.0
 40
0.0
 40
0.0
 40
0.0
 40
0.2354071337
 40
0.4807572345
 40
0.7357756027
 40
1.0
 40
1.0
 40
1.0
 40
1.0
 10
42.5756975415
 20
101.9938652651
 30
0.0
 10
41.4010328715
 20
101.065125114
 30
0.0
 10
38.9248824936
 20
99.2644557428
 30
0.0
 10
34.9473160517
 20
96.7909421378
 30
0.0
 10
30.6519871223
 20
94.5023390941
 30
0.0
 10
27.6441579205
 20
93.1319631113
 30
0.0
 10
26.095396496
 20
92.4790158162
 30
0.0
  0
SPLINE
  5
413
100
AcDbEntity
  8
0
100
AcDbSpline
 62
7
  6
CONTINUOUS
 70
0
 71
3
 72
13
 73
9
 74
0
 42
0.0000001
 43
0.0000001
 44
0.0000000001
 40
0.0
 40
0.0
 40
0.0
 40
0.0
 40
0.2971055424
 40
0.4329101607
 40
0.5599554155
 40
0.7897576966
 40
0.8962804453
 40
1.0
 40
1.0
 40
1.0
 40
1.0
 10
26.0953854733
 20
92.4790244959
 30
0.0
 10
25.9876789741
 20
92.4334326636
 30
0.0
 10
25.835349786
 20
92.3538571221
 30
0.0
 10
25.6593255742
 20
92.2203138965
 30
0.0
 10
25.5203388915
 20
92.0847078888
 30
0.0
 10
25.4168394842
 20
91.9297049857
 30
0.0
 10
25.3646204943
 20
91.7635250712
 30
0.0
 10
25.3559842651
 20
91.6805176183
 30
0.0
 10
25.3559842637
 20
91.6396873805
 30
0.0
  0
SPLINE
  5
414
100
AcDbEntity
  8
0
100
AcDbSpline
 62
7
  6
CONTINUOUS
 70
0
 71
3
 72
10
 73
6
 74
0
 42
0.0000001
 43
0.0000001
 44
0.0000000001
 40
0.0
 40
0.0
 40
0.0
 40
0.0
 40
0.4641535443
 40
0.7229226135
 40
1.0
 40
1.0
 40
1.0
 40
1.0
 10
40.1694441387
 20
82.1901685744
 30
0.0
 10
40.0869427603
 20
82.0291641659
 30
0.0
 10
39.9080447048
 20
81.8030927166
 30
0.0
 10
39.6089986929
 20
81.5527557401
 30
0.0
 10
39.4332484329
 20
81.438664047
 30
0.0
 10
39.3397215681
 20
81.3846666087
 30
0.0
  0
SPLINE
  5
415
100
AcDbEntity
  8
0
100
AcDbSpline
 62
7
  6
CONTINUOUS
 70
0
 71
3
 72
9
 73
5
 74
0
 42
0.0000001
 43
0.0000001
 44
0.0000000001
 40
0.0
 40
0.0
 40
0.0
 40
0.0
 40
0.4779853007
 40
1.0
 40
1.0
 40
1.0
 40
1.0
 10
39.3397215681
 20
81.3846666087
 30
0.0
 10
39.1354003901
 20
81.2667024258
 30
0.0
 10
38.6798679282
 20
81.0676089655
 30
0.0
 10
38.1985218446
 20
80.949008124
 30
0.0
 10
37.9445382014
 20
80.9056262003
 30
0.0
  0
SPLINE
  5
416
100
AcDbEntity
  8
0
100
AcDbSpline
 62
7
  6
CONTINUOUS
 70
0
 71
3
 72
13
 73
9
 74
0
 42
0.0000001
 43
0.0000001
 44
0.0000000001
 40
0.0
 40
0.0
 40
0.0
 40
0.0
 40
0.2757621841
 40
0.5305769581
 40
0.6517292914
 40
0.7696790781
 40
0.8854088851
 40
1.0
 40
1.0
 40
1.0
 40
1.0
 10
21.6538631127
 20
75.1376865954
 30
0.0
 10
21.2106870941
 20
75.5395001258
 30
0.0
 10
20.413306116
 20
76.377821986
 30
0.0
 10
19.6363819418
 20
77.5710747296
 30
0.0
 10
19.2034878245
 20
78.5533581449
 30
0.0
 10
18.9739639226
 20
79.2899415769
 30
0.0
 10
18.8356075708
 20
80.0344321646
 30
0.0
 10
18.804770442
 20
80.5346071689
 30
0.0
 10
18.8047760112
 20
80.7831906499
 30
0.0
  0
SPLINE
  5
417
100
AcDbEntity
  8
0
100
AcDbSpline
 62
7
  6
CONTINUOUS
 70
0
 71
3
 72
14
 73
10
 74
0
 42
0.0000001
 43
0.0000001
 44
0.0000000001
 40
0.0
 40
0.0
 40
0.0
 40
0.0
 40
0.2726861748
 40
0.4053838444
 40
0.534423603
 40
0.659002189
 40
0.7784428252
 40
0.8922227923
 40
1.0
 40
1.0
 40
1.0
 40
1.0
 10
35.7678377924
 20
65.2388488915
 30
0.0
 10
34.7867855771
 20
65.2884003273
 30
0.0
 10
33.3303279516
 20
65.4494346202
 30
0.0
 10
31.4451120672
 20
65.8444475937
 30
0.0
 10
30.1041489829
 20
66.2209664568
 30
0.0
 10
28.838447342
 20
66.6762115262
 30
0.0
 10
27.6615922455
 20
67.2053558048
 30
0.0
 10
26.5864845767
 20
67.8026490742
 30
0.0
 10
25.9268970577
 20
68.2548244103
 30
0.0
 10
25.6189856384
 20
68.4913133995
 30
0.0
  0
SPLINE
  5
418
100
AcDbEntity
  8
0
100
AcDbSpline
 62
7
  6
CONTINUOUS
 70
0
 71
3
 72
14
 73
10
 74
0
 42
0.0000001
 43
0.0000001
 44
0.0000000001
 40
0.0
 40
0.0
 40
0.0
 40
0.0
 40
0.2807454242
 40
0.4118048301
 40
0.537177428
 40
0.6576077232
 40
0.77407219
 40
0.8877536108
 40
1.0
 40
1.0
 40
1.0
 40
1.0
 10
25.6189856384
 20
68.4913133995
 30
0.0
 10
25.1800953335
 20
68.828399711
 30
0.0
 10
24.5717548708
 20
69.3745594689
 30
0.0
 10
23.8964455137
 20
70.1920848384
 30
0.0
 10
23.4861447459
 20
70.8132788174
 30
0.0
 10
23.1636437232
 20
71.4523265884
 30
0.0
 10
22.9312966597
 20
72.1052325466
 30
0.0
 10
22.7911046707
 20
72.7674576323
 30
0.0
 10
22.7597656949
 20
73.2134108623
 30
0.0
 10
22.7597590811
 20
73.4346689095
 30
0.0
  0
SPLINE
  5
419
100
AcDbEntity
  8
0
100
AcDbSpline
 62
7
  6
CONTINUOUS
 70
0
 71
3
 72
11
 73
7
 74
0
 42
0.0000001
 43
0.0000001
 44
0.0000000001
 40
0.0
 40
0.0
 40
0.0
 40
0.0
 40
0.2871325856
 40
0.5413883966
 40
0.7732770194
 40
1.0
 40
1.0
 40
1.0
 40
1.0
 10
48.3672438076
 20
86.1437625349
 30
0.0
 10
48.4117070723
 20
86.1661772953
 30
0.0
 10
48.4924482172
 20
86.2154199944
 30
0.0
 10
48.5894966703
 20
86.3100736825
 30
0.0
 10
48.6503736462
 20
86.4200413051
 30
0.0
 10
48.6634945944
 20
86.5003104889
 30
0.0
 10
48.6635039327
 20
86.5396280567
 30
0.0
  0
SPLINE
  5
41A
100
AcDbEntity
  8
0
100
AcDbSpline
 62
7
  6
CONTINUOUS
 70
0
 71
3
 72
20
 73
16
 74
0
 42
0.0000001
 43
0.0000001
 44
0.0000000001
 40
0.0
 40
0.0
 40
0.0
 40
0.0
 40
0.1506010593
 40
0.221117244
 40
0.2884696663
 40
0.4142932433
 40
0.4735917415
 40
0.531038486
 40
0.5872218352
 40
0.642801355
 40
0.6984752093
 40
0.7549342198
 40
0.8128179389
 40
0.872697853
 40
1.0
 40
1.0
 40
1.0
 40
1.0
 10
46.1031790893
 20
77.411170118
 30
0.0
 10
46.5657421407
 20
77.6782294261
 30
0.0
 10
47.2210820891
 20
78.1160234573
 30
0.0
 10
47.9954839137
 20
78.7864113356
 30
0.0
 10
48.6457519464
 20
79.4596247372
 30
0.0
 10
49.1740063567
 20
80.1928182234
 30
0.0
 10
49.545975482
 20
80.9706107649
 30
0.0
 10
49.7398555808
 20
81.5543108417
 30
0.0
 10
49.8524461744
 20
82.1456267551
 30
0.0
 10
49.8826966905
 20
82.7405867065
 30
0.0
 10
49.8304184734
 20
83.334988599
 30
0.0
 10
49.6960315853
 20
83.9246357493
 30
0.0
 10
49.4806718033
 20
84.5056377421
 30
0.0
 10
49.080049968
 20
85.2788276909
 30
0.0
 10
48.672916447
 20
85.8114856951
 30
0.0
 10
48.3672445986
 20
86.143761505
 30
0.0
  0
SPLINE
  5
41B
100
AcDbEntity
  8
0
100
AcDbSpline
 62
7
  6
CONTINUOUS
 70
0
 71
3
 72
9
 73
5
 74
0
 42
0.0000001
 43
0.0000001
 44
0.0000000001
 40
0.0
 40
0.0
 40
0.0
 40
0.0
 40
0.2421226047
 40
1.0
 40
1.0
 40
1.0
 40
1.0
 10
48.3672432275
 20
86.1437620256
 30
0.0
 10
48.3543589219
 20
86.1324511457
 30
0.0
 10
48.3001662524
 20
86.0868550974
 30
0.0
 10
48.2423086999
 20
86.0456761424
 30
0.0
 10
48.1970698103
 20
86.0168072596
 30
0.0
  0
SPLINE
  5
41C
100
AcDbEntity
  8
0
100
AcDbSpline
 62
7
  6
CONTINUOUS
 70
0
 71
3
 72
15
 73
11
 74
0
 42
0.0000001
 43
0.0000001
 44
0.0000000001
 40
0.0
 40
0.0
 40
0.0
 40
0.0
 40
0.1114128536
 40
0.2302848493
 40
0.3551442488
 40
0.484167496
 40
0.6153075833
 40
0.7464096809
 40
0.8753209518
 40
1.0
 40
1.0
 40
1.0
 40
1.0
 10
45.8309418451
 20
77.5683428085
 30
0.0
 10
45.3500914612
 20
77.290725367
 30
0.0
 10
44.3150846915
 20
76.7864398853
 30
0.0
 10
42.6412195454
 20
76.2013208297
 30
0.0
 10
40.8301575681
 20
75.7738115276
 30
0.0
 10
38.9261569506
 20
75.5143906737
 30
0.0
 10
36.9754285397
 20
75.4292718314
 30
0.0
 10
35.0254804825
 20
75.520567574
 30
0.0
 10
33.1241251148
 20
75.7859734061
 30
0.0
 10
31.8926684573
 20
76.0812214189
 30
0.0
 10
31.2970970133
 20
76.2583413845
 30
0.0
  0
SPLINE
  5
41D
100
AcDbEntity
  8
0
100
AcDbSpline
 62
7
  6
CONTINUOUS
 70
0
 71
3
 72
9
 73
5
 74
0
 42
0.0000001
 43
0.0000001
 44
0.0000000001
 40
0.0
 40
0.0
 40
0.0
 40
0.0
 40
0.2402283174
 40
1.0
 40
1.0
 40
1.0
 40
1.0
 10
31.2970978426
 20
76.2583409306
 30
0.0
 10
31.2728158054
 20
76.2435522808
 30
0.0
 10
31.1701444516
 20
76.1846186243
 30
0.0
 10
31.0617519682
 20
76.1358766892
 30
0.0
 10
30.9776888463
 20
76.1039580518
 30
0.0
  0
SPLINE
  5
41E
100
AcDbEntity
  8
0
100
AcDbSpline
 62
7
  6
CONTINUOUS
 70
0
 71
3
 72
15
 73
11
 74
0
 42
0.0000001
 43
0.0000001
 44
0.0000000001
 40
0.0
 40
0.0
 40
0.0
 40
0.0
 40
0.1243198322
 40
0.2530457772
 40
0.3841169686
 40
0.5153342536
 40
0.6444986223
 40
0.7695172635
 40
0.8885172767
 40
1.0
 40
1.0
 40
1.0
 40
1.0
 10
30.9776897505
 20
76.103957258
 30
0.0
 10
31.5942245186
 20
75.9149093443
 30
0.0
 10
32.8709929012
 20
75.5987063039
 30
0.0
 10
34.8454187677
 20
75.3109313358
 30
0.0
 10
36.873860059
 20
75.2058639372
 30
0.0
 10
38.9056358946
 20
75.28625539
 30
0.0
 10
40.8902766862
 20
75.5500246444
 30
0.0
 10
42.7786459055
 20
75.990771109
 30
0.0
 10
44.5237293247
 20
76.5974266815
 30
0.0
 10
45.602373696
 20
77.1220317152
 30
0.0
 10
46.1031790893
 20
77.411170118
 30
0.0
  0
SPLINE
  5
41F
100
AcDbEntity
  8
0
100
AcDbSpline
 62
7
  6
CONTINUOUS
 70
0
 71
3
 72
15
 73
11
 74
0
 42
0.0000001
 43
0.0000001
 44
0.0000000001
 40
0.0
 40
0.0
 40
0.0
 40
0.0
 40
0.1329852698
 40
0.2593025015
 40
0.3808031531
 40
0.4997806104
 40
0.6187890282
 40
0.7403726975
 40
0.8668169556
 40
1.0
 40
1.0
 40
1.0
 40
1.0
 10
25.257854247
 20
85.6761777093
 30
0.0
 10
25.0805823783
 20
85.4458718723
 30
0.0
 10
24.7641110423
 20
84.9730123004
 30
0.0
 10
24.4104966787
 20
84.2158363636
 30
0.0
 10
24.1965105468
 20
83.4390723751
 30
0.0
 10
24.1258447948
 20
82.6522583983
 30
0.0
 10
24.1997749072
 20
81.8655662076
 30
0.0
 10
24.4169402133
 20
81.0891505063
 30
0.0
 10
24.7736440877
 20
80.3324479871
 30
0.0
 10
25.0920913977
 20
79.8600709323
 30
0.0
 10
25.2703320759
 20
79.629967095
 30
0.0
  0
SPLINE
  5
420
100
AcDbEntity
  8
0
100
AcDbSpline
 62
7
  6
CONTINUOUS
 70
0
 71
3
 72
13
 73
9
 74
0
 42
0.0000001
 43
0.0000001
 44
0.0000000001
 40
0.0
 40
0.0
 40
0.0
 40
0.0
 40
0.2971055424
 40
0.4329101607
 40
0.5599554155
 40
0.7897576966
 40
0.8962804453
 40
1.0
 40
1.0
 40
1.0
 40
1.0
 10
47.9241105745
 20
98.9060251011
 30
0.0
 10
48.0318170738
 20
98.9516169334
 30
0.0
 10
48.1841462618
 20
99.0311924748
 30
0.0
 10
48.3601704737
 20
99.1647357005
 30
0.0
 10
48.4991571564
 20
99.3003417082
 30
0.0
 10
48.6026565637
 20
99.4553446113
 30
0.0
 10
48.6548755535
 20
99.6215245257
 30
0.0
 10
48.6635117827
 20
99.7045319787
 30
0.0
 10
48.6635117841
 20
99.7453622165
 30
0.0
  0
SPLINE
  5
421
100
AcDbEntity
  8
0
100
AcDbSpline
 62
7
  6
CONTINUOUS
 70
0
 71
3
 72
15
 73
11
 74
0
 42
0.0000001
 43
0.0000001
 44
0.0000000001
 40
0.0
 40
0.0
 40
0.0
 40
0.0
 40
0.108012851
 40
0.2180602668
 40
0.3319975558
 40
0.4513592091
 40
0.5772726463
 40
0.7104892546
 40
0.8514268211
 40
1.0
 40
1.0
 40
1.0
 40
1.0
 10
49.4847403512
 20
82.6611462212
 30
0.0
 10
49.4847409186
 20
82.4249786173
 30
0.0
 10
49.4436988627
 20
81.9472382308
 30
0.0
 10
49.2606544542
 20
81.2415967312
 30
0.0
 10
48.958508383
 20
80.5511361459
 30
0.0
 10
48.541017935
 20
79.8829246549
 30
0.0
 10
48.0130481275
 20
79.2429021635
 30
0.0
 10
47.3798307265
 20
78.6367941187
 30
0.0
 10
46.6477403571
 20
78.0701963985
 30
0.0
 10
46.112272197
 20
77.7307679933
 30
0.0
 10
45.8309418451
 20
77.5683428085
 30
0.0
  0
SPLINE
  5
422
100
AcDbEntity
  8
0
100
AcDbSpline
 62
7
  6
CONTINUOUS
 70
0
 71
3
 72
9
 73
5
 74
0
 42
0.0000001
 43
0.0000001
 44
0.0000000001
 40
0.0
 40
0.0
 40
0.0
 40
0.0
 40
0.4790076925
 40
1.0
 40
1.0
 40
1.0
 40
1.0
 10
25.6852814798
 20
91.0431565227
 30
0.0
 10
26.1543304668
 20
90.6613870279
 30
0.0
 10
27.2067237506
 20
89.9526286499
 30
0.0
 10
28.3480659862
 20
89.403678702
 30
0.0
 10
28.9567851181
 20
89.1543957459
 30
0.0
  0
SPLINE
  5
423
100
AcDbEntity
  8
0
100
AcDbSpline
 62
7
  6
CONTINUOUS
 70
0
 71
3
 72
11
 73
7
 74
0
 42
0.0000001
 43
0.0000001
 44
0.0000000001
 40
0.0
 40
0.0
 40
0.0
 40
0.0
 40
0.2408775736
 40
0.4855666479
 40
0.737573419
 40
1.0
 40
1.0
 40
1.0
 40
1.0
 10
24.5347507157
 20
82.848941777
 30
0.0
 10
24.5347474417
 20
82.6334981637
 30
0.0
 10
24.5687973943
 20
82.1984760734
 30
0.0
 10
24.7208970671
 20
81.5540999116
 30
0.0
 10
24.9724878091
 20
80.9210725411
 30
0.0
 10
25.1997813827
 20
80.519268841
 30
0.0
 10
25.327556924
 20
80.3223789824
 30
0.0
  0
SPLINE
  5
424
100
AcDbEntity
  8
0
100
AcDbSpline
 62
7
  6
CONTINUOUS
 70
0
 71
3
 72
15
 73
11
 74
0
 42
0.0000001
 43
0.0000001
 44
0.0000000001
 40
0.0
 40
0.0
 40
0.0
 40
0.0
 40
0.1227764773
 40
0.2524667138
 40
0.3860331659
 40
0.5201286465
 40
0.6513870361
 40
0.7766990233
 40
0.8934861392
 40
1.0
 40
1.0
 40
1.0
 40
1.0
 10
28.9567846707
 20
89.1543953818
 30
0.0
 10
29.0551237522
 20
89.1141135601
 30
0.0
 10
29.2636935685
 20
89.0462981075
 30
0.0
 10
29.5926167612
 20
88.9834699884
 30
0.0
 10
29.9363729948
 20
88.9582661475
 30
0.0
 10
30.2821219876
 20
88.971594995
 30
0.0
 10
30.6171221715
 20
89.0228434437
 30
0.0
 10
30.9292201674
 20
89.1100589927
 30
0.0
 10
31.2071637142
 20
89.2299419452
 30
0.0
 10
31.3713817227
 20
89.3341407815
 30
0.0
 10
31.4438135403
 20
89.3911779681
 30
0.0
  0
SPLINE
  5
425
100
AcDbEntity
  8
0
100
AcDbSpline
 62
7
  6
CONTINUOUS
 70
0
 71
3
 72
11
 73
7
 74
0
 42
0.0000001
 43
0.0000001
 44
0.0000000001
 40
0.0
 40
0.0
 40
0.0
 40
0.0
 40
0.2354071337
 40
0.4807572345
 40
0.7357756027
 40
1.0
 40
1.0
 40
1.0
 40
1.0
 10
31.4437985063
 20
89.3911843318
 30
0.0
 10
32.6184631763
 20
90.319924483
 30
0.0
 10
35.0946135541
 20
92.1205938542
 30
0.0
 10
39.0721799961
 20
94.5941074592
 30
0.0
 10
43.3675089254
 20
96.8827105029
 30
0.0
 10
46.3753381272
 20
98.2530864857
 30
0.0
 10
47.9240995518
 20
98.9060337808
 30
0.0
  0
SPLINE
  5
426
100
AcDbEntity
  8
0
100
AcDbSpline
 62
7
  6
CONTINUOUS
 70
0
 71
3
 72
15
 73
11
 74
0
 42
0.0000001
 43
0.0000001
 44
0.0000000001
 40
0.0
 40
0.0
 40
0.0
 40
0.0
 40
0.1196116581
 40
0.2331184125
 40
0.3445299538
 40
0.4582921107
 40
0.5783832914
 40
0.7077416106
 40
0.8481093027
 40
1.0
 40
1.0
 40
1.0
 40
1.0
 10
44.1285058288
 20
84.653210043
 30
0.0
 10
44.2474660892
 20
84.4655049521
 30
0.0
 10
44.4449357121
 20
84.0757056695
 30
0.0
 10
44.5986536106
 20
83.448196064
 30
0.0
 10
44.5938186844
 20
82.8123631382
 30
0.0
 10
44.4306552295
 20
82.1856898898
 30
0.0
 10
44.1155834056
 20
81.5832138413
 30
0.0
 10
43.6581862174
 20
81.0165373939
 30
0.0
 10
43.069259723
 20
80.4955323431
 30
0.0
 10
42.6142636126
 20
80.195882425
 30
0.0
 10
42.3698725322
 20
80.0547840112
 30
0.0
  0
SPLINE
  5
427
100
AcDbEntity
  8
0
100
AcDbSpline
 62
7
  6
CONTINUOUS
 70
0
 71
3
 72
10
 73
6
 74
0
 42
0.0000001
 43
0.0000001
 44
0.0000000001
 40
0.0
 40
0.0
 40
0.0
 40
0.0
 40
0.4749086092
 40
0.7312100412
 40
1.0
 40
1.0
 40
1.0
 40
1.0
 10
34.4050934828
 20
79.0394117099
 30
0.0
 10
33.964617417
 20
78.8208759269
 30
0.0
 10
33.3212215878
 20
78.4102255115
 30
0.0
 10
32.5294876783
 20
77.7421255768
 30
0.0
 10
32.1439821574
 20
77.3576434054
 30
0.0
 10
31.9544462286
 20
77.1538639415
 30
0.0
  0
SPLINE
  5
428
100
AcDbEntity
  8
0
100
AcDbSpline
 62
7
  6
CONTINUOUS
 70
0
 71
3
 72
19
 73
15
 74
0
 42
0.0000001
 43
0.0000001
 44
0.0000000001
 40
0.0
 40
0.0
 40
0.0
 40
0.0
 40
0.1509585045
 40
0.289321842
 40
0.4159531303
 40
0.4756547889
 40
0.5334612101
 40
0.589919218
 40
0.6456519341
 40
0.7013224591
 40
0.7575916792
 40
0.8150903108
 40
0.8743957326
 40
1.0
 40
1.0
 40
1.0
 40
1.0
 10
45.0743023872
 20
78.4002681034
 30
0.0
 10
45.4755730718
 20
78.6319404582
 30
0.0
 10
46.2176964509
 20
79.1263144185
 30
0.0
 10
47.160302825
 20
79.9959461452
 30
0.0
 10
47.7572379227
 20
80.8041062706
 30
0.0
 10
48.0931458432
 20
81.4757119686
 30
0.0
 10
48.2730707272
 20
81.9799554427
 30
0.0
 10
48.3842574858
 20
82.4912819544
 30
0.0
 10
48.4259956309
 20
83.0063847513
 30
0.0
 10
48.3977293705
 20
83.5218286134
 30
0.0
 10
48.2999583922
 20
84.0341489956
 30
0.0
 10
48.1331962778
 20
84.540076755
 30
0.0
 10
47.815004349
 20
85.2142110082
 30
0.0
 10
47.4838426677
 20
85.6821223907
 30
0.0
 10
47.2330535464
 20
85.9749271513
 30
0.0
  0
SPLINE
  5
429
100
AcDbEntity
  8
0
100
AcDbSpline
 62
7
  6
CONTINUOUS
 70
0
 71
3
 72
9
 73
5
 74
0
 42
0.0000001
 43
0.0000001
 44
0.0000000001
 40
0.0
 40
0.0
 40
0.0
 40
0.0
 40
0.4841801651
 40
1.0
 40
1.0
 40
1.0
 40
1.0
 10
47.2330593867
 20
85.9749229179
 30
0.0
 10
46.6973065954
 20
85.8650416381
 30
0.0
 10
45.6146355414
 20
85.512663157
 30
0.0
 10
44.618163052
 20
84.968996452
 30
0.0
 10
44.1285278117
 20
84.653194802
 30
0.0
  0
SPLINE
  5
42A
100
AcDbEntity
  8
0
100
AcDbSpline
 62
7
  6
CONTINUOUS
 70
0
 71
3
 72
11
 73
7
 74
0
 42
0.0000001
 43
0.0000001
 44
0.0000000001
 40
0.0
 40
0.0
 40
0.0
 40
0.0
 40
0.2280386334
 40
0.4747273309
 40
0.7343588055
 40
1.0
 40
1.0
 40
1.0
 40
1.0
 10
40.0849590675
 20
81.0347243265
 30
0.0
 10
39.8629695952
 20
80.90655941
 30
0.0
 10
39.3756281197
 20
80.6823688565
 30
0.0
 10
38.5810591978
 20
80.450107157
 30
0.0
 10
37.7216508393
 20
80.3153221898
 30
0.0
 10
37.129947394
 20
80.2943428002
 30
0.0
 10
36.8314323694
 20
80.3014165609
 30
0.0
  0
SPLINE
  5
42B
100
AcDbEntity
  8
0
100
AcDbSpline
 62
7
  6
CONTINUOUS
 70
0
 71
3
 72
9
 73
5
 74
0
 42
0.0000001
 43
0.0000001
 44
0.0000000001
 40
0.0
 40
0.0
 40
0.0
 40
0.0
 40
0.2578079516
 40
1.0
 40
1.0
 40
1.0
 40
1.0
 10
36.831420093
 20
80.3014230729
 30
0.0
 10
36.6248185095
 20
80.1893655159
 30
0.0
 10
35.8216623169
 20
79.7580063835
 30
0.0
 10
35.0112237206
 20
79.340134446
 30
0.0
 10
34.4050934828
 20
79.0394117099
 30
0.0
  0
SPLINE
  5
42C
100
AcDbEntity
  8
0
100
AcDbSpline
 62
7
  6
CONTINUOUS
 70
0
 71
3
 72
15
 73
11
 74
0
 42
0.0000001
 43
0.0000001
 44
0.0000000001
 40
0.0
 40
0.0
 40
0.0
 40
0.0
 40
0.1279378246
 40
0.2584244935
 40
0.389737558
 40
0.5201158453
 40
0.6478361221
 40
0.7712910049
 40
0.8890601637
 40
1.0
 40
1.0
 40
1.0
 40
1.0
 10
34.4050741234
 20
79.0394110313
 30
0.0
 10
34.7468709853
 20
78.9672088891
 30
0.0
 10
35.4441560133
 20
78.8523476961
 30
0.0
 10
36.506146734
 20
78.7679986564
 30
0.0
 10
37.5782086182
 20
78.7706053086
 30
0.0
 10
38.6389431589
 20
78.8602775468
 30
0.0
 10
39.6673081309
 20
79.0351519616
 30
0.0
 10
40.642999807
 20
79.2917838036
 30
0.0
 10
41.5465976281
 20
79.6250919408
 30
0.0
 10
42.107530539
 20
79.9033216951
 30
0.0
 10
42.3698725321
 20
80.0547840113
 30
0.0
  0
SPLINE
  5
42D
100
AcDbEntity
  8
0
100
AcDbSpline
 62
7
  6
CONTINUOUS
 70
0
 71
3
 72
14
 73
10
 74
0
 42
0.0000001
 43
0.0000001
 44
0.0000000001
 40
0.0
 40
0.0
 40
0.0
 40
0.0
 40
0.1085279509
 40
0.2184935771
 40
0.3319586478
 40
0.4507874367
 40
0.5763468157
 40
0.7095466793
 40
1.0
 40
1.0
 40
1.0
 40
1.0
 10
41.3550764415
 20
82.9131280938
 30
0.0
 10
41.3612043997
 20
82.8269354792
 30
0.0
 10
41.3579274106
 20
82.6518961549
 30
0.0
 10
41.3057929317
 20
82.3914620053
 30
0.0
 10
41.2071851823
 20
82.1360795201
 30
0.0
 10
41.0636394122
 20
81.8887476061
 30
0.0
 10
40.8770546577
 20
81.6518451331
 30
0.0
 10
40.5648601264
 20
81.3444293444
 30
0.0
 10
40.2852359938
 20
81.1503535736
 30
0.0
 10
40.0849590675
 20
81.0347243265
 30
0.0
  0
SPLINE
  5
42E
100
AcDbEntity
  8
0
100
AcDbSpline
 62
7
  6
CONTINUOUS
 70
0
 71
3
 72
9
 73
5
 74
0
 42
0.0000001
 43
0.0000001
 44
0.0000000001
 40
0.0
 40
0.0
 40
0.0
 40
0.0
 40
0.2517984357
 40
1.0
 40
1.0
 40
1.0
 40
1.0
 10
41.3550658197
 20
82.9131253097
 30
0.0
 10
41.2555390326
 20
82.852466871
 30
0.0
 10
40.8604130803
 20
82.6113405695
 30
0.0
 10
40.465594216
 20
82.3697074926
 30
0.0
 10
40.1694214278
 20
82.1901822434
 30
0.0
  0
SPLINE
  5
42F
100
AcDbEntity
  8
0
100
AcDbSpline
 62
7
  6
CONTINUOUS
 70
0
 71
3
 72
9
 73
5
 74
0
 42
0.0000001
 43
0.0000001
 44
0.0000000001
 40
0.0
 40
0.0
 40
0.0
 40
0.0
 40
0.4911501723
 40
1.0
 40
1.0
 40
1.0
 40
1.0
 10
30.571474227
 20
69.6877571964
 30
0.0
 10
31.4004299998
 20
69.4453827623
 30
0.0
 10
33.121393376
 20
69.061112704
 30
0.0
 10
34.8741904446
 20
68.8765962775
 30
0.0
 10
35.7678377924
 20
68.8314595269
 30
0.0
  0
SPLINE
  5
430
100
AcDbEntity
  8
0
100
AcDbSpline
 62
7
  6
CONTINUOUS
 70
0
 71
3
 72
9
 73
5
 74
0
 42
0.0000001
 43
0.0000001
 44
0.0000000001
 40
0.0
 40
0.0
 40
0.0
 40
0.0
 40
0.2525538971
 40
1.0
 40
1.0
 40
1.0
 40
1.0
 10
37.9445145255
 20
80.9056393121
 30
0.0
 10
37.8509858029
 20
80.8544492281
 30
0.0
 10
37.4802926548
 20
80.6524197162
 30
0.0
 10
37.1087974337
 20
80.451868625
 30
0.0
 10
36.831420093
 20
80.3014230729
 30
0.0
  0
SPLINE
  5
431
100
AcDbEntity
  8
0
100
AcDbSpline
 62
7
  6
CONTINUOUS
 70
0
 71
3
 72
15
 73
11
 74
0
 42
0.0000001
 43
0.0000001
 44
0.0000000001
 40
0.0
 40
0.0
 40
0.0
 40
0.0
 40
0.1113292176
 40
0.2300347521
 40
0.3546915922
 40
0.4835325525
 40
0.6145715169
 40
0.7457128634
 40
0.8748564551
 40
1.0
 40
1.0
 40
1.0
 40
1.0
 10
45.0743023872
 20
78.4002681035
 30
0.0
 10
44.6406211933
 20
78.149883644
 30
0.0
 10
43.7079530899
 20
77.6943845475
 30
0.0
 10
42.2003183284
 20
77.1635878542
 30
0.0
 10
40.5694455178
 20
76.7729072781
 30
0.0
 10
38.8541731218
 20
76.5316742943
 30
0.0
 10
37.0950700253
 20
76.4455221652
 30
0.0
 10
35.3338862782
 20
76.5165312447
 30
0.0
 10
33.6127083002
 20
76.742949494
 30
0.0
 10
32.4957216074
 20
76.9993374734
 30
0.0
 10
31.9544382585
 20
77.1538673471
 30
0.0
  0
SPLINE
  5
432
100
AcDbEntity
  8
0
100
AcDbSpline
 62
7
  6
CONTINUOUS
 70
0
 71
3
 72
11
 73
7
 74
0
 42
0.0000001
 43
0.0000001
 44
0.0000000001
 40
0.0
 40
0.0
 40
0.0
 40
0.0
 40
0.2455334978
 40
0.4893053939
 40
0.7387399593
 40
1.0
 40
1.0
 40
1.0
 40
1.0
 10
25.3559910117
 20
78.4339521457
 30
0.0
 10
25.3559818361
 20
78.3712517678
 30
0.0
 10
25.3696802758
 20
78.2457726531
 30
0.0
 10
25.4337808392
 20
78.0665433649
 30
0.0
 10
25.5397140761
 20
77.9036920875
 30
0.0
 10
25.6334270701
 20
77.8114733047
 30
0.0
 10
25.6851617754
 20
77.7693473725
 30
0.0
  0
SPLINE
  5
433
100
AcDbEntity
  8
0
100
AcDbSpline
 62
7
  6
CONTINUOUS
 70
0
 71
3
 72
11
 73
7
 74
0
 42
0.0000001
 43
0.0000001
 44
0.0000000001
 40
0.0
 40
0.0
 40
0.0
 40
0.0
 40
0.2272581291
 40
0.4647604448
 40
0.7206694309
 40
1.0
 40
1.0
 40
1.0
 40
1.0
 10
25.3559842637
 20
91.6396873805
 30
0.0
 10
25.3559842618
 20
91.5864146547
 30
0.0
 10
25.370948105
 20
91.4769648116
 30
0.0
 10
25.436645633
 20
91.3195868698
 30
0.0
 10
25.542905031
 20
91.1712989552
 30
0.0
 10
25.6344918342
 20
91.0844843821
 30
0.0
 10
25.6852808492
 20
91.0431562644
 30
0.0
  0
SPLINE
  5
434
100
AcDbEntity
  8
0
100
AcDbSpline
 62
7
  6
CONTINUOUS
 70
0
 71
3
 72
9
 73
5
 74
0
 42
0.0000001
 43
0.0000001
 44
0.0000000001
 40
0.0
 40
0.0
 40
0.0
 40
0.0
 40
0.2464279677
 40
1.0
 40
1.0
 40
1.0
 40
1.0
 10
31.443816994
 20
76.5924815011
 30
0.0
 10
31.4324752186
 20
76.5797812661
 30
0.0
 10
31.3856915417
 20
76.528925239
 30
0.0
 10
31.3359503605
 20
76.480802636
 30
0.0
 10
31.2970981403
 20
76.4461366679
 30
0.0
  0
SPLINE
  5
435
100
AcDbEntity
  8
0
100
AcDbSpline
 62
7
  6
CONTINUOUS
 70
0
 71
3
 72
15
 73
11
 74
0
 42
0.0000001
 43
0.0000001
 44
0.0000000001
 40
0.0
 40
0.0
 40
0.0
 40
0.0
 40
0.1247499247
 40
0.2537106685
 40
0.3848398347
 40
0.5159812982
 40
0.6449843222
 40
0.7698073777
 40
0.888634305
 40
1.0
 40
1.0
 40
1.0
 40
1.0
 10
31.2970981403
 20
76.4461366679
 30
0.0
 10
31.8930081826
 20
76.2689160047
 30
0.0
 10
33.125060724
 20
75.9735630576
 30
0.0
 10
35.0271652315
 20
75.708190916
 30
0.0
 10
36.9775110694
 20
75.6170540189
 30
0.0
 10
38.9282721168
 20
75.7023748014
 30
0.0
 10
40.831973324
 20
75.9619505288
 30
0.0
 10
42.6425021206
 20
76.3895056061
 30
0.0
 10
44.3157204945
 20
76.9745248338
 30
0.0
 10
45.350294968
 20
77.478638417
 30
0.0
 10
45.8309418451
 20
77.7561383644
 30
0.0
  0
SPLINE
  5
436
100
AcDbEntity
  8
0
100
AcDbSpline
 62
7
  6
CONTINUOUS
 70
0
 71
3
 72
15
 73
11
 74
0
 42
0.0000001
 43
0.0000001
 44
0.0000000001
 40
0.0
 40
0.0
 40
0.0
 40
0.0
 40
0.1485728898
 40
0.2895100347
 40
0.422726651
 40
0.5486402676
 40
0.6680020802
 40
0.7819395219
 40
0.8919870595
 40
1.0
 40
1.0
 40
1.0
 40
1.0
 10
45.8309418451
 20
77.7561383644
 30
0.0
 10
46.1122719057
 20
77.9185633811
 30
0.0
 10
46.6477397047
 20
78.2579905048
 30
0.0
 10
47.3798300807
 20
78.8245870374
 30
0.0
 10
48.0130494039
 20
79.4306934368
 30
0.0
 10
48.5410218599
 20
80.0707157329
 30
0.0
 10
48.9585148046
 20
80.7389277993
 30
0.0
 10
49.2606625897
 20
81.4293894639
 30
0.0
 10
49.4437075621
 20
82.1350323987
 30
0.0
 10
49.4847490397
 20
82.6127737624
 30
0.0
 10
49.4847481966
 20
82.848941777
 30
0.0
  0
SPLINE
  5
437
100
AcDbEntity
  8
0
100
AcDbSpline
 62
7
  6
CONTINUOUS
 70
0
 71
3
 72
9
 73
5
 74
0
 42
0.0000001
 43
0.0000001
 44
0.0000000001
 40
0.0
 40
0.0
 40
0.0
 40
0.0
 40
0.2421603974
 40
1.0
 40
1.0
 40
1.0
 40
1.0
 10
48.0998427586
 20
86.1471478893
 30
0.0
 10
48.0858284404
 20
86.1432403143
 30
0.0
 10
48.0277475479
 20
86.1278569643
 30
0.0
 10
47.9689113151
 20
86.1153733258
 30
0.0
 10
47.924098074
 20
86.1073224967
 30
0.0
  0
SPLINE
  5
438
100
AcDbEntity
  8
0
100
AcDbSpline
 62
7
  6
CONTINUOUS
 70
0
 71
3
 72
10
 73
6
 74
0
 42
0.0000001
 43
0.0000001
 44
0.0000000001
 40
0.0
 40
0.0
 40
0.0
 40
0.0
 40
0.2341802101
 40
0.4792199295
 40
1.0
 40
1.0
 40
1.0
 40
1.0
 10
25.6851629122
 20
77.7690611069
 30
0.0
 10
25.9145135197
 20
77.5822749135
 30
0.0
 10
26.4012942208
 20
77.2210367539
 30
0.0
 10
27.4727402599
 20
76.5505176531
 30
0.0
 10
28.3480737425
 20
76.1295646808
 30
0.0
 10
28.9568667284
 20
75.8804564736
 30
0.0
  0
SPLINE
  5
439
100
AcDbEntity
  8
0
100
AcDbSpline
 62
7
  6
CONTINUOUS
 70
0
 71
3
 72
11
 73
7
 74
0
 42
0.0000001
 43
0.0000001
 44
0.0000000001
 40
0.0
 40
0.0
 40
0.0
 40
0.0
 40
0.2522342312
 40
0.5098929728
 40
0.7625840935
 40
1.0
 40
1.0
 40
1.0
 40
1.0
 10
30.9776879619
 20
76.103957716
 30
0.0
 10
30.8279213783
 20
76.0102778388
 30
0.0
 10
30.5017746844
 20
75.8563504689
 30
0.0
 10
29.9770079699
 20
75.7371541293
 30
0.0
 10
29.4490487741
 20
75.7351126039
 30
0.0
 10
29.1108386699
 20
75.8174423721
 30
0.0
 10
28.9569530049
 20
75.8804206456
 30
0.0
  0
SPLINE
  5
43A
100
AcDbEntity
  8
0
100
AcDbSpline
 62
7
  6
CONTINUOUS
 70
0
 71
3
 72
17
 73
13
 74
0
 42
0.0000001
 43
0.0000001
 44
0.0000000001
 40
0.0
 40
0.0
 40
0.0
 40
0.0
 40
0.1559393356
 40
0.3036259663
 40
0.4418933116
 40
0.5701387324
 40
0.6884887176
 40
0.7979770442
 40
0.8500815628
 40
0.9008371086
 40
0.950657972
 40
1.0
 40
1.0
 40
1.0
 40
1.0
 10
44.928274946
 20
72.6254348061
 30
0.0
 10
45.6761487789
 20
72.8339964699
 30
0.0
 10
47.1151753713
 20
73.3060277626
 30
0.0
 10
49.1294801382
 20
74.2010649898
 30
0.0
 10
50.9109686132
 20
75.2500630562
 30
0.0
 10
52.4255433893
 20
76.4344975436
 30
0.0
 10
53.6435885119
 20
77.7335555702
 30
0.0
 10
54.402622542
 20
78.914547386
 30
0.0
 10
54.8253292697
 20
79.8856963432
 30
0.0
 10
55.0495114297
 20
80.6138783069
 30
0.0
 10
55.1846274289
 20
81.349680033
 30
0.0
 10
55.2147246345
 20
81.8439242008
 30
0.0
 10
55.2147301181
 20
82.0895945292
 30
0.0
  0
SPLINE
  5
43B
100
AcDbEntity
  8
0
100
AcDbSpline
 62
7
  6
CONTINUOUS
 70
0
 71
3
 72
9
 73
5
 74
0
 42
0.0000001
 43
0.0000001
 44
0.0000000001
 40
0.0
 40
0.0
 40
0.0
 40
0.0
 40
0.5125585448
 40
1.0
 40
1.0
 40
1.0
 40
1.0
 10
50.0475965526
 20
85.2088189589
 30
0.0
 10
50.2450312868
 20
84.9015605278
 30
0.0
 10
50.5800267956
 20
84.2674496675
 30
0.0
 10
50.7824677656
 20
83.5780491901
 30
0.0
 10
50.8432632695
 20
83.2360850217
 30
0.0
  0
SPLINE
  5
43C
100
AcDbEntity
  8
0
100
AcDbSpline
 62
7
  6
CONTINUOUS
 70
0
 71
3
 72
13
 73
9
 74
0
 42
0.0000001
 43
0.0000001
 44
0.0000000001
 40
0.0
 40
0.0
 40
0.0
 40
0.0
 40
0.1089334022
 40
0.2215435043
 40
0.3384835588
 40
0.4602370949
 40
0.7192656771
 40
1.0
 40
1.0
 40
1.0
 40
1.0
 10
50.6176254003
 20
80.7620781959
 30
0.0
 10
50.5476550902
 20
80.5702286546
 30
0.0
 10
50.3823616514
 20
80.1880939102
 30
0.0
 10
50.0682104013
 20
79.6355253484
 30
0.0
 10
49.6859358299
 20
79.097947552
 30
0.0
 10
49.0759653026
 20
78.3903645558
 30
0.0
 10
48.1460679957
 20
77.5613454826
 30
0.0
 10
47.2987433407
 20
77.0022446796
 30
0.0
 10
46.84297449
 20
76.7391079817
 30
0.0
  0
SPLINE
  5
43D
100
AcDbEntity
  8
0
100
AcDbSpline
 62
7
  6
CONTINUOUS
 70
0
 71
3
 72
9
 73
5
 74
0
 42
0.0000001
 43
0.0000001
 44
0.0000000001
 40
0.0
 40
0.0
 40
0.0
 40
0.0
 40
0.2474474702
 40
1.0
 40
1.0
 40
1.0
 40
1.0
 10
23.1765238396
 20
83.2376306221
 30
0.0
 10
23.1888557104
 20
83.3068474286
 30
0.0
 10
23.2448396653
 20
83.585450076
 30
0.0
 10
23.3253073227
 20
83.8590549201
 30
0.0
 10
23.3981524922
 20
84.0600850689
 30
0.0
  0
SPLINE
  5
43E
100
AcDbEntity
  8
0
100
AcDbSpline
 62
7
  6
CONTINUOUS
 70
0
 71
3
 72
11
 73
7
 74
0
 42
0.0000001
 43
0.0000001
 44
0.0000000001
 40
0.0
 40
0.0
 40
0.0
 40
0.0
 40
0.2335149272
 40
0.4769592119
 40
0.7320578388
 40
1.0
 40
1.0
 40
1.0
 40
1.0
 10
23.4391214238
 20
84.1693447427
 30
0.0
 10
23.5275659654
 20
84.3975222362
 30
0.0
 10
23.7406786603
 20
84.8515444996
 30
0.0
 10
24.152437364
 20
85.5009474807
 30
0.0
 10
24.6585103347
 20
86.1267727217
 30
0.0
 10
25.0464726878
 20
86.5154717034
 30
0.0
 10
25.2537695306
 20
86.7048802284
 30
0.0
  0
SPLINE
  5
43F
100
AcDbEntity
  8
0
100
AcDbSpline
 62
7
  6
CONTINUOUS
 70
0
 71
3
 72
9
 73
5
 74
0
 42
0.0000001
 43
0.0000001
 44
0.0000000001
 40
0.0
 40
0.0
 40
0.0
 40
0.0
 40
0.5016597852
 40
1.0
 40
1.0
 40
1.0
 40
1.0
 10
35.4580138715
 20
72.1757340654
 30
0.0
 10
36.3600795047
 20
72.1301721201
 30
0.0
 10
38.1630845284
 20
72.1186774679
 30
0.0
 10
39.9602688509
 20
72.2650851376
 30
0.0
 10
40.8502963556
 20
72.3786126672
 30
0.0
  0
SPLINE
  5
440
100
AcDbEntity
  8
0
100
AcDbSpline
 62
7
  6
CONTINUOUS
 70
0
 71
3
 72
9
 73
5
 74
0
 42
0.0000001
 43
0.0000001
 44
0.0000000001
 40
0.0
 40
0.0
 40
0.0
 40
0.0
 40
0.5150436228
 40
1.0
 40
1.0
 40
1.0
 40
1.0
 10
43.8215477622
 20
69.8009995194
 30
0.0
 10
44.4045084473
 20
69.9841623171
 30
0.0
 10
45.5203838215
 20
70.3936587539
 30
0.0
 10
46.5863764188
 20
70.9214544423
 30
0.0
 10
47.0846951751
 20
71.209064646
 30
0.0
  0
SPLINE
  5
441
100
AcDbEntity
  8
0
100
AcDbSpline
 62
7
  6
CONTINUOUS
 70
0
 71
3
 72
9
 73
5
 74
0
 42
0.0000001
 43
0.0000001
 44
0.0000000001
 40
0.0
 40
0.0
 40
0.0
 40
0.0
 40
0.5081213944
 40
1.0
 40
1.0
 40
1.0
 40
1.0
 10
35.793983271
 20
69.0856533479
 30
0.0
 10
34.9622523422
 20
69.1276627956
 30
0.0
 10
33.3284707916
 20
69.2952839607
 30
0.0
 10
31.7219038602
 20
69.6394468285
 30
0.0
 10
30.945331101
 20
69.8558829873
 30
0.0
  0
SPLINE
  5
442
100
AcDbEntity
  8
0
100
AcDbSpline
 62
7
  6
CONTINUOUS
 70
0
 71
3
 72
9
 73
5
 74
0
 42
0.0000001
 43
0.0000001
 44
0.0000000001
 40
0.0
 40
0.0
 40
0.0
 40
0.0
 40
0.513162976
 40
1.0
 40
1.0
 40
1.0
 40
1.0
 10
44.0194641722
 20
70.0124064519
 30
0.0
 10
44.5204737119
 20
70.1773678887
 30
0.0
 10
45.4838499962
 20
70.5400368698
 30
0.0
 10
46.4091110681
 20
70.9922924057
 30
0.0
 10
46.8460438047
 20
71.2362154273
 30
0.0
  0
SPLINE
  5
443
100
AcDbEntity
  8
0
100
AcDbSpline
 62
7
  6
CONTINUOUS
 70
0
 71
3
 72
9
 73
5
 74
0
 42
0.0000001
 43
0.0000001
 44
0.0000000001
 40
0.0
 40
0.0
 40
0.0
 40
0.0
 40
0.4917340427
 40
1.0
 40
1.0
 40
1.0
 40
1.0
 10
30.809380435
 20
69.7656222945
 30
0.0
 10
31.6043108382
 20
69.5418891381
 30
0.0
 10
33.2499928498
 20
69.1863418254
 30
0.0
 10
34.9240607803
 20
69.0136823611
 30
0.0
 10
35.7765529519
 20
68.970624295
 30
0.0
  0
SPLINE
  5
444
100
AcDbEntity
  8
0
100
AcDbSpline
 62
7
  6
CONTINUOUS
 70
0
 71
3
 72
9
 73
5
 74
0
 42
0.0000001
 43
0.0000001
 44
0.0000000001
 40
0.0
 40
0.0
 40
0.0
 40
0.0
 40
0.4870784347
 40
1.0
 40
1.0
 40
1.0
 40
1.0
 10
46.6958019785
 20
71.3129697256
 30
0.0
 10
46.2736386618
 20
71.0778178815
 30
0.0
 10
45.3807463555
 20
70.6411151872
 30
0.0
 10
44.4516519598
 20
70.2891887709
 30
0.0
 10
43.9687432244
 20
70.1287065543
 30
0.0
  0
SPLINE
  5
445
100
AcDbEntity
  8
0
100
AcDbSpline
 62
7
  6
CONTINUOUS
 70
0
 71
3
 72
12
 73
8
 74
0
 42
0.0000001
 43
0.0000001
 44
0.0000000001
 40
0.0
 40
0.0
 40
0.0
 40
0.0
 40
0.1081468239
 40
0.218355517
 40
0.4513331162
 40
0.7104559532
 40
1.0
 40
1.0
 40
1.0
 40
1.0
 10
60.8719975559
 20
68.6071505603
 30
0.0
 10
60.8719979242
 20
68.5787581627
 30
0.0
 10
60.8670571216
 20
68.5213121751
 30
0.0
 10
60.8371853401
 20
68.4061619522
 30
0.0
 10
60.7606276513
 20
68.2649076437
 30
0.0
 10
60.6179124742
 20
68.1150696163
 30
0.0
 10
60.4984956222
 20
68.032797103
 30
0.0
 10
60.4326640513
 20
67.9947894547
 30
0.0
  0
SPLINE
  5
446
100
AcDbEntity
  8
0
100
AcDbSpline
 62
7
  6
CONTINUOUS
 70
0
 71
3
 72
11
 73
7
 74
0
 42
0.0000001
 43
0.0000001
 44
0.0000000001
 40
0.0
 40
0.0
 40
0.0
 40
0.0
 40
0.2328247418
 40
0.475193812
 40
0.7302017783
 40
1.0
 40
1.0
 40
1.0
 40
1.0
 10
48.266263724
 20
68.5129052579
 30
0.0
 10
48.2167905559
 20
68.2916648672
 30
0.0
 10
48.0766209042
 20
67.8481019138
 30
0.0
 10
47.7566935841
 20
67.2102435069
 30
0.0
 10
47.3279331849
 20
66.5957452018
 30
0.0
 10
46.9830006972
 20
66.2167303005
 30
0.0
 10
46.7956181003
 20
66.0326047917
 30
0.0
  0
SPLINE
  5
447
100
AcDbEntity
  8
0
100
AcDbSpline
 62
7
  6
CONTINUOUS
 70
0
 71
3
 72
11
 73
7
 74
0
 42
0.0000001
 43
0.0000001
 44
0.0000000001
 40
0.0
 40
0.0
 40
0.0
 40
0.0
 40
0.2176491942
 40
0.4508388311
 40
0.710590663
 40
1.0
 40
1.0
 40
1.0
 40
1.0
 10
55.2427625927
 20
75.7605427364
 30
0.0
 10
55.2427647007
 20
75.7681555024
 30
0.0
 10
55.2399488432
 20
75.7840289778
 30
0.0
 10
55.2279194736
 20
75.8061685122
 30
0.0
 10
55.208865124
 20
75.8261477984
 30
0.0
 10
55.1929550081
 20
75.8371302564
 30
0.0
 10
55.1841884107
 20
75.8421915393
 30
0.0
  0
SPLINE
  5
448
100
AcDbEntity
  8
0
100
AcDbSpline
 62
7
  6
CONTINUOUS
 70
0
 71
3
 72
12
 73
8
 74
0
 42
0.0000001
 43
0.0000001
 44
0.0000000001
 40
0.0
 40
0.0
 40
0.0
 40
0.0
 40
0.2895093874
 40
0.5486282165
 40
0.7815598781
 40
0.8917702604
 40
1.0
 40
1.0
 40
1.0
 40
1.0
 10
14.3018730434
 20
54.8650156935
 30
0.0
 10
14.2141064428
 20
54.9156866176
 30
0.0
 10
14.0548847266
 20
55.0253703004
 30
0.0
 10
13.8646371376
 20
55.2251483323
 30
0.0
 10
13.7625033215
 20
55.4134381908
 30
0.0
 10
13.7226628685
 20
55.5669891189
 30
0.0
 10
13.7160979206
 20
55.6436178582
 30
0.0
 10
13.7161101449
 20
55.6815039781
 30
0.0
  0
SPLINE
  5
449
100
AcDbEntity
  8
0
100
AcDbSpline
 62
7
  6
CONTINUOUS
 70
0
 71
3
 72
11
 73
7
 74
0
 42
0.0000001
 43
0.0000001
 44
0.0000000001
 40
0.0
 40
0.0
 40
0.0
 40
0.0
 40
0.2633973489
 40
0.5240511659
 40
0.7722900682
 40
1.0
 40
1.0
 40
1.0
 40
1.0
 10
24.9925772343
 20
49.3892082931
 30
0.0
 10
24.833950719
 20
49.3730595661
 30
0.0
 10
24.5156860475
 20
49.3632029944
 30
0.0
 10
24.0493197632
 20
49.4127745906
 30
0.0
 10
23.6158044756
 20
49.5237143843
 30
0.0
 10
23.3504413731
 20
49.6409405169
 30
0.0
 10
23.2310650042
 20
49.7098609365
 30
0.0
  0
SPLINE
  5
44A
100
AcDbEntity
  8
0
100
AcDbSpline
 62
7
  6
CONTINUOUS
 70
0
 71
3
 72
10
 73
6
 74
0
 42
0.0000001
 43
0.0000001
 44
0.0000000001
 40
0.0
 40
0.0
 40
0.0
 40
0.0
 40
0.2305280709
 40
0.4761762461
 40
1.0
 40
1.0
 40
1.0
 40
1.0
 10
39.7713542403
 20
51.1057826433
 30
0.0
 10
39.6967595639
 20
51.0627156439
 30
0.0
 10
39.5364788246
 20
50.9842016842
 30
0.0
 10
39.1839621481
 20
50.8588312011
 30
0.0
 10
38.8991541654
 20
50.8049458422
 30
0.0
 10
38.7044393456
 20
50.7851232012
 30
0.0
  0
SPLINE
  5
44B
100
AcDbEntity
  8
0
100
AcDbSpline
 62
7
  6
CONTINUOUS
 70
0
 71
3
 72
9
 73
5
 74
0
 42
0.0000001
 43
0.0000001
 44
0.0000000001
 40
0.0
 40
0.0
 40
0.0
 40
0.0
 40
0.5079626055
 40
1.0
 40
1.0
 40
1.0
 40
1.0
 10
61.9892509348
 20
74.8880656177
 30
0.0
 10
61.8143244744
 20
74.8866754818
 30
0.0
 10
61.4698000494
 20
74.8631771935
 30
0.0
 10
61.1306875063
 20
74.7970194721
 30
0.0
 10
60.9670658073
 20
74.7529689226
 30
0.0
  0
SPLINE
  5
44C
100
AcDbEntity
  8
0
100
AcDbSpline
 62
7
  6
CONTINUOUS
 70
0
 71
3
 72
11
 73
7
 74
0
 42
0.0000001
 43
0.0000001
 44
0.0000000001
 40
0.0
 40
0.0
 40
0.0
 40
0.0
 40
0.2897298911
 40
0.5490460769
 40
0.78215515
 40
1.0
 40
1.0
 40
1.0
 40
1.0
 10
15.0089768806
 20
65.3978898197
 30
0.0
 10
14.9650935803
 20
65.4232252818
 30
0.0
 10
14.8854800235
 20
65.4780389562
 30
0.0
 10
14.7903669553
 20
65.5780399257
 30
0.0
 10
14.7301536809
 20
65.6886306326
 30
0.0
 10
14.7160831382
 20
65.7680343841
 30
0.0
 10
14.7160954314
 20
65.8061339621
 30
0.0
  0
SPLINE
  5
44D
100
AcDbEntity
  8
0
100
AcDbSpline
 62
7
  6
CONTINUOUS
 70
0
 71
3
 72
11
 73
7
 74
0
 42
0.0000001
 43
0.0000001
 44
0.0000000001
 40
0.0
 40
0.0
 40
0.0
 40
0.0
 40
0.2633973489
 40
0.5240511659
 40
0.7722900682
 40
1.0
 40
1.0
 40
1.0
 40
1.0
 10
24.8189249564
 20
60.082408741
 30
0.0
 10
24.7396116988
 20
60.0743343776
 30
0.0
 10
24.580479363
 20
60.0694060917
 30
0.0
 10
24.3472962209
 20
60.0941918898
 30
0.0
 10
24.1305385771
 20
60.1496617867
 30
0.0
 10
23.9978570259
 20
60.208274853
 30
0.0
 10
23.9381688414
 20
60.2427350627
 30
0.0
  0
SPLINE
  5
44E
100
AcDbEntity
  8
0
100
AcDbSpline
 62
7
  6
CONTINUOUS
 70
0
 71
3
 72
9
 73
5
 74
0
 42
0.0000001
 43
0.0000001
 44
0.0000000001
 40
0.0
 40
0.0
 40
0.0
 40
0.0
 40
0.4757635499
 40
1.0
 40
1.0
 40
1.0
 40
1.0
 10
39.0642445151
 20
61.6386533702
 30
0.0
 10
38.987330911
 20
61.5942475452
 30
0.0
 10
38.8126398837
 20
61.5231477504
 30
0.0
 10
38.6281444777
 20
61.4882349697
 30
0.0
 10
38.5307870678
 20
61.4783236492
 30
0.0
  0
SPLINE
  5
44F
100
AcDbEntity
  8
0
100
AcDbSpline
 62
7
  6
CONTINUOUS
 70
0
 71
3
 72
10
 73
6
 74
0
 42
0.0000001
 43
0.0000001
 44
0.0000000001
 40
0.0
 40
0.0
 40
0.0
 40
0.0
 40
0.2866151991
 40
0.5498201863
 40
1.0
 40
1.0
 40
1.0
 40
1.0
 10
57.6811284094
 20
78.0166503814
 30
0.0
 10
57.5827339427
 20
77.9811529369
 30
0.0
 10
57.3976179674
 20
77.9010685307
 30
0.0
 10
57.0873163002
 20
77.7093006275
 30
0.0
 10
56.8995721077
 20
77.5131170958
 30
0.0
 10
56.8242305444
 20
77.3671146857
 30
0.0
  0
SPLINE
  5
450
100
AcDbEntity
  8
0
100
AcDbSpline
 62
7
  6
CONTINUOUS
 70
0
 71
3
 72
15
 73
11
 74
0
 42
0.0000001
 43
0.0000001
 44
0.0000000001
 40
0.0
 40
0.0
 40
0.0
 40
0.0
 40
0.1119230048
 40
0.2317398841
 40
0.3576937348
 40
0.4876838667
 40
0.6193362049
 40
0.7501794527
 40
0.8778237619
 40
1.0
 40
1.0
 40
1.0
 40
1.0
 10
64.6838677168
 20
78.6962431123
 30
0.0
 10
64.5397848654
 20
78.7794275035
 30
0.0
 10
64.2282801883
 20
78.9293798217
 30
0.0
 10
63.7233956978
 20
79.0995710009
 30
0.0
 10
63.1766892779
 20
79.2190860648
 30
0.0
 10
62.6033433635
 20
79.2846833473
 30
0.0
 10
62.0191023921
 20
79.29451232
 30
0.0
 10
61.4400642219
 20
79.2483614381
 30
0.0
 10
60.8823492361
 20
79.147452668
 30
0.0
 10
60.525109976
 20
79.0426641501
 30
0.0
 10
60.3542745041
 20
78.9810324052
 30
0.0
  0
SPLINE
  5
451
100
AcDbEntity
  8
0
100
AcDbSpline
 62
7
  6
CONTINUOUS
 70
0
 71
3
 72
9
 73
5
 74
0
 42
0.0000001
 43
0.0000001
 44
0.0000000001
 40
0.0
 40
0.0
 40
0.0
 40
0.0
 40
0.2385276728
 40
1.0
 40
1.0
 40
1.0
 40
1.0
 10
65.1771649012
 20
78.3382020045
 30
0.0
 10
65.1415263945
 20
78.3711295543
 30
0.0
 10
64.9877086223
 20
78.5043878756
 30
0.0
 10
64.8180149766
 20
78.6187949079
 30
0.0
 10
64.6838677168
 20
78.6962431123
 30
0.0
  0
SPLINE
  5
452
100
AcDbEntity
  8
0
100
AcDbSpline
 62
7
  6
CONTINUOUS
 70
0
 71
3
 72
11
 73
7
 74
0
 42
0.0000001
 43
0.0000001
 44
0.0000000001
 40
0.0
 40
0.0
 40
0.0
 40
0.0
 40
0.2824889478
 40
0.5419605337
 40
0.7797456841
 40
1.0
 40
1.0
 40
1.0
 40
1.0
 10
16.7195772005
 20
74.5390612131
 30
0.0
 10
16.6504594736
 20
74.499156313
 30
0.0
 10
16.5224533058
 20
74.4140676637
 30
0.0
 10
16.3591034625
 20
74.2647215418
 30
0.0
 10
16.2363782591
 20
74.1017670775
 30
0.0
 10
16.182355439
 20
73.982597464
 30
0.0
 10
16.1641796988
 20
73.9230837474
 30
0.0
  0
SPLINE
  5
453
100
AcDbEntity
  8
0
100
AcDbSpline
 62
7
  6
CONTINUOUS
 70
0
 71
3
 72
13
 73
9
 74
0
 42
0.0000001
 43
0.0000001
 44
0.0000000001
 40
0.0
 40
0.0
 40
0.0
 40
0.0
 40
0.1080988358
 40
0.2182390548
 40
0.3322624508
 40
0.4516904487
 40
0.7106243591
 40
1.0
 40
1.0
 40
1.0
 40
1.0
 10
64.8049078307
 20
77.1456426386
 30
0.0
 10
64.8049085165
 20
77.0945272844
 30
0.0
 10
64.7960668242
 20
76.9911191384
 30
0.0
 10
64.7564020785
 20
76.8384030922
 30
0.0
 10
64.6910244097
 20
76.6889665418
 30
0.0
 10
64.5672996237
 20
76.4908925973
 30
0.0
 10
64.3475320351
 20
76.2596953013
 30
0.0
 10
64.132635087
 20
76.1118090219
 30
0.0
 10
64.0141336525
 20
76.0433925952
 30
0.0
  0
SPLINE
  5
454
100
AcDbEntity
  8
0
100
AcDbSpline
 62
7
  6
CONTINUOUS
 70
0
 71
3
 72
16
 73
12
 74
0
 42
0.0000001
 43
0.0000001
 44
0.0000000001
 40
0.0
 40
0.0
 40
0.0
 40
0.0
 40
0.1437327515
 40
0.2920546391
 40
0.4386973361
 40
0.5778163601
 40
0.7044898505
 40
0.8158786377
 40
0.9124760605
 40
0.9568919562
 40
1.0
 40
1.0
 40
1.0
 40
1.0
 10
56.4434739556
 20
74.8359060158
 30
0.0
 10
56.3654945847
 20
74.8149122591
 30
0.0
 10
56.2032760923
 20
74.7854949788
 30
0.0
 10
55.9561557797
 20
74.7770806833
 30
0.0
 10
55.712835144
 20
74.803695637
 30
0.0
 10
55.4879630122
 20
74.8636251634
 30
0.0
 10
55.294650738
 20
74.9537014792
 30
0.0
 10
55.1439247131
 20
75.0691002288
 30
0.0
 10
55.0593369314
 20
75.1868526818
 30
0.0
 10
55.0263465277
 20
75.2856072329
 30
0.0
 10
55.0208750443
 20
75.334934423
 30
0.0
 10
55.0208636438
 20
75.3591545796
 30
0.0
  0
SPLINE
  5
455
100
AcDbEntity
  8
0
100
AcDbSpline
 62
7
  6
CONTINUOUS
 70
0
 71
3
 72
11
 73
7
 74
0
 42
0.0000001
 43
0.0000001
 44
0.0000000001
 40
0.0
 40
0.0
 40
0.0
 40
0.0
 40
0.25812866
 40
0.5228700095
 40
0.7754199771
 40
1.0
 40
1.0
 40
1.0
 40
1.0
 10
60.3099239058
 20
74.5760519119
 30
0.0
 10
60.2895516903
 20
74.5705672647
 30
0.0
 10
60.2470013238
 20
74.563971076
 30
0.0
 10
60.1832999887
 20
74.5657772548
 30
0.0
 10
60.1237653776
 20
74.5790151588
 30
0.0
 10
60.0879461061
 20
74.5957375544
 30
0.0
 10
60.0727794093
 20
74.6060767138
 30
0.0
  0
SPLINE
  5
456
100
AcDbEntity
  8
0
100
AcDbSpline
 62
7
  6
CONTINUOUS
 70
0
 71
3
 72
9
 73
5
 74
0
 42
0.0000001
 43
0.0000001
 44
0.0000000001
 40
0.0
 40
0.0
 40
0.0
 40
0.0
 40
0.4573045139
 40
1.0
 40
1.0
 40
1.0
 40
1.0
 10
17.0012898787
 20
68.4537928812
 30
0.0
 10
16.9975326454
 20
68.4414903881
 30
0.0
 10
16.9819450537
 20
68.4168075802
 30
0.0
 10
16.9589703641
 20
68.3998277957
 30
0.0
 10
16.9457501286
 20
68.3921951347
 30
0.0
  0
SPLINE
  5
457
100
AcDbEntity
  8
0
100
AcDbSpline
 62
7
  6
CONTINUOUS
 70
0
 71
3
 72
11
 73
7
 74
0
 42
0.0000001
 43
0.0000001
 44
0.0000000001
 40
0.0
 40
0.0
 40
0.0
 40
0.0
 40
0.2824889478
 40
0.5419605337
 40
0.7797456841
 40
1.0
 40
1.0
 40
1.0
 40
1.0
 10
17.9796706667
 20
70.7554121907
 30
0.0
 10
17.9278323715
 20
70.7254835157
 30
0.0
 10
17.8318277457
 20
70.6616670287
 30
0.0
 10
17.7093153632
 20
70.5496574372
 30
0.0
 10
17.6172714607
 20
70.427441589
 30
0.0
 10
17.5767543456
 20
70.3380643789
 30
0.0
 10
17.5631225404
 20
70.2934290914
 30
0.0
  0
SPLINE
  5
458
100
AcDbEntity
  8
0
100
AcDbSpline
 62
7
  6
CONTINUOUS
 70
0
 71
3
 72
9
 73
5
 74
0
 42
0.0000001
 43
0.0000001
 44
0.0000000001
 40
0.0
 40
0.0
 40
0.0
 40
0.0
 40
0.2292130431
 40
1.0
 40
1.0
 40
1.0
 40
1.0
 10
20.2203428535
 20
72.1511181974
 30
0.0
 10
20.201026173
 20
72.1227239812
 30
0.0
 10
20.1077585294
 20
72.0049372434
 30
0.0
 10
19.98484935
 20
71.9130957328
 30
0.0
 10
19.8848377101
 20
71.8553543303
 30
0.0
  0
SPLINE
  5
459
100
AcDbEntity
  8
0
100
AcDbSpline
 62
7
  6
CONTINUOUS
 70
0
 71
3
 72
23
 73
19
 74
0
 42
0.0000001
 43
0.0000001
 44
0.0000000001
 40
0.0
 40
0.0
 40
0.0
 40
0.0
 40
0.0672996617
 40
0.1368803937
 40
0.2080984691
 40
0.2802661151
 40
0.3526620085
 40
0.4245585151
 40
0.4952440683
 40
0.5640444088
 40
0.6303471453
 40
0.6936283094
 40
0.7534812444
 40
0.8096505015
 40
0.862071976
 40
0.9109186297
 40
0.9566428022
 40
1.0
 40
1.0
 40
1.0
 40
1.0
 10
42.748769342
 20
63.6987397804
 30
0.0
 10
42.339617622
 20
63.5602937907
 30
0.0
 10
41.4948619913
 20
63.3148235913
 30
0.0
 10
40.1857501015
 20
63.044012536
 30
0.0
 10
38.8290999114
 20
62.8674351604
 30
0.0
 10
37.4453079871
 20
62.7877396604
 30
0.0
 10
36.0549929072
 20
62.8060970171
 30
0.0
 10
34.6789394249
 20
62.9222332164
 30
0.0
 10
33.3376882674
 20
63.1344134146
 30
0.0
 10
32.0512376504
 20
63.4395017657
 30
0.0
 10
30.8387199557
 20
63.8329824962
 30
0.0
 10
29.7180986592
 20
64.3090779233
 30
0.0
 10
28.7059185295
 20
64.860910156
 30
0.0
 10
27.8171032706
 20
65.4806975695
 30
0.0
 10
27.0648810589
 20
66.159895481
 30
0.0
 10
26.4607629015
 20
66.8895522476
 30
0.0
 10
26.0149781711
 20
67.659447134
 30
0.0
 10
25.825421941
 20
68.2035973354
 30
0.0
 10
25.7620096726
 20
68.474549538
 30
0.0
  0
SPLINE
  5
45A
100
AcDbEntity
  8
0
100
AcDbSpline
 62
7
  6
CONTINUOUS
 70
0
 71
3
 72
11
 73
7
 74
0
 42
0.0000001
 43
0.0000001
 44
0.0000000001
 40
0.0
 40
0.0
 40
0.0
 40
0.0
 40
0.2305602084
 40
0.4696882888
 40
0.7246439008
 40
1.0
 40
1.0
 40
1.0
 40
1.0
 10
65.80492914
 20
77.1456426287
 30
0.0
 10
65.8049183899
 20
77.2454672695
 30
0.0
 10
65.7797380273
 20
77.4496084456
 30
0.0
 10
65.6686524187
 20
77.7457283424
 30
0.0
 10
65.4877914398
 20
78.0279983261
 30
0.0
 10
65.3302729304
 20
78.1967406271
 30
0.0
 10
65.2427071872
 20
78.2776454021
 30
0.0
  0
SPLINE
  5
45B
100
AcDbEntity
  8
0
100
AcDbSpline
 62
7
  6
CONTINUOUS
 70
0
 71
3
 72
14
 73
10
 74
0
 42
0.0000001
 43
0.0000001
 44
0.0000000001
 40
0.0
 40
0.0
 40
0.0
 40
0.0
 40
0.1080467942
 40
0.2181291885
 40
0.3321080334
 40
0.4514986388
 40
0.5774422227
 40
0.7107216352
 40
1.0
 40
1.0
 40
1.0
 40
1.0
 10
65.80492914
 20
70.2870223248
 30
0.0
 10
65.8049366831
 20
70.2169772449
 30
0.0
 10
65.7927471354
 20
70.07528551
 30
0.0
 10
65.7384851952
 20
69.8659869996
 30
0.0
 10
65.6488249093
 20
69.6612238406
 30
0.0
 10
65.5250561878
 20
69.4630226113
 30
0.0
 10
65.3684310947
 20
69.2731906894
 30
0.0
 10
65.1111113597
 20
69.0269008378
 30
0.0
 10
64.8836534597
 20
68.8702984817
 30
0.0
 10
64.7212433776
 20
68.7765315368
 30
0.0
  0
SPLINE
  5
45C
100
AcDbEntity
  8
0
100
AcDbSpline
 62
7
  6
CONTINUOUS
 70
0
 71
3
 72
9
 73
5
 74
0
 42
0.0000001
 43
0.0000001
 44
0.0000000001
 40
0.0
 40
0.0
 40
0.0
 40
0.0
 40
0.4763588237
 40
1.0
 40
1.0
 40
1.0
 40
1.0
 10
45.660573976
 20
59.4661701823
 30
0.0
 10
45.5524036053
 20
59.4037183624
 30
0.0
 10
45.3081051735
 20
59.3019619433
 30
0.0
 10
45.0499656819
 20
59.2485095102
 30
0.0
 10
44.9136991595
 20
59.2316794057
 30
0.0
  0
SPLINE
  5
45D
100
AcDbEntity
  8
0
100
AcDbSpline
 62
7
  6
CONTINUOUS
 70
0
 71
3
 72
9
 73
5
 74
0
 42
0.0000001
 43
0.0000001
 44
0.0000000001
 40
0.0
 40
0.0
 40
0.0
 40
0.0
 40
0.4758131034
 40
1.0
 40
1.0
 40
1.0
 40
1.0
 10
32.9839427306
 20
55.5874447569
 30
0.0
 10
32.8692280101
 20
55.5212145774
 30
0.0
 10
32.6088115005
 20
55.4149999901
 30
0.0
 10
32.3337633971
 20
55.3625105816
 30
0.0
 10
32.1886150294
 20
55.3474495432
 30
0.0
  0
SPLINE
  5
45E
100
AcDbEntity
  8
0
100
AcDbSpline
 62
7
  6
CONTINUOUS
 70
0
 71
3
 72
11
 73
7
 74
0
 42
0.0000001
 43
0.0000001
 44
0.0000000001
 40
0.0
 40
0.0
 40
0.0
 40
0.0
 40
0.2700085216
 40
0.5348487332
 40
0.7814523769
 40
1.0
 40
1.0
 40
1.0
 40
1.0
 10
29.5958533154
 20
55.0784166617
 30
0.0
 10
29.4569093345
 20
55.0639994095
 30
0.0
 10
29.1788670077
 20
55.0580786112
 30
0.0
 10
28.7766519839
 20
55.1141664416
 30
0.0
 10
28.4153468249
 20
55.2306452233
 30
0.0
 10
28.2042365526
 20
55.3522174198
 30
0.0
 10
28.1158122019
 20
55.4226813168
 30
0.0
  0
SPLINE
  5
45F
100
AcDbEntity
  8
0
100
AcDbSpline
 62
7
  6
CONTINUOUS
 70
0
 71
3
 72
11
 73
7
 74
0
 42
0.0000001
 43
0.0000001
 44
0.0000000001
 40
0.0
 40
0.0
 40
0.0
 40
0.0
 40
0.2896115344
 40
0.5491078849
 40
0.7822328486
 40
1.0
 40
1.0
 40
1.0
 40
1.0
 10
16.71585612
 20
58.4520170054
 30
0.0
 10
16.67199136
 20
58.4773417635
 30
0.0
 10
16.5923977472
 20
58.5321962796
 30
0.0
 10
16.4972310317
 20
58.6321550931
 30
0.0
 10
16.4370061017
 20
58.7427822149
 30
0.0
 10
16.4230128938
 20
58.8221757844
 30
0.0
 10
16.4229967131
 20
58.8602612392
 30
0.0
  0
SPLINE
  5
460
100
AcDbEntity
  8
0
100
AcDbSpline
 62
7
  6
CONTINUOUS
 70
0
 71
3
 72
13
 73
9
 74
0
 42
0.0000001
 43
0.0000001
 44
0.0000000001
 40
0.0
 40
0.0
 40
0.0
 40
0.0
 40
0.1179100395
 40
0.2434213825
 40
0.5059216561
 40
0.7652222661
 40
0.8869551304
 40
1.0
 40
1.0
 40
1.0
 40
1.0
 10
20.8842537673
 20
56.7802793038
 30
0.0
 10
20.8350505134
 20
56.7570605727
 30
0.0
 10
20.7297946634
 20
56.7166974978
 30
0.0
 10
20.5027649441
 20
56.6604691101
 30
0.0
 10
20.2025112428
 20
56.6383267918
 30
0.0
 10
19.9055459091
 20
56.6771682311
 30
0.0
 10
19.6878533812
 20
56.7465239537
 30
0.0
 10
19.5894685607
 20
56.7929736218
 30
0.0
 10
19.5442950206
 20
56.8190539873
 30
0.0
  0
SPLINE
  5
461
100
AcDbEntity
  8
0
100
AcDbSpline
 62
7
  6
CONTINUOUS
 70
0
 71
3
 72
11
 73
7
 74
0
 42
0.0000001
 43
0.0000001
 44
0.0000000001
 40
0.0
 40
0.0
 40
0.0
 40
0.0
 40
0.2834797749
 40
0.540994971
 40
0.7766487288
 40
1.0
 40
1.0
 40
1.0
 40
1.0
 10
16.6486842803
 20
60.0421335831
 30
0.0
 10
16.6143083113
 20
60.0178516085
 30
0.0
 10
16.5521487888
 20
59.9662135172
 30
0.0
 10
16.4790146035
 20
59.8758935131
 30
0.0
 10
16.4334381168
 20
59.778447742
 30
0.0
 10
16.4229826058
 20
59.7099236939
 30
0.0
 10
16.422996703
 20
59.6767636565
 30
0.0
  0
SPLINE
  5
462
100
AcDbEntity
  8
0
100
AcDbSpline
 62
7
  6
CONTINUOUS
 70
0
 71
3
 72
9
 73
5
 74
0
 42
0.0000001
 43
0.0000001
 44
0.0000000001
 40
0.0
 40
0.0
 40
0.0
 40
0.0
 40
0.2542471504
 40
1.0
 40
1.0
 40
1.0
 40
1.0
 10
13.7049584328
 20
63.9361917644
 30
0.0
 10
13.7003862579
 20
63.9497236611
 30
0.0
 10
13.6844405099
 20
64.0036088941
 30
0.0
 10
13.6772055075
 20
64.0601104396
 30
0.0
 10
13.6772193971
 20
64.1020063851
 30
0.0
  0
SPLINE
  5
463
100
AcDbEntity
  8
0
100
AcDbSpline
 62
7
  6
CONTINUOUS
 70
0
 71
3
 72
11
 73
7
 74
0
 42
0.0000001
 43
0.0000001
 44
0.0000000001
 40
0.0
 40
0.0
 40
0.0
 40
0.0
 40
0.2271500923
 40
0.464670681
 40
0.7209280913
 40
1.0
 40
1.0
 40
1.0
 40
1.0
 10
55.0208636438
 20
75.3591545796
 30
0.0
 10
55.0208495845
 20
75.3890230657
 30
0.0
 10
55.0292795155
 20
75.4504035781
 30
0.0
 10
55.0661690855
 20
75.538708815
 30
0.0
 10
55.1259254365
 20
75.6217992014
 30
0.0
 10
55.17729777
 20
75.6705092418
 30
0.0
 10
55.2057816894
 20
75.6936446845
 30
0.0
  0
SPLINE
  5
464
100
AcDbEntity
  8
0
100
AcDbSpline
 62
7
  6
CONTINUOUS
 70
0
 71
3
 72
14
 73
10
 74
0
 42
0.0000001
 43
0.0000001
 44
0.0000000001
 40
0.0
 40
0.0
 40
0.0
 40
0.0
 40
0.2892783648
 40
0.4225577773
 40
0.5485013612
 40
0.6678919666
 40
0.7818708115
 40
0.8919532058
 40
1.0
 40
1.0
 40
1.0
 40
1.0
 10
64.7212433776
 20
75.6351518407
 30
0.0
 10
64.8836534597
 20
75.7289187856
 30
0.0
 10
65.1111113597
 20
75.8855211417
 30
0.0
 10
65.3684310947
 20
76.1318109932
 30
0.0
 10
65.5250561878
 20
76.3216429152
 30
0.0
 10
65.6488249093
 20
76.5198441445
 30
0.0
 10
65.7384851952
 20
76.7246073035
 30
0.0
 10
65.7927471354
 20
76.9339058139
 30
0.0
 10
65.8049366831
 20
77.0755975488
 30
0.0
 10
65.80492914
 20
77.1456426287
 30
0.0
  0
SPLINE
  5
465
100
AcDbEntity
  8
0
100
AcDbSpline
 62
7
  6
CONTINUOUS
 70
0
 71
3
 72
10
 73
6
 74
0
 42
0.0000001
 43
0.0000001
 44
0.0000000001
 40
0.0
 40
0.0
 40
0.0
 40
0.0
 40
0.5238237539
 40
0.7694719291
 40
1.0
 40
1.0
 40
1.0
 40
1.0
 10
38.7044393456
 20
60.9097531736
 30
0.0
 10
38.8991541654
 20
60.9295758146
 30
0.0
 10
39.1839621481
 20
60.9834611735
 30
0.0
 10
39.5364788246
 20
61.1088316566
 30
0.0
 10
39.6967595639
 20
61.1873456163
 30
0.0
 10
39.7713542403
 20
61.2304126157
 30
0.0
  0
SPLINE
  5
466
100
AcDbEntity
  8
0
100
AcDbSpline
 62
7
  6
CONTINUOUS
 70
0
 71
3
 72
11
 73
7
 74
0
 42
0.0000001
 43
0.0000001
 44
0.0000000001
 40
0.0
 40
0.0
 40
0.0
 40
0.0
 40
0.2277099318
 40
0.4759488341
 40
0.7366026511
 40
1.0
 40
1.0
 40
1.0
 40
1.0
 10
23.2310650042
 20
59.8344909089
 30
0.0
 10
23.3504413731
 20
59.7655704893
 30
0.0
 10
23.6158044756
 20
59.6483443567
 30
0.0
 10
24.0493197632
 20
59.537404563
 30
0.0
 10
24.5156860475
 20
59.4878329668
 30
0.0
 10
24.833950719
 20
59.4976895385
 30
0.0
 10
24.9925772343
 20
59.5138382655
 30
0.0
  0
SPLINE
  5
467
100
AcDbEntity
  8
0
100
AcDbSpline
 62
7
  6
CONTINUOUS
 70
0
 71
3
 72
9
 73
5
 74
0
 42
0.0000001
 43
0.0000001
 44
0.0000000001
 40
0.0
 40
0.0
 40
0.0
 40
0.0
 40
0.247700755
 40
1.0
 40
1.0
 40
1.0
 40
1.0
 10
13.6772194053
 20
64.9185088021
 30
0.0
 10
13.6772147916
 20
64.9045935205
 30
0.0
 10
13.6795229601
 20
64.8484279927
 30
0.0
 10
13.6914266794
 20
64.7927462738
 30
0.0
 10
13.7049540478
 20
64.752707164
 30
0.0
  0
SPLINE
  5
468
100
AcDbEntity
  8
0
100
AcDbSpline
 62
7
  6
CONTINUOUS
 70
0
 71
3
 72
10
 73
6
 74
0
 42
0.0000001
 43
0.0000001
 44
0.0000000001
 40
0.0
 40
0.0
 40
0.0
 40
0.0
 40
0.2866151991
 40
0.5498201863
 40
1.0
 40
1.0
 40
1.0
 40
1.0
 10
58.2110512044
 20
73.9344272227
 30
0.0
 10
58.161853971
 20
73.9166785005
 30
0.0
 10
58.0692959834
 20
73.8766362974
 30
0.0
 10
57.9141451498
 20
73.7807523458
 30
0.0
 10
57.8202730535
 20
73.6826605799
 30
0.0
 10
57.7826022719
 20
73.6096593749
 30
0.0
  0
SPLINE
  5
469
100
AcDbEntity
  8
0
100
AcDbSpline
 62
7
  6
CONTINUOUS
 70
0
 71
3
 72
11
 73
7
 74
0
 42
0.0000001
 43
0.0000001
 44
0.0000000001
 40
0.0
 40
0.0
 40
0.0
 40
0.0
 40
0.2202543159
 40
0.4580394663
 40
0.7175110522
 40
1.0
 40
1.0
 40
1.0
 40
1.0
 10
17.1489881748
 20
73.8228317257
 30
0.0
 10
17.1580760449
 20
73.852588584
 30
0.0
 10
17.185087455
 20
73.9121733908
 30
0.0
 10
17.2464500566
 20
73.9936506229
 30
0.0
 10
17.3281249783
 20
74.0683236838
 30
0.0
 10
17.3921280622
 20
74.1108680085
 30
0.0
 10
17.4266869256
 20
74.1308204585
 30
0.0
  0
SPLINE
  5
46A
100
AcDbEntity
  8
0
100
AcDbSpline
 62
7
  6
CONTINUOUS
 70
0
 71
3
 72
9
 73
5
 74
0
 42
0.0000001
 43
0.0000001
 44
0.0000000001
 40
0.0
 40
0.0
 40
0.0
 40
0.0
 40
0.5236411763
 40
1.0
 40
1.0
 40
1.0
 40
1.0
 10
44.9136991595
 20
60.0481818229
 30
0.0
 10
45.0499656819
 20
60.0650119274
 30
0.0
 10
45.3081051735
 20
60.1184643604
 30
0.0
 10
45.5524036053
 20
60.2202207795
 30
0.0
 10
45.660573976
 20
60.2826725994
 30
0.0
  0
SPLINE
  5
46B
100
AcDbEntity
  8
0
100
AcDbSpline
 62
7
  6
CONTINUOUS
 70
0
 71
3
 72
12
 73
8
 74
0
 42
0.0000001
 43
0.0000001
 44
0.0000000001
 40
0.0
 40
0.0
 40
0.0
 40
0.0
 40
0.2895440695
 40
0.5486669524
 40
0.781644519
 40
0.8918531962
 40
1.0
 40
1.0
 40
1.0
 40
1.0
 10
60.4326640513
 20
68.8112918718
 30
0.0
 10
60.4984956271
 20
68.849299523
 30
0.0
 10
60.6179124852
 20
68.9315720582
 30
0.0
 10
60.7606276708
 20
69.0814100878
 30
0.0
 10
60.8371853569
 20
69.2226643996
 30
0.0
 10
60.8670571141
 20
69.3378146085
 30
0.0
 10
60.8719979267
 20
69.3952605851
 30
0.0
 10
60.8719975578
 20
69.4236529774
 30
0.0
  0
SPLINE
  5
46C
100
AcDbEntity
  8
0
100
AcDbSpline
 62
7
  6
CONTINUOUS
 70
0
 71
3
 72
9
 73
5
 74
0
 42
0.0000001
 43
0.0000001
 44
0.0000000001
 40
0.0
 40
0.0
 40
0.0
 40
0.0
 40
0.5241868966
 40
1.0
 40
1.0
 40
1.0
 40
1.0
 10
32.1886150294
 20
56.1639519604
 30
0.0
 10
32.3337633971
 20
56.1790129987
 30
0.0
 10
32.6088115005
 20
56.2315024072
 30
0.0
 10
32.8692280101
 20
56.3377169945
 30
0.0
 10
32.9839427306
 20
56.403947174
 30
0.0
  0
SPLINE
  5
46D
100
AcDbEntity
  8
0
100
AcDbSpline
 62
7
  6
CONTINUOUS
 70
0
 71
3
 72
12
 73
8
 74
0
 42
0.0000001
 43
0.0000001
 44
0.0000000001
 40
0.0
 40
0.0
 40
0.0
 40
0.0
 40
0.1082297396
 40
0.2184401219
 40
0.4513717835
 40
0.7104906126
 40
1.0
 40
1.0
 40
1.0
 40
1.0
 10
13.7161101449
 20
65.8061339505
 30
0.0
 10
13.7160979206
 20
65.7682478306
 30
0.0
 10
13.7226628685
 20
65.6916190913
 30
0.0
 10
13.7625033215
 20
65.5380681632
 30
0.0
 10
13.8646371376
 20
65.3497783047
 30
0.0
 10
14.0548847266
 20
65.1500002729
 30
0.0
 10
14.2141064428
 20
65.0403165901
 30
0.0
 10
14.3018730434
 20
64.9896456659
 30
0.0
  0
SPLINE
  5
46E
100
AcDbEntity
  8
0
100
AcDbSpline
 62
7
  6
CONTINUOUS
 70
0
 71
3
 72
11
 73
7
 74
0
 42
0.0000001
 43
0.0000001
 44
0.0000000001
 40
0.0
 40
0.0
 40
0.0
 40
0.0
 40
0.2185476819
 40
0.4651513502
 40
0.7299915463
 40
1.0
 40
1.0
 40
1.0
 40
1.0
 10
28.1158122019
 20
56.2391837339
 30
0.0
 10
28.2042365763
 20
56.168719818
 30
0.0
 10
28.4153468923
 20
56.0471476071
 30
0.0
 10
28.776652091
 20
55.9306688347
 30
0.0
 10
29.178867087
 20
55.8745810273
 30
0.0
 10
29.4569093695
 20
55.8805018302
 30
0.0
 10
29.5958533154
 20
55.8949190788
 30
0.0
  0
SPLINE
  5
46F
100
AcDbEntity
  8
0
100
AcDbSpline
 62
7
  6
CONTINUOUS
 70
0
 71
3
 72
13
 73
9
 74
0
 42
0.0000001
 43
0.0000001
 44
0.0000000001
 40
0.0
 40
0.0
 40
0.0
 40
0.0
 40
0.1130449316
 40
0.234777919
 40
0.4940785979
 40
0.7565788073
 40
0.8820900238
 40
1.0
 40
1.0
 40
1.0
 40
1.0
 10
19.5442950206
 20
57.6355564045
 30
0.0
 10
19.5894685855
 20
57.6094760247
 30
0.0
 10
19.6878534992
 20
57.5630263531
 30
0.0
 10
19.9055461309
 20
57.4936705754
 30
0.0
 10
20.2025115426
 20
57.4548292013
 30
0.0
 10
20.5027651728
 20
57.4769715858
 30
0.0
 10
20.7297947844
 20
57.5331999261
 30
0.0
 10
20.8350505398
 20
57.5735630023
 30
0.0
 10
20.8842537673
 20
57.5967817209
 30
0.0
  0
SPLINE
  5
470
100
AcDbEntity
  8
0
100
AcDbSpline
 62
7
  6
CONTINUOUS
 70
0
 71
3
 72
11
 73
7
 74
0
 42
0.0000001
 43
0.0000001
 44
0.0000000001
 40
0.0
 40
0.0
 40
0.0
 40
0.0
 40
0.2752889082
 40
0.5303247667
 40
0.769461132
 40
1.0
 40
1.0
 40
1.0
 40
1.0
 10
64.3946612973
 20
77.9716987076
 30
0.0
 10
64.4585447182
 20
77.9126747833
 30
0.0
 10
64.5734684869
 20
77.7895158014
 30
0.0
 10
64.7054896565
 20
77.5835578362
 30
0.0
 10
64.7865655846
 20
77.3674476288
 30
0.0
 10
64.8049068534
 20
77.2184805481
 30
0.0
 10
64.8049078307
 20
77.1456426386
 30
0.0
  0
SPLINE
  5
471
100
AcDbEntity
  8
0
100
AcDbSpline
 62
7
  6
CONTINUOUS
 70
0
 71
3
 72
9
 73
5
 74
0
 42
0.0000001
 43
0.0000001
 44
0.0000000001
 40
0.0
 40
0.0
 40
0.0
 40
0.0
 40
0.2618088073
 40
1.0
 40
1.0
 40
1.0
 40
1.0
 10
63.9767638796
 20
78.2879989584
 30
0.0
 10
64.0097060932
 20
78.2689801928
 30
0.0
 10
64.1337272818
 20
78.1933198341
 30
0.0
 10
64.2503436449
 20
78.1050383763
 30
0.0
 10
64.3291190114
 20
78.0322553099
 30
0.0
  0
SPLINE
  5
472
100
AcDbEntity
  8
0
100
AcDbSpline
 62
7
  6
CONTINUOUS
 70
0
 71
3
 72
15
 73
11
 74
0
 42
0.0000001
 43
0.0000001
 44
0.0000000001
 40
0.0
 40
0.0
 40
0.0
 40
0.0
 40
0.1221571049
 40
0.2498297024
 40
0.3806608911
 40
0.5123162431
 40
0.642308943
 40
0.7682513553
 40
0.8880939866
 40
1.0
 40
1.0
 40
1.0
 40
1.0
 10
60.8841972991
 20
78.4914198819
 30
0.0
 10
61.0062033853
 20
78.5354356117
 30
0.0
 10
61.2613881169
 20
78.6102685872
 30
0.0
 10
61.6597473766
 20
78.6823727602
 30
0.0
 10
62.0733672984
 20
78.7153268455
 30
0.0
 10
62.490675168
 20
78.7083199669
 30
0.0
 10
62.9001995646
 20
78.6614517685
 30
0.0
 10
63.2907246207
 20
78.5760929357
 30
0.0
 10
63.6513435022
 20
78.4545010569
 30
0.0
 10
63.8738633005
 20
78.3474072915
 30
0.0
 10
63.9767638796
 20
78.2879989584
 30
0.0
  0
SPLINE
  5
473
100
AcDbEntity
  8
0
100
AcDbSpline
 62
7
  6
CONTINUOUS
 70
0
 71
3
 72
10
 73
6
 74
0
 42
0.0000001
 43
0.0000001
 44
0.0000000001
 40
0.0
 40
0.0
 40
0.0
 40
0.0
 40
0.4501798137
 40
0.7133848009
 40
1.0
 40
1.0
 40
1.0
 40
1.0
 10
57.7826022719
 20
77.2022700102
 30
0.0
 10
57.8202730535
 20
77.2752712153
 30
0.0
 10
57.9141451498
 20
77.3733629811
 30
0.0
 10
58.0692959834
 20
77.4692469327
 30
0.0
 10
58.161853971
 20
77.5092891359
 30
0.0
 10
58.2110512044
 20
77.5270378581
 30
0.0
  0
SPLINE
  5
474
100
AcDbEntity
  8
0
100
AcDbSpline
 62
7
  6
CONTINUOUS
 70
0
 71
3
 72
11
 73
7
 74
0
 42
0.0000001
 43
0.0000001
 44
0.0000000001
 40
0.0
 40
0.0
 40
0.0
 40
0.0
 40
0.217767258
 40
0.4508922537
 40
0.7103884555
 40
1.0
 40
1.0
 40
1.0
 40
1.0
 10
16.422996703
 20
59.6767636565
 30
0.0
 10
16.4230128941
 20
59.6386781827
 30
0.0
 10
16.437006121
 20
59.5592845907
 30
0.0
 10
16.4972310657
 20
59.4486574821
 30
0.0
 10
16.5923977402
 20
59.3486986531
 30
0.0
 10
16.6719913581
 20
59.2938441817
 30
0.0
 10
16.71585612
 20
59.2685194226
 30
0.0
  0
ELLIPSE
  5
475
100
AcDbEntity
  8
0
100
AcDbEllipse
 62
7
  6
CONTINUOUS
 10
37.0097480239
 20
155.545367858
 30
0.0
 11
12.3397109555
 21
830.4982591705
 31
0.0
 40
0.0151108843
 41
-1.6712043052
 42
-1.6705576637
  0
ELLIPSE
  5
476
100
AcDbEntity
  8
0
100
AcDbEllipse
 62
7
  6
CONTINUOUS
 10
37.0097480239
 20
155.545367858
 30
0.0
 11
-12.5569772087
 21
816.1286110998
 31
0.0
 40
0.0151105672
 41
-1.6718136505
 42
-1.6712651786
  0
ENDSEC
  0
SECTION
  2
OBJECTS
  0
DICTIONARY
  5
C
100
AcDbDictionary
280
0
281
1
  3
ACAD_GROUP
350
D
  3
ACAD_MLINESTYLE
350
17
  3
ACAD_LAYOUT
350
1A
  3
ACAD_PLOTSETTINGS
350
19
  3
ACAD_PLOTSTYLENAME
350
E
  0
DICTIONARY
  5
D
102
{ACAD_REACTORS
330
C
102
}
100
AcDbDictionary
280
0
281
1
  0
ACDBDICTIONARYWDFLT
  5
E
102
{ACAD_REACTORS
330
C
102
}
100
AcDbDictionary
281
1
  3
Normal
350
F
100
AcDbDictionaryWithDefault
340
F
  0
DICTIONARY
  5
17
102
{ACAD_REACTORS
330
C
102
}
100
AcDbDictionary
280
0
281
1
  3
Standard
350
18
  0
DICTIONARY
  5
19
102
{ACAD_REACTORS
330
C
102
}
100
AcDbDictionary
281
1
  0
DICTIONARY
  5
1A
102
{ACAD_REACTORS
330
C
102
}
100
AcDbDictionary
281
1
  3
Model
350
477
  3
Layout1
350
478
  0
ACDBPLACEHOLDER
  5
F
102
{ACAD_REACTORS
330
E
102
}
  0
MLINESTYLE
  5
18
102
{ACAD_REACTORS
330
17
102
}
100
AcDbMlineStyle
  2
STANDARD
 70
0
  3

 62
256
 51
90.0
 52
90.0
 71
2
 49
0.5
 62
256
  6
BYLAYER
 49
-0.5
 62
256
  6
BYLAYER
  0
LAYOUT
  5
477
102
{ACAD_REACTORS
330
1A
102
}
100
AcDbPlotSettings
  1

  2
none_device
  4

  6

 40
0.0
 41
0.0
 42
0.0
 43
0.0
 44
210.0
 45
297.0
 46
0.0
 47
0.0
 48
0.0
 49
0.0
140
0.0
141
0.0
142
1.0
143
1.0
 70
1024
 72
1
 73
0
 74
0
  7

 75
0
147
1.0
148
0.0
149
0.0
100
AcDbLayout
  1
Model
 70
0
 71
0
 10
0.0
 20
0.0
 11
210.0
 21
297.0
 12
0.0
 22
0.0
 32
0.0
 14
0.0
 24
0.0
 34
0.0
 15
0.0
 25
0.0
 35
0.0
146
0.0
 13
0.0
 23
0.0
 33
0.0
 16
1.0
 26
0.0
 36
0.0
 17
0.0
 27
1.0
 37
0.0
 76
0
330
210
345
0
346
0
  0
LAYOUT
  5
478
102
{ACAD_REACTORS
330
1A
102
}
100
AcDbPlotSettings
  1

  2
none_device
  4

  6

 40
0.0
 41
0.0
 42
0.0
 43
0.0
 44
210.0
 45
297.0
 46
0.0
 47
0.0
 48
0.0
 49
0.0
140
0.0
141
0.0
142
1.0
143
1.0
 70
0
 72
1
 73
0
 74
0
  7

 75
0
147
1.0
148
0.0
149
0.0
100
AcDbLayout
  1
Layout1
 70
0
 71
1
 10
0.0
 20
0.0
 11
210.0
 21
297.0
 12
0.0
 22
0.0
 32
0.0
 14
0.0
 24
0.0
 34
0.0
 15
0.0
 25
0.0
 35
0.0
146
0.0
 13
0.0
 23
0.0
 33
0.0
 16
1.0
 26
0.0
 36
0.0
 17
0.0
 27
1.0
 37
0.0
 76
0
330
211
345
0
346
0
  0
ENDSEC
  0
EOF
