999
DXF file: C:\Users\sesa63760\Dev\_Creo\CAD\MCADID0002141_3D-CAD\drw0001_3.dxf
999
Pro/ENGINEER 2019471 by Parametric Technology Corporation
  0
SECTION
  2
HEADER
  9
$ACADVER
  1
AC1024
  9
$DWGCODEPAGE
  3
ANSI_1252
  9
$EXTMAX
 10
46.0193282048
 20
65.084478461
 30
0.0
  9
$EXTMIN
 10
0.0
 20
0.0
 30
0.0
  9
$LIMMIN
 10
0.0
 20
0.0
  9
$LIMMAX
 10
46.0193282048
 20
65.084478461
  9
$VIEWCTR
 10
23.0096641024
 20
32.5422392305
  9
$VIEWSIZE
 40
65.084478461
  9
$CLAYER
  8
0
  9
$LTSCALE
 40
4.2425437812
  9
$CELTYPE
  6
BYLAYER
  9
$DIMSCALE
 40
1.0
  9
$DIMASZ
 40
0.5478491453
  9
$DIMEXO
 40
1.0
  9
$DIMDLI
 40
2.931212067
  9
$DIMEXE
 40
1.0
  9
$DIMCEN
 40
0.6942344369
  9
$DIMLFAC
 40
1.0
  9
$DIMBLK
  1
_FILLED
  9
$DIMALT
 70
0
  9
$DIMALTF
 40
0.0393700787
  9
$DIMTXT
 40
0.7669888034
  9
$DIMTOL
 70
1
  9
$DIMLIM
 70
0
  9
$DIMTFAC
 40
1.0
  9
$DIMTP
 40
0.01
  9
$DIMTM
 40
0.01
  9
$DIMGAP
 40
0.625
  9
$DIMDSEP
 70
46
  9
$AUNITS
 70
0
  9
$PDMODE
 70
3
  9
$PDSIZE
 40
0.3125
  9
$HANDSEED
  5
34C
  9
$TILEMODE
 70
1
  9
$MEASUREMENT
 70
1
  9
$INSUNITS
 70
4
  0
ENDSEC
  0
SECTION
  2
CLASSES
  0
CLASS
  1
ACDBDICTIONARYWDFLT
  2
AcDbDictionaryWithDefault
  3
AutoCAD 2000
 90
0
 91
1
280
0
281
0
  0
CLASS
  1
ACDBPLACEHOLDER
  2
AcDbPlaceHolder
  3
AutoCAD 2000
 90
0
 91
1
280
0
281
0
  0
CLASS
  1
LAYOUT
  2
AcDbLayout
  3
AutoCAD 2000
 90
0
 91
0
280
0
281
0
  0
ENDSEC
  0
SECTION
  2
TABLES
  0
TABLE
  2
VPORT
  5
8
100
AcDbSymbolTable
 70
2
  0
VPORT
  5
1F4
100
AcDbSymbolTableRecord
100
AcDbViewportTableRecord
  2
*ACTIVE
 70
0
 10
0.0
 20
0.0
 11
1.0
 21
1.0
 12
23.0096641024
 22
32.5422392305
 13
0.0
 23
0.0
 14
1.0
 24
1.0
 15
0.0
 25
0.0
 16
0.0
 26
0.0
 36
1.0
 17
0.0
 27
0.0
 37
0.0
 40
65.084478461
 41
0.7070707071
 42
50.0
 43
0.0
 44
0.0
 50
0.0
 51
0.0
 71
0
 72
100
 73
1
 74
1
 75
0
 76
0
 77
0
 78
0
  0
ENDTAB
  0
TABLE
  2
LTYPE
  5
5
100
AcDbSymbolTable
 70
6
  0
LTYPE
  5
14
100
AcDbSymbolTableRecord
100
AcDbLinetypeTableRecord
  2
BYBLOCK
 70
0
  3

 72
65
 73
0
 40
0.0
  0
LTYPE
  5
15
100
AcDbSymbolTableRecord
100
AcDbLinetypeTableRecord
  2
BYLAYER
 70
0
  3

 72
65
 73
0
 40
0.0
  0
LTYPE
  5
16
100
AcDbSymbolTableRecord
100
AcDbLinetypeTableRecord
  2
CONTINUOUS
 70
64
  3
Solid line
 72
65
 73
0
 40
0.0
  0
LTYPE
  5
1F5
100
AcDbSymbolTableRecord
100
AcDbLinetypeTableRecord
  2
CENTER
 70
64
  3
____ _ ____ _ ____ _ ____ _ ____ _ ____ _ ____
 72
65
 73
4
 40
0.6
 49
0.375
 74
0
 49
-0.075
 74
0
 49
0.075
 74
0
 49
-0.075
 74
0
  0
LTYPE
  5
1F6
100
AcDbSymbolTableRecord
100
AcDbLinetypeTableRecord
  2
HIDDEN
 70
64
  3
- - - - - - - - - - - - - - - - - - - -
 72
65
 73
2
 40
0.2
 49
0.1
 74
0
 49
-0.1
 74
0
  0
LTYPE
  5
1F7
100
AcDbSymbolTableRecord
100
AcDbLinetypeTableRecord
  2
PHANTOM
 70
64
  3
_____ _ _ _____ _ _ _____ _ _ _____
 72
65
 73
6
 40
0.8
 49
0.45
 74
0
 49
-0.05
 74
0
 49
0.1
 74
0
 49
-0.05
 74
0
 49
0.1
 74
0
 49
-0.05
 74
0
  0
LTYPE
  5
1F8
100
AcDbSymbolTableRecord
100
AcDbLinetypeTableRecord
  2
DOT
 70
64
  3
. . . . . . . . . . . . . . . . . . . .
 72
65
 73
2
 40
0.2
 49
0.1
 74
0
 49
-0.1
 74
0
  0
LTYPE
  5
1F9
100
AcDbSymbolTableRecord
100
AcDbLinetypeTableRecord
  2
DASHED
 70
64
  3
- - - - - - - - - - - - - - - - - - - -
 72
65
 73
2
 40
0.2
 49
0.1
 74
0
 49
-0.1
 74
0
  0
ENDTAB
  0
TABLE
  2
LAYER
  5
2
100
AcDbSymbolTable
 70
36
  0
LAYER
  5
10
100
AcDbSymbolTableRecord
100
AcDbLayerTableRecord
  2
0
 70
0
 62
7
  6
CONTINUOUS
370
-3
390
F
  0
LAYER
  5
1FA
100
AcDbSymbolTableRecord
100
AcDbLayerTableRecord
  2
DEFAULT_1
 70
0
 62
7
  6
CENTER
370
-3
390
F
  0
LAYER
  5
1FB
100
AcDbSymbolTableRecord
100
AcDbLayerTableRecord
  2
DEFAULT_2
 70
0
 62
8
  6
HIDDEN
370
-3
390
F
  0
LAYER
  5
1FC
100
AcDbSymbolTableRecord
100
AcDbLayerTableRecord
  2
DEFAULT_3
 70
0
 62
7
  6
PHANTOM
370
-3
390
F
  0
LAYER
  5
1FD
100
AcDbSymbolTableRecord
100
AcDbLayerTableRecord
  2
00_COMPONENTS
 70
0
 62
7
  6
CONTINUOUS
370
-3
390
F
  0
LAYER
  5
1FE
100
AcDbSymbolTableRecord
100
AcDbLayerTableRecord
  2
01_1_DEFAULT_DATUMS
 70
0
 62
7
  6
CONTINUOUS
370
-3
390
F
  0
LAYER
  5
1FF
100
AcDbSymbolTableRecord
100
AcDbLayerTableRecord
  2
01_PLANES
 70
0
 62
7
  6
CONTINUOUS
370
-3
390
F
  0
LAYER
  5
200
100
AcDbSymbolTableRecord
100
AcDbLayerTableRecord
  2
02_COORD_SYS
 70
0
 62
7
  6
CONTINUOUS
370
-3
390
F
  0
LAYER
  5
201
100
AcDbSymbolTableRecord
100
AcDbLayerTableRecord
  2
03_AXES
 70
0
 62
7
  6
CONTINUOUS
370
-3
390
F
  0
LAYER
  5
202
100
AcDbSymbolTableRecord
100
AcDbLayerTableRecord
  2
04_POINTS
 70
0
 62
7
  6
CONTINUOUS
370
-3
390
F
  0
LAYER
  5
203
100
AcDbSymbolTableRecord
100
AcDbLayerTableRecord
  2
05_CURVES
 70
0
 62
7
  6
CONTINUOUS
370
-3
390
F
  0
LAYER
  5
204
100
AcDbSymbolTableRecord
100
AcDbLayerTableRecord
  2
06_SURFS
 70
0
 62
7
  6
CONTINUOUS
370
-3
390
F
  0
LAYER
  5
205
100
AcDbSymbolTableRecord
100
AcDbLayerTableRecord
  2
07_COSMETICS
 70
0
 62
7
  6
CONTINUOUS
370
-3
390
F
  0
LAYER
  5
206
100
AcDbSymbolTableRecord
100
AcDbLayerTableRecord
  2
10_NOTES
 70
0
 62
7
  6
CONTINUOUS
370
-3
390
F
  0
LAYER
  5
207
100
AcDbSymbolTableRecord
100
AcDbLayerTableRecord
  2
11_NOTES_PUB
 70
0
 62
7
  6
CONTINUOUS
370
-3
390
F
  0
LAYER
  5
208
100
AcDbSymbolTableRecord
100
AcDbLayerTableRecord
  2
13_REF_GTOL
 70
0
 62
7
  6
CONTINUOUS
370
-3
390
F
  0
LAYER
  5
209
100
AcDbSymbolTableRecord
100
AcDbLayerTableRecord
  2
16_MISC
 70
0
 62
7
  6
CONTINUOUS
370
-3
390
F
  0
LAYER
  5
20A
100
AcDbSymbolTableRecord
100
AcDbLayerTableRecord
  2
17_NO_PRINT
 70
0
 62
7
  6
CONTINUOUS
370
-3
390
F
  0
LAYER
  5
20B
100
AcDbSymbolTableRecord
100
AcDbLayerTableRecord
  2
18_DATUM_CAMS_JOINTS
 70
0
 62
7
  6
CONTINUOUS
370
-3
390
F
  0
LAYER
  5
20C
100
AcDbSymbolTableRecord
100
AcDbLayerTableRecord
  2
19_DATUM_FUNCTIONAL
 70
0
 62
7
  6
CONTINUOUS
370
-3
390
F
  0
LAYER
  5
20D
100
AcDbSymbolTableRecord
100
AcDbLayerTableRecord
  2
20_DATUM_KINEMATIC_SCHEME
 70
0
 62
7
  6
CONTINUOUS
370
-3
390
F
  0
ENDTAB
  0
TABLE
  2
STYLE
  5
3
100
AcDbSymbolTable
 70
1
  0
STYLE
  5
11
100
AcDbSymbolTableRecord
100
AcDbTextStyleTableRecord
  2
STANDARD
 70
0
 40
0.0
 41
0.8
 50
0.0
 71
0
 42
0.2
  3
txt
  4

  0
STYLE
  5
20E
100
AcDbSymbolTableRecord
100
AcDbTextStyleTableRecord
  2
TEXTSTYLE_1
 70
0
 40
0.0
 41
0.8
 50
0.0
 71
0
 42
0.2
  3
gdt
  4

  0
ENDTAB
  0
TABLE
  2
VIEW
  5
6
100
AcDbSymbolTable
 70
0
  0
ENDTAB
  0
TABLE
  2
UCS
  5
7
100
AcDbSymbolTable
 70
0
  0
ENDTAB
  0
TABLE
  2
APPID
  5
9
100
AcDbSymbolTable
 70
1
  0
APPID
  5
20F
100
AcDbSymbolTableRecord
100
AcDbRegAppTableRecord
  2
ACAD
 70
0
  0
ENDTAB
  0
TABLE
  2
BLOCK_RECORD
  5
1
100
AcDbSymbolTable
 70
0
  0
BLOCK_RECORD
  5
210
100
AcDbSymbolTableRecord
100
AcDbBlockTableRecord
  2
*Model_Space
  0
BLOCK_RECORD
  5
211
100
AcDbSymbolTableRecord
100
AcDbBlockTableRecord
  2
*Paper_Space
  0
BLOCK_RECORD
  5
212
100
AcDbSymbolTableRecord
100
AcDbBlockTableRecord
  2
_FILLED
  0
ENDTAB
  0
TABLE
  2
DIMSTYLE
  5
A
100
AcDbSymbolTable
 70
1
100
AcDbDimStyleTable
 71
0
  0
DIMSTYLE
105
213
100
AcDbSymbolTableRecord
100
AcDbDimStyleTableRecord
  2
STANDARD
 70
0
  3

  4

 40
1.0
 41
0.5478491453
 42
1.0
 43
0.38
 44
1.0
 45
0.0
 46
0.0
 47
0.01
 48
0.01
140
0.7669888034
141
0.09
142
0.0
143
25.4
144
1.0
145
0.0
146
1.0
147
0.625
 71
1
 72
0
 73
0
 74
0
 75
0
 76
0
 77
1
 78
8
 79
2
170
0
171
1
172
0
173
0
174
0
175
0
176
0
177
0
178
0
270
2
179
2
271
2
272
2
273
2
274
2
275
0
280
0
281
0
282
0
283
1
284
8
285
0
286
0
287
3
288
0
340
11
278
46
341
212
342
212
343
212
344
212
  0
ENDTAB
  0
ENDSEC
  0
SECTION
  2
BLOCKS
  0
BLOCK
  5
20
100
AcDbEntity
  8
0
100
AcDbBlockBegin
  2
*Model_Space
 70
0
 10
0.0
 20
0.0
 30
0.0
  3
*Model_Space
  1

  0
ENDBLK
  5
21
100
AcDbEntity
  8
0
100
AcDbBlockEnd
  0
BLOCK
  5
1C
100
AcDbEntity
  8
0
100
AcDbBlockBegin
  2
*Paper_Space
 70
0
 10
0.0
 20
0.0
 30
0.0
  3
*Paper_Space
  1

  0
ENDBLK
  5
1D
100
AcDbEntity
  8
0
100
AcDbBlockEnd
  0
BLOCK
  5
214
100
AcDbEntity
  8
0
100
AcDbBlockBegin
  2
_FILLED
 70
64
 10
0.0
 20
0.0
  3
_FILLED
  1

  0
SOLID
  5
215
100
AcDbEntity
  8
0
  6
BYBLOCK
 62
0
100
AcDbTrace
 10
0.0
 20
0.0
 11
-1.0
 21
0.25
 12
-1.0
 22
-0.25
 13
-1.0
 23
-0.25
  0
ENDBLK
  5
216
100
AcDbEntity
  8
0
  6
BYBLOCK
 62
0
100
AcDbBlockEnd
  0
ENDSEC
  0
SECTION
  2
ENTITIES
  0
LINE
  5
217
100
AcDbEntity
  8
0
100
AcDbLine
 62
7
  6
CONTINUOUS
 10
36.9587723906
 20
6.1349212482
 11
37.0792851182
 21
6.1627438037
  0
LINE
  5
218
100
AcDbEntity
  8
0
100
AcDbLine
 62
7
  6
CONTINUOUS
 10
36.8543340638
 20
7.1371138684
 11
36.7338213363
 21
7.1092913131
  0
LINE
  5
219
100
AcDbEntity
  8
0
100
AcDbLine
 62
7
  6
CONTINUOUS
 10
10.214647316
 20
6.1627438036
 11
10.3351600433
 21
6.1349212483
  0
LINE
  5
21A
100
AcDbEntity
  8
0
100
AcDbLine
 62
7
  6
CONTINUOUS
 10
10.5601110977
 20
7.1092913131
 11
10.4395983704
 21
7.1371138684
  0
LINE
  5
21B
100
AcDbEntity
  8
0
100
AcDbLine
 62
7
  6
CONTINUOUS
 10
12.4075533553
 20
54.3822935934
 11
10.9036863129
 21
52.2194391121
  0
LINE
  5
21C
100
AcDbEntity
  8
0
100
AcDbLine
 62
7
  6
CONTINUOUS
 10
16.7709027915
 20
56.8122670227
 11
15.1842426621
 21
54.5225638737
  0
LINE
  5
21D
100
AcDbEntity
  8
0
100
AcDbLine
 62
7
  6
CONTINUOUS
 10
15.6947962296
 20
57.6050659161
 11
9.5699738502
 21
48.8579130434
  0
LINE
  5
21E
100
AcDbEntity
  8
0
100
AcDbLine
 62
7
  6
CONTINUOUS
 10
8.6969662171
 20
47.6111289322
 11
7.7086621285
 21
46.199684418
  0
LINE
  5
21F
100
AcDbEntity
  8
0
100
AcDbLine
 62
7
  6
CONTINUOUS
 10
8.5278141728
 20
45.6261079816
 11
8.6969662171
 21
45.8676821365
  0
LINE
  5
220
100
AcDbEntity
  8
0
100
AcDbLine
 62
7
  6
CONTINUOUS
 10
10.790748439
 20
48.8579130434
 11
16.5139482739
 21
57.0314894797
  0
LINE
  5
221
100
AcDbEntity
  8
0
100
AcDbLine
 62
7
  6
CONTINUOUS
 10
28.549572488
 20
11.8579130434
 11
17.5472775244
 21
11.8579130434
  0
LINE
  5
222
100
AcDbEntity
  8
0
100
AcDbLine
 62
7
  6
CONTINUOUS
 10
8.8669662171
 20
11.973702517
 11
11.3669662171
 21
11.973702517
  0
LINE
  5
223
100
AcDbEntity
  8
0
100
AcDbLine
 62
7
  6
CONTINUOUS
 10
35.6969662171
 20
11.973702517
 11
38.1969662171
 21
11.973702517
  0
LINE
  5
224
100
AcDbEntity
  8
0
100
AcDbLine
 62
7
  6
CONTINUOUS
 10
8.3469662171
 20
13.0560101779
 11
7.3469662171
 21
13.0560101779
  0
LINE
  5
225
100
AcDbEntity
  8
0
100
AcDbLine
 62
7
  6
CONTINUOUS
 10
38.9469662171
 20
13.0560101779
 11
39.9469662171
 21
13.0560101779
  0
LINE
  5
226
100
AcDbEntity
  8
0
100
AcDbLine
 62
7
  6
CONTINUOUS
 10
6.4219662171
 20
16.7579130434
 11
6.4219662171
 21
37.64889015
  0
LINE
  5
227
100
AcDbEntity
  8
0
100
AcDbLine
 62
7
  6
CONTINUOUS
 10
7.3469662171
 20
39.520601335
 11
6.6628943774
 21
38.4642048761
  0
LINE
  5
228
100
AcDbEntity
  8
0
100
AcDbLine
 62
7
  6
CONTINUOUS
 10
22.930431649
 20
53.1079130434
 11
16.9969662171
 21
50.3579130434
  0
LINE
  5
229
100
AcDbEntity
  8
0
100
AcDbLine
 62
7
  6
CONTINUOUS
 10
7.3469662171
 20
9.7679130434
 11
7.3469662171
 21
45.0525315453
  0
LINE
  5
22A
100
AcDbEntity
  8
0
100
AcDbLine
 62
7
  6
CONTINUOUS
 10
8.3469662171
 20
45.0525315453
 11
8.3469662171
 21
9.7679130434
  0
LINE
  5
22B
100
AcDbEntity
  8
0
100
AcDbLine
 62
7
  6
CONTINUOUS
 10
8.4719662171
 20
9.9579130434
 11
8.4719662171
 21
15.0579130434
  0
LINE
  5
22C
100
AcDbEntity
  8
0
100
AcDbLine
 62
7
  6
CONTINUOUS
 10
8.4719662171
 20
41.7011679349
 11
8.4719662171
 21
44.3954922238
  0
LINE
  5
22D
100
AcDbEntity
  8
0
100
AcDbLine
 62
7
  6
CONTINUOUS
 10
8.6969662171
 20
16.1579130434
 11
8.6969662171
 21
48.8579130434
  0
LINE
  5
22E
100
AcDbEntity
  8
0
100
AcDbLine
 62
7
  6
CONTINUOUS
 10
8.8669662171
 20
11.973702517
 11
8.8669662171
 21
16.1579130434
  0
LINE
  5
22F
100
AcDbEntity
  8
0
100
AcDbLine
 62
7
  6
CONTINUOUS
 10
8.6969662171
 20
16.1579130434
 11
38.5969662171
 21
16.1579130434
  0
LINE
  5
230
100
AcDbEntity
  8
0
100
AcDbLine
 62
7
  6
CONTINUOUS
 10
38.5969662171
 20
16.2748261532
 11
37.5969662171
 21
16.2748261532
  0
LINE
  5
231
100
AcDbEntity
  8
0
100
AcDbLine
 62
7
  6
CONTINUOUS
 10
28.8219662171
 20
16.2748261532
 11
29.8219662171
 21
16.2748261532
  0
LINE
  5
232
100
AcDbEntity
  8
0
100
AcDbLine
 62
7
  6
CONTINUOUS
 10
29.8219662171
 20
17.6579130434
 11
37.5969662171
 21
17.6579130434
  0
LINE
  5
233
100
AcDbEntity
  8
0
100
AcDbLine
 62
7
  6
CONTINUOUS
 10
9.6169662171
 20
37.5579130434
 11
9.6169662171
 21
45.9579130434
  0
LINE
  5
234
100
AcDbEntity
  8
0
100
AcDbLine
 62
7
  6
CONTINUOUS
 10
10.635238246
 20
50.3792682669
 11
10.635238246
 21
51.3631215099
  0
LINE
  5
235
100
AcDbEntity
  8
0
100
AcDbLine
 62
7
  6
CONTINUOUS
 10
32.5118122022
 20
54.5581827136
 11
32.3879922323
 21
54.4720887237
  0
LINE
  5
236
100
AcDbEntity
  8
0
100
AcDbLine
 62
7
  6
CONTINUOUS
 10
38.5969662171
 20
18.8748261532
 11
37.5969662171
 21
18.8748261532
  0
LINE
  5
237
100
AcDbEntity
  8
0
100
AcDbLine
 62
7
  6
CONTINUOUS
 10
28.8219662171
 20
18.8748261532
 11
29.8219662171
 21
18.8748261532
  0
LINE
  5
238
100
AcDbEntity
  8
0
100
AcDbLine
 62
7
  6
CONTINUOUS
 10
38.5969662171
 20
19.4579130434
 11
37.5969662171
 21
19.4579130434
  0
LINE
  5
239
100
AcDbEntity
  8
0
100
AcDbLine
 62
7
  6
CONTINUOUS
 10
28.8219662171
 20
19.4579130434
 11
29.8219662171
 21
19.4579130434
  0
LINE
  5
23A
100
AcDbEntity
  8
0
100
AcDbLine
 62
7
  6
CONTINUOUS
 10
33.1212462232
 20
12.7548974235
 11
32.2416775378
 21
13.2306693519
  0
LINE
  5
23B
100
AcDbEntity
  8
0
100
AcDbLine
 62
7
  6
CONTINUOUS
 10
11.3669662171
 20
16.1579130434
 11
11.3669662171
 21
11.973702517
  0
LINE
  5
23C
100
AcDbEntity
  8
0
100
AcDbLine
 62
7
  6
CONTINUOUS
 10
14.5469662171
 20
32.6579130434
 11
14.5469662171
 21
38.8377188656
  0
LINE
  5
23D
100
AcDbEntity
  8
0
100
AcDbLine
 62
7
  6
CONTINUOUS
 10
14.9969662171
 20
48.8579130434
 11
14.9969662171
 21
49.3579130434
  0
LINE
  5
23E
100
AcDbEntity
  8
0
100
AcDbLine
 62
7
  6
CONTINUOUS
 10
31.1475889061
 20
22.3073982329
 11
33.3519662171
 21
22.3073982329
  0
LINE
  5
23F
100
AcDbEntity
  8
0
100
AcDbLine
 62
7
  6
CONTINUOUS
 10
34.0919662171
 20
22.3073982329
 11
36.2991912358
 21
22.3073982329
  0
LINE
  5
240
100
AcDbEntity
  8
0
100
AcDbLine
 62
7
  6
CONTINUOUS
 10
8.6969662171
 20
22.4579130434
 11
19.0209528146
 21
22.4579130434
  0
LINE
  5
241
100
AcDbEntity
  8
0
100
AcDbLine
 62
7
  6
CONTINUOUS
 10
28.2729796195
 20
22.4579130434
 11
28.8219662171
 21
22.4579130434
  0
LINE
  5
242
100
AcDbEntity
  8
0
100
AcDbLine
 62
7
  6
CONTINUOUS
 10
28.004717931
 20
22.5579130434
 11
26.5175062359
 21
22.5579130434
  0
LINE
  5
243
100
AcDbEntity
  8
0
100
AcDbLine
 62
7
  6
CONTINUOUS
 10
20.7764261982
 20
22.5579130434
 11
19.2892145032
 21
22.5579130434
  0
LINE
  5
244
100
AcDbEntity
  8
0
100
AcDbLine
 62
7
  6
CONTINUOUS
 10
36.590999414
 20
23.1185578082
 11
34.0919662171
 21
23.1185578082
  0
LINE
  5
245
100
AcDbEntity
  8
0
100
AcDbLine
 62
7
  6
CONTINUOUS
 10
33.3519662171
 20
23.1185578082
 11
30.8461308143
 21
23.1185578082
  0
LINE
  5
246
100
AcDbEntity
  8
0
100
AcDbLine
 62
7
  6
CONTINUOUS
 10
36.6800061086
 20
23.2922059859
 11
34.0919662171
 21
23.2922059859
  0
LINE
  5
247
100
AcDbEntity
  8
0
100
AcDbLine
 62
7
  6
CONTINUOUS
 10
33.3519662171
 20
23.2922059859
 11
30.7639263255
 21
23.2922059859
  0
LINE
  5
248
100
AcDbEntity
  8
0
100
AcDbLine
 62
7
  6
CONTINUOUS
 10
15.5868548293
 20
33.8484488374
 11
15.5898063213
 21
33.4579130434
  0
LINE
  5
249
100
AcDbEntity
  8
0
100
AcDbLine
 62
7
  6
CONTINUOUS
 10
15.5868548293
 20
34.9680244311
 11
15.5868548293
 21
33.8484488374
  0
LINE
  5
24A
100
AcDbEntity
  8
0
100
AcDbLine
 62
7
  6
CONTINUOUS
 10
15.5868548293
 20
31.4673772494
 11
15.5868548293
 21
30.3478016557
  0
LINE
  5
24B
100
AcDbEntity
  8
0
100
AcDbLine
 62
7
  6
CONTINUOUS
 10
15.6149762609
 20
33.4579130434
 11
15.6149762609
 21
31.8579130434
  0
LINE
  5
24C
100
AcDbEntity
  8
0
100
AcDbLine
 62
7
  6
CONTINUOUS
 10
15.6469662171
 20
30.4579130434
 11
15.6469662171
 21
34.8579130434
  0
LINE
  5
24D
100
AcDbEntity
  8
0
100
AcDbLine
 62
7
  6
CONTINUOUS
 10
16.6469662171
 20
24.363336502
 11
16.6469662171
 21
24.8316751221
  0
LINE
  5
24E
100
AcDbEntity
  8
0
100
AcDbLine
 62
7
  6
CONTINUOUS
 10
16.7819662171
 20
53.6579130434
 11
16.7819662171
 21
49.3579130434
  0
LINE
  5
24F
100
AcDbEntity
  8
0
100
AcDbLine
 62
7
  6
CONTINUOUS
 10
16.9969662171
 20
49.3579130434
 11
16.9969662171
 21
50.3579130434
  0
LINE
  5
250
100
AcDbEntity
  8
0
100
AcDbLine
 62
7
  6
CONTINUOUS
 10
15.5898063213
 20
31.8579130434
 11
15.5868548293
 21
31.4673772494
  0
LINE
  5
251
100
AcDbEntity
  8
0
100
AcDbLine
 62
7
  6
CONTINUOUS
 10
19.6341314177
 20
25.3851321501
 11
19.5740494608
 21
25.4833643425
  0
LINE
  5
252
100
AcDbEntity
  8
0
100
AcDbLine
 62
7
  6
CONTINUOUS
 10
17.8264127107
 20
27.4346751562
 11
17.8264127107
 21
26.8788591213
  0
LINE
  5
253
100
AcDbEntity
  8
0
100
AcDbLine
 62
7
  6
CONTINUOUS
 10
17.8473587886
 20
38.3979498315
 11
17.8473587886
 21
37.873124421
  0
LINE
  5
254
100
AcDbEntity
  8
0
100
AcDbLine
 62
7
  6
CONTINUOUS
 10
18.0969662171
 20
27.5393194865
 11
18.0969662171
 21
26.7790628517
  0
LINE
  5
255
100
AcDbEntity
  8
0
100
AcDbLine
 62
7
  6
CONTINUOUS
 10
18.1475499162
 20
38.8910592885
 11
18.1475499162
 21
39.9081834073
  0
LINE
  5
256
100
AcDbEntity
  8
0
100
AcDbLine
 62
7
  6
CONTINUOUS
 10
19.2819662171
 20
51.416948454
 11
19.2819662171
 21
55.173702517
  0
LINE
  5
257
100
AcDbEntity
  8
0
100
AcDbLine
 62
7
  6
CONTINUOUS
 10
14.2674875904
 20
12.0541744409
 11
13.5584138957
 21
8.9828388391
  0
LINE
  5
258
100
AcDbEntity
  8
0
100
AcDbLine
 62
7
  6
CONTINUOUS
 10
17.8264127107
 20
26.8788591213
 11
16.9060364357
 21
26.8788591213
  0
LINE
  5
259
100
AcDbEntity
  8
0
100
AcDbLine
 62
7
  6
CONTINUOUS
 10
15.8353586515
 20
28.4369669654
 11
17.0632992029
 21
28.4369669654
  0
LINE
  5
25A
100
AcDbEntity
  8
0
100
AcDbLine
 62
7
  6
CONTINUOUS
 10
20.1475499162
 20
40.1123914222
 11
20.1475499162
 21
41.0581562276
  0
LINE
  5
25B
100
AcDbEntity
  8
0
100
AcDbLine
 62
7
  6
CONTINUOUS
 10
20.1530869845
 20
25.687431045
 11
20.1530869845
 21
26.2817499221
  0
LINE
  5
25C
100
AcDbEntity
  8
0
100
AcDbLine
 62
7
  6
CONTINUOUS
 10
20.4453994112
 20
39.1465886559
 11
20.4453994112
 21
39.7751290395
  0
LINE
  5
25D
100
AcDbEntity
  8
0
100
AcDbLine
 62
7
  6
CONTINUOUS
 10
14.5327839605
 20
8.7578877848
 11
15.2418576552
 21
11.8292233865
  0
LINE
  5
25E
100
AcDbEntity
  8
0
100
AcDbLine
 62
7
  6
CONTINUOUS
 10
8.6969662171
 20
28.7776075881
 11
13.1406238671
 21
28.7776075881
  0
LINE
  5
25F
100
AcDbEntity
  8
0
100
AcDbLine
 62
7
  6
CONTINUOUS
 10
8.6969662171
 20
29.4893543898
 11
12.9045160282
 21
29.4893543898
  0
LINE
  5
260
100
AcDbEntity
  8
0
100
AcDbLine
 62
7
  6
CONTINUOUS
 10
15.5868548293
 20
30.3478016557
 11
16.20694378
 21
30.3478016557
  0
LINE
  5
261
100
AcDbEntity
  8
0
100
AcDbLine
 62
7
  6
CONTINUOUS
 10
28.8219662171
 20
30.4579130434
 11
24.6469662171
 21
30.4579130434
  0
LINE
  5
262
100
AcDbEntity
  8
0
100
AcDbLine
 62
7
  6
CONTINUOUS
 10
22.6469662171
 20
30.4579130434
 11
15.6469662171
 21
30.4579130434
  0
LINE
  5
263
100
AcDbEntity
  8
0
100
AcDbLine
 62
7
  6
CONTINUOUS
 10
21.9032149964
 20
40.250532691
 11
21.9032149964
 21
39.6112854843
  0
LINE
  5
264
100
AcDbEntity
  8
0
100
AcDbLine
 62
7
  6
CONTINUOUS
 10
22.6469662171
 20
34.8579130434
 11
22.6469662171
 21
30.4579130434
  0
LINE
  5
265
100
AcDbEntity
  8
0
100
AcDbLine
 62
7
  6
CONTINUOUS
 10
13.321197769
 20
9.102862685
 11
13.5691888013
 21
9.7842124464
  0
LINE
  5
266
100
AcDbEntity
  8
0
100
AcDbLine
 62
7
  6
CONTINUOUS
 10
15.6034995643
 20
25.9086431417
 11
16.6759617847
 21
26.8085457952
  0
LINE
  5
267
100
AcDbEntity
  8
0
100
AcDbLine
 62
7
  6
CONTINUOUS
 10
16.4400251184
 20
30.4079130434
 11
16.20694378
 21
30.3478016557
  0
LINE
  5
268
100
AcDbEntity
  8
0
100
AcDbLine
 62
7
  6
CONTINUOUS
 10
6.1213660382
 20
31.0413307317
 11
6.4219662171
 21
31.0413307317
  0
LINE
  5
269
100
AcDbEntity
  8
0
100
AcDbLine
 62
7
  6
CONTINUOUS
 10
40.8719662171
 20
31.0413307317
 11
41.1725663959
 21
31.0413307317
  0
LINE
  5
26A
100
AcDbEntity
  8
0
100
AcDbLine
 62
7
  6
CONTINUOUS
 10
6.1198443769
 20
31.0579130434
 11
6.4219662171
 21
31.0579130434
  0
LINE
  5
26B
100
AcDbEntity
  8
0
100
AcDbLine
 62
7
  6
CONTINUOUS
 10
40.8719662171
 20
31.0579130434
 11
41.1740880572
 21
31.0579130434
  0
LINE
  5
26C
100
AcDbEntity
  8
0
100
AcDbLine
 62
7
  6
CONTINUOUS
 10
14.6702470233
 20
31.1650927203
 11
15.5868548293
 21
31.1650927203
  0
LINE
  5
26D
100
AcDbEntity
  8
0
100
AcDbLine
 62
7
  6
CONTINUOUS
 10
14.5821992592
 20
31.8579130434
 11
15.6149762609
 21
31.8579130434
  0
LINE
  5
26E
100
AcDbEntity
  8
0
100
AcDbLine
 62
7
  6
CONTINUOUS
 10
30.6724810654
 20
12.1999331867
 11
31.3955014679
 21
10.213450957
  0
LINE
  5
26F
100
AcDbEntity
  8
0
100
AcDbLine
 62
7
  6
CONTINUOUS
 10
24.6469662171
 20
30.4579130434
 11
24.6469662171
 21
34.8579130434
  0
LINE
  5
270
100
AcDbEntity
  8
0
100
AcDbLine
 62
7
  6
CONTINUOUS
 10
25.3907174378
 20
39.6112776824
 11
25.3907174378
 21
40.250532691
  0
LINE
  5
271
100
AcDbEntity
  8
0
100
AcDbLine
 62
7
  6
CONTINUOUS
 10
15.8984309662
 20
10.213450957
 11
16.1377385932
 21
10.8709432584
  0
LINE
  5
272
100
AcDbEntity
  8
0
100
AcDbLine
 62
7
  6
CONTINUOUS
 10
14.5469662171
 20
33.4579130434
 11
15.6149762609
 21
33.4579130434
  0
LINE
  5
273
100
AcDbEntity
  8
0
100
AcDbLine
 62
7
  6
CONTINUOUS
 10
15.5868548293
 20
34.1507333664
 11
14.5469662171
 21
34.1507333664
  0
LINE
  5
274
100
AcDbEntity
  8
0
100
AcDbLine
 62
7
  6
CONTINUOUS
 10
41.1740880572
 20
34.2579130434
 11
40.8719662171
 21
34.2579130434
  0
LINE
  5
275
100
AcDbEntity
  8
0
100
AcDbLine
 62
7
  6
CONTINUOUS
 10
6.4219662171
 20
34.2579130434
 11
6.1198443769
 21
34.2579130434
  0
LINE
  5
276
100
AcDbEntity
  8
0
100
AcDbLine
 62
7
  6
CONTINUOUS
 10
41.1725663959
 20
34.274495355
 11
40.8719662171
 21
34.274495355
  0
LINE
  5
277
100
AcDbEntity
  8
0
100
AcDbLine
 62
7
  6
CONTINUOUS
 10
6.4219662171
 20
34.274495355
 11
6.1213660382
 21
34.274495355
  0
LINE
  5
278
100
AcDbEntity
  8
0
100
AcDbLine
 62
7
  6
CONTINUOUS
 10
15.6469662171
 20
34.8579130434
 11
22.6469662171
 21
34.8579130434
  0
LINE
  5
279
100
AcDbEntity
  8
0
100
AcDbLine
 62
7
  6
CONTINUOUS
 10
24.6469662171
 20
34.8579130434
 11
28.8219662171
 21
34.8579130434
  0
LINE
  5
27A
100
AcDbEntity
  8
0
100
AcDbLine
 62
7
  6
CONTINUOUS
 10
16.2068870143
 20
34.9680244311
 11
15.5868548293
 21
34.9680244311
  0
LINE
  5
27B
100
AcDbEntity
  8
0
100
AcDbLine
 62
7
  6
CONTINUOUS
 10
33.7247436328
 20
9.7842124464
 11
33.9727346651
 21
9.102862685
  0
LINE
  5
27C
100
AcDbEntity
  8
0
100
AcDbLine
 62
7
  6
CONTINUOUS
 10
27.1408487534
 20
25.6871850466
 11
27.1408492016
 21
25.6871526929
  0
LINE
  5
27D
100
AcDbEntity
  8
0
100
AcDbLine
 62
7
  6
CONTINUOUS
 10
26.8485330229
 20
39.7751290395
 11
26.8485330229
 21
39.1465886559
  0
LINE
  5
27E
100
AcDbEntity
  8
0
100
AcDbLine
 62
7
  6
CONTINUOUS
 10
27.1408454496
 20
26.2803455935
 11
27.1408454496
 21
25.6874309601
  0
LINE
  5
27F
100
AcDbEntity
  8
0
100
AcDbLine
 62
7
  6
CONTINUOUS
 10
27.1469662171
 20
40.1123887944
 11
27.1469662171
 21
41.0579130434
  0
LINE
  5
280
100
AcDbEntity
  8
0
100
AcDbLine
 62
7
  6
CONTINUOUS
 10
27.7819662171
 20
55.173702517
 11
27.7819662171
 21
51.5235471873
  0
LINE
  5
281
100
AcDbEntity
  8
0
100
AcDbLine
 62
7
  6
CONTINUOUS
 10
13.6464662296
 20
35.8579130434
 11
13.1227085235
 21
35.8579130434
  0
LINE
  5
282
100
AcDbEntity
  8
0
100
AcDbLine
 62
7
  6
CONTINUOUS
 10
8.6969662171
 20
36.4079130434
 11
13.0934123133
 21
36.4079130434
  0
LINE
  5
283
100
AcDbEntity
  8
0
100
AcDbLine
 62
7
  6
CONTINUOUS
 10
32.0520747789
 20
11.8292233865
 11
32.7611484736
 21
8.7578877848
  0
LINE
  5
284
100
AcDbEntity
  8
0
100
AcDbLine
 62
7
  6
CONTINUOUS
 10
33.7355185384
 20
8.9828388391
 11
33.0264448437
 21
12.0541744409
  0
LINE
  5
285
100
AcDbEntity
  8
0
100
AcDbLine
 62
7
  6
CONTINUOUS
 10
28.8219662171
 20
16.1579130434
 11
28.8219662171
 21
48.1579130434
  0
LINE
  5
286
100
AcDbEntity
  8
0
100
AcDbLine
 62
7
  6
CONTINUOUS
 10
29.8219662171
 20
16.2748261532
 11
29.8219662171
 21
19.4579130434
  0
LINE
  5
287
100
AcDbEntity
  8
0
100
AcDbLine
 62
7
  6
CONTINUOUS
 10
30.2819662171
 20
50.3648651357
 11
30.2819662171
 21
53.6579130434
  0
LINE
  5
288
100
AcDbEntity
  8
0
100
AcDbLine
 62
7
  6
CONTINUOUS
 10
13.5757200181
 20
37.5579130434
 11
9.6169662171
 21
37.5579130434
  0
LINE
  5
289
100
AcDbEntity
  8
0
100
AcDbLine
 62
7
  6
CONTINUOUS
 10
30.7639263255
 20
40.9194311943
 11
30.7639263255
 21
40.9806482866
  0
LINE
  5
28A
100
AcDbEntity
  8
0
100
AcDbLine
 62
7
  6
CONTINUOUS
 10
31.2219662171
 20
43.6281534606
 11
31.2219662171
 21
42.2281534606
  0
LINE
  5
28B
100
AcDbEntity
  8
0
100
AcDbLine
 62
7
  6
CONTINUOUS
 10
32.2969662171
 20
50.3579130434
 11
32.2969662171
 21
48.8579130434
  0
LINE
  5
28C
100
AcDbEntity
  8
0
100
AcDbLine
 62
7
  6
CONTINUOUS
 10
15.1971141473
 20
39.4579130434
 11
17.599652764
 21
39.4579130434
  0
LINE
  5
28D
100
AcDbEntity
  8
0
100
AcDbLine
 62
7
  6
CONTINUOUS
 10
8.6969662171
 20
39.8579130434
 11
9.6169662171
 21
39.8579130434
  0
LINE
  5
28E
100
AcDbEntity
  8
0
100
AcDbLine
 62
7
  6
CONTINUOUS
 10
30.7639263255
 20
40.9194311943
 11
33.3519662171
 21
40.9194311943
  0
LINE
  5
28F
100
AcDbEntity
  8
0
100
AcDbLine
 62
7
  6
CONTINUOUS
 10
34.0919662171
 20
40.9194311943
 11
36.6800061086
 21
40.9194311943
  0
LINE
  5
290
100
AcDbEntity
  8
0
100
AcDbLine
 62
7
  6
CONTINUOUS
 10
30.7747369019
 20
41.0930793719
 11
33.3519662171
 21
41.0930793719
  0
LINE
  5
291
100
AcDbEntity
  8
0
100
AcDbLine
 62
7
  6
CONTINUOUS
 10
34.0919662171
 20
41.0930793719
 11
36.6691955322
 21
41.0930793719
  0
LINE
  5
292
100
AcDbEntity
  8
0
100
AcDbLine
 62
7
  6
CONTINUOUS
 10
27.2982925374
 20
40.1105836449
 11
27.9131929537
 21
39.7821789962
  0
LINE
  5
293
100
AcDbEntity
  8
0
100
AcDbLine
 62
7
  6
CONTINUOUS
 10
27.9131929537
 20
39.7821789962
 11
28.1474818666
 21
39.6388380584
  0
LINE
  5
294
100
AcDbEntity
  8
0
100
AcDbLine
 62
7
  6
CONTINUOUS
 10
28.1474818666
 20
39.6388380584
 11
28.2642676722
 21
39.5631640296
  0
LINE
  5
295
100
AcDbEntity
  8
0
100
AcDbLine
 62
7
  6
CONTINUOUS
 10
33.3519662171
 20
42.8434014292
 11
33.3519662171
 21
41.9042389473
  0
LINE
  5
296
100
AcDbEntity
  8
0
100
AcDbLine
 62
7
  6
CONTINUOUS
 10
33.3519662171
 20
41.0930793719
 11
33.3519662171
 21
39.9802687124
  0
LINE
  5
297
100
AcDbEntity
  8
0
100
AcDbLine
 62
7
  6
CONTINUOUS
 10
33.3519662171
 20
24.2313684678
 11
33.3519662171
 21
23.1185578082
  0
LINE
  5
298
100
AcDbEntity
  8
0
100
AcDbLine
 62
7
  6
CONTINUOUS
 10
33.3519662171
 20
22.3073982329
 11
33.3519662171
 21
21.368235751
  0
LINE
  5
299
100
AcDbEntity
  8
0
100
AcDbLine
 62
7
  6
CONTINUOUS
 10
34.0919662171
 20
21.368235751
 11
34.0919662171
 21
22.3073982329
  0
LINE
  5
29A
100
AcDbEntity
  8
0
100
AcDbLine
 62
7
  6
CONTINUOUS
 10
34.0919662171
 20
23.1185578082
 11
34.0919662171
 21
24.2313684678
  0
LINE
  5
29B
100
AcDbEntity
  8
0
100
AcDbLine
 62
7
  6
CONTINUOUS
 10
34.0919662171
 20
39.9802687124
 11
34.0919662171
 21
41.0930793719
  0
LINE
  5
29C
100
AcDbEntity
  8
0
100
AcDbLine
 62
7
  6
CONTINUOUS
 10
34.0919662171
 20
41.9042389473
 11
34.0919662171
 21
42.8434014292
  0
LINE
  5
29D
100
AcDbEntity
  8
0
100
AcDbLine
 62
7
  6
CONTINUOUS
 10
36.3911842262
 20
41.9042389473
 11
34.0919662171
 21
41.9042389473
  0
LINE
  5
29E
100
AcDbEntity
  8
0
100
AcDbLine
 62
7
  6
CONTINUOUS
 10
33.3519662171
 20
41.9042389473
 11
31.0527482079
 21
41.9042389473
  0
LINE
  5
29F
100
AcDbEntity
  8
0
100
AcDbLine
 62
7
  6
CONTINUOUS
 10
31.2219662171
 20
43.6281534606
 11
36.2219662171
 21
43.6281534606
  0
LINE
  5
2A0
100
AcDbEntity
  8
0
100
AcDbLine
 62
7
  6
CONTINUOUS
 10
35.6969662171
 20
11.973702517
 11
35.6969662171
 21
16.1579130434
  0
LINE
  5
2A1
100
AcDbEntity
  8
0
100
AcDbLine
 62
7
  6
CONTINUOUS
 10
36.2219662171
 20
42.2281534606
 11
36.2219662171
 21
43.6281534606
  0
LINE
  5
2A2
100
AcDbEntity
  8
0
100
AcDbLine
 62
7
  6
CONTINUOUS
 10
36.6586941881
 20
51.3631215099
 11
36.6586941881
 21
50.3792682669
  0
LINE
  5
2A3
100
AcDbEntity
  8
0
100
AcDbLine
 62
7
  6
CONTINUOUS
 10
36.6800061086
 20
40.9806482866
 11
36.6800061086
 21
40.9194311943
  0
LINE
  5
2A4
100
AcDbEntity
  8
0
100
AcDbLine
 62
7
  6
CONTINUOUS
 10
15.0522548963
 20
13.2306693519
 11
14.172686211
 21
12.7548974235
  0
LINE
  5
2A5
100
AcDbEntity
  8
0
100
AcDbLine
 62
7
  6
CONTINUOUS
 10
9.6169662171
 20
44.7579130434
 11
28.8219662171
 21
44.7579130434
  0
LINE
  5
2A6
100
AcDbEntity
  8
0
100
AcDbLine
 62
7
  6
CONTINUOUS
 10
14.9056783216
 20
54.4722708131
 11
14.7821202319
 21
54.5581827136
  0
LINE
  5
2A7
100
AcDbEntity
  8
0
100
AcDbLine
 62
7
  6
CONTINUOUS
 10
37.5969662171
 20
16.2748261532
 11
37.5969662171
 21
19.4579130434
  0
LINE
  5
2A8
100
AcDbEntity
  8
0
100
AcDbLine
 62
7
  6
CONTINUOUS
 10
38.1969662171
 20
16.1579130434
 11
38.1969662171
 21
11.973702517
  0
LINE
  5
2A9
100
AcDbEntity
  8
0
100
AcDbLine
 62
7
  6
CONTINUOUS
 10
38.5969662171
 20
16.1579130434
 11
38.5969662171
 21
48.8579130434
  0
LINE
  5
2AA
100
AcDbEntity
  8
0
100
AcDbLine
 62
7
  6
CONTINUOUS
 10
38.8219662171
 20
44.3982035474
 11
38.8219662171
 21
41.7011679349
  0
LINE
  5
2AB
100
AcDbEntity
  8
0
100
AcDbLine
 62
7
  6
CONTINUOUS
 10
38.8219662171
 20
15.0579130434
 11
38.8219662171
 21
9.9579130434
  0
LINE
  5
2AC
100
AcDbEntity
  8
0
100
AcDbLine
 62
7
  6
CONTINUOUS
 10
38.9469662171
 20
9.7679130434
 11
38.9469662171
 21
45.0525315453
  0
LINE
  5
2AD
100
AcDbEntity
  8
0
100
AcDbLine
 62
7
  6
CONTINUOUS
 10
9.6169662171
 20
45.9579130434
 11
28.8219662171
 21
45.9579130434
  0
LINE
  5
2AE
100
AcDbEntity
  8
0
100
AcDbLine
 62
7
  6
CONTINUOUS
 10
28.8219662171
 20
46.6579130434
 11
38.5969662171
 21
46.6579130434
  0
LINE
  5
2AF
100
AcDbEntity
  8
0
100
AcDbLine
 62
7
  6
CONTINUOUS
 10
23.1163460751
 20
47.0381497765
 11
23.836854337
 21
46.9533929306
  0
LINE
  5
2B0
100
AcDbEntity
  8
0
100
AcDbLine
 62
7
  6
CONTINUOUS
 10
39.9469662171
 20
45.0525315453
 11
39.9469662171
 21
9.7679130434
  0
LINE
  5
2B1
100
AcDbEntity
  8
0
100
AcDbLine
 62
7
  6
CONTINUOUS
 10
40.8719662171
 20
37.64889015
 11
40.8719662171
 21
16.7579130434
  0
LINE
  5
2B2
100
AcDbEntity
  8
0
100
AcDbLine
 62
7
  6
CONTINUOUS
 10
8.6969662171
 20
48.0779130434
 11
21.6210911907
 21
48.0779130434
  0
LINE
  5
2B3
100
AcDbEntity
  8
0
100
AcDbLine
 62
7
  6
CONTINUOUS
 10
25.943025807
 20
48.0779130434
 11
28.8219662171
 21
48.0779130434
  0
LINE
  5
2B4
100
AcDbEntity
  8
0
100
AcDbLine
 62
7
  6
CONTINUOUS
 10
28.8219662171
 20
48.1579130434
 11
38.5969662171
 21
48.1579130434
  0
LINE
  5
2B5
100
AcDbEntity
  8
0
100
AcDbLine
 62
7
  6
CONTINUOUS
 10
38.5969662171
 20
48.8579130434
 11
32.2969662171
 21
48.8579130434
  0
LINE
  5
2B6
100
AcDbEntity
  8
0
100
AcDbLine
 62
7
  6
CONTINUOUS
 10
14.9969662171
 20
48.8579130434
 11
8.6969662171
 21
48.8579130434
  0
LINE
  5
2B7
100
AcDbEntity
  8
0
100
AcDbLine
 62
7
  6
CONTINUOUS
 10
16.9969662171
 20
49.3579130434
 11
14.9969662171
 21
49.3579130434
  0
LINE
  5
2B8
100
AcDbEntity
  8
0
100
AcDbLine
 62
7
  6
CONTINUOUS
 10
40.6310380567
 20
38.464204876
 11
39.9469662171
 21
39.520601335
  0
LINE
  5
2B9
100
AcDbEntity
  8
0
100
AcDbLine
 62
7
  6
CONTINUOUS
 10
32.2969662171
 20
50.3579130434
 11
30.296966217
 21
50.3579130434
  0
LINE
  5
2BA
100
AcDbEntity
  8
0
100
AcDbLine
 62
7
  6
CONTINUOUS
 10
24.4686298796
 20
52.3298492948
 11
23.7481216177
 21
52.4146061407
  0
LINE
  5
2BB
100
AcDbEntity
  8
0
100
AcDbLine
 62
7
  6
CONTINUOUS
 10
23.7229459737
 20
52.4210397292
 11
24.4434543142
 21
52.3362831377
  0
LINE
  5
2BC
100
AcDbEntity
  8
0
100
AcDbLine
 62
7
  6
CONTINUOUS
 10
30.296966217
 20
50.3579130434
 11
24.3635006985
 21
53.1079130434
  0
LINE
  5
2BD
100
AcDbEntity
  8
0
100
AcDbLine
 62
7
  6
CONTINUOUS
 10
32.1096096276
 20
54.5221199678
 11
30.5158687006
 21
56.8142306456
  0
LINE
  5
2BE
100
AcDbEntity
  8
0
100
AcDbLine
 62
7
  6
CONTINUOUS
 10
21.4203690527
 20
52.4080400623
 11
23.659444494
 21
52.4080400623
  0
LINE
  5
2BF
100
AcDbEntity
  8
0
100
AcDbLine
 62
7
  6
CONTINUOUS
 10
23.8334550008
 20
52.4080400623
 11
25.8735633169
 21
52.4080400623
  0
LINE
  5
2C0
100
AcDbEntity
  8
0
100
AcDbLine
 62
7
  6
CONTINUOUS
 10
22.930431649
 20
53.1079130434
 11
24.3635006985
 21
53.1079130434
  0
LINE
  5
2C1
100
AcDbEntity
  8
0
100
AcDbLine
 62
7
  6
CONTINUOUS
 10
30.7799841602
 20
57.0314894797
 11
36.5031839951
 21
48.8579130434
  0
LINE
  5
2C2
100
AcDbEntity
  8
0
100
AcDbLine
 62
7
  6
CONTINUOUS
 10
38.5969662171
 20
45.8676821365
 11
38.7661182613
 21
45.6261079817
  0
LINE
  5
2C3
100
AcDbEntity
  8
0
100
AcDbLine
 62
7
  6
CONTINUOUS
 10
39.5852703056
 20
46.1996844181
 11
38.5969662171
 21
47.6111289322
  0
LINE
  5
2C4
100
AcDbEntity
  8
0
100
AcDbLine
 62
7
  6
CONTINUOUS
 10
37.7239585839
 20
48.8579130434
 11
31.5991362046
 21
57.605065916
  0
LINE
  5
2C5
100
AcDbEntity
  8
0
100
AcDbLine
 62
7
  6
CONTINUOUS
 10
36.3902461212
 20
52.2194391121
 11
34.8863790788
 21
54.3822935934
  0
LINE
  5
2C6
100
AcDbEntity
  8
0
100
AcDbLine
 62
7
  6
CONTINUOUS
 10
19.7819662171
 20
55.673702517
 11
27.2819662171
 21
55.673702517
  0
LINE
  5
2C7
100
AcDbEntity
  8
0
100
AcDbLine
 62
7
  6
CONTINUOUS
 10
29.960832116
 20
57.4579130434
 11
17.3331003182
 21
57.4579130434
  0
LINE
  5
2C8
100
AcDbEntity
  8
0
100
AcDbLine
 62
7
  6
CONTINUOUS
 10
17.3331003182
 20
58.4579130434
 11
29.960832116
 21
58.4579130434
  0
LINE
  5
2C9
100
AcDbEntity
  8
0
100
AcDbLine
 62
7
  6
CONTINUOUS
 10
21.6469662171
 20
59.3579130434
 11
25.6469662171
 21
59.3579130434
  0
ARC
  5
2CA
100
AcDbEntity
  8
0
100
AcDbCircle
 62
7
  6
CONTINUOUS
 10
23.6417836772
 20
32.5643704833
 40
8.3813286041
100
AcDbArc
 50
115.7911949239
 51
119.5458603681
  0
ARC
  5
2CB
100
AcDbEntity
  8
0
100
AcDbCircle
 62
7
  6
CONTINUOUS
 10
23.6384021647
 20
32.5903226253
 40
8.3575571825
100
AcDbArc
 50
123.4582934555
 51
131.0702205388
  0
ARC
  5
2CC
100
AcDbEntity
  8
0
100
AcDbCircle
 62
7
  6
CONTINUOUS
 10
23.582446103
 20
32.668897735
 40
8.2611532399
100
AcDbArc
 50
120.99687588
 51
123.4349716913
  0
ARC
  5
2CD
100
AcDbEntity
  8
0
100
AcDbCircle
 62
7
  6
CONTINUOUS
 10
23.580376316
 20
32.6708904879
 40
8.2583791728
100
AcDbArc
 50
119.5396518083
 51
120.9916866017
  0
ARC
  5
2CE
100
AcDbEntity
  8
0
100
AcDbCircle
 62
7
  6
CONTINUOUS
 10
23.6469541459
 20
32.6578989913
 40
8.25
100
AcDbArc
 50
229.3364266043
 51
240.4168974924
  0
ARC
  5
2CF
100
AcDbEntity
  8
0
100
AcDbCircle
 62
7
  6
CONTINUOUS
 10
23.5514244394
 20
32.921361051
 40
7.6243692841
100
AcDbArc
 50
162.0534093728
 51
164.4287226328
  0
ARC
  5
2D0
100
AcDbEntity
  8
0
100
AcDbCircle
 62
7
  6
CONTINUOUS
 10
23.2331232863
 20
32.5555209288
 40
7.2405353384
100
AcDbArc
 50
298.5218770629
 51
301.2494839526
  0
ARC
  5
2D1
100
AcDbEntity
  8
0
100
AcDbCircle
 62
7
  6
CONTINUOUS
 10
23.6469420206
 20
32.6578217908
 40
7.0937512207
100
AcDbArc
 50
64.4866953255
 51
75.1492301775
  0
ARC
  5
2D2
100
AcDbEntity
  8
0
100
AcDbCircle
 62
7
  6
CONTINUOUS
 10
11.0469662171
 20
9.7679130434
 40
3.7
100
AcDbArc
 50
180.0
 51
257.0000000007
  0
ARC
  5
2D3
100
AcDbEntity
  8
0
100
AcDbCircle
 62
7
  6
CONTINUOUS
 10
11.1224887337
 20
9.545216475
 40
3.5
100
AcDbArc
 50
256.9999999966
 51
347.0000000004
  0
ARC
  5
2D4
100
AcDbEntity
  8
0
100
AcDbCircle
 62
7
  6
CONTINUOUS
 10
11.0469662171
 20
9.7679130434
 40
2.7
100
AcDbArc
 50
180.0
 51
257.0000000005
  0
ARC
  5
2D5
100
AcDbEntity
  8
0
100
AcDbCircle
 62
7
  6
CONTINUOUS
 10
11.1224887337
 20
9.545216475
 40
2.5
100
AcDbArc
 50
256.9999999959
 51
347.0000000002
  0
ARC
  5
2D6
100
AcDbEntity
  8
0
100
AcDbCircle
 62
7
  6
CONTINUOUS
 10
10.9719662171
 20
9.9579130434
 40
2.5
100
AcDbArc
 50
180.0
 51
339.9999999988
  0
ARC
  5
2D7
100
AcDbEntity
  8
0
100
AcDbCircle
 62
7
  6
CONTINUOUS
 10
13.2931175256
 20
12.2791254952
 40
2.0
100
AcDbArc
 50
346.9999999997
 51
28.4096221093
  0
ARC
  5
2D8
100
AcDbEntity
  8
0
100
AcDbCircle
 62
7
  6
CONTINUOUS
 10
7.9219662171
 20
16.7579130434
 40
1.5
100
AcDbArc
 50
180.0
 51
247.4596895365
  0
ARC
  5
2D9
100
AcDbEntity
  8
0
100
AcDbCircle
 62
7
  6
CONTINUOUS
 10
17.5472775244
 20
10.3579130434
 40
1.5
100
AcDbArc
 50
90.0
 51
159.9999999996
  0
ARC
  5
2DA
100
AcDbEntity
  8
0
100
AcDbCircle
 62
7
  6
CONTINUOUS
 10
13.2931175256
 20
12.2791254952
 40
1.0
100
AcDbArc
 50
347.0000000005
 51
28.4096221094
  0
ARC
  5
2DB
100
AcDbEntity
  8
0
100
AcDbCircle
 62
7
  6
CONTINUOUS
 10
14.9587383454
 20
10.5554711003
 40
1.0
100
AcDbArc
 50
256.3887031931
 51
340.0000000004
  0
ARC
  5
2DC
100
AcDbEntity
  8
0
100
AcDbCircle
 62
7
  6
CONTINUOUS
 10
18.5968565071
 20
26.7790628517
 40
0.49989029
100
AcDbArc
 50
180.0
 51
229.3364266043
  0
ARC
  5
2DD
100
AcDbEntity
  8
0
100
AcDbCircle
 62
7
  6
CONTINUOUS
 10
17.0469662171
 20
24.363336502
 40
0.4
100
AcDbArc
 50
180.0
 51
231.4907108758
  0
ARC
  5
2DE
100
AcDbEntity
  8
0
100
AcDbCircle
 62
7
  6
CONTINUOUS
 10
8.2719662171
 20
15.0579130434
 40
0.2
100
AcDbArc
 50
0.0
 51
67.975687163
  0
ARC
  5
2DF
100
AcDbEntity
  8
0
100
AcDbCircle
 62
7
  6
CONTINUOUS
 10
13.7571273255
 20
9.7158084178
 40
0.2
100
AcDbArc
 50
85.2614672682
 51
160.0000000092
  0
ARC
  5
2E0
100
AcDbEntity
  8
0
100
AcDbCircle
 62
7
  6
CONTINUOUS
 10
20.5819662171
 20
53.6579130434
 40
3.8
100
AcDbArc
 50
90.0
 51
180.0
  0
ARC
  5
2E1
100
AcDbEntity
  8
0
100
AcDbCircle
 62
7
  6
CONTINUOUS
 10
9.3469662171
 20
45.0525315453
 40
2.0
100
AcDbArc
 50
145.0
 51
180.0
  0
ARC
  5
2E2
100
AcDbEntity
  8
0
100
AcDbCircle
 62
7
  6
CONTINUOUS
 10
17.3331003182
 20
56.4579130434
 40
2.0
100
AcDbArc
 50
90.0
 51
144.9999999998
  0
ARC
  5
2E3
100
AcDbEntity
  8
0
100
AcDbCircle
 62
7
  6
CONTINUOUS
 10
7.9219662171
 20
37.64889015
 40
1.5
100
AcDbArc
 50
147.0748362303
 51
180.0
  0
ARC
  5
2E4
100
AcDbEntity
  8
0
100
AcDbCircle
 62
7
  6
CONTINUOUS
 10
12.135238246
 20
51.3631215099
 40
1.5
100
AcDbArc
 50
145.1884978987
 51
180.0
  0
ARC
  5
2E5
100
AcDbEntity
  8
0
100
AcDbCircle
 62
7
  6
CONTINUOUS
 10
13.6391052885
 20
53.5259759912
 40
1.5
100
AcDbArc
 50
80.9230907871
 51
145.1884979026
  0
ARC
  5
2E6
100
AcDbEntity
  8
0
100
AcDbCircle
 62
7
  6
CONTINUOUS
 10
18.0038177432
 20
55.9579130434
 40
1.5
100
AcDbArc
 50
90.0
 51
145.2798014459
  0
ARC
  5
2E7
100
AcDbEntity
  8
0
100
AcDbCircle
 62
7
  6
CONTINUOUS
 10
9.9719662171
 20
44.3954922238
 40
1.5
100
AcDbArc
 50
148.6617520687
 51
180.0
  0
ARC
  5
2E8
100
AcDbEntity
  8
0
100
AcDbCircle
 62
7
  6
CONTINUOUS
 10
6.9719662171
 20
41.7011679349
 40
1.5
100
AcDbArc
 50
336.4435356909
 51
360.0
  0
ARC
  5
2E9
100
AcDbEntity
  8
0
100
AcDbCircle
 62
7
  6
CONTINUOUS
 10
17.3331003182
 20
56.4579130434
 40
1.0
100
AcDbArc
 50
90.0000000001
 51
144.9999999995
  0
ARC
  5
2EA
100
AcDbEntity
  8
0
100
AcDbCircle
 62
7
  6
CONTINUOUS
 10
9.3469662171
 20
45.0525315453
 40
1.0
100
AcDbArc
 50
145.0
 51
180.0
  0
ARC
  5
2EB
100
AcDbEntity
  8
0
100
AcDbCircle
 62
7
  6
CONTINUOUS
 10
21.6469662171
 20
58.3579130434
 40
1.0
100
AcDbArc
 50
90.0
 51
174.2608295227
  0
ARC
  5
2EC
100
AcDbEntity
  8
0
100
AcDbCircle
 62
7
  6
CONTINUOUS
 10
19.7819662171
 20
55.173702517
 40
0.5
100
AcDbArc
 50
90.0
 51
180.0
  0
ARC
  5
2ED
100
AcDbEntity
  8
0
100
AcDbCircle
 62
7
  6
CONTINUOUS
 10
22.4031167162
 20
40.2505515924
 40
0.4999012537
100
AcDbArc
 50
99.3011567693
 51
180.0024609651
  0
ARC
  5
2EE
100
AcDbEntity
  8
0
100
AcDbCircle
 62
7
  6
CONTINUOUS
 10
18.3472490786
 20
38.3979498315
 40
0.49989029
100
AcDbArc
 50
132.7159733252
 51
180.0
  0
ARC
  5
2EF
100
AcDbEntity
  8
0
100
AcDbCircle
 62
7
  6
CONTINUOUS
 10
15.1971141473
 20
39.0579130434
 40
0.4
100
AcDbArc
 50
90.0
 51
142.8593584745
  0
ARC
  5
2F0
100
AcDbEntity
  8
0
100
AcDbCircle
 62
7
  6
CONTINUOUS
 10
15.0198540018
 20
54.6364777376
 40
0.2
100
AcDbArc
 50
235.1884979052
 51
325.2798014426
  0
ARC
  5
2F1
100
AcDbEntity
  8
0
100
AcDbCircle
 62
7
  6
CONTINUOUS
 10
21.8032149964
 20
39.6112854843
 40
0.1
100
AcDbArc
 50
284.8507538958
 51
360.0
  0
ARC
  5
2F2
100
AcDbEntity
  8
0
100
AcDbCircle
 62
7
  6
CONTINUOUS
 10
29.7327884446
 20
11.8579130434
 40
1.0
100
AcDbArc
 50
19.9999999996
 51
170.4059317719
  0
ARC
  5
2F3
100
AcDbEntity
  8
0
100
AcDbCircle
 62
7
  6
CONTINUOUS
 10
28.549572488
 20
12.0579130434
 40
0.2
100
AcDbArc
 50
270.0
 51
350.4059317793
  0
ARC
  5
2F4
100
AcDbEntity
  8
0
100
AcDbCircle
 62
7
  6
CONTINUOUS
 10
23.6469662171
 20
32.6579130434
 40
18.205
100
AcDbArc
 50
146.7382497285
 51
147.3514765503
  0
ARC
  5
2F5
100
AcDbEntity
  8
0
100
AcDbCircle
 62
7
  6
CONTINUOUS
 10
23.6469662171
 20
32.6579130434
 40
18.205
100
AcDbArc
 50
154.7283584681
 51
198.4215719448
  0
ARC
  5
2F6
100
AcDbEntity
  8
0
100
AcDbCircle
 62
7
  6
CONTINUOUS
 10
23.6469662171
 20
32.6579130434
 40
18.205
100
AcDbArc
 50
342.0087900735
 51
25.2216197326
  0
ARC
  5
2F7
100
AcDbEntity
  8
0
100
AcDbCircle
 62
7
  6
CONTINUOUS
 10
23.6469662171
 20
32.6579130434
 40
18.205
100
AcDbArc
 50
32.5982861799
 51
33.5189242495
  0
ARC
  5
2F8
100
AcDbEntity
  8
0
100
AcDbCircle
 62
7
  6
CONTINUOUS
 10
23.6469662171
 20
32.6579130434
 40
17.6
100
AcDbArc
 50
185.2159085689
 51
189.646917881
  0
ARC
  5
2F9
100
AcDbEntity
  8
0
100
AcDbCircle
 62
7
  6
CONTINUOUS
 10
23.6469662171
 20
32.6579130434
 40
17.6
100
AcDbArc
 50
350.3597536974
 51
354.7840914311
  0
ARC
  5
2FA
100
AcDbEntity
  8
0
100
AcDbCircle
 62
7
  6
CONTINUOUS
 10
23.6469662171
 20
32.6579130434
 40
17.6
100
AcDbArc
 50
5.2159085705
 51
9.646917881
  0
ARC
  5
2FB
100
AcDbEntity
  8
0
100
AcDbCircle
 62
7
  6
CONTINUOUS
 10
23.6469662171
 20
32.6579130434
 40
17.6
100
AcDbArc
 50
170.3597536974
 51
174.7840914295
  0
ARC
  5
2FC
100
AcDbEntity
  8
0
100
AcDbCircle
 62
7
  6
CONTINUOUS
 10
23.6469662171
 20
32.6579130434
 40
11.2
100
AcDbArc
 50
63.2112953755
 51
297.72358492
  0
ARC
  5
2FD
100
AcDbEntity
  8
0
100
AcDbCircle
 62
7
  6
CONTINUOUS
 10
23.6469662171
 20
32.6579130434
 40
11.0
100
AcDbArc
 50
293.3382929419
 51
298.0710254446
  0
ARC
  5
2FE
100
AcDbEntity
  8
0
100
AcDbCircle
 62
7
  6
CONTINUOUS
 10
23.6469662171
 20
32.6579130434
 40
11.0
100
AcDbArc
 50
231.4907108756
 51
246.6617070581
  0
ARC
  5
2FF
100
AcDbEntity
  8
0
100
AcDbCircle
 62
7
  6
CONTINUOUS
 10
23.6469662171
 20
32.6579130434
 40
11.0
100
AcDbArc
 50
142.8593584745
 51
163.0876101966
  0
ARC
  5
300
100
AcDbEntity
  8
0
100
AcDbCircle
 62
7
  6
CONTINUOUS
 10
23.6469662171
 20
32.6579130434
 40
10.5
100
AcDbArc
 50
162.2561598952
 51
216.7832335175
  0
ARC
  5
301
100
AcDbEntity
  8
0
100
AcDbCircle
 62
7
  6
CONTINUOUS
 10
23.6469662171
 20
32.6579130434
 40
10.5
100
AcDbArc
 50
220.0
 51
297.0952820347
  0
ARC
  5
302
100
AcDbEntity
  8
0
100
AcDbCircle
 62
7
  6
CONTINUOUS
 10
23.6469662171
 20
32.6579130434
 40
10.5
100
AcDbArc
 50
60.0706335846
 51
139.6376721216
  0
ARC
  5
303
100
AcDbEntity
  8
0
100
AcDbCircle
 62
7
  6
CONTINUOUS
 10
23.6469662171
 20
32.6579130434
 40
10.3828427125
100
AcDbArc
 50
220.0
 51
297.3911558369
  0
ARC
  5
304
100
AcDbEntity
  8
0
100
AcDbCircle
 62
7
  6
CONTINUOUS
 10
23.6469662171
 20
32.6579130434
 40
9.1
100
AcDbArc
 50
180.0
 51
305.0185876726
  0
ARC
  5
305
100
AcDbEntity
  8
0
100
AcDbCircle
 62
7
  6
CONTINUOUS
 10
23.6469662171
 20
32.6579130434
 40
9.1
100
AcDbArc
 50
55.2964736314
 51
131.6473267156
  0
ARC
  5
306
100
AcDbEntity
  8
0
100
AcDbCircle
 62
7
  6
CONTINUOUS
 10
23.6469662171
 20
32.6579130434
 40
8.8790539221
100
AcDbArc
 50
208.3842518135
 51
220.6067531335
  0
ARC
  5
307
100
AcDbEntity
  8
0
100
AcDbCircle
 62
7
  6
CONTINUOUS
 10
23.6469757724
 20
32.6579026942
 40
8.3123959167
100
AcDbArc
 50
131.4215041741
 51
132.7159733252
  0
ARC
  5
308
100
AcDbEntity
  8
0
100
AcDbCircle
 62
7
  6
CONTINUOUS
 10
23.6469662171
 20
32.6579130434
 40
8.3123959167
100
AcDbArc
 50
296.488959989
 51
308.515350162
  0
ARC
  5
309
100
AcDbEntity
  8
0
100
AcDbCircle
 62
7
  6
CONTINUOUS
 10
23.6886655034
 20
32.6336568663
 40
8.3033405892
100
AcDbArc
 50
51.7984666934
 51
56.5624144798
  0
ARC
  5
30A
100
AcDbEntity
  8
0
100
AcDbCircle
 62
7
  6
CONTINUOUS
 10
23.6469662171
 20
32.6579130434
 40
8.1937512207
100
AcDbArc
 50
80.6964228824
 51
99.3035709988
  0
ARC
  5
30B
100
AcDbEntity
  8
0
100
AcDbCircle
 62
7
  6
CONTINUOUS
 10
23.6469662171
 20
32.6579130434
 40
7.8205535064
100
AcDbArc
 50
212.664901541
 51
221.9041111258
  0
ARC
  5
30C
100
AcDbEntity
  8
0
100
AcDbCircle
 62
7
  6
CONTINUOUS
 10
23.6469662171
 20
32.6579130434
 40
7.7996074285
100
AcDbArc
 50
138.0370052877
 51
160.4283306547
  0
ARC
  5
30D
100
AcDbEntity
  8
0
100
AcDbCircle
 62
7
  6
CONTINUOUS
 10
23.6469662171
 20
32.6579130434
 40
7.55
100
AcDbArc
 50
197.3383130241
 51
222.6843893191
  0
ARC
  5
30E
100
AcDbEntity
  8
0
100
AcDbCircle
 62
7
  6
CONTINUOUS
 10
23.6469662171
 20
32.6579130434
 40
7.144370909
100
AcDbArc
 50
244.7877308609
 51
295.2118380082
  0
ARC
  5
30F
100
AcDbEntity
  8
0
100
AcDbCircle
 62
7
  6
CONTINUOUS
 10
23.6469884807
 20
32.6578290802
 40
7.0937512207
100
AcDbArc
 50
104.8507538958
 51
115.5208499668
  0
ARC
  5
310
100
AcDbEntity
  8
0
100
AcDbCircle
 62
7
  6
CONTINUOUS
 10
27.4928817511
 20
25.7066005587
 40
0.3647697837
100
AcDbArc
 50
270.3707710059
 51
272.9133557265
  0
ARC
  5
311
100
AcDbEntity
  8
0
100
AcDbCircle
 62
7
  6
CONTINUOUS
 10
27.4913461898
 20
25.692302029
 40
0.3505319818
100
AcDbArc
 50
180.7962143547
 51
256.9007814866
  0
ARC
  5
312
100
AcDbEntity
  8
0
100
AcDbCircle
 62
7
  6
CONTINUOUS
 10
27.0408454496
 20
26.2803455935
 40
0.1
100
AcDbArc
 50
0.0
 51
121.2150110388
  0
ARC
  5
313
100
AcDbEntity
  8
0
100
AcDbCircle
 62
7
  6
CONTINUOUS
 10
36.2469662171
 20
9.7679130434
 40
3.7
100
AcDbArc
 50
283.0000000005
 51
360.0
  0
ARC
  5
314
100
AcDbEntity
  8
0
100
AcDbCircle
 62
7
  6
CONTINUOUS
 10
36.1714437004
 20
9.545216475
 40
3.5
100
AcDbArc
 50
192.9999999995
 51
283.0000000003
  0
ARC
  5
315
100
AcDbEntity
  8
0
100
AcDbCircle
 62
7
  6
CONTINUOUS
 10
36.2469662171
 20
9.7679130434
 40
2.7
100
AcDbArc
 50
283.0
 51
360.0
  0
ARC
  5
316
100
AcDbEntity
  8
0
100
AcDbCircle
 62
7
  6
CONTINUOUS
 10
36.1714437004
 20
9.545216475
 40
2.5
100
AcDbArc
 50
193.0000000006
 51
283.0000000024
  0
ARC
  5
317
100
AcDbEntity
  8
0
100
AcDbCircle
 62
7
  6
CONTINUOUS
 10
36.3219662171
 20
9.9579130434
 40
2.5
100
AcDbArc
 50
200.0000000001
 51
360.0
  0
ARC
  5
318
100
AcDbEntity
  8
0
100
AcDbCircle
 62
7
  6
CONTINUOUS
 10
34.0008149085
 20
12.2791254952
 40
2.0
100
AcDbArc
 50
151.5903778908
 51
193.0000000003
  0
ARC
  5
319
100
AcDbEntity
  8
0
100
AcDbCircle
 62
7
  6
CONTINUOUS
 10
39.3719662171
 20
16.7579130434
 40
1.5
100
AcDbArc
 50
292.5403104635
 51
360.0
  0
ARC
  5
31A
100
AcDbEntity
  8
0
100
AcDbCircle
 62
7
  6
CONTINUOUS
 10
34.0008149085
 20
12.2791254952
 40
1.0
100
AcDbArc
 50
151.5903778909
 51
192.9999999974
  0
ARC
  5
31B
100
AcDbEntity
  8
0
100
AcDbCircle
 62
7
  6
CONTINUOUS
 10
32.3351940887
 20
10.5554711003
 40
1.0
100
AcDbArc
 50
200.0000000006
 51
283.6112968067
  0
ARC
  5
31C
100
AcDbEntity
  8
0
100
AcDbCircle
 62
7
  6
CONTINUOUS
 10
33.5368051087
 20
9.7158084178
 40
0.2
100
AcDbArc
 50
19.9999999994
 51
94.7385327318
  0
ARC
  5
31D
100
AcDbEntity
  8
0
100
AcDbCircle
 62
7
  6
CONTINUOUS
 10
39.0219662171
 20
15.0579130434
 40
0.2
100
AcDbArc
 50
112.0243128371
 51
180.0
  0
ARC
  5
31E
100
AcDbEntity
  8
0
100
AcDbCircle
 62
7
  6
CONTINUOUS
 10
33.7218990964
 20
22.8444767353
 40
1.521886257
100
AcDbArc
 50
255.9318846468
 51
284.0681153532
  0
ARC
  5
31F
100
AcDbEntity
  8
0
100
AcDbCircle
 62
7
  6
CONTINUOUS
 10
33.7220333377
 20
22.5814793057
 40
1.521886257
100
AcDbArc
 50
75.9318846468
 51
104.0681153532
  0
ARC
  5
320
100
AcDbEntity
  8
0
100
AcDbCircle
 62
7
  6
CONTINUOUS
 10
33.7218990964
 20
22.7551274834
 40
1.521886257
100
AcDbArc
 50
75.9318846468
 51
104.0681153532
  0
ARC
  5
321
100
AcDbEntity
  8
0
100
AcDbCircle
 62
7
  6
CONTINUOUS
 10
26.4819662171
 20
53.6579130434
 40
3.8
100
AcDbArc
 50
0.0
 51
90.0
  0
ARC
  5
322
100
AcDbEntity
  8
0
100
AcDbCircle
 62
7
  6
CONTINUOUS
 10
23.7926529936
 20
49.6839626516
 40
2.7310081035
100
AcDbArc
 50
90.93429763
 51
255.6614192235
  0
ARC
  5
323
100
AcDbEntity
  8
0
100
AcDbCircle
 62
7
  6
CONTINUOUS
 10
23.7674771418
 20
49.6903964319
 40
2.7310079806
100
AcDbArc
 50
90.9342933389
 51
255.661424167
  0
ARC
  5
324
100
AcDbEntity
  8
0
100
AcDbCircle
 62
7
  6
CONTINUOUS
 10
23.7923229253
 20
49.6840364029
 40
2.7310079699
100
AcDbArc
 50
270.9342983886
 51
75.661418581
  0
ARC
  5
325
100
AcDbEntity
  8
0
100
AcDbCircle
 62
7
  6
CONTINUOUS
 10
29.960832116
 20
56.4579130434
 40
2.0
100
AcDbArc
 50
34.999999999
 51
90.0
  0
ARC
  5
326
100
AcDbEntity
  8
0
100
AcDbCircle
 62
7
  6
CONTINUOUS
 10
37.9469662171
 20
45.0525315453
 40
2.0
100
AcDbArc
 50
0.0
 51
35.0000000019
  0
ARC
  5
327
100
AcDbEntity
  8
0
100
AcDbCircle
 62
7
  6
CONTINUOUS
 10
33.7220333377
 20
41.3671604448
 40
1.521886257
100
AcDbArc
 50
75.9318846468
 51
104.0681153532
  0
ARC
  5
328
100
AcDbEntity
  8
0
100
AcDbCircle
 62
7
  6
CONTINUOUS
 10
33.7218990964
 20
41.4565096967
 40
1.521886257
100
AcDbArc
 50
255.9318846468
 51
284.0681153532
  0
ARC
  5
329
100
AcDbEntity
  8
0
100
AcDbCircle
 62
7
  6
CONTINUOUS
 10
33.7220333377
 20
41.6301578744
 40
1.521886257
100
AcDbArc
 50
255.9318846468
 51
284.0681153532
  0
ARC
  5
32A
100
AcDbEntity
  8
0
100
AcDbCircle
 62
7
  6
CONTINUOUS
 10
39.3719662171
 20
37.64889015
 40
1.5
100
AcDbArc
 50
0.0
 51
32.9251637684
  0
ARC
  5
32B
100
AcDbEntity
  8
0
100
AcDbCircle
 62
7
  6
CONTINUOUS
 10
35.1586941881
 20
51.3631215099
 40
1.5
100
AcDbArc
 50
0.0
 51
34.8115021012
  0
ARC
  5
32C
100
AcDbEntity
  8
0
100
AcDbCircle
 62
7
  6
CONTINUOUS
 10
33.6548271456
 20
53.5259759912
 40
1.5
100
AcDbArc
 50
34.8115020976
 51
99.0769092131
  0
ARC
  5
32D
100
AcDbEntity
  8
0
100
AcDbCircle
 62
7
  6
CONTINUOUS
 10
40.3219662171
 20
41.7011679349
 40
1.5
100
AcDbArc
 50
180.0
 51
203.5564643091
  0
ARC
  5
32E
100
AcDbEntity
  8
0
100
AcDbCircle
 62
7
  6
CONTINUOUS
 10
37.3219662171
 20
44.3982035474
 40
1.5
100
AcDbArc
 50
0.0
 51
31.3557080735
  0
ARC
  5
32F
100
AcDbEntity
  8
0
100
AcDbCircle
 62
7
  6
CONTINUOUS
 10
29.2843167674
 20
55.9579130434
 40
1.5
100
AcDbArc
 50
34.8115021003
 51
90.0
  0
ARC
  5
330
100
AcDbEntity
  8
0
100
AcDbCircle
 62
7
  6
CONTINUOUS
 10
37.9469662171
 20
45.0525315453
 40
1.0
100
AcDbArc
 50
0.0
 51
35.0000000003
  0
ARC
  5
331
100
AcDbEntity
  8
0
100
AcDbCircle
 62
7
  6
CONTINUOUS
 10
29.960832116
 20
56.4579130434
 40
1.0
100
AcDbArc
 50
35.0000000007
 51
90.0
  0
ARC
  5
332
100
AcDbEntity
  8
0
100
AcDbCircle
 62
7
  6
CONTINUOUS
 10
25.6469662171
 20
58.3579130434
 40
1.0
100
AcDbArc
 50
5.7391704773
 51
90.0
  0
ARC
  5
333
100
AcDbEntity
  8
0
100
AcDbCircle
 62
7
  6
CONTINUOUS
 10
27.2819662171
 20
55.173702517
 40
0.5
100
AcDbArc
 50
0.0
 51
90.0
  0
ARC
  5
334
100
AcDbEntity
  8
0
100
AcDbCircle
 62
7
  6
CONTINUOUS
 10
24.890816167
 20
40.2505517665
 40
0.4999008156
100
AcDbArc
 50
359.9975279039
 51
80.6987905183
  0
ARC
  5
335
100
AcDbEntity
  8
0
100
AcDbCircle
 62
7
  6
CONTINUOUS
 10
32.273816552
 20
54.6362956481
 40
0.2
100
AcDbArc
 50
214.8115020963
 51
304.8115020983
  0
ARC
  5
336
100
AcDbEntity
  8
0
100
AcDbCircle
 62
7
  6
CONTINUOUS
 10
25.4907174378
 20
39.6112776824
 40
0.1
100
AcDbArc
 50
180.0
 51
255.1492301774
  0
SPLINE
  5
337
100
AcDbEntity
  8
0
100
AcDbSpline
 62
7
  6
CONTINUOUS
 70
0
 71
3
 72
16
 73
12
 74
0
 42
0.0000001
 43
0.0000001
 44
0.0000000001
 40
0.0
 40
0.0
 40
0.0
 40
0.0
 40
0.125771821
 40
0.2514641638
 40
0.3769244616
 40
0.5021182908
 40
0.6269934174
 40
0.7515427695
 40
0.8137572777
 40
0.8759232351
 40
1.0
 40
1.0
 40
1.0
 40
1.0
 10
33.7219662171
 20
25.7542253684
 30
0.0
 10
33.5513854724
 20
25.7542253684
 30
0.0
 10
33.2096402456
 20
25.7254252593
 30
0.0
 10
32.7123835527
 20
25.5971917843
 30
0.0
 10
32.2443219929
 20
25.3874890084
 30
0.0
 10
31.8192141268
 20
25.1025312025
 30
0.0
 10
31.4494697243
 20
24.750528551
 30
0.0
 10
31.1961171074
 20
24.4093999222
 30
0.0
 10
31.0312306017
 20
24.1143542139
 30
0.0
 10
30.8925759663
 20
23.8068977539
 30
0.0
 10
30.8189447516
 20
23.5635394301
 30
0.0
 10
30.7842952949
 20
23.398863459
 30
0.0
  0
SPLINE
  5
338
100
AcDbEntity
  8
0
100
AcDbSpline
 62
7
  6
CONTINUOUS
 70
0
 71
3
 72
16
 73
12
 74
0
 42
0.0000001
 43
0.0000001
 44
0.0000000001
 40
0.0
 40
0.0
 40
0.0
 40
0.0
 40
0.1240795385
 40
0.1862450947
 40
0.2484598854
 40
0.37301085
 40
0.4978867473
 40
0.6230805644
 40
0.7485397468
 40
0.8742305834
 40
1.0
 40
1.0
 40
1.0
 40
1.0
 10
36.6578847518
 20
23.4071323347
 30
0.0
 10
36.6228294971
 20
23.5713699812
 30
0.0
 10
36.5486952421
 20
23.8140212067
 30
0.0
 10
36.4095773071
 20
24.1205041758
 30
0.0
 10
36.2443693523
 20
24.4145679679
 30
0.0
 10
35.9908732652
 20
24.7544856967
 30
0.0
 10
35.6213351359
 20
25.105160756
 30
0.0
 10
35.1967631328
 20
25.3889944356
 30
0.0
 10
34.7294987772
 20
25.5978446902
 30
0.0
 10
34.2332199302
 20
25.7255455415
 30
0.0
 10
33.8921905226
 20
25.7542253684
 30
0.0
 10
33.7219662171
 20
25.7542253684
 30
0.0
  0
SPLINE
  5
339
100
AcDbEntity
  8
0
100
AcDbSpline
 62
7
  6
CONTINUOUS
 70
0
 71
3
 72
29
 73
25
 74
0
 42
0.0000001
 43
0.0000001
 44
0.0000000001
 40
0.0
 40
0.0
 40
0.0
 40
0.0
 40
0.0619994477
 40
0.0930785182
 40
0.1241776866
 40
0.1864282476
 40
0.2488464822
 40
0.2801469322
 40
0.3114871677
 40
0.3428642908
 40
0.374273276
 40
0.4371073259
 40
0.4999981869
 40
0.5628888923
 40
0.6257225454
 40
0.6571313622
 40
0.6885084395
 40
0.7198487477
 40
0.7511495187
 40
0.8135687888
 40
0.8758204091
 40
0.9069202622
 40
0.9380000375
 40
1.0
 40
1.0
 40
1.0
 40
1.0
 10
30.7639263255
 20
40.9194311943
 30
0.0
 10
30.7931394244
 20
40.7492298012
 30
0.0
 10
30.860030679
 20
40.496892312
 30
0.0
 10
30.992349655
 20
40.1769761427
 30
0.0
 10
31.1527928366
 20
39.8693026545
 30
0.0
 10
31.4039020709
 20
39.512560851
 30
0.0
 10
31.7140130158
 20
39.204939944
 30
0.0
 10
31.9915261393
 20
38.9937990391
 30
0.0
 10
32.213263946
 20
38.8538380779
 30
0.0
 10
32.4465800361
 20
38.7335117765
 30
0.0
 10
32.7706353364
 20
38.6005840061
 30
0.0
 10
33.1959796681
 20
38.4877467803
 30
0.0
 10
33.7219502982
 20
38.4422479461
 30
0.0
 10
34.2479200134
 20
38.4877412634
 30
0.0
 10
34.6732644289
 20
38.6005714761
 30
0.0
 10
34.9973181255
 20
38.7334984314
 30
0.0
 10
35.2306367096
 20
38.8538189948
 30
0.0
 10
35.4523759364
 20
38.9937796444
 30
0.0
 10
35.729895355
 20
39.2049187627
 30
0.0
 10
36.0400132501
 20
39.5125424843
 30
0.0
 10
36.2911304512
 20
39.8692881294
 30
0.0
 10
36.4515785861
 20
40.1769668193
 30
0.0
 10
36.5838997639
 20
40.4968878238
 30
0.0
 10
36.6507927671
 20
40.7492283881
 30
0.0
 10
36.6800061086
 20
40.9194311943
 30
0.0
  0
SPLINE
  5
33A
100
AcDbEntity
  8
0
100
AcDbSpline
 62
7
  6
CONTINUOUS
 70
0
 71
3
 72
22
 73
18
 74
0
 42
0.0000001
 43
0.0000001
 44
0.0000000001
 40
0.0
 40
0.0
 40
0.0
 40
0.0
 40
0.0786998665
 40
0.1250002216
 40
0.1577922406
 40
0.2371476355
 40
0.250000191
 40
0.3216866411
 40
0.4064390057
 40
0.4913938577
 40
0.5760231501
 40
0.6250000993
 40
0.6607733695
 40
0.7456176487
 40
0.8304309887
 40
0.915390902
 40
1.0
 40
1.0
 40
1.0
 40
1.0
 10
20.1530870159
 20
25.6874310434
 30
0.0
 10
20.1521496129
 20
25.6685783074
 30
0.0
 10
20.1500537376
 20
25.6385396606
 30
0.0
 10
20.1416203671
 20
25.6015800804
 30
0.0
 10
20.130076991
 20
25.5652268716
 30
0.0
 10
20.117892387
 20
25.5376946683
 30
0.0
 10
20.0985153683
 20
25.503387803
 30
0.0
 10
20.0753719088
 20
25.4697339715
 30
0.0
 10
20.0351143364
 20
25.4275539203
 30
0.0
 10
19.985529398
 20
25.3912680163
 30
0.0
 10
19.9382260092
 20
25.3678491549
 30
0.0
 10
19.8994827707
 20
25.3549596948
 30
0.0
 10
19.8597952073
 20
25.3455194901
 30
0.0
 10
19.8104657981
 20
25.3400971839
 30
0.0
 10
19.7490990221
 20
25.34416654
 30
0.0
 10
19.6894882463
 20
25.3588971285
 30
0.0
 10
19.6519522098
 20
25.375352352
 30
0.0
 10
19.6341314449
 20
25.3851321996
 30
0.0
  0
SPLINE
  5
33B
100
AcDbEntity
  8
0
100
AcDbSpline
 62
7
  6
CONTINUOUS
 70
0
 71
3
 72
13
 73
9
 74
0
 42
0.0000001
 43
0.0000001
 44
0.0000000001
 40
0.0
 40
0.0
 40
0.0
 40
0.0
 40
0.2430366919
 40
0.4938307295
 40
0.7457252617
 40
0.994298391
 40
0.9981444714
 40
1.0
 40
1.0
 40
1.0
 40
1.0
 10
20.2981198107
 20
26.3688005688
 30
0.0
 10
20.2840152759
 20
26.3768752611
 30
0.0
 10
20.2501816379
 20
26.3845916013
 30
0.0
 10
20.2001036041
 20
26.3701558202
 30
0.0
 10
20.1632261839
 20
26.3330428243
 30
0.0
 10
20.1530551195
 20
26.2989077047
 30
0.0
 10
20.1530869747
 20
26.2818831941
 30
0.0
 10
20.1530871503
 20
26.2815014571
 30
0.0
 10
20.1530869893
 20
26.2813772206
 30
0.0
  0
SPLINE
  5
33C
100
AcDbEntity
  8
0
100
AcDbSpline
 62
7
  6
CONTINUOUS
 70
0
 71
3
 72
14
 73
10
 74
0
 42
0.0000001
 43
0.0000001
 44
0.0000000001
 40
0.0
 40
0.0
 40
0.0
 40
0.0
 40
0.1658293516
 40
0.3317372848
 40
0.4976323112
 40
0.6635499021
 40
0.8294549044
 40
0.9953782515
 40
1.0
 40
1.0
 40
1.0
 40
1.0
 10
20.6036575337
 20
26.1941457992
 30
0.0
 10
20.5865712918
 20
26.2034383623
 30
0.0
 10
20.5524577933
 20
26.2221618379
 30
0.0
 10
20.5015049724
 20
26.2506639539
 30
0.0
 10
20.4507903215
 20
26.2796044441
 30
0.0
 10
20.400199854
 20
26.3087731123
 30
0.0
 10
20.350212046
 20
26.3389640144
 30
0.0
 10
20.3156899368
 20
26.358138937
 30
0.0
 10
20.2985962676
 20
26.3685406506
 30
0.0
 10
20.2981333415
 20
26.368823057
 30
0.0
  0
SPLINE
  5
33D
100
AcDbEntity
  8
0
100
AcDbSpline
 62
7
  6
CONTINUOUS
 70
0
 71
3
 72
12
 73
8
 74
0
 42
0.0000001
 43
0.0000001
 44
0.0000000001
 40
0.0
 40
0.0
 40
0.0
 40
0.0
 40
0.2490897916
 40
0.3750455828
 40
0.5009420373
 40
0.7509946152
 40
1.0
 40
1.0
 40
1.0
 40
1.0
 10
27.6642403942
 20
25.3807271819
 30
0.0
 10
27.65467296
 20
25.3753912782
 30
0.0
 10
27.6388969227
 20
25.3699200667
 30
0.0
 10
27.6175682894
 20
25.3645368152
 30
0.0
 10
27.5962025473
 20
25.3589472065
 30
0.0
 10
27.5699461813
 20
25.3508291488
 30
0.0
 10
27.5484182297
 20
25.3462213952
 30
0.0
 10
27.5375696562
 20
25.3447264706
 30
0.0
  0
SPLINE
  5
33E
100
AcDbEntity
  8
0
100
AcDbSpline
 62
7
  6
CONTINUOUS
 70
0
 71
3
 72
8
 73
4
 74
0
 42
0.0000001
 43
0.0000001
 44
0.0000000001
 40
0.0
 40
0.0
 40
0.0
 40
0.0
 40
1.0
 40
1.0
 40
1.0
 40
1.0
 10
27.4952422237
 20
25.3418384125
 30
0.0
 10
27.4672992277
 20
25.3416445764
 30
0.0
 10
27.4391197954
 20
25.3445621423
 30
0.0
 10
27.4119006995
 20
25.3508842789
 30
0.0
  0
SPLINE
  5
33F
100
AcDbEntity
  8
0
100
AcDbSpline
 62
7
  6
CONTINUOUS
 70
0
 71
3
 72
8
 73
4
 74
0
 42
0.0000001
 43
0.0000001
 44
0.0000000001
 40
0.0
 40
0.0
 40
0.0
 40
0.0
 40
1.0
 40
1.0
 40
1.0
 40
1.0
 10
27.5375696562
 20
25.3447264706
 30
0.0
 10
27.5288981497
 20
25.3435315441
 30
0.0
 10
27.5201633711
 20
25.3427512448
 30
0.0
 10
27.5114214459
 20
25.3423022265
 30
0.0
  0
SPLINE
  5
340
100
AcDbEntity
  8
0
100
AcDbSpline
 62
7
  6
CONTINUOUS
 70
0
 71
3
 72
12
 73
8
 74
0
 42
0.0000001
 43
0.0000001
 44
0.0000000001
 40
0.0
 40
0.0
 40
0.0
 40
0.0
 40
0.0001045617
 40
0.0009454507
 40
0.4924563547
 40
0.9991945026
 40
1.0
 40
1.0
 40
1.0
 40
1.0
 10
19.9951076332
 20
40.1107259007
 30
0.0
 10
19.9951124777
 20
40.1107281917
 30
0.0
 10
19.9951562832
 20
40.1107489056
 30
0.0
 10
20.0179787912
 20
40.1215299738
 30
0.0
 10
20.0703474175
 20
40.1345094764
 30
0.0
 10
20.122757785
 20
40.1224730602
 30
0.0
 10
20.1474900141
 20
40.1123570236
 30
0.0
 10
20.1475292607
 20
40.1123409592
 30
0.0
  0
SPLINE
  5
341
100
AcDbEntity
  8
0
100
AcDbSpline
 62
7
  6
CONTINUOUS
 70
0
 71
3
 72
11
 73
7
 74
0
 42
0.0000001
 43
0.0000001
 44
0.0000000001
 40
0.0
 40
0.0
 40
0.0
 40
0.0
 40
0.2474989405
 40
0.4948374183
 40
0.7444555572
 40
1.0
 40
1.0
 40
1.0
 40
1.0
 10
26.8485330229
 20
39.7751290395
 30
0.0
 10
26.8485330229
 20
39.815487191
 30
0.0
 10
26.8630575932
 20
39.8969552588
 30
0.0
 10
26.9269676706
 20
40.00324258
 30
0.0
 10
27.0253386544
 20
40.0808357941
 30
0.0
 10
27.1056985753
 20
40.1066114642
 30
0.0
 10
27.1469662171
 20
40.1123887944
 30
0.0
  0
SPLINE
  5
342
100
AcDbEntity
  8
0
100
AcDbSpline
 62
7
  6
CONTINUOUS
 70
0
 71
3
 72
12
 73
8
 74
0
 42
0.0000001
 43
0.0000001
 44
0.0000000001
 40
0.0
 40
0.0
 40
0.0
 40
0.0
 40
0.2038394276
 40
0.4101488319
 40
0.605822284
 40
0.8060655044
 40
1.0
 40
1.0
 40
1.0
 40
1.0
 10
26.7023673337
 20
39.0598279246
 30
0.0
 10
26.7147705167
 20
39.0540111415
 30
0.0
 10
26.7421795736
 20
39.0467829023
 30
0.0
 10
26.7836177139
 20
39.0523238153
 30
0.0
 10
26.8193477067
 20
39.0735161984
 30
0.0
 10
26.8432566257
 20
39.1067468123
 30
0.0
 10
26.8482543155
 20
39.1335384681
 30
0.0
 10
26.8485330229
 20
39.1465886559
 30
0.0
  0
SPLINE
  5
343
100
AcDbEntity
  8
0
100
AcDbSpline
 62
7
  6
CONTINUOUS
 70
0
 71
3
 72
12
 73
8
 74
0
 42
0.0000001
 43
0.0000001
 44
0.0000000001
 40
0.0
 40
0.0
 40
0.0
 40
0.0
 40
0.1980491937
 40
0.4016077721
 40
0.5974761335
 40
0.7987133208
 40
1.0
 40
1.0
 40
1.0
 40
1.0
 10
20.4453994114
 20
39.1465949248
 30
0.0
 10
20.445398549
 20
39.1333462043
 30
0.0
 10
20.4509795345
 20
39.106139611
 30
0.0
 10
20.4752561288
 20
39.0728403902
 30
0.0
 10
20.5109777713
 20
39.0522272792
 30
0.0
 10
20.5517210532
 20
39.0468039354
 30
0.0
 10
20.5783540016
 20
39.0540357825
 30
0.0
 10
20.590708624
 20
39.0594566669
 30
0.0
  0
SPLINE
  5
344
100
AcDbEntity
  8
0
100
AcDbSpline
 62
7
  6
CONTINUOUS
 70
0
 71
3
 72
11
 73
7
 74
0
 42
0.0000001
 43
0.0000001
 44
0.0000000001
 40
0.0
 40
0.0
 40
0.0
 40
0.0
 40
0.2553839564
 40
0.5051041966
 40
0.7523832845
 40
1.0
 40
1.0
 40
1.0
 40
1.0
 10
20.1475460698
 20
40.1123619507
 30
0.0
 10
20.1884772552
 20
40.1065678655
 30
0.0
 10
20.2687953921
 20
40.0807759136
 30
0.0
 10
20.3670469429
 20
40.0032082508
 30
0.0
 10
20.4311105026
 20
39.8969289048
 30
0.0
 10
20.4451933024
 20
39.8155070046
 30
0.0
 10
20.4454934457
 20
39.7751297385
 30
0.0
  0
SPLINE
  5
345
100
AcDbEntity
  8
0
100
AcDbSpline
 62
7
  6
CONTINUOUS
 70
0
 71
3
 72
9
 73
5
 74
0
 42
0.0000001
 43
0.0000001
 44
0.0000000001
 40
0.0
 40
0.0
 40
0.0
 40
0.0
 40
0.5116668832
 40
1.0
 40
1.0
 40
1.0
 40
1.0
 10
27.1470192292
 20
40.1124104413
 30
0.0
 10
27.1715083094
 20
40.1224069012
 30
0.0
 10
27.2234671096
 20
40.1345538611
 30
0.0
 10
27.2753874729
 20
40.1215386379
 30
0.0
 10
27.2982740809
 20
40.1105452212
 30
0.0
  0
ELLIPSE
  5
346
100
AcDbEntity
  8
0
100
AcDbEllipse
 62
7
  6
CONTINUOUS
 10
33.7219662171
 20
41.2495668465
 30
0.0
 11
-0.0
 21
3.0462798357
 31
0.0
 40
0.984807753
 41
0.6617572988
 42
0.9851107833
  0
ELLIPSE
  5
347
100
AcDbEntity
  8
0
100
AcDbEllipse
 62
7
  6
CONTINUOUS
 10
33.7219662171
 20
41.2495668465
 30
0.0
 11
0.0
 21
3.0462798357
 31
0.0
 40
0.984807753
 41
-0.9851107833
 42
-0.6617574115
  0
ELLIPSE
  5
348
100
AcDbEntity
  8
0
100
AcDbEllipse
 62
7
  6
CONTINUOUS
 10
33.7219662171
 20
40.5442589237
 30
0.0
 11
-0.0
 21
3.0462798357
 31
0.0
 40
0.984807753
 41
0.9851107833
 42
5.2980745238
  0
ELLIPSE
  5
349
100
AcDbEntity
  8
0
100
AcDbEllipse
 62
7
  6
CONTINUOUS
 10
33.7219662171
 20
23.7715671631
 30
0.0
 11
0.0
 21
-3.0462798357
 31
0.0
 40
0.984807753
 41
0.0
 42
6.2831853072
  0
ENDSEC
  0
SECTION
  2
OBJECTS
  0
DICTIONARY
  5
C
100
AcDbDictionary
280
0
281
1
  3
ACAD_GROUP
350
D
  3
ACAD_MLINESTYLE
350
17
  3
ACAD_LAYOUT
350
1A
  3
ACAD_PLOTSETTINGS
350
19
  3
ACAD_PLOTSTYLENAME
350
E
  0
DICTIONARY
  5
D
102
{ACAD_REACTORS
330
C
102
}
100
AcDbDictionary
280
0
281
1
  0
ACDBDICTIONARYWDFLT
  5
E
102
{ACAD_REACTORS
330
C
102
}
100
AcDbDictionary
281
1
  3
Normal
350
F
100
AcDbDictionaryWithDefault
340
F
  0
DICTIONARY
  5
17
102
{ACAD_REACTORS
330
C
102
}
100
AcDbDictionary
280
0
281
1
  3
Standard
350
18
  0
DICTIONARY
  5
19
102
{ACAD_REACTORS
330
C
102
}
100
AcDbDictionary
281
1
  0
DICTIONARY
  5
1A
102
{ACAD_REACTORS
330
C
102
}
100
AcDbDictionary
281
1
  3
Model
350
34A
  3
Layout1
350
34B
  0
ACDBPLACEHOLDER
  5
F
102
{ACAD_REACTORS
330
E
102
}
  0
MLINESTYLE
  5
18
102
{ACAD_REACTORS
330
17
102
}
100
AcDbMlineStyle
  2
STANDARD
 70
0
  3

 62
256
 51
90.0
 52
90.0
 71
2
 49
0.5
 62
256
  6
BYLAYER
 49
-0.5
 62
256
  6
BYLAYER
  0
LAYOUT
  5
34A
102
{ACAD_REACTORS
330
1A
102
}
100
AcDbPlotSettings
  1

  2
none_device
  4

  6

 40
0.0
 41
0.0
 42
0.0
 43
0.0
 44
210.0
 45
297.0
 46
0.0
 47
0.0
 48
0.0
 49
0.0
140
0.0
141
0.0
142
1.0
143
1.0
 70
1024
 72
1
 73
0
 74
0
  7

 75
0
147
1.0
148
0.0
149
0.0
100
AcDbLayout
  1
Model
 70
0
 71
0
 10
0.0
 20
0.0
 11
210.0
 21
297.0
 12
0.0
 22
0.0
 32
0.0
 14
0.0
 24
0.0
 34
0.0
 15
0.0
 25
0.0
 35
0.0
146
0.0
 13
0.0
 23
0.0
 33
0.0
 16
1.0
 26
0.0
 36
0.0
 17
0.0
 27
1.0
 37
0.0
 76
0
330
210
345
0
346
0
  0
LAYOUT
  5
34B
102
{ACAD_REACTORS
330
1A
102
}
100
AcDbPlotSettings
  1

  2
none_device
  4

  6

 40
0.0
 41
0.0
 42
0.0
 43
0.0
 44
210.0
 45
297.0
 46
0.0
 47
0.0
 48
0.0
 49
0.0
140
0.0
141
0.0
142
1.0
143
1.0
 70
0
 72
1
 73
0
 74
0
  7

 75
0
147
1.0
148
0.0
149
0.0
100
AcDbLayout
  1
Layout1
 70
0
 71
1
 10
0.0
 20
0.0
 11
210.0
 21
297.0
 12
0.0
 22
0.0
 32
0.0
 14
0.0
 24
0.0
 34
0.0
 15
0.0
 25
0.0
 35
0.0
146
0.0
 13
0.0
 23
0.0
 33
0.0
 16
1.0
 26
0.0
 36
0.0
 17
0.0
 27
1.0
 37
0.0
 76
0
330
211
345
0
346
0
  0
ENDSEC
  0
EOF
