999
DXF file: C:\Users\sesa63760\Dev\_Creo\CAD\MCADID0002139_3D-CAD\drw0001_2.dxf
999
Pro/ENGINEER 2019471 by Parametric Technology Corporation
  0
SECTION
  2
HEADER
  9
$ACADVER
  1
AC1024
  9
$DWGCODEPAGE
  3
ANSI_1252
  9
$EXTMAX
 10
45.8239893488
 20
64.8082135076
 30
0.0
  9
$EXTMIN
 10
0.0
 20
0.0
 30
0.0
  9
$LIMMIN
 10
0.0
 20
0.0
  9
$LIMMAX
 10
45.8239893488
 20
64.8082135076
  9
$VIEWCTR
 10
22.9119946744
 20
32.4041067538
  9
$VIEWSIZE
 40
64.8082135076
  9
$CLAYER
  8
0
  9
$LTSCALE
 40
4.224535399
  9
$CELTYPE
  6
BYLAYER
  9
$DIMSCALE
 40
1.0
  9
$DIMASZ
 40
0.5455236827
  9
$DIMEXO
 40
1.0
  9
$DIMDLI
 40
2.918769912
  9
$DIMEXE
 40
1.0
  9
$DIMCEN
 40
0.6912876107
  9
$DIMLFAC
 40
1.0
  9
$DIMBLK
  1
_FILLED
  9
$DIMALT
 70
0
  9
$DIMALTF
 40
0.0393700787
  9
$DIMTXT
 40
0.7637331558
  9
$DIMTOL
 70
1
  9
$DIMLIM
 70
0
  9
$DIMTFAC
 40
1.0
  9
$DIMTP
 40
0.01
  9
$DIMTM
 40
0.01
  9
$DIMGAP
 40
0.625
  9
$DIMDSEP
 70
46
  9
$AUNITS
 70
0
  9
$PDMODE
 70
3
  9
$PDSIZE
 40
0.3125
  9
$HANDSEED
  5
3A3
  9
$TILEMODE
 70
1
  9
$MEASUREMENT
 70
1
  9
$INSUNITS
 70
4
  0
ENDSEC
  0
SECTION
  2
CLASSES
  0
CLASS
  1
ACDBDICTIONARYWDFLT
  2
AcDbDictionaryWithDefault
  3
AutoCAD 2000
 90
0
 91
1
280
0
281
0
  0
CLASS
  1
ACDBPLACEHOLDER
  2
AcDbPlaceHolder
  3
AutoCAD 2000
 90
0
 91
1
280
0
281
0
  0
CLASS
  1
LAYOUT
  2
AcDbLayout
  3
AutoCAD 2000
 90
0
 91
0
280
0
281
0
  0
ENDSEC
  0
SECTION
  2
TABLES
  0
TABLE
  2
VPORT
  5
8
100
AcDbSymbolTable
 70
2
  0
VPORT
  5
1F4
100
AcDbSymbolTableRecord
100
AcDbViewportTableRecord
  2
*ACTIVE
 70
0
 10
0.0
 20
0.0
 11
1.0
 21
1.0
 12
22.9119946744
 22
32.4041067538
 13
0.0
 23
0.0
 14
1.0
 24
1.0
 15
0.0
 25
0.0
 16
0.0
 26
0.0
 36
1.0
 17
0.0
 27
0.0
 37
0.0
 40
64.8082135076
 41
0.7070707071
 42
50.0
 43
0.0
 44
0.0
 50
0.0
 51
0.0
 71
0
 72
100
 73
1
 74
1
 75
0
 76
0
 77
0
 78
0
  0
ENDTAB
  0
TABLE
  2
LTYPE
  5
5
100
AcDbSymbolTable
 70
6
  0
LTYPE
  5
14
100
AcDbSymbolTableRecord
100
AcDbLinetypeTableRecord
  2
BYBLOCK
 70
0
  3

 72
65
 73
0
 40
0.0
  0
LTYPE
  5
15
100
AcDbSymbolTableRecord
100
AcDbLinetypeTableRecord
  2
BYLAYER
 70
0
  3

 72
65
 73
0
 40
0.0
  0
LTYPE
  5
16
100
AcDbSymbolTableRecord
100
AcDbLinetypeTableRecord
  2
CONTINUOUS
 70
64
  3
Solid line
 72
65
 73
0
 40
0.0
  0
LTYPE
  5
1F5
100
AcDbSymbolTableRecord
100
AcDbLinetypeTableRecord
  2
CENTER
 70
64
  3
____ _ ____ _ ____ _ ____ _ ____ _ ____ _ ____
 72
65
 73
4
 40
0.6
 49
0.375
 74
0
 49
-0.075
 74
0
 49
0.075
 74
0
 49
-0.075
 74
0
  0
LTYPE
  5
1F6
100
AcDbSymbolTableRecord
100
AcDbLinetypeTableRecord
  2
HIDDEN
 70
64
  3
- - - - - - - - - - - - - - - - - - - -
 72
65
 73
2
 40
0.2
 49
0.1
 74
0
 49
-0.1
 74
0
  0
LTYPE
  5
1F7
100
AcDbSymbolTableRecord
100
AcDbLinetypeTableRecord
  2
PHANTOM
 70
64
  3
_____ _ _ _____ _ _ _____ _ _ _____
 72
65
 73
6
 40
0.8
 49
0.45
 74
0
 49
-0.05
 74
0
 49
0.1
 74
0
 49
-0.05
 74
0
 49
0.1
 74
0
 49
-0.05
 74
0
  0
LTYPE
  5
1F8
100
AcDbSymbolTableRecord
100
AcDbLinetypeTableRecord
  2
DOT
 70
64
  3
. . . . . . . . . . . . . . . . . . . .
 72
65
 73
2
 40
0.2
 49
0.1
 74
0
 49
-0.1
 74
0
  0
LTYPE
  5
1F9
100
AcDbSymbolTableRecord
100
AcDbLinetypeTableRecord
  2
DASHED
 70
64
  3
- - - - - - - - - - - - - - - - - - - -
 72
65
 73
2
 40
0.2
 49
0.1
 74
0
 49
-0.1
 74
0
  0
ENDTAB
  0
TABLE
  2
LAYER
  5
2
100
AcDbSymbolTable
 70
36
  0
LAYER
  5
10
100
AcDbSymbolTableRecord
100
AcDbLayerTableRecord
  2
0
 70
0
 62
7
  6
CONTINUOUS
370
-3
390
F
  0
LAYER
  5
1FA
100
AcDbSymbolTableRecord
100
AcDbLayerTableRecord
  2
DEFAULT_1
 70
0
 62
7
  6
CENTER
370
-3
390
F
  0
LAYER
  5
1FB
100
AcDbSymbolTableRecord
100
AcDbLayerTableRecord
  2
DEFAULT_2
 70
0
 62
8
  6
HIDDEN
370
-3
390
F
  0
LAYER
  5
1FC
100
AcDbSymbolTableRecord
100
AcDbLayerTableRecord
  2
DEFAULT_3
 70
0
 62
7
  6
PHANTOM
370
-3
390
F
  0
LAYER
  5
1FD
100
AcDbSymbolTableRecord
100
AcDbLayerTableRecord
  2
00_COMPONENTS
 70
0
 62
7
  6
CONTINUOUS
370
-3
390
F
  0
LAYER
  5
1FE
100
AcDbSymbolTableRecord
100
AcDbLayerTableRecord
  2
01_1_DEFAULT_DATUMS
 70
0
 62
7
  6
CONTINUOUS
370
-3
390
F
  0
LAYER
  5
1FF
100
AcDbSymbolTableRecord
100
AcDbLayerTableRecord
  2
01_PLANES
 70
0
 62
7
  6
CONTINUOUS
370
-3
390
F
  0
LAYER
  5
200
100
AcDbSymbolTableRecord
100
AcDbLayerTableRecord
  2
02_COORD_SYS
 70
0
 62
7
  6
CONTINUOUS
370
-3
390
F
  0
LAYER
  5
201
100
AcDbSymbolTableRecord
100
AcDbLayerTableRecord
  2
03_AXES
 70
0
 62
7
  6
CONTINUOUS
370
-3
390
F
  0
LAYER
  5
202
100
AcDbSymbolTableRecord
100
AcDbLayerTableRecord
  2
04_POINTS
 70
0
 62
7
  6
CONTINUOUS
370
-3
390
F
  0
LAYER
  5
203
100
AcDbSymbolTableRecord
100
AcDbLayerTableRecord
  2
05_CURVES
 70
0
 62
7
  6
CONTINUOUS
370
-3
390
F
  0
LAYER
  5
204
100
AcDbSymbolTableRecord
100
AcDbLayerTableRecord
  2
06_SURFS
 70
0
 62
7
  6
CONTINUOUS
370
-3
390
F
  0
LAYER
  5
205
100
AcDbSymbolTableRecord
100
AcDbLayerTableRecord
  2
07_COSMETICS
 70
0
 62
7
  6
CONTINUOUS
370
-3
390
F
  0
LAYER
  5
206
100
AcDbSymbolTableRecord
100
AcDbLayerTableRecord
  2
10_NOTES
 70
0
 62
7
  6
CONTINUOUS
370
-3
390
F
  0
LAYER
  5
207
100
AcDbSymbolTableRecord
100
AcDbLayerTableRecord
  2
11_NOTES_PUB
 70
0
 62
7
  6
CONTINUOUS
370
-3
390
F
  0
LAYER
  5
208
100
AcDbSymbolTableRecord
100
AcDbLayerTableRecord
  2
13_REF_GTOL
 70
0
 62
7
  6
CONTINUOUS
370
-3
390
F
  0
LAYER
  5
209
100
AcDbSymbolTableRecord
100
AcDbLayerTableRecord
  2
16_MISC
 70
0
 62
7
  6
CONTINUOUS
370
-3
390
F
  0
LAYER
  5
20A
100
AcDbSymbolTableRecord
100
AcDbLayerTableRecord
  2
17_NO_PRINT
 70
0
 62
7
  6
CONTINUOUS
370
-3
390
F
  0
LAYER
  5
20B
100
AcDbSymbolTableRecord
100
AcDbLayerTableRecord
  2
18_DATUM_CAMS_JOINTS
 70
0
 62
7
  6
CONTINUOUS
370
-3
390
F
  0
LAYER
  5
20C
100
AcDbSymbolTableRecord
100
AcDbLayerTableRecord
  2
19_DATUM_FUNCTIONAL
 70
0
 62
7
  6
CONTINUOUS
370
-3
390
F
  0
LAYER
  5
20D
100
AcDbSymbolTableRecord
100
AcDbLayerTableRecord
  2
20_DATUM_KINEMATIC_SCHEME
 70
0
 62
7
  6
CONTINUOUS
370
-3
390
F
  0
ENDTAB
  0
TABLE
  2
STYLE
  5
3
100
AcDbSymbolTable
 70
1
  0
STYLE
  5
11
100
AcDbSymbolTableRecord
100
AcDbTextStyleTableRecord
  2
STANDARD
 70
0
 40
0.0
 41
0.8
 50
0.0
 71
0
 42
0.2
  3
txt
  4

  0
STYLE
  5
20E
100
AcDbSymbolTableRecord
100
AcDbTextStyleTableRecord
  2
TEXTSTYLE_1
 70
0
 40
0.0
 41
0.8
 50
0.0
 71
0
 42
0.2
  3
gdt
  4

  0
ENDTAB
  0
TABLE
  2
VIEW
  5
6
100
AcDbSymbolTable
 70
0
  0
ENDTAB
  0
TABLE
  2
UCS
  5
7
100
AcDbSymbolTable
 70
0
  0
ENDTAB
  0
TABLE
  2
APPID
  5
9
100
AcDbSymbolTable
 70
1
  0
APPID
  5
20F
100
AcDbSymbolTableRecord
100
AcDbRegAppTableRecord
  2
ACAD
 70
0
  0
ENDTAB
  0
TABLE
  2
BLOCK_RECORD
  5
1
100
AcDbSymbolTable
 70
0
  0
BLOCK_RECORD
  5
210
100
AcDbSymbolTableRecord
100
AcDbBlockTableRecord
  2
*Model_Space
  0
BLOCK_RECORD
  5
211
100
AcDbSymbolTableRecord
100
AcDbBlockTableRecord
  2
*Paper_Space
  0
BLOCK_RECORD
  5
212
100
AcDbSymbolTableRecord
100
AcDbBlockTableRecord
  2
_FILLED
  0
ENDTAB
  0
TABLE
  2
DIMSTYLE
  5
A
100
AcDbSymbolTable
 70
1
100
AcDbDimStyleTable
 71
0
  0
DIMSTYLE
105
213
100
AcDbSymbolTableRecord
100
AcDbDimStyleTableRecord
  2
STANDARD
 70
0
  3

  4

 40
1.0
 41
0.5455236827
 42
1.0
 43
0.38
 44
1.0
 45
0.0
 46
0.0
 47
0.01
 48
0.01
140
0.7637331558
141
0.09
142
0.0
143
25.4
144
1.0
145
0.0
146
1.0
147
0.625
 71
1
 72
0
 73
0
 74
0
 75
0
 76
0
 77
1
 78
8
 79
2
170
0
171
1
172
0
173
0
174
0
175
0
176
0
177
0
178
0
270
2
179
2
271
2
272
2
273
2
274
2
275
0
280
0
281
0
282
0
283
1
284
8
285
0
286
0
287
3
288
0
340
11
278
46
341
212
342
212
343
212
344
212
  0
ENDTAB
  0
ENDSEC
  0
SECTION
  2
BLOCKS
  0
BLOCK
  5
20
100
AcDbEntity
  8
0
100
AcDbBlockBegin
  2
*Model_Space
 70
0
 10
0.0
 20
0.0
 30
0.0
  3
*Model_Space
  1

  0
ENDBLK
  5
21
100
AcDbEntity
  8
0
100
AcDbBlockEnd
  0
BLOCK
  5
1C
100
AcDbEntity
  8
0
100
AcDbBlockBegin
  2
*Paper_Space
 70
0
 10
0.0
 20
0.0
 30
0.0
  3
*Paper_Space
  1

  0
ENDBLK
  5
1D
100
AcDbEntity
  8
0
100
AcDbBlockEnd
  0
BLOCK
  5
214
100
AcDbEntity
  8
0
100
AcDbBlockBegin
  2
_FILLED
 70
64
 10
0.0
 20
0.0
  3
_FILLED
  1

  0
SOLID
  5
215
100
AcDbEntity
  8
0
  6
BYBLOCK
 62
0
100
AcDbTrace
 10
0.0
 20
0.0
 11
-1.0
 21
0.25
 12
-1.0
 22
-0.25
 13
-1.0
 23
-0.25
  0
ENDBLK
  5
216
100
AcDbEntity
  8
0
  6
BYBLOCK
 62
0
100
AcDbBlockEnd
  0
ENDSEC
  0
SECTION
  2
ENTITIES
  0
LINE
  5
217
100
AcDbEntity
  8
0
100
AcDbLine
 62
7
  6
CONTINUOUS
 10
8.3114630852
 20
53.7637866481
 11
8.4845473214
 21
53.8637870252
  0
LINE
  5
218
100
AcDbEntity
  8
0
100
AcDbLine
 62
7
  6
CONTINUOUS
 10
8.4479706418
 20
53.5275174069
 11
8.6210536091
 21
53.6275170508
  0
LINE
  5
219
100
AcDbEntity
  8
0
100
AcDbLine
 62
7
  6
CONTINUOUS
 10
18.3550214616
 20
5.8101968454
 11
28.1300214616
 21
5.8101968454
  0
LINE
  5
21A
100
AcDbEntity
  8
0
100
AcDbLine
 62
7
  6
CONTINUOUS
 10
19.3550214616
 20
6.6101968454
 11
18.3550214616
 21
6.6101968454
  0
LINE
  5
21B
100
AcDbEntity
  8
0
100
AcDbLine
 62
7
  6
CONTINUOUS
 10
27.1300214616
 20
6.6101968454
 11
28.1300214616
 21
6.6101968454
  0
LINE
  5
21C
100
AcDbEntity
  8
0
100
AcDbLine
 62
7
  6
CONTINUOUS
 10
19.3550214616
 20
6.9879746232
 11
18.3550214616
 21
6.9879746232
  0
LINE
  5
21D
100
AcDbEntity
  8
0
100
AcDbLine
 62
7
  6
CONTINUOUS
 10
27.1300214616
 20
6.9879746232
 11
28.1300214616
 21
6.9879746232
  0
LINE
  5
21E
100
AcDbEntity
  8
0
100
AcDbLine
 62
7
  6
CONTINUOUS
 10
19.3550214616
 20
7.4879746232
 11
18.3550214616
 21
7.4879746232
  0
LINE
  5
21F
100
AcDbEntity
  8
0
100
AcDbLine
 62
7
  6
CONTINUOUS
 10
27.1300214616
 20
7.4879746232
 11
28.1300214616
 21
7.4879746232
  0
LINE
  5
220
100
AcDbEntity
  8
0
100
AcDbLine
 62
7
  6
CONTINUOUS
 10
19.3550214616
 20
9.6101968454
 11
18.3550214616
 21
9.6101968454
  0
LINE
  5
221
100
AcDbEntity
  8
0
100
AcDbLine
 62
7
  6
CONTINUOUS
 10
27.1300214616
 20
9.6101968454
 11
28.1300214616
 21
9.6101968454
  0
LINE
  5
222
100
AcDbEntity
  8
0
100
AcDbLine
 62
7
  6
CONTINUOUS
 10
18.3550214616
 20
9.9314129746
 11
28.1300214616
 21
9.9314129746
  0
LINE
  5
223
100
AcDbEntity
  8
0
100
AcDbLine
 62
7
  6
CONTINUOUS
 10
26.9550214616
 20
12.016992436
 11
20.6550214616
 21
12.016992436
  0
LINE
  5
224
100
AcDbEntity
  8
0
100
AcDbLine
 62
7
  6
CONTINUOUS
 10
5.0955150731
 20
56.2101968788
 11
5.0902469166
 21
57.2101968788
  0
LINE
  5
225
100
AcDbEntity
  8
0
100
AcDbLine
 62
7
  6
CONTINUOUS
 10
5.7021713092
 20
56.1101968454
 11
5.7036929705
 21
55.1601968454
  0
LINE
  5
226
100
AcDbEntity
  8
0
100
AcDbLine
 62
7
  6
CONTINUOUS
 10
5.0242931494
 20
57.2101968454
 11
5.0242931494
 21
57.8101968454
  0
LINE
  5
227
100
AcDbEntity
  8
0
100
AcDbLine
 62
7
  6
CONTINUOUS
 10
6.0042931494
 20
42.2101968454
 11
6.0042931494
 21
41.2101968454
  0
LINE
  5
228
100
AcDbEntity
  8
0
100
AcDbLine
 62
7
  6
CONTINUOUS
 10
6.8792931494
 20
56.2101968454
 11
6.8792931494
 21
56.1101968454
  0
LINE
  5
229
100
AcDbEntity
  8
0
100
AcDbLine
 62
7
  6
CONTINUOUS
 10
6.8792931494
 20
55.1601968454
 11
6.8792931494
 21
54.8601968454
  0
LINE
  5
22A
100
AcDbEntity
  8
0
100
AcDbLine
 62
7
  6
CONTINUOUS
 10
6.9047422512
 20
56.2101968454
 11
6.9047422512
 21
56.1101968454
  0
LINE
  5
22B
100
AcDbEntity
  8
0
100
AcDbLine
 62
7
  6
CONTINUOUS
 10
6.9292931494
 20
46.6101968454
 11
6.9292931494
 21
34.2101968454
  0
LINE
  5
22C
100
AcDbEntity
  8
0
100
AcDbLine
 62
7
  6
CONTINUOUS
 10
7.9292931494
 20
38.2101968454
 11
7.9292931494
 21
34.2101968454
  0
LINE
  5
22D
100
AcDbEntity
  8
0
100
AcDbLine
 62
7
  6
CONTINUOUS
 10
8.1101411051
 20
34.2101968454
 11
8.1101411051
 21
38.2101968454
  0
LINE
  5
22E
100
AcDbEntity
  8
0
100
AcDbLine
 62
7
  6
CONTINUOUS
 10
8.2742931494
 20
53.8637866839
 11
8.2742931494
 21
54.8601968454
  0
LINE
  5
22F
100
AcDbEntity
  8
0
100
AcDbLine
 62
7
  6
CONTINUOUS
 10
8.2846864696
 20
53.8637866839
 11
8.2846864696
 21
54.8601968454
  0
LINE
  5
230
100
AcDbEntity
  8
0
100
AcDbLine
 62
7
  6
CONTINUOUS
 10
8.4492931494
 20
35.2101968454
 11
8.4492931494
 21
38.2101968454
  0
LINE
  5
231
100
AcDbEntity
  8
0
100
AcDbLine
 62
7
  6
CONTINUOUS
 10
8.4642931494
 20
52.5101968454
 11
8.4642931494
 21
53.4275173535
  0
LINE
  5
232
100
AcDbEntity
  8
0
100
AcDbLine
 62
7
  6
CONTINUOUS
 10
8.4748239516
 20
52.5101968454
 11
8.4748239516
 21
53.4275173535
  0
LINE
  5
233
100
AcDbEntity
  8
0
100
AcDbLine
 62
7
  6
CONTINUOUS
 10
8.484547475
 20
53.8637866839
 11
8.484547475
 21
54.8601968454
  0
LINE
  5
234
100
AcDbEntity
  8
0
100
AcDbLine
 62
7
  6
CONTINUOUS
 10
20.6550214616
 20
15.5217748775
 11
26.9550214616
 21
15.5217748775
  0
LINE
  5
235
100
AcDbEntity
  8
0
100
AcDbLine
 62
7
  6
CONTINUOUS
 10
8.8787331935
 20
52.5049611234
 11
8.8549462599
 21
53.8658594018
  0
LINE
  5
236
100
AcDbEntity
  8
0
100
AcDbLine
 62
7
  6
CONTINUOUS
 10
10.0006929622
 20
52.5049611235
 11
9.9783405562
 21
53.8658594018
  0
LINE
  5
237
100
AcDbEntity
  8
0
100
AcDbLine
 62
7
  6
CONTINUOUS
 10
9.499088149
 20
56.2101968454
 11
9.4991024488
 21
56.1101968454
  0
LINE
  5
238
100
AcDbEntity
  8
0
100
AcDbLine
 62
7
  6
CONTINUOUS
 10
8.6746813373
 20
52.5101585321
 11
8.6746814523
 21
53.4275186694
  0
LINE
  5
239
100
AcDbEntity
  8
0
100
AcDbLine
 62
7
  6
CONTINUOUS
 10
8.7042867126
 20
25.2101968454
 11
8.7042867126
 21
35.0101968454
  0
LINE
  5
23A
100
AcDbEntity
  8
0
100
AcDbLine
 62
7
  6
CONTINUOUS
 10
8.7747532939
 20
52.2101968454
 11
8.7747532939
 21
52.4101968454
  0
LINE
  5
23B
100
AcDbEntity
  8
0
100
AcDbLine
 62
7
  6
CONTINUOUS
 10
8.985653365
 20
52.5101969093
 11
8.985653365
 21
54.8601968454
  0
LINE
  5
23C
100
AcDbEntity
  8
0
100
AcDbLine
 62
7
  6
CONTINUOUS
 10
8.9952956608
 20
54.8601968454
 11
8.9952956608
 21
52.5101968454
  0
LINE
  5
23D
100
AcDbEntity
  8
0
100
AcDbLine
 62
7
  6
CONTINUOUS
 10
9.0871575256
 20
48.0762160604
 11
9.0871575256
 21
51.6101968454
  0
LINE
  5
23E
100
AcDbEntity
  8
0
100
AcDbLine
 62
7
  6
CONTINUOUS
 10
9.2792931494
 20
51.9101968454
 11
9.2792931494
 21
52.2102013776
  0
LINE
  5
23F
100
AcDbEntity
  8
0
100
AcDbLine
 62
7
  6
CONTINUOUS
 10
9.3766170934
 20
52.5101968454
 11
9.3766170934
 21
54.8601968454
  0
LINE
  5
240
100
AcDbEntity
  8
0
100
AcDbLine
 62
7
  6
CONTINUOUS
 10
9.389495463
 20
51.7101968454
 11
9.389495463
 21
51.9101968454
  0
LINE
  5
241
100
AcDbEntity
  8
0
100
AcDbLine
 62
7
  6
CONTINUOUS
 10
9.4023013823
 20
55.1601968454
 11
9.4023013823
 21
54.8601968454
  0
LINE
  5
242
100
AcDbEntity
  8
0
100
AcDbLine
 62
7
  6
CONTINUOUS
 10
9.4134655239
 20
56.2101968454
 11
9.4134655239
 21
56.1101968454
  0
LINE
  5
243
100
AcDbEntity
  8
0
100
AcDbLine
 62
7
  6
CONTINUOUS
 10
9.6006250503
 20
56.2101968454
 11
9.6006250503
 21
56.1101968454
  0
LINE
  5
244
100
AcDbEntity
  8
0
100
AcDbLine
 62
7
  6
CONTINUOUS
 10
9.6302795513
 20
52.5101745049
 11
9.6302795513
 21
54.8601968454
  0
LINE
  5
245
100
AcDbEntity
  8
0
100
AcDbLine
 62
7
  6
CONTINUOUS
 10
9.6342867126
 20
28.2101968454
 11
9.6342867126
 21
25.2101968454
  0
LINE
  5
246
100
AcDbEntity
  8
0
100
AcDbLine
 62
7
  6
CONTINUOUS
 10
9.7969742483
 20
38.2101968454
 11
9.7969742483
 21
46.6101968454
  0
LINE
  5
247
100
AcDbEntity
  8
0
100
AcDbLine
 62
7
  6
CONTINUOUS
 10
9.9174869758
 20
46.6101968454
 11
9.9174869758
 21
38.2101968454
  0
LINE
  5
248
100
AcDbEntity
  8
0
100
AcDbLine
 62
7
  6
CONTINUOUS
 10
10.8792931494
 20
58.2101968454
 11
10.8792931494
 21
58.2601968454
  0
LINE
  5
249
100
AcDbEntity
  8
0
100
AcDbLine
 62
7
  6
CONTINUOUS
 10
10.9492931494
 20
38.2101968454
 11
10.9492931494
 21
35.2101968454
  0
LINE
  5
24A
100
AcDbEntity
  8
0
100
AcDbLine
 62
7
  6
CONTINUOUS
 10
11.1641842145
 20
53.8637866839
 11
11.1641842145
 21
54.8601968454
  0
LINE
  5
24B
100
AcDbEntity
  8
0
100
AcDbLine
 62
7
  6
CONTINUOUS
 10
11.4492931494
 20
35.2101968454
 11
11.4492931494
 21
38.2101968454
  0
LINE
  5
24C
100
AcDbEntity
  8
0
100
AcDbLine
 62
7
  6
CONTINUOUS
 10
12.0292867126
 20
38.2101968454
 11
12.0292867126
 21
35.0101968454
  0
LINE
  5
24D
100
AcDbEntity
  8
0
100
AcDbLine
 62
7
  6
CONTINUOUS
 10
12.4714389268
 20
56.1101968454
 11
12.4714389268
 21
56.2101968454
  0
LINE
  5
24E
100
AcDbEntity
  8
0
100
AcDbLine
 62
7
  6
CONTINUOUS
 10
12.7050354558
 20
47.0762222492
 11
12.7050354558
 21
46.6101968454
  0
LINE
  5
24F
100
AcDbEntity
  8
0
100
AcDbLine
 62
7
  6
CONTINUOUS
 10
12.8806983656
 20
54.8601968454
 11
12.8806983656
 21
55.1601968454
  0
LINE
  5
250
100
AcDbEntity
  8
0
100
AcDbLine
 62
7
  6
CONTINUOUS
 10
14.1151108928
 20
38.2101968454
 11
14.1151108928
 21
46.6101968454
  0
LINE
  5
251
100
AcDbEntity
  8
0
100
AcDbLine
 62
7
  6
CONTINUOUS
 10
14.1640479957
 20
52.3601968454
 11
14.1640643588
 21
52.2101968454
  0
LINE
  5
252
100
AcDbEntity
  8
0
100
AcDbLine
 62
7
  6
CONTINUOUS
 10
14.3057315311
 20
42.2101968454
 11
14.3057315311
 21
41.2101968454
  0
LINE
  5
253
100
AcDbEntity
  8
0
100
AcDbLine
 62
7
  6
CONTINUOUS
 10
14.4605787374
 20
47.0762222492
 11
14.4605787374
 21
46.6101968454
  0
LINE
  5
254
100
AcDbEntity
  8
0
100
AcDbLine
 62
7
  6
CONTINUOUS
 10
14.6860521568
 20
56.2101968454
 11
14.6860521568
 21
56.1101968454
  0
LINE
  5
255
100
AcDbEntity
  8
0
100
AcDbLine
 62
7
  6
CONTINUOUS
 10
14.7794410796
 20
46.6101968454
 11
14.7794410796
 21
46.9668620808
  0
LINE
  5
256
100
AcDbEntity
  8
0
100
AcDbLine
 62
7
  6
CONTINUOUS
 10
14.8241845875
 20
46.6101968454
 11
14.8241845875
 21
42.2101968454
  0
LINE
  5
257
100
AcDbEntity
  8
0
100
AcDbLine
 62
7
  6
CONTINUOUS
 10
14.8241845875
 20
41.2101968454
 11
14.8241845875
 21
38.2101968454
  0
LINE
  5
258
100
AcDbEntity
  8
0
100
AcDbLine
 62
7
  6
CONTINUOUS
 10
14.8265507067
 20
55.1601968454
 11
14.8265507067
 21
54.8601968454
  0
LINE
  5
259
100
AcDbEntity
  8
0
100
AcDbLine
 62
7
  6
CONTINUOUS
 10
14.8754444579
 20
38.2101968454
 11
14.8754444579
 21
41.2101968454
  0
LINE
  5
25A
100
AcDbEntity
  8
0
100
AcDbLine
 62
7
  6
CONTINUOUS
 10
14.8754444579
 20
42.2101968454
 11
14.8754444579
 21
46.6101968454
  0
LINE
  5
25B
100
AcDbEntity
  8
0
100
AcDbLine
 62
7
  6
CONTINUOUS
 10
14.9453072969
 20
56.1101968454
 11
14.9453072969
 21
56.2101968454
  0
LINE
  5
25C
100
AcDbEntity
  8
0
100
AcDbLine
 62
7
  6
CONTINUOUS
 10
8.2742931494
 20
53.8637866839
 11
8.3010880686
 21
53.7637866839
  0
LINE
  5
25D
100
AcDbEntity
  8
0
100
AcDbLine
 62
7
  6
CONTINUOUS
 10
8.4642931494
 20
53.4275173535
 11
8.4374982301
 21
53.5275173535
  0
LINE
  5
25E
100
AcDbEntity
  8
0
100
AcDbLine
 62
7
  6
CONTINUOUS
 10
15.2286681738
 20
46.2101968454
 11
15.2286681738
 21
42.2101968454
  0
LINE
  5
25F
100
AcDbEntity
  8
0
100
AcDbLine
 62
7
  6
CONTINUOUS
 10
15.3826378109
 20
28.1101968454
 11
15.3826378109
 21
28.2101968454
  0
LINE
  5
260
100
AcDbEntity
  8
0
100
AcDbLine
 62
7
  6
CONTINUOUS
 10
15.4807578985
 20
41.2101968454
 11
15.4807578985
 21
42.2101968454
  0
LINE
  5
261
100
AcDbEntity
  8
0
100
AcDbLine
 62
7
  6
CONTINUOUS
 10
16.203778301
 20
42.2101968454
 11
16.203778301
 21
41.2101968454
  0
LINE
  5
262
100
AcDbEntity
  8
0
100
AcDbLine
 62
7
  6
CONTINUOUS
 10
16.6047909207
 20
35.0101968454
 11
16.6047909207
 21
41.2101968454
  0
LINE
  5
263
100
AcDbEntity
  8
0
100
AcDbLine
 62
7
  6
CONTINUOUS
 10
38.6042867126
 20
25.2101968454
 11
28.1300214616
 21
25.2101968454
  0
LINE
  5
264
100
AcDbEntity
  8
0
100
AcDbLine
 62
7
  6
CONTINUOUS
 10
18.3550214616
 20
25.2101968454
 11
8.7042867126
 21
25.2101968454
  0
LINE
  5
265
100
AcDbEntity
  8
0
100
AcDbLine
 62
7
  6
CONTINUOUS
 10
19.0258783534
 20
52.5049611235
 11
19.0177501178
 21
53.8658594018
  0
LINE
  5
266
100
AcDbEntity
  8
0
100
AcDbLine
 62
7
  6
CONTINUOUS
 10
17.2478740009
 20
56.1101968454
 11
17.2478740009
 21
56.2101968454
  0
LINE
  5
267
100
AcDbEntity
  8
0
100
AcDbLine
 62
7
  6
CONTINUOUS
 10
17.4064168775
 20
55.1601968454
 11
17.4064168775
 21
54.8601968454
  0
LINE
  5
268
100
AcDbEntity
  8
0
100
AcDbLine
 62
7
  6
CONTINUOUS
 10
17.4694621791
 20
52.5101969093
 11
17.4694621791
 21
54.8601968454
  0
LINE
  5
269
100
AcDbEntity
  8
0
100
AcDbLine
 62
7
  6
CONTINUOUS
 10
17.5338150253
 20
55.1601968454
 11
17.5338150253
 21
54.8601968454
  0
LINE
  5
26A
100
AcDbEntity
  8
0
100
AcDbLine
 62
7
  6
CONTINUOUS
 10
17.554207943
 20
56.1101968454
 11
17.554207943
 21
56.2101968454
  0
LINE
  5
26B
100
AcDbEntity
  8
0
100
AcDbLine
 62
7
  6
CONTINUOUS
 10
17.5941001931
 20
54.8601968454
 11
17.5941001931
 21
52.5101968454
  0
LINE
  5
26C
100
AcDbEntity
  8
0
100
AcDbLine
 62
7
  6
CONTINUOUS
 10
17.7548068721
 20
28.1101968454
 11
17.7548068721
 21
28.2101968454
  0
LINE
  5
26D
100
AcDbEntity
  8
0
100
AcDbLine
 62
7
  6
CONTINUOUS
 10
18.129484219
 20
41.2101968454
 11
18.129484219
 21
42.2101968454
  0
LINE
  5
26E
100
AcDbEntity
  8
0
100
AcDbLine
 62
7
  6
CONTINUOUS
 10
18.3266868785
 20
41.2101968454
 11
18.3266868785
 21
42.2101968454
  0
LINE
  5
26F
100
AcDbEntity
  8
0
100
AcDbLine
 62
7
  6
CONTINUOUS
 10
18.3550214616
 20
5.8101968454
 11
18.3550214616
 21
31.3245561994
  0
LINE
  5
270
100
AcDbEntity
  8
0
100
AcDbLine
 62
7
  6
CONTINUOUS
 10
18.5460729003
 20
56.2101968454
 11
18.5460729003
 21
56.1101968454
  0
LINE
  5
271
100
AcDbEntity
  8
0
100
AcDbLine
 62
7
  6
CONTINUOUS
 10
18.5460729003
 20
54.8601968454
 11
18.5460729003
 21
55.1601968454
  0
LINE
  5
272
100
AcDbEntity
  8
0
100
AcDbLine
 62
7
  6
CONTINUOUS
 10
18.641772289
 20
52.5101968454
 11
18.641772289
 21
54.8601968454
  0
LINE
  5
273
100
AcDbEntity
  8
0
100
AcDbLine
 62
7
  6
CONTINUOUS
 10
18.8910625861
 20
52.510174511
 11
18.8910625861
 21
54.8601968454
  0
LINE
  5
274
100
AcDbEntity
  8
0
100
AcDbLine
 62
7
  6
CONTINUOUS
 10
18.3550214616
 20
26.5101968454
 11
28.1300214616
 21
26.5101968454
  0
LINE
  5
275
100
AcDbEntity
  8
0
100
AcDbLine
 62
7
  6
CONTINUOUS
 10
18.3550214616
 20
26.9101968454
 11
28.1300214616
 21
26.9101968454
  0
LINE
  5
276
100
AcDbEntity
  8
0
100
AcDbLine
 62
7
  6
CONTINUOUS
 10
15.3826378109
 20
28.1101968454
 11
17.7548068721
 21
28.1101968454
  0
LINE
  5
277
100
AcDbEntity
  8
0
100
AcDbLine
 62
7
  6
CONTINUOUS
 10
28.7037794266
 20
28.1101968454
 11
31.0759484878
 21
28.1101968454
  0
LINE
  5
278
100
AcDbEntity
  8
0
100
AcDbLine
 62
7
  6
CONTINUOUS
 10
38.6042867126
 20
28.2101968454
 11
28.1300214616
 21
28.2101968454
  0
LINE
  5
279
100
AcDbEntity
  8
0
100
AcDbLine
 62
7
  6
CONTINUOUS
 10
18.3550214616
 20
28.2101968454
 11
8.7042867126
 21
28.2101968454
  0
LINE
  5
27A
100
AcDbEntity
  8
0
100
AcDbLine
 62
7
  6
CONTINUOUS
 10
11.1641842145
 20
53.8637866839
 11
11.1909791338
 21
53.7637866839
  0
LINE
  5
27B
100
AcDbEntity
  8
0
100
AcDbLine
 62
7
  6
CONTINUOUS
 10
19.3550214616
 20
5.8101968454
 11
19.3550214616
 21
9.6101968454
  0
LINE
  5
27C
100
AcDbEntity
  8
0
100
AcDbLine
 62
7
  6
CONTINUOUS
 10
19.3550214616
 20
29.4101968454
 11
19.3550214616
 21
31.3245561994
  0
LINE
  5
27D
100
AcDbEntity
  8
0
100
AcDbLine
 62
7
  6
CONTINUOUS
 10
20.6550214616
 20
12.016992436
 11
20.6550214616
 21
15.5217748775
  0
LINE
  5
27E
100
AcDbEntity
  8
0
100
AcDbLine
 62
7
  6
CONTINUOUS
 10
38.6042867126
 20
29.2101968454
 11
8.7042867126
 21
29.2101968454
  0
LINE
  5
27F
100
AcDbEntity
  8
0
100
AcDbLine
 62
7
  6
CONTINUOUS
 10
27.1300214616
 20
29.4101968454
 11
19.3550214616
 21
29.4101968454
  0
LINE
  5
280
100
AcDbEntity
  8
0
100
AcDbLine
 62
7
  6
CONTINUOUS
 10
8.484547475
 20
53.8637866839
 11
8.6210535636
 21
53.627517205
  0
LINE
  5
281
100
AcDbEntity
  8
0
100
AcDbLine
 62
7
  6
CONTINUOUS
 10
8.4374982301
 20
53.5275173535
 11
8.3010880686
 21
53.7637866839
  0
LINE
  5
282
100
AcDbEntity
  8
0
100
AcDbLine
 62
7
  6
CONTINUOUS
 10
16.954686625
 20
54.5443787948
 11
16.9042767262
 21
54.8601968454
  0
LINE
  5
283
100
AcDbEntity
  8
0
100
AcDbLine
 62
7
  6
CONTINUOUS
 10
34.4572441885
 20
52.3601968454
 11
35.2676071649
 21
53.7637866839
  0
LINE
  5
284
100
AcDbEntity
  8
0
100
AcDbLine
 62
7
  6
CONTINUOUS
 10
18.3550214616
 20
31.2245561993
 11
19.3550214616
 21
31.2245561993
  0
LINE
  5
285
100
AcDbEntity
  8
0
100
AcDbLine
 62
7
  6
CONTINUOUS
 10
27.1300214616
 20
31.2245561993
 11
28.1300214616
 21
31.2245561993
  0
LINE
  5
286
100
AcDbEntity
  8
0
100
AcDbLine
 62
7
  6
CONTINUOUS
 10
38.1574982301
 20
53.7637866839
 11
38.0210880686
 21
53.5275173535
  0
LINE
  5
287
100
AcDbEntity
  8
0
100
AcDbLine
 62
7
  6
CONTINUOUS
 10
37.8375334821
 20
53.6275181713
 11
37.9740387865
 21
53.8637867052
  0
LINE
  5
288
100
AcDbEntity
  8
0
100
AcDbLine
 62
7
  6
CONTINUOUS
 10
8.7042867126
 20
34.2101968454
 11
6.9292931494
 21
34.2101968454
  0
LINE
  5
289
100
AcDbEntity
  8
0
100
AcDbLine
 62
7
  6
CONTINUOUS
 10
38.5292931494
 20
34.2101968454
 11
39.5292931494
 21
34.2101968454
  0
LINE
  5
28A
100
AcDbEntity
  8
0
100
AcDbLine
 62
7
  6
CONTINUOUS
 10
12.0012158277
 20
52.3604155638
 11
11.1909791338
 21
53.7637866839
  0
LINE
  5
28B
100
AcDbEntity
  8
0
100
AcDbLine
 62
7
  6
CONTINUOUS
 10
26.9550214616
 20
15.5217748775
 11
26.9550214616
 21
12.016992436
  0
LINE
  5
28C
100
AcDbEntity
  8
0
100
AcDbLine
 62
7
  6
CONTINUOUS
 10
27.1300214616
 20
9.6101968454
 11
27.1300214616
 21
5.8101968454
  0
LINE
  5
28D
100
AcDbEntity
  8
0
100
AcDbLine
 62
7
  6
CONTINUOUS
 10
27.1300214616
 20
29.4101968454
 11
27.1300214616
 21
31.3245561994
  0
LINE
  5
28E
100
AcDbEntity
  8
0
100
AcDbLine
 62
7
  6
CONTINUOUS
 10
27.5675237174
 20
54.8601968454
 11
27.5675242279
 21
52.5101712389
  0
LINE
  5
28F
100
AcDbEntity
  8
0
100
AcDbLine
 62
7
  6
CONTINUOUS
 10
27.4408361809
 20
53.8658594018
 11
27.4327079453
 21
52.5049611235
  0
LINE
  5
290
100
AcDbEntity
  8
0
100
AcDbLine
 62
7
  6
CONTINUOUS
 10
29.5543095917
 20
54.8601968454
 11
29.5038996822
 21
54.5443788776
  0
LINE
  5
291
100
AcDbEntity
  8
0
100
AcDbLine
 62
7
  6
CONTINUOUS
 10
8.7042867126
 20
35.0101968454
 11
16.6047909207
 21
35.0101968454
  0
LINE
  5
292
100
AcDbEntity
  8
0
100
AcDbLine
 62
7
  6
CONTINUOUS
 10
32.1542867126
 20
35.0101968454
 11
38.5292931494
 21
35.0101968454
  0
LINE
  5
293
100
AcDbEntity
  8
0
100
AcDbLine
 62
7
  6
CONTINUOUS
 10
37.7792931494
 20
35.2101968454
 11
35.2792931494
 21
35.2101968454
  0
LINE
  5
294
100
AcDbEntity
  8
0
100
AcDbLine
 62
7
  6
CONTINUOUS
 10
12.0292867126
 20
35.2101968454
 11
8.4492931494
 21
35.2101968454
  0
LINE
  5
295
100
AcDbEntity
  8
0
100
AcDbLine
 62
7
  6
CONTINUOUS
 10
27.8168132303
 20
54.8601968454
 11
27.8168132303
 21
52.5101968454
  0
LINE
  5
296
100
AcDbEntity
  8
0
100
AcDbLine
 62
7
  6
CONTINUOUS
 10
27.9125133985
 20
56.2101968454
 11
27.9125133985
 21
56.1101968454
  0
LINE
  5
297
100
AcDbEntity
  8
0
100
AcDbLine
 62
7
  6
CONTINUOUS
 10
27.9125133985
 20
54.8601968454
 11
27.9125133985
 21
55.1601968454
  0
LINE
  5
298
100
AcDbEntity
  8
0
100
AcDbLine
 62
7
  6
CONTINUOUS
 10
28.1300214616
 20
5.8101968454
 11
28.1300214616
 21
31.3245561994
  0
LINE
  5
299
100
AcDbEntity
  8
0
100
AcDbLine
 62
7
  6
CONTINUOUS
 10
28.2803001151
 20
28.2101968454
 11
28.2803001151
 21
29.2101968454
  0
LINE
  5
29A
100
AcDbEntity
  8
0
100
AcDbLine
 62
7
  6
CONTINUOUS
 10
28.7037794266
 20
28.1101968454
 11
28.7037794266
 21
28.2101968454
  0
LINE
  5
29B
100
AcDbEntity
  8
0
100
AcDbLine
 62
7
  6
CONTINUOUS
 10
28.8644853471
 20
52.5101968454
 11
28.8644853471
 21
54.8601968454
  0
LINE
  5
29C
100
AcDbEntity
  8
0
100
AcDbLine
 62
7
  6
CONTINUOUS
 10
28.9043783557
 20
56.1101968454
 11
28.9043783557
 21
56.2101968454
  0
LINE
  5
29D
100
AcDbEntity
  8
0
100
AcDbLine
 62
7
  6
CONTINUOUS
 10
28.9247712735
 20
55.1601968454
 11
28.9247712735
 21
54.8601968454
  0
LINE
  5
29E
100
AcDbEntity
  8
0
100
AcDbLine
 62
7
  6
CONTINUOUS
 10
28.9891241196
 20
54.8601968454
 11
28.9891241196
 21
52.5101968416
  0
LINE
  5
29F
100
AcDbEntity
  8
0
100
AcDbLine
 62
7
  6
CONTINUOUS
 10
29.0521694212
 20
55.1601968454
 11
29.0521694212
 21
54.8601968454
  0
LINE
  5
2A0
100
AcDbEntity
  8
0
100
AcDbLine
 62
7
  6
CONTINUOUS
 10
29.2107122979
 20
56.1101968454
 11
29.2107122979
 21
56.2101968454
  0
LINE
  5
2A1
100
AcDbEntity
  8
0
100
AcDbLine
 62
7
  6
CONTINUOUS
 10
29.328981842
 20
42.2101968454
 11
29.328981842
 21
41.2101968454
  0
LINE
  5
2A2
100
AcDbEntity
  8
0
100
AcDbLine
 62
7
  6
CONTINUOUS
 10
35.2944020842
 20
53.8637866839
 11
35.2676071649
 21
53.7637866839
  0
LINE
  5
2A3
100
AcDbEntity
  8
0
100
AcDbLine
 62
7
  6
CONTINUOUS
 10
39.5292931494
 20
38.2101968454
 11
31.5831482125
 21
38.2101968454
  0
LINE
  5
2A4
100
AcDbEntity
  8
0
100
AcDbLine
 62
7
  6
CONTINUOUS
 10
14.8754380862
 20
38.2101968454
 11
6.9292931494
 21
38.2101968454
  0
LINE
  5
2A5
100
AcDbEntity
  8
0
100
AcDbLine
 62
7
  6
CONTINUOUS
 10
30.7385207732
 20
41.2101968454
 11
30.7385207732
 21
42.2101968454
  0
LINE
  5
2A6
100
AcDbEntity
  8
0
100
AcDbLine
 62
7
  6
CONTINUOUS
 10
30.9778284002
 20
42.2101968454
 11
30.9778284002
 21
41.2101968454
  0
LINE
  5
2A7
100
AcDbEntity
  8
0
100
AcDbLine
 62
7
  6
CONTINUOUS
 10
31.0759484878
 20
28.2101968454
 11
31.0759484878
 21
28.1101968454
  0
LINE
  5
2A8
100
AcDbEntity
  8
0
100
AcDbLine
 62
7
  6
CONTINUOUS
 10
31.2299181249
 20
42.2101968454
 11
31.2299181249
 21
46.2101968454
  0
LINE
  5
2A9
100
AcDbEntity
  8
0
100
AcDbLine
 62
7
  6
CONTINUOUS
 10
31.5132790018
 20
56.1101968454
 11
31.5132790018
 21
56.2101968454
  0
LINE
  5
2AA
100
AcDbEntity
  8
0
100
AcDbLine
 62
7
  6
CONTINUOUS
 10
31.5831418408
 20
38.2101968454
 11
31.5831418408
 21
41.2101968454
  0
LINE
  5
2AB
100
AcDbEntity
  8
0
100
AcDbLine
 62
7
  6
CONTINUOUS
 10
31.5831418408
 20
42.2101968454
 11
31.5831418408
 21
46.6101968454
  0
LINE
  5
2AC
100
AcDbEntity
  8
0
100
AcDbLine
 62
7
  6
CONTINUOUS
 10
31.6320355921
 20
54.8601968454
 11
31.6320355921
 21
55.1601968454
  0
LINE
  5
2AD
100
AcDbEntity
  8
0
100
AcDbLine
 62
7
  6
CONTINUOUS
 10
31.6344017112
 20
38.2101968454
 11
31.6344017112
 21
41.2101968454
  0
LINE
  5
2AE
100
AcDbEntity
  8
0
100
AcDbLine
 62
7
  6
CONTINUOUS
 10
31.6344017112
 20
42.2101968454
 11
31.6344017112
 21
46.6101968454
  0
LINE
  5
2AF
100
AcDbEntity
  8
0
100
AcDbLine
 62
7
  6
CONTINUOUS
 10
31.6791452191
 20
46.9668620808
 11
31.6791452191
 21
46.6101968454
  0
LINE
  5
2B0
100
AcDbEntity
  8
0
100
AcDbLine
 62
7
  6
CONTINUOUS
 10
31.7725341419
 20
56.1101968454
 11
31.7725341419
 21
56.2101968454
  0
LINE
  5
2B1
100
AcDbEntity
  8
0
100
AcDbLine
 62
7
  6
CONTINUOUS
 10
31.9980075613
 20
47.0762222492
 11
31.9980075613
 21
46.6101968454
  0
LINE
  5
2B2
100
AcDbEntity
  8
0
100
AcDbLine
 62
7
  6
CONTINUOUS
 10
37.9942931494
 20
53.4275173535
 11
38.0210880686
 21
53.5275173535
  0
LINE
  5
2B3
100
AcDbEntity
  8
0
100
AcDbLine
 62
7
  6
CONTINUOUS
 10
32.1528547676
 20
41.2101968454
 11
32.1528547676
 21
42.2101968454
  0
LINE
  5
2B4
100
AcDbEntity
  8
0
100
AcDbLine
 62
7
  6
CONTINUOUS
 10
32.1542867126
 20
38.2101968454
 11
32.1542867126
 21
35.0101968454
  0
LINE
  5
2B5
100
AcDbEntity
  8
0
100
AcDbLine
 62
7
  6
CONTINUOUS
 10
32.3434754059
 20
46.6101968454
 11
32.3434754059
 21
38.2101968454
  0
LINE
  5
2B6
100
AcDbEntity
  8
0
100
AcDbLine
 62
7
  6
CONTINUOUS
 10
33.5778879331
 20
55.1601968454
 11
33.5778879331
 21
54.8601968454
  0
LINE
  5
2B7
100
AcDbEntity
  8
0
100
AcDbLine
 62
7
  6
CONTINUOUS
 10
33.7535508429
 20
46.6101968454
 11
33.7535508429
 21
47.0762222492
  0
LINE
  5
2B8
100
AcDbEntity
  8
0
100
AcDbLine
 62
7
  6
CONTINUOUS
 10
33.9871473719
 20
56.2101968454
 11
33.9871473719
 21
56.1101968454
  0
LINE
  5
2B9
100
AcDbEntity
  8
0
100
AcDbLine
 62
7
  6
CONTINUOUS
 10
32.294539149
 20
52.3601968454
 11
32.2945226843
 21
52.2101968454
  0
LINE
  5
2BA
100
AcDbEntity
  8
0
100
AcDbLine
 62
7
  6
CONTINUOUS
 10
38.1842931494
 20
53.8637866839
 11
38.1574982301
 21
53.7637866839
  0
LINE
  5
2BB
100
AcDbEntity
  8
0
100
AcDbLine
 62
7
  6
CONTINUOUS
 10
40.4542931494
 20
41.2101968454
 11
39.5292931494
 21
41.2101968454
  0
LINE
  5
2BC
100
AcDbEntity
  8
0
100
AcDbLine
 62
7
  6
CONTINUOUS
 10
6.9292931494
 20
41.2101968454
 11
6.0042931494
 21
41.2101968454
  0
LINE
  5
2BD
100
AcDbEntity
  8
0
100
AcDbLine
 62
7
  6
CONTINUOUS
 10
14.3057315311
 20
41.2101968454
 11
32.1528547676
 21
41.2101968454
  0
LINE
  5
2BE
100
AcDbEntity
  8
0
100
AcDbLine
 62
7
  6
CONTINUOUS
 10
6.0042931494
 20
42.2101968454
 11
6.9292931494
 21
42.2101968454
  0
LINE
  5
2BF
100
AcDbEntity
  8
0
100
AcDbLine
 62
7
  6
CONTINUOUS
 10
14.3057315311
 20
42.2101968454
 11
32.1528547676
 21
42.2101968454
  0
LINE
  5
2C0
100
AcDbEntity
  8
0
100
AcDbLine
 62
7
  6
CONTINUOUS
 10
39.5292931494
 20
42.2101968454
 11
40.4542931494
 21
42.2101968454
  0
LINE
  5
2C1
100
AcDbEntity
  8
0
100
AcDbLine
 62
7
  6
CONTINUOUS
 10
35.2792931494
 20
35.0101968454
 11
35.2792931494
 21
38.2101968454
  0
LINE
  5
2C2
100
AcDbEntity
  8
0
100
AcDbLine
 62
7
  6
CONTINUOUS
 10
35.2944020842
 20
53.8637866839
 11
35.2944020842
 21
54.8601968454
  0
LINE
  5
2C3
100
AcDbEntity
  8
0
100
AcDbLine
 62
7
  6
CONTINUOUS
 10
35.5792931494
 20
58.2101968454
 11
35.5792931494
 21
58.2601968454
  0
LINE
  5
2C4
100
AcDbEntity
  8
0
100
AcDbLine
 62
7
  6
CONTINUOUS
 10
36.4802457425
 20
53.8658594017
 11
36.4578933365
 21
52.5049611235
  0
LINE
  5
2C5
100
AcDbEntity
  8
0
100
AcDbLine
 62
7
  6
CONTINUOUS
 10
36.5410993231
 20
38.2101968454
 11
36.541099323
 21
46.6101968454
  0
LINE
  5
2C6
100
AcDbEntity
  8
0
100
AcDbLine
 62
7
  6
CONTINUOUS
 10
36.6616120504
 20
46.6101968454
 11
36.6616120504
 21
38.2101968454
  0
LINE
  5
2C7
100
AcDbEntity
  8
0
100
AcDbLine
 62
7
  6
CONTINUOUS
 10
36.8283067605
 20
54.8601968454
 11
36.8283081658
 21
52.5101712218
  0
LINE
  5
2C8
100
AcDbEntity
  8
0
100
AcDbLine
 62
7
  6
CONTINUOUS
 10
36.8579612484
 20
56.2101968454
 11
36.8579612484
 21
56.1101968454
  0
LINE
  5
2C9
100
AcDbEntity
  8
0
100
AcDbLine
 62
7
  6
CONTINUOUS
 10
37.0451207748
 20
56.1101968454
 11
37.0451207748
 21
56.2101968454
  0
LINE
  5
2CA
100
AcDbEntity
  8
0
100
AcDbLine
 62
7
  6
CONTINUOUS
 10
37.0562849164
 20
54.8601968454
 11
37.0562849164
 21
55.1601968454
  0
LINE
  5
2CB
100
AcDbEntity
  8
0
100
AcDbLine
 62
7
  6
CONTINUOUS
 10
37.0690908357
 20
51.7101968454
 11
37.0690908357
 21
51.9101968454
  0
LINE
  5
2CC
100
AcDbEntity
  8
0
100
AcDbLine
 62
7
  6
CONTINUOUS
 10
37.0819688962
 20
54.8601968454
 11
37.0819688962
 21
52.5101968454
  0
LINE
  5
2CD
100
AcDbEntity
  8
0
100
AcDbLine
 62
7
  6
CONTINUOUS
 10
37.1792931494
 20
51.9101968454
 11
37.1792931494
 21
52.21020143
  0
LINE
  5
2CE
100
AcDbEntity
  8
0
100
AcDbLine
 62
7
  6
CONTINUOUS
 10
37.3714287731
 20
48.0762160604
 11
37.3714287731
 21
51.6101968454
  0
LINE
  5
2CF
100
AcDbEntity
  8
0
100
AcDbLine
 62
7
  6
CONTINUOUS
 10
37.4632903868
 20
52.5101968454
 11
37.4632903868
 21
54.8601968454
  0
LINE
  5
2D0
100
AcDbEntity
  8
0
100
AcDbLine
 62
7
  6
CONTINUOUS
 10
37.4729329337
 20
54.8601968454
 11
37.4729329337
 21
52.5101968416
  0
LINE
  5
2D1
100
AcDbEntity
  8
0
100
AcDbLine
 62
7
  6
CONTINUOUS
 10
37.6838330974
 20
52.4101968454
 11
37.6838330974
 21
52.2101968454
  0
LINE
  5
2D2
100
AcDbEntity
  8
0
100
AcDbLine
 62
7
  6
CONTINUOUS
 10
37.6842867126
 20
25.2101968454
 11
37.6842867126
 21
28.2101968454
  0
LINE
  5
2D3
100
AcDbEntity
  8
0
100
AcDbLine
 62
7
  6
CONTINUOUS
 10
37.7792931494
 20
38.2101968454
 11
37.7792931494
 21
35.2101968454
  0
LINE
  5
2D4
100
AcDbEntity
  8
0
100
AcDbLine
 62
7
  6
CONTINUOUS
 10
37.7839049847
 20
53.4275170876
 11
37.7839065112
 21
52.5101705413
  0
LINE
  5
2D5
100
AcDbEntity
  8
0
100
AcDbLine
 62
7
  6
CONTINUOUS
 10
37.9740388229
 20
54.8601968454
 11
37.9740387865
 21
53.8637867052
  0
LINE
  5
2D6
100
AcDbEntity
  8
0
100
AcDbLine
 62
7
  6
CONTINUOUS
 10
37.9837623153
 20
53.4275173535
 11
37.9837623153
 21
52.5101968454
  0
LINE
  5
2D7
100
AcDbEntity
  8
0
100
AcDbLine
 62
7
  6
CONTINUOUS
 10
37.9942931494
 20
52.5101968454
 11
37.9942931494
 21
53.4275173535
  0
LINE
  5
2D8
100
AcDbEntity
  8
0
100
AcDbLine
 62
7
  6
CONTINUOUS
 10
38.1738998291
 20
54.8601968454
 11
38.1738998291
 21
53.8637866839
  0
LINE
  5
2D9
100
AcDbEntity
  8
0
100
AcDbLine
 62
7
  6
CONTINUOUS
 10
38.1842931494
 20
53.8637866839
 11
38.1842931494
 21
54.8601968454
  0
LINE
  5
2DA
100
AcDbEntity
  8
0
100
AcDbLine
 62
7
  6
CONTINUOUS
 10
38.3484451936
 20
38.2101968454
 11
38.3484451936
 21
35.0101968454
  0
LINE
  5
2DB
100
AcDbEntity
  8
0
100
AcDbLine
 62
7
  6
CONTINUOUS
 10
36.9594838499
 20
56.1101968454
 11
36.9594981497
 21
56.2101968454
  0
LINE
  5
2DC
100
AcDbEntity
  8
0
100
AcDbLine
 62
7
  6
CONTINUOUS
 10
37.6036400388
 20
53.8658594018
 11
37.5798531052
 21
52.5049611235
  0
LINE
  5
2DD
100
AcDbEntity
  8
0
100
AcDbLine
 62
7
  6
CONTINUOUS
 10
15.2286681738
 20
46.2101968454
 11
31.2299181249
 21
46.2101968454
  0
LINE
  5
2DE
100
AcDbEntity
  8
0
100
AcDbLine
 62
7
  6
CONTINUOUS
 10
6.9292931494
 20
46.6101968454
 11
14.8754380862
 21
46.6101968454
  0
LINE
  5
2DF
100
AcDbEntity
  8
0
100
AcDbLine
 62
7
  6
CONTINUOUS
 10
31.5831482125
 20
46.6101968454
 11
39.5292931494
 21
46.6101968454
  0
LINE
  5
2E0
100
AcDbEntity
  8
0
100
AcDbLine
 62
7
  6
CONTINUOUS
 10
12.7050354558
 20
47.0762222492
 11
14.4605787374
 21
47.0762222492
  0
LINE
  5
2E1
100
AcDbEntity
  8
0
100
AcDbLine
 62
7
  6
CONTINUOUS
 10
31.9980075613
 20
47.0762222492
 11
33.7535508429
 21
47.0762222492
  0
LINE
  5
2E2
100
AcDbEntity
  8
0
100
AcDbLine
 62
7
  6
CONTINUOUS
 10
37.3005384172
 20
47.2101968454
 11
9.1580478815
 21
47.2101968454
  0
LINE
  5
2E3
100
AcDbEntity
  8
0
100
AcDbLine
 62
7
  6
CONTINUOUS
 10
38.5292931494
 20
38.2101968454
 11
38.5292931494
 21
34.2101968454
  0
LINE
  5
2E4
100
AcDbEntity
  8
0
100
AcDbLine
 62
7
  6
CONTINUOUS
 10
38.6042867126
 20
34.2101968454
 11
38.6042867126
 21
25.2101968454
  0
LINE
  5
2E5
100
AcDbEntity
  8
0
100
AcDbLine
 62
7
  6
CONTINUOUS
 10
39.5292931494
 20
34.2101968454
 11
39.5292931494
 21
46.6101968454
  0
LINE
  5
2E6
100
AcDbEntity
  8
0
100
AcDbLine
 62
7
  6
CONTINUOUS
 10
39.5538440476
 20
56.2101968454
 11
39.5538440476
 21
56.1101968454
  0
LINE
  5
2E7
100
AcDbEntity
  8
0
100
AcDbLine
 62
7
  6
CONTINUOUS
 10
39.5792931494
 20
54.8601968454
 11
39.5792931494
 21
55.1601968454
  0
LINE
  5
2E8
100
AcDbEntity
  8
0
100
AcDbLine
 62
7
  6
CONTINUOUS
 10
39.5792931494
 20
56.1101968454
 11
39.5792931494
 21
56.2101968454
  0
LINE
  5
2E9
100
AcDbEntity
  8
0
100
AcDbLine
 62
7
  6
CONTINUOUS
 10
40.4542931494
 20
41.2101968454
 11
40.4542931494
 21
42.2101968454
  0
LINE
  5
2EA
100
AcDbEntity
  8
0
100
AcDbLine
 62
7
  6
CONTINUOUS
 10
37.3714287731
 20
48.0762160604
 11
9.0871575256
 21
48.0762160604
  0
LINE
  5
2EB
100
AcDbEntity
  8
0
100
AcDbLine
 62
7
  6
CONTINUOUS
 10
41.4342931494
 20
57.2101968454
 11
41.4342931494
 21
57.8101968454
  0
LINE
  5
2EC
100
AcDbEntity
  8
0
100
AcDbLine
 62
7
  6
CONTINUOUS
 10
40.7548933282
 20
55.1601968454
 11
40.7564149895
 21
56.1101968454
  0
LINE
  5
2ED
100
AcDbEntity
  8
0
100
AcDbLine
 62
7
  6
CONTINUOUS
 10
41.3683386871
 20
57.2101968742
 11
41.3630741579
 21
56.2101968788
  0
LINE
  5
2EE
100
AcDbEntity
  8
0
100
AcDbLine
 62
7
  6
CONTINUOUS
 10
37.7139442117
 20
52.2117125046
 11
37.6838330617
 21
52.2101968454
  0
LINE
  5
2EF
100
AcDbEntity
  8
0
100
AcDbLine
 62
7
  6
CONTINUOUS
 10
9.0871575256
 20
51.6101968454
 11
37.3714287731
 21
51.6101968454
  0
LINE
  5
2F0
100
AcDbEntity
  8
0
100
AcDbLine
 62
7
  6
CONTINUOUS
 10
9.1879256946
 20
51.7101968454
 11
37.2706606041
 21
51.7101968454
  0
LINE
  5
2F1
100
AcDbEntity
  8
0
100
AcDbLine
 62
7
  6
CONTINUOUS
 10
8.7747532051
 20
52.2101968454
 11
8.743366812
 21
52.2118439617
  0
LINE
  5
2F2
100
AcDbEntity
  8
0
100
AcDbLine
 62
7
  6
CONTINUOUS
 10
34.2030452444
 20
52.2102492787
 11
34.202910782
 21
52.2102467946
  0
LINE
  5
2F3
100
AcDbEntity
  8
0
100
AcDbLine
 62
7
  6
CONTINUOUS
 10
34.202910782
 20
52.2102467946
 11
34.1974365689
 21
52.2101968454
  0
LINE
  5
2F4
100
AcDbEntity
  8
0
100
AcDbLine
 62
7
  6
CONTINUOUS
 10
37.1792931494
 20
51.9101968454
 11
9.2792931494
 21
51.9101968454
  0
LINE
  5
2F5
100
AcDbEntity
  8
0
100
AcDbLine
 62
7
  6
CONTINUOUS
 10
8.7642931584
 20
52.2101968454
 11
34.1974421757
 21
52.2101968454
  0
LINE
  5
2F6
100
AcDbEntity
  8
0
100
AcDbLine
 62
7
  6
CONTINUOUS
 10
34.2236561287
 20
52.2101968454
 11
37.6942931403
 21
52.2101968454
  0
LINE
  5
2F7
100
AcDbEntity
  8
0
100
AcDbLine
 62
7
  6
CONTINUOUS
 10
34.4572441885
 20
52.3601968454
 11
32.2945540962
 21
52.3601968454
  0
LINE
  5
2F8
100
AcDbEntity
  8
0
100
AcDbLine
 62
7
  6
CONTINUOUS
 10
14.164032434
 20
52.3601968454
 11
12.0013421102
 21
52.3601968454
  0
LINE
  5
2F9
100
AcDbEntity
  8
0
100
AcDbLine
 62
7
  6
CONTINUOUS
 10
10.0167945739
 20
52.4101968454
 11
9.7243392117
 21
52.4101983601
  0
LINE
  5
2FA
100
AcDbEntity
  8
0
100
AcDbLine
 62
7
  6
CONTINUOUS
 10
19.0317425494
 20
52.4101968454
 11
18.9252974939
 21
52.4101983573
  0
LINE
  5
2FB
100
AcDbEntity
  8
0
100
AcDbLine
 62
7
  6
CONTINUOUS
 10
37.6838097328
 20
52.4101968454
 11
37.5627181279
 21
52.4101968454
  0
LINE
  5
2FC
100
AcDbEntity
  8
0
100
AcDbLine
 62
7
  6
CONTINUOUS
 10
36.7342502916
 20
52.4101968454
 11
36.4417917248
 21
52.4101968454
  0
LINE
  5
2FD
100
AcDbEntity
  8
0
100
AcDbLine
 62
7
  6
CONTINUOUS
 10
27.5332925594
 20
52.4101968454
 11
27.4268437493
 21
52.4101968454
  0
LINE
  5
2FE
100
AcDbEntity
  8
0
100
AcDbLine
 62
7
  6
CONTINUOUS
 10
8.8958681708
 20
52.4101968454
 11
8.7747878513
 21
52.4101968454
  0
LINE
  5
2FF
100
AcDbEntity
  8
0
100
AcDbLine
 62
7
  6
CONTINUOUS
 10
37.5798531052
 20
52.5049611235
 11
37.4710756906
 21
52.5049611235
  0
LINE
  5
300
100
AcDbEntity
  8
0
100
AcDbLine
 62
7
  6
CONTINUOUS
 10
36.4578933365
 20
52.5049611235
 11
34.6059978552
 21
52.5049611235
  0
LINE
  5
301
100
AcDbEntity
  8
0
100
AcDbLine
 62
7
  6
CONTINUOUS
 10
32.0083413344
 20
52.5049611235
 11
28.9891241196
 21
52.5049611235
  0
LINE
  5
302
100
AcDbEntity
  8
0
100
AcDbLine
 62
7
  6
CONTINUOUS
 10
27.4329019376
 20
52.5049611235
 11
19.0256843611
 21
52.5049611235
  0
LINE
  5
303
100
AcDbEntity
  8
0
100
AcDbLine
 62
7
  6
CONTINUOUS
 10
17.4694621791
 20
52.5049611235
 11
14.4502464704
 21
52.5049611235
  0
LINE
  5
304
100
AcDbEntity
  8
0
100
AcDbLine
 62
7
  6
CONTINUOUS
 10
11.8525864845
 20
52.5049611235
 11
10.0006929622
 21
52.5049611235
  0
LINE
  5
305
100
AcDbEntity
  8
0
100
AcDbLine
 62
7
  6
CONTINUOUS
 10
8.9875106081
 20
52.5049611235
 11
8.8787331935
 21
52.5049611235
  0
LINE
  5
306
100
AcDbEntity
  8
0
100
AcDbLine
 62
7
  6
CONTINUOUS
 10
37.9942931494
 20
52.5101968454
 11
37.7839057479
 21
52.5101969087
  0
LINE
  5
307
100
AcDbEntity
  8
0
100
AcDbLine
 62
7
  6
CONTINUOUS
 10
37.4729329337
 20
52.5101968416
 11
36.8283074566
 21
52.5101969093
  0
LINE
  5
308
100
AcDbEntity
  8
0
100
AcDbLine
 62
7
  6
CONTINUOUS
 10
28.9891241196
 20
52.5101968416
 11
27.5675239702
 21
52.5101969093
  0
LINE
  5
309
100
AcDbEntity
  8
0
100
AcDbLine
 62
7
  6
CONTINUOUS
 10
18.8910625861
 20
52.5101968416
 11
17.4694621791
 21
52.5101969093
  0
LINE
  5
30A
100
AcDbEntity
  8
0
100
AcDbLine
 62
7
  6
CONTINUOUS
 10
9.6302795513
 20
52.5101968416
 11
8.985653365
 21
52.5101969093
  0
LINE
  5
30B
100
AcDbEntity
  8
0
100
AcDbLine
 62
7
  6
CONTINUOUS
 10
8.6746813948
 20
52.5101968454
 11
8.4642931494
 21
52.5101968454
  0
LINE
  5
30C
100
AcDbEntity
  8
0
100
AcDbLine
 62
7
  6
CONTINUOUS
 10
8.4642931494
 20
53.4275173535
 11
8.6746813948
 21
53.4275173562
  0
LINE
  5
30D
100
AcDbEntity
  8
0
100
AcDbLine
 62
7
  6
CONTINUOUS
 10
37.7839057479
 20
53.4275173535
 11
37.9942931494
 21
53.4275173535
  0
LINE
  5
30E
100
AcDbEntity
  8
0
100
AcDbLine
 62
7
  6
CONTINUOUS
 10
38.0210880686
 20
53.5275173535
 11
38.0106156431
 21
53.5275173535
  0
LINE
  5
30F
100
AcDbEntity
  8
0
100
AcDbLine
 62
7
  6
CONTINUOUS
 10
8.4479706557
 20
53.5275173535
 11
8.4374982301
 21
53.5275173535
  0
LINE
  5
310
100
AcDbEntity
  8
0
100
AcDbLine
 62
7
  6
CONTINUOUS
 10
8.3010880686
 20
53.7637866839
 11
8.3114630481
 21
53.7637866839
  0
LINE
  5
311
100
AcDbEntity
  8
0
100
AcDbLine
 62
7
  6
CONTINUOUS
 10
11.1909791338
 20
53.7637866839
 11
15.0032569268
 21
53.7637866839
  0
LINE
  5
312
100
AcDbEntity
  8
0
100
AcDbLine
 62
7
  6
CONTINUOUS
 10
31.4553294371
 20
53.7637866839
 11
35.2676071649
 21
53.7637866839
  0
LINE
  5
313
100
AcDbEntity
  8
0
100
AcDbLine
 62
7
  6
CONTINUOUS
 10
38.1471232506
 20
53.7637866839
 11
38.1574982301
 21
53.7637866839
  0
LINE
  5
314
100
AcDbEntity
  8
0
100
AcDbLine
 62
7
  6
CONTINUOUS
 10
38.1842931494
 20
53.8637866839
 11
37.9740388051
 21
53.8637866839
  0
LINE
  5
315
100
AcDbEntity
  8
0
100
AcDbLine
 62
7
  6
CONTINUOUS
 10
35.2944020842
 20
53.8637866839
 11
31.4121524452
 21
53.8637866839
  0
LINE
  5
316
100
AcDbEntity
  8
0
100
AcDbLine
 62
7
  6
CONTINUOUS
 10
15.0464384978
 20
53.8637866839
 11
11.1641842145
 21
53.8637866839
  0
LINE
  5
317
100
AcDbEntity
  8
0
100
AcDbLine
 62
7
  6
CONTINUOUS
 10
8.484547475
 20
53.8637866839
 11
8.2742931494
 21
53.8637866839
  0
LINE
  5
318
100
AcDbEntity
  8
0
100
AcDbLine
 62
7
  6
CONTINUOUS
 10
29.1674366954
 20
53.8658594018
 11
28.9891241196
 21
53.8658594018
  0
LINE
  5
319
100
AcDbEntity
  8
0
100
AcDbLine
 62
7
  6
CONTINUOUS
 10
27.4406421542
 20
53.8658594018
 11
19.0179441445
 21
53.8658594018
  0
LINE
  5
31A
100
AcDbEntity
  8
0
100
AcDbLine
 62
7
  6
CONTINUOUS
 10
17.4694621791
 20
53.8658594018
 11
17.2911494969
 21
53.8658594018
  0
LINE
  5
31B
100
AcDbEntity
  8
0
100
AcDbLine
 62
7
  6
CONTINUOUS
 10
8.8549462599
 20
53.8658594018
 11
8.985653365
 21
53.8658594018
  0
LINE
  5
31C
100
AcDbEntity
  8
0
100
AcDbLine
 62
7
  6
CONTINUOUS
 10
9.9783405562
 20
53.8658594018
 11
10.1173595469
 21
53.8658594018
  0
LINE
  5
31D
100
AcDbEntity
  8
0
100
AcDbLine
 62
7
  6
CONTINUOUS
 10
36.3412267518
 20
53.8658594018
 11
36.4802457425
 21
53.8658594018
  0
LINE
  5
31E
100
AcDbEntity
  8
0
100
AcDbLine
 62
7
  6
CONTINUOUS
 10
37.4729329337
 20
53.8658594018
 11
37.6036400388
 21
53.8658594018
  0
LINE
  5
31F
100
AcDbEntity
  8
0
100
AcDbLine
 62
7
  6
CONTINUOUS
 10
39.5792931494
 20
54.8601968454
 11
6.8792931494
 21
54.8601968454
  0
LINE
  5
320
100
AcDbEntity
  8
0
100
AcDbLine
 62
7
  6
CONTINUOUS
 10
40.7548933282
 20
55.1601968454
 11
5.7036929705
 21
55.1601968454
  0
LINE
  5
321
100
AcDbEntity
  8
0
100
AcDbLine
 62
7
  6
CONTINUOUS
 10
5.7021713092
 20
56.1101968454
 11
9.6006250503
 21
56.1101968454
  0
LINE
  5
322
100
AcDbEntity
  8
0
100
AcDbLine
 62
7
  6
CONTINUOUS
 10
12.4714389268
 20
56.1101968454
 11
33.9871473719
 21
56.1101968454
  0
LINE
  5
323
100
AcDbEntity
  8
0
100
AcDbLine
 62
7
  6
CONTINUOUS
 10
36.8579612484
 20
56.1101968454
 11
40.7564149895
 21
56.1101968454
  0
LINE
  5
324
100
AcDbEntity
  8
0
100
AcDbLine
 62
7
  6
CONTINUOUS
 10
41.3630712961
 20
56.2101968454
 11
5.0955155023
 21
56.2101968454
  0
LINE
  5
325
100
AcDbEntity
  8
0
100
AcDbLine
 62
7
  6
CONTINUOUS
 10
41.4342931494
 20
57.2101968454
 11
5.0242931494
 21
57.2101968454
  0
LINE
  5
326
100
AcDbEntity
  8
0
100
AcDbLine
 62
7
  6
CONTINUOUS
 10
5.0242931494
 20
57.8101968454
 11
41.4342931494
 21
57.8101968454
  0
LINE
  5
327
100
AcDbEntity
  8
0
100
AcDbLine
 62
7
  6
CONTINUOUS
 10
5.4242931494
 20
58.2101968454
 11
41.0342931494
 21
58.2101968454
  0
LINE
  5
328
100
AcDbEntity
  8
0
100
AcDbLine
 62
7
  6
CONTINUOUS
 10
10.8792931494
 20
58.2601968454
 11
35.5792931494
 21
58.2601968454
  0
LINE
  5
329
100
AcDbEntity
  8
0
100
AcDbLine
 62
7
  6
CONTINUOUS
 10
38.0106156553
 20
53.5275174039
 11
37.8375327401
 21
53.6275170177
  0
LINE
  5
32A
100
AcDbEntity
  8
0
100
AcDbLine
 62
7
  6
CONTINUOUS
 10
35.1251874083
 20
58.3899504323
 11
11.3335448363
 21
58.3899912903
  0
LINE
  5
32B
100
AcDbEntity
  8
0
100
AcDbLine
 62
7
  6
CONTINUOUS
 10
14.029414794
 20
58.7601968454
 11
32.4291715047
 21
58.7601968454
  0
LINE
  5
32C
100
AcDbEntity
  8
0
100
AcDbLine
 62
7
  6
CONTINUOUS
 10
38.1471232117
 20
53.763786645
 11
37.9740390276
 21
53.8637869919
  0
ARC
  5
32D
100
AcDbEntity
  8
0
100
AcDbCircle
 62
7
  6
CONTINUOUS
 10
23.2292931494
 20
15.8977310032
 40
44.1259675501
100
AcDbArc
 50
73.7469244
 51
74.3601632318
  0
ARC
  5
32E
100
AcDbEntity
  8
0
100
AcDbCircle
 62
7
  6
CONTINUOUS
 10
23.2292931494
 20
15.8977310032
 40
44.1259675501
100
AcDbArc
 50
105.639640107
 51
106.2530756
  0
ARC
  5
32F
100
AcDbEntity
  8
0
100
AcDbCircle
 62
7
  6
CONTINUOUS
 10
50.8846399013
 20
51.0617636685
 40
41.9039748405
100
AcDbArc
 50
184.0856387514
 51
185.2737501942
  0
ARC
  5
330
100
AcDbEntity
  8
0
100
AcDbCircle
 62
7
  6
CONTINUOUS
 10
-4.4260441208
 20
51.0617629638
 40
41.9039653326
100
AcDbArc
 50
354.7262495723
 51
355.9143612859
  0
ARC
  5
331
100
AcDbEntity
  8
0
100
AcDbCircle
 62
7
  6
CONTINUOUS
 10
15.7174316919
 20
25.3061337823
 40
28.5655346906
100
AcDbArc
 50
91.0046590129
 51
91.3459774063
  0
ARC
  5
332
100
AcDbEntity
  8
0
100
AcDbCircle
 62
7
  6
CONTINUOUS
 10
30.7799957183
 20
27.1996079419
 40
26.671671248
100
AcDbArc
 50
88.6418831825
 51
89.0074467039
  0
ARC
  5
333
100
AcDbEntity
  8
0
100
AcDbCircle
 62
7
  6
CONTINUOUS
 10
45.6686260696
 20
60.9870042131
 40
15.915013163
100
AcDbArc
 50
211.7958703697
 51
212.8236238851
  0
ARC
  5
334
100
AcDbEntity
  8
0
100
AcDbCircle
 62
7
  6
CONTINUOUS
 10
1.65880638
 20
60.4375849575
 40
14.8870718353
100
AcDbArc
 50
327.1407335451
 51
328.2394524886
  0
ARC
  5
335
100
AcDbEntity
  8
0
100
AcDbCircle
 62
7
  6
CONTINUOUS
 10
20.7561129231
 20
57.2003293286
 40
10.0657471469
100
AcDbArc
 50
207.3911339255
 51
207.8053939021
  0
ARC
  5
336
100
AcDbEntity
  8
0
100
AcDbCircle
 62
7
  6
CONTINUOUS
 10
25.7366654869
 20
57.182294194
 40
10.0270883765
100
AcDbArc
 50
332.1946188977
 51
332.6102551071
  0
ARC
  5
337
100
AcDbEntity
  8
0
100
AcDbCircle
 62
7
  6
CONTINUOUS
 10
14.0292672433
 20
48.7603855028
 40
9.999811343
100
AcDbArc
 50
89.9989971744
 51
105.638928691
  0
ARC
  5
338
100
AcDbEntity
  8
0
100
AcDbCircle
 62
7
  6
CONTINUOUS
 10
32.4293190704
 20
48.7603855999
 40
9.999811246
100
AcDbArc
 50
74.3602034495
 51
90.0010029107
  0
ARC
  5
339
100
AcDbEntity
  8
0
100
AcDbCircle
 62
7
  6
CONTINUOUS
 10
34.7292931494
 20
46.2101968454
 40
1.0
100
AcDbArc
 50
90.0
 51
156.0
  0
ARC
  5
33A
100
AcDbEntity
  8
0
100
AcDbCircle
 62
7
  6
CONTINUOUS
 10
11.7292931494
 20
46.2101968454
 40
1.0
100
AcDbArc
 50
24.0
 51
90.0
  0
ARC
  5
33B
100
AcDbEntity
  8
0
100
AcDbCircle
 62
7
  6
CONTINUOUS
 10
41.0342931494
 20
57.8101968454
 40
0.4
100
AcDbArc
 50
0.0
 51
90.0
  0
ARC
  5
33C
100
AcDbEntity
  8
0
100
AcDbCircle
 62
7
  6
CONTINUOUS
 10
5.4242931494
 20
57.8101968454
 40
0.4
100
AcDbArc
 50
90.0
 51
180.0
  0
ARC
  5
33D
100
AcDbEntity
  8
0
100
AcDbCircle
 62
7
  6
CONTINUOUS
 10
8.2749459589
 20
53.4275222283
 40
0.3997354934
100
AcDbArc
 50
359.9994898851
 51
30.0210598322
  0
ARC
  5
33E
100
AcDbEntity
  8
0
100
AcDbCircle
 62
7
  6
CONTINUOUS
 10
38.183625632
 20
53.4275261222
 40
0.3997206474
100
AcDbArc
 50
149.978195159
 51
180.0012950085
  0
ARC
  5
33F
100
AcDbEntity
  8
0
100
AcDbCircle
 62
7
  6
CONTINUOUS
 10
31.6189787187
 20
53.8591171878
 40
0.3770532562
100
AcDbArc
 50
178.7599238233
 51
210.5831069305
  0
ARC
  5
340
100
AcDbEntity
  8
0
100
AcDbCircle
 62
7
  6
CONTINUOUS
 10
10.3180030363
 20
52.5101259227
 40
0.3173521046
100
AcDbArc
 50
180.9325107869
 51
198.3538067813
  0
ARC
  5
341
100
AcDbEntity
  8
0
100
AcDbCircle
 62
7
  6
CONTINUOUS
 10
36.1405832626
 20
52.5101259226
 40
0.3173521043
100
AcDbArc
 50
341.6461932162
 51
359.0674892236
  0
ARC
  5
342
100
AcDbEntity
  8
0
100
AcDbCircle
 62
7
  6
CONTINUOUS
 10
34.1974365689
 20
52.5101968454
 40
0.3
100
AcDbArc
 50
271.0712405177
 51
329.9999999509
  0
ARC
  5
343
100
AcDbEntity
  8
0
100
AcDbCircle
 62
7
  6
CONTINUOUS
 10
8.7642931494
 20
52.5101968454
 40
0.3
100
AcDbArc
 50
180.0
 51
270.0
  0
ARC
  5
344
100
AcDbEntity
  8
0
100
AcDbCircle
 62
7
  6
CONTINUOUS
 10
37.6942931494
 20
52.5101968454
 40
0.3
100
AcDbArc
 50
270.0
 51
360.0
  0
ARC
  5
345
100
AcDbEntity
  8
0
100
AcDbCircle
 62
7
  6
CONTINUOUS
 10
12.2611497307
 20
52.5101968454
 40
0.3
100
AcDbArc
 50
210.0000000617
 51
270.0
  0
ARC
  5
346
100
AcDbEntity
  8
0
100
AcDbCircle
 62
7
  6
CONTINUOUS
 10
37.6837947057
 20
52.5101638516
 40
0.2999654631
100
AcDbArc
 50
275.7684027215
 51
0.0063020313
  0
ARC
  5
347
100
AcDbEntity
  8
0
100
AcDbCircle
 62
7
  6
CONTINUOUS
 10
8.7747910147
 20
52.5101633219
 40
0.2999648687
100
AcDbArc
 50
179.9935967839
 51
263.9868252256
  0
ARC
  5
348
100
AcDbEntity
  8
0
100
AcDbCircle
 62
7
  6
CONTINUOUS
 10
9.1783489082
 20
52.510205405
 40
0.2996616075
100
AcDbArc
 50
181.0027662274
 51
199.4958337172
  0
ARC
  5
349
100
AcDbEntity
  8
0
100
AcDbCircle
 62
7
  6
CONTINUOUS
 10
37.280243294
 20
52.5102043375
 40
0.2996556861
100
AcDbArc
 50
340.5039819638
 51
358.9974180953
  0
ARC
  5
34A
100
AcDbEntity
  8
0
100
AcDbCircle
 62
7
  6
CONTINUOUS
 10
8.4847803646
 20
53.86377957
 40
0.2000938951
100
AcDbArc
 50
179.9979629643
 51
209.9821266002
  0
ARC
  5
34B
100
AcDbEntity
  8
0
100
AcDbCircle
 62
7
  6
CONTINUOUS
 10
37.9738059529
 20
53.8637795649
 40
0.2000938763
100
AcDbArc
 50
330.0178719564
 51
0.0020384791
  0
ARC
  5
34C
100
AcDbEntity
  8
0
100
AcDbCircle
 62
7
  6
CONTINUOUS
 10
8.7747146141
 20
52.5102354442
 40
0.1000363484
100
AcDbArc
 50
180.0440527545
 51
270.0419456592
  0
ARC
  5
34D
100
AcDbEntity
  8
0
100
AcDbCircle
 62
7
  6
CONTINUOUS
 10
37.6838718968
 20
52.5102352266
 40
0.1000352725
100
AcDbArc
 50
269.964396362
 51
359.9629508751
  0
SPLINE
  5
34E
100
AcDbEntity
  8
0
100
AcDbSpline
 62
7
  6
CONTINUOUS
 70
0
 71
3
 72
15
 73
11
 74
0
 42
0.0000001
 43
0.0000001
 44
0.0000000001
 40
0.0
 40
0.0
 40
0.0
 40
0.0
 40
0.1276426538
 40
0.25273528
 40
0.3744121809
 40
0.4965186565
 40
0.6205652947
 40
0.7463867801
 40
0.8730167305
 40
1.0
 40
1.0
 40
1.0
 40
1.0
 10
28.9891262259
 20
52.5101965279
 30
0.0
 10
28.9891247869
 20
52.4921035296
 30
0.0
 10
28.98714812
 20
52.4562460257
 30
0.0
 10
28.9781234542
 20
52.4038160188
 30
0.0
 10
28.9620716983
 20
52.3538162106
 30
0.0
 10
28.9372681028
 20
52.3075798785
 30
0.0
 10
28.9029865276
 20
52.2669317868
 30
0.0
 10
28.8594281575
 20
52.2351555524
 30
0.0
 10
28.8090385141
 20
52.2148576016
 30
0.0
 10
28.7729211001
 20
52.2102021603
 30
0.0
 10
28.7549215677
 20
52.210200939
 30
0.0
  0
SPLINE
  5
34F
100
AcDbEntity
  8
0
100
AcDbSpline
 62
7
  6
CONTINUOUS
 70
0
 71
3
 72
11
 73
7
 74
0
 42
0.0000001
 43
0.0000001
 44
0.0000000001
 40
0.0
 40
0.0
 40
0.0
 40
0.0
 40
0.2508265166
 40
0.5010811913
 40
0.7507088237
 40
1.0
 40
1.0
 40
1.0
 40
1.0
 10
37.4729370411
 20
52.5101969016
 30
0.0
 10
37.4729322176
 20
52.4714831699
 30
0.0
 10
37.4579534697
 20
52.3933304549
 30
0.0
 10
37.3933284625
 20
52.2937502177
 30
0.0
 10
37.2958023525
 20
52.2262637122
 30
0.0
 10
37.2179454242
 20
52.2102739824
 30
0.0
 10
37.1794687322
 20
52.2102014414
 30
0.0
  0
SPLINE
  5
350
100
AcDbEntity
  8
0
100
AcDbSpline
 62
7
  6
CONTINUOUS
 70
0
 71
3
 72
11
 73
7
 74
0
 42
0.0000001
 43
0.0000001
 44
0.0000000001
 40
0.0
 40
0.0
 40
0.0
 40
0.0
 40
0.249283917
 40
0.4989193936
 40
0.749180885
 40
1.0
 40
1.0
 40
1.0
 40
1.0
 10
9.2791427531
 20
52.2102013881
 30
0.0
 10
9.2406651997
 20
52.210270714
 30
0.0
 10
9.1628029874
 20
52.226255781
 30
0.0
 10
9.0652663774
 20
52.2937407165
 30
0.0
 10
9.0006348515
 20
52.3933259389
 30
0.0
 10
8.9856543402
 20
52.4714823899
 30
0.0
 10
8.9856492682
 20
52.5101969672
 30
0.0
  0
SPLINE
  5
351
100
AcDbEntity
  8
0
100
AcDbSpline
 62
7
  6
CONTINUOUS
 70
0
 71
3
 72
15
 73
11
 74
0
 42
0.0000001
 43
0.0000001
 44
0.0000000001
 40
0.0
 40
0.0
 40
0.0
 40
0.0
 40
0.1269677779
 40
0.2535716606
 40
0.3794924224
 40
0.5035404168
 40
0.6257101591
 40
0.7473514396
 40
0.8723531089
 40
1.0
 40
1.0
 40
1.0
 40
1.0
 10
17.7036674499
 20
52.2102009383
 30
0.0
 10
17.6856701006
 20
52.2102018562
 30
0.0
 10
17.6495531348
 20
52.2148322184
 30
0.0
 10
17.5991712992
 20
52.2351756043
 30
0.0
 10
17.555598
 20
52.2669413569
 30
0.0
 10
17.5212853157
 20
52.3075995255
 30
0.0
 10
17.4965173977
 20
52.3538589591
 30
0.0
 10
17.4804442335
 20
52.4038409882
 30
0.0
 10
17.4714443065
 20
52.4562589973
 30
0.0
 10
17.469461666
 20
52.4921029843
 30
0.0
 10
17.4694600726
 20
52.5101965961
 30
0.0
  0
SPLINE
  5
352
100
AcDbEntity
  8
0
100
AcDbSpline
 62
7
  6
CONTINUOUS
 70
0
 71
3
 72
11
 73
7
 74
0
 42
0.0000001
 43
0.0000001
 44
0.0000000001
 40
0.0
 40
0.0
 40
0.0
 40
0.0
 40
0.2428046534
 40
0.4898495724
 40
0.7428382017
 40
1.0
 40
1.0
 40
1.0
 40
1.0
 10
36.7342502916
 20
52.4101968454
 30
0.0
 10
36.7465076478
 20
52.4101918761
 30
0.0
 10
36.7715307963
 20
52.4155037496
 30
0.0
 10
36.8027798229
 20
52.4379771816
 30
0.0
 10
36.8234901766
 20
52.4711806488
 30
0.0
 10
36.8283034945
 20
52.4971890826
 30
0.0
 10
36.8283081658
 20
52.5101712218
 30
0.0
  0
SPLINE
  5
353
100
AcDbEntity
  8
0
100
AcDbSpline
 62
7
  6
CONTINUOUS
 70
0
 71
3
 72
9
 73
5
 74
0
 42
0.0000001
 43
0.0000001
 44
0.0000000001
 40
0.0
 40
0.0
 40
0.0
 40
0.0
 40
0.2445104005
 40
1.0
 40
1.0
 40
1.0
 40
1.0
 10
19.0317425494
 20
52.4101968454
 30
0.0
 10
19.0308120335
 20
52.417881483
 30
0.0
 10
19.0274942417
 20
52.4493678637
 30
0.0
 10
19.0260213326
 20
52.4810440777
 30
0.0
 10
19.0258783534
 20
52.5049611235
 30
0.0
  0
SPLINE
  5
354
100
AcDbEntity
  8
0
100
AcDbSpline
 62
7
  6
CONTINUOUS
 70
0
 71
3
 72
15
 73
11
 74
0
 42
0.0000001
 43
0.0000001
 44
0.0000000001
 40
0.0
 40
0.0
 40
0.0
 40
0.0
 40
0.1744727081
 40
0.3437537723
 40
0.501226922
 40
0.6421201265
 40
0.7627106397
 40
0.8610411452
 40
0.9379125548
 40
1.0
 40
1.0
 40
1.0
 40
1.0
 10
36.734271691
 20
52.4101968454
 30
0.0
 10
36.734271691
 20
52.3972099982
 30
0.0
 10
36.7351357304
 20
52.3716150085
 30
0.0
 10
36.7388941377
 20
52.3344657462
 30
0.0
 10
36.7450473038
 20
52.3001645517
 30
0.0
 10
36.7532828575
 20
52.2700339437
 30
0.0
 10
36.7633171924
 20
52.2451126724
 30
0.0
 10
36.7748132351
 20
52.2261796572
 30
0.0
 10
36.7876930015
 20
52.2136393901
 30
0.0
 10
36.7980542509
 20
52.2101968454
 30
0.0
 10
36.8026757196
 20
52.2101968454
 30
0.0
  0
SPLINE
  5
355
100
AcDbEntity
  8
0
100
AcDbSpline
 62
7
  6
CONTINUOUS
 70
0
 71
3
 72
16
 73
12
 74
0
 42
0.0000001
 43
0.0000001
 44
0.0000000001
 40
0.0
 40
0.0
 40
0.0
 40
0.0
 40
0.031917621
 40
0.0658123893
 40
0.1447010354
 40
0.2437596955
 40
0.3642615156
 40
0.5042454909
 40
0.6601255079
 40
0.8273606671
 40
1.0
 40
1.0
 40
1.0
 40
1.0
 10
28.7549104551
 20
52.210196845
 30
0.0
 10
28.7585164709
 20
52.2101972885
 30
0.0
 10
28.7659834545
 20
52.2112458305
 30
0.0
 10
28.7811993612
 20
52.2176154864
 30
0.0
 10
28.799441224
 20
52.2339671663
 30
0.0
 10
28.8178765735
 20
52.2624142267
 30
0.0
 10
28.8339967553
 20
52.2998618678
 30
0.0
 10
28.8472265803
 20
52.3450900275
 30
0.0
 10
28.85707198
 20
52.3965453369
 30
0.0
 10
28.8631174345
 20
52.4522792477
 30
0.0
 10
28.8644841453
 20
52.4906922539
 30
0.0
 10
28.8644845702
 20
52.5101968454
 30
0.0
  0
SPLINE
  5
356
100
AcDbEntity
  8
0
100
AcDbSpline
 62
7
  6
CONTINUOUS
 70
0
 71
3
 72
23
 73
19
 74
0
 42
0.0000001
 43
0.0000001
 44
0.0000000001
 40
0.0
 40
0.0
 40
0.0
 40
0.0
 40
0.0071916034
 40
0.0149231737
 40
0.0235292981
 40
0.0331201797
 40
0.0550383849
 40
0.0799114859
 40
0.1354251903
 40
0.1955699011
 40
0.2583816995
 40
0.3228775256
 40
0.3885145317
 40
0.4549658864
 40
0.5895316164
 40
0.725556017
 40
0.8624910255
 40
1.0
 40
1.0
 40
1.0
 40
1.0
 10
10.1173592898
 20
53.865859299
 30
0.0
 10
10.1198189163
 20
53.8658592986
 30
0.0
 10
10.1249495256
 20
53.8667317288
 30
0.0
 10
10.1322279129
 20
53.8703585073
 30
0.0
 10
10.1391305321
 20
53.8760102019
 30
0.0
 10
10.1482700198
 20
53.8862944236
 30
0.0
 10
10.1584608436
 20
53.9027991831
 30
0.0
 10
10.1731261853
 20
53.9346011053
 30
0.0
 10
10.188094717
 20
53.9804105249
 30
0.0
 10
10.2027625074
 20
54.0396724724
 30
0.0
 10
10.2151515055
 20
54.1025987386
 30
0.0
 10
10.2257233052
 20
54.16774333
 30
0.0
 10
10.2347886805
 20
54.2343702995
 30
0.0
 10
10.2452206682
 20
54.3249757702
 30
0.0
 10
10.2554618911
 20
54.439812189
 30
0.0
 10
10.2642495724
 20
54.5789255876
 30
0.0
 10
10.2700820687
 20
54.7191994675
 30
0.0
 10
10.2722090716
 20
54.813044821
 30
0.0
 10
10.2728672842
 20
54.8600701604
 30
0.0
  0
LINE
  5
357
100
AcDbEntity
  8
0
100
AcDbLine
 62
7
  6
CONTINUOUS
 10
10.1173592898
 20
53.865859299
 11
9.7920389992
 21
54.8601968964
  0
LINE
  5
358
100
AcDbEntity
  8
0
100
AcDbLine
 62
7
  6
CONTINUOUS
 10
9.6378058978
 20
54.860196819
 11
9.9783405562
 21
53.8658594018
  0
SPLINE
  5
359
100
AcDbEntity
  8
0
100
AcDbSpline
 62
7
  6
CONTINUOUS
 70
0
 71
3
 72
11
 73
7
 74
0
 42
0.0000001
 43
0.0000001
 44
0.0000000001
 40
0.0
 40
0.0
 40
0.0
 40
0.0
 40
0.2571618888
 40
0.5101510116
 40
0.7571962033
 40
1.0
 40
1.0
 40
1.0
 40
1.0
 10
9.6302795513
 20
52.5101745049
 30
0.0
 10
9.6302841641
 20
52.4971917912
 30
0.0
 10
9.6350936129
 20
52.4711813533
 30
0.0
 10
9.6558062033
 20
52.4379768655
 30
0.0
 10
9.6870561688
 20
52.4155010358
 30
0.0
 10
9.7120813608
 20
52.4101932837
 30
0.0
 10
9.7243392117
 20
52.4101983601
 30
0.0
  0
SPLINE
  5
35A
100
AcDbEntity
  8
0
100
AcDbSpline
 62
7
  6
CONTINUOUS
 70
0
 71
3
 72
14
 73
10
 74
0
 42
0.0000001
 43
0.0000001
 44
0.0000000001
 40
0.0
 40
0.0
 40
0.0
 40
0.0
 40
0.3437292123
 40
0.5012415711
 40
0.6421401098
 40
0.7627258219
 40
0.8610384662
 40
0.9378952296
 40
1.0
 40
1.0
 40
1.0
 40
1.0
 10
18.8910625861
 20
52.510174511
 30
0.0
 10
18.8910642267
 20
52.4973844621
 30
0.0
 10
18.8922423834
 20
52.4786879009
 30
0.0
 10
18.896461857
 20
52.4551484052
 30
0.0
 10
18.90058624
 20
52.4400854911
 30
0.0
 10
18.9056064858
 20
52.4276301038
 30
0.0
 10
18.9113582895
 20
52.4181697899
 30
0.0
 10
18.9178044965
 20
52.4119087084
 30
0.0
 10
18.9229865976
 20
52.4101957278
 30
0.0
 10
18.9252974939
 20
52.4101983573
 30
0.0
  0
SPLINE
  5
35B
100
AcDbEntity
  8
0
100
AcDbSpline
 62
7
  6
CONTINUOUS
 70
0
 71
3
 72
9
 73
5
 74
0
 42
0.0000001
 43
0.0000001
 44
0.0000000001
 40
0.0
 40
0.0
 40
0.0
 40
0.0
 40
0.4957280606
 40
1.0
 40
1.0
 40
1.0
 40
1.0
 10
14.3167328856
 20
52.6014192669
 30
0.0
 10
14.4343311633
 20
52.7909901639
 30
0.0
 10
14.665595176
 20
53.1770950684
 30
0.0
 10
14.8903712742
 20
53.5669519335
 30
0.0
 10
15.0033684813
 20
53.7637471207
 30
0.0
  0
SPLINE
  5
35C
100
AcDbEntity
  8
0
100
AcDbSpline
 62
7
  6
CONTINUOUS
 70
0
 71
3
 72
9
 73
5
 74
0
 42
0.0000001
 43
0.0000001
 44
0.0000000001
 40
0.0
 40
0.0
 40
0.0
 40
0.0
 40
0.4973449814
 40
1.0
 40
1.0
 40
1.0
 40
1.0
 10
15.003256774
 20
53.7637866839
 30
0.0
 10
15.0161618264
 20
53.7769598805
 30
0.0
 10
15.0386331707
 20
53.8073744709
 30
0.0
 10
15.04724066
 20
53.8451659814
 30
0.0
 10
15.0464384969
 20
53.8637866839
 30
0.0
  0
SPLINE
  5
35D
100
AcDbEntity
  8
0
100
AcDbSpline
 62
7
  6
CONTINUOUS
 70
0
 71
3
 72
9
 73
5
 74
0
 42
0.0000001
 43
0.0000001
 44
0.0000000001
 40
0.0
 40
0.0
 40
0.0
 40
0.0
 40
0.5012670262
 40
1.0
 40
1.0
 40
1.0
 40
1.0
 10
11.5115645095
 20
53.2071753564
 30
0.0
 10
11.5602707719
 20
53.0993753227
 30
0.0
 10
11.6597200244
 20
52.8853427127
 30
0.0
 10
11.7647209956
 20
52.6739554085
 30
0.0
 10
11.8188710449
 20
52.5694575709
 30
0.0
  0
SPLINE
  5
35E
100
AcDbEntity
  8
0
100
AcDbSpline
 62
7
  6
CONTINUOUS
 70
0
 71
3
 72
11
 73
7
 74
0
 42
0.0000001
 43
0.0000001
 44
0.0000000001
 40
0.0
 40
0.0
 40
0.0
 40
0.0
 40
0.2945853344
 40
0.564298753
 40
0.8029606573
 40
1.0
 40
1.0
 40
1.0
 40
1.0
 10
11.8525829826
 20
52.5049552405
 30
0.0
 10
11.8690342775
 20
52.4927476795
 30
0.0
 10
11.8999761889
 20
52.4685785909
 30
0.0
 10
11.9418354128
 20
52.4315403542
 30
0.0
 10
11.9759833848
 20
52.3962872938
 30
0.0
 10
11.994494289
 20
52.3720498395
 30
0.0
 10
12.001351967
 20
52.3601869931
 30
0.0
  0
SPLINE
  5
35F
100
AcDbEntity
  8
0
100
AcDbSpline
 62
7
  6
CONTINUOUS
 70
0
 71
3
 72
9
 73
5
 74
0
 42
0.0000001
 43
0.0000001
 44
0.0000000001
 40
0.0
 40
0.0
 40
0.0
 40
0.0
 40
0.4903198552
 40
1.0
 40
1.0
 40
1.0
 40
1.0
 10
11.8525837791
 20
52.5049611234
 30
0.0
 10
11.8529859117
 20
52.4758616617
 30
0.0
 10
11.8605731682
 20
52.4164018855
 30
0.0
 10
11.8827637266
 20
52.3604473087
 30
0.0
 10
11.8977913375
 20
52.3341925063
 30
0.0
  0
SPLINE
  5
360
100
AcDbEntity
  8
0
100
AcDbSpline
 62
7
  6
CONTINUOUS
 70
0
 71
3
 72
9
 73
5
 74
0
 42
0.0000001
 43
0.0000001
 44
0.0000000001
 40
0.0
 40
0.0
 40
0.0
 40
0.0
 40
0.5107539997
 40
1.0
 40
1.0
 40
1.0
 40
1.0
 10
11.8977913375
 20
52.3341925063
 30
0.0
 10
11.9059731747
 20
52.3198979841
 30
0.0
 10
11.9242150168
 20
52.2930908348
 30
0.0
 10
11.9470723633
 20
52.2700398138
 30
0.0
 10
11.9591930529
 20
52.2599403708
 30
0.0
  0
SPLINE
  5
361
100
AcDbEntity
  8
0
100
AcDbSpline
 62
7
  6
CONTINUOUS
 70
0
 71
3
 72
9
 73
5
 74
0
 42
0.0000001
 43
0.0000001
 44
0.0000000001
 40
0.0
 40
0.0
 40
0.0
 40
0.0
 40
0.5290432779
 40
1.0
 40
1.0
 40
1.0
 40
1.0
 10
11.9591930529
 20
52.2599403708
 30
0.0
 10
11.9784565901
 20
52.2438892214
 30
0.0
 10
12.0199804585
 20
52.2188478562
 30
0.0
 10
12.067733533
 20
52.2101968147
 30
0.0
 10
12.0900548371
 20
52.2101968144
 30
0.0
  0
SPLINE
  5
362
100
AcDbEntity
  8
0
100
AcDbSpline
 62
7
  6
CONTINUOUS
 70
0
 71
3
 72
14
 73
10
 74
0
 42
0.0000001
 43
0.0000001
 44
0.0000000001
 40
0.0
 40
0.0
 40
0.0
 40
0.0
 40
0.1744023038
 40
0.3352120161
 40
0.477859454
 40
0.6039066952
 40
0.8162957839
 40
0.910083128
 40
1.0
 40
1.0
 40
1.0
 40
1.0
 10
10.0167942174
 20
52.4101976028
 30
0.0
 10
10.0221619257
 20
52.3940632173
 30
0.0
 10
10.0337588448
 20
52.3634544404
 30
0.0
 10
10.0543141027
 20
52.3215557767
 30
0.0
 10
10.0771830561
 20
52.2863109962
 30
0.0
 10
10.1077090053
 20
52.2506340557
 30
0.0
 10
10.1423239492
 20
52.2247598453
 30
0.0
 10
10.1791159077
 20
52.2121937496
 30
0.0
 10
10.1970882956
 20
52.2101968454
 30
0.0
 10
10.205854994
 20
52.2101968454
 30
0.0
  0
SPLINE
  5
363
100
AcDbEntity
  8
0
100
AcDbSpline
 62
7
  6
CONTINUOUS
 70
0
 71
3
 72
15
 73
11
 74
0
 42
0.0000001
 43
0.0000001
 44
0.0000000001
 40
0.0
 40
0.0
 40
0.0
 40
0.0
 40
0.0620873947
 40
0.138958799
 40
0.2372893413
 40
0.3578799105
 40
0.4987731632
 40
0.656246345
 40
0.8255274008
 40
1.0
 40
1.0
 40
1.0
 40
1.0
 10
9.6559106658
 20
52.2101968454
 30
0.0
 10
9.6605321464
 20
52.2101968454
 30
0.0
 10
9.6708934257
 20
52.2136394105
 30
0.0
 10
9.6837732168
 20
52.2261797373
 30
0.0
 10
9.6952692771
 20
52.2451128368
 30
0.0
 10
9.7053036203
 20
52.270034214
 30
0.0
 10
9.7135391721
 20
52.3001649426
 30
0.0
 10
9.7196923219
 20
52.3344662653
 30
0.0
 10
9.7234506994
 20
52.3716156511
 30
0.0
 10
9.7243147113
 20
52.3972107198
 30
0.0
 10
9.7243146945
 20
52.4101976028
 30
0.0
  0
SPLINE
  5
364
100
AcDbEntity
  8
0
100
AcDbSpline
 62
7
  6
CONTINUOUS
 70
0
 71
3
 72
13
 73
9
 74
0
 42
0.0000001
 43
0.0000001
 44
0.0000000001
 40
0.0
 40
0.0
 40
0.0
 40
0.0
 40
0.120746991
 40
0.2424085738
 40
0.3651965433
 40
0.4896339861
 40
0.7424260328
 40
1.0
 40
1.0
 40
1.0
 40
1.0
 10
9.6559106794
 20
52.2101968454
 30
0.0
 10
9.6376631855
 20
52.2101955327
 30
0.0
 10
9.6009184979
 20
52.2141185974
 30
0.0
 10
9.5480874675
 20
52.2313425319
 30
0.0
 10
9.4994302571
 20
52.25937366
 30
0.0
 10
9.4424911416
 20
52.3097125686
 30
0.0
 10
9.3907590658
 20
52.3934129403
 30
0.0
 10
9.3766191016
 20
52.4712718225
 30
0.0
 10
9.3766167766
 20
52.5101968454
 30
0.0
  0
SPLINE
  5
365
100
AcDbEntity
  8
0
100
AcDbSpline
 62
7
  6
CONTINUOUS
 70
0
 71
3
 72
11
 73
7
 74
0
 42
0.0000001
 43
0.0000001
 44
0.0000000001
 40
0.0
 40
0.0
 40
0.0
 40
0.0
 40
0.2561653048
 40
0.5087176014
 40
0.7561673871
 40
1.0
 40
1.0
 40
1.0
 40
1.0
 10
8.9952957945
 20
52.5101968454
 30
0.0
 10
8.9952982587
 20
52.4712923244
 30
0.0
 10
9.0097893885
 20
52.3932441881
 30
0.0
 10
9.0723856497
 20
52.2937021449
 30
0.0
 10
9.1666884354
 20
52.2262860285
 30
0.0
 10
9.2421469033
 20
52.2102660486
 30
0.0
 10
9.2791783611
 20
52.2101973016
 30
0.0
  0
SPLINE
  5
366
100
AcDbEntity
  8
0
100
AcDbSpline
 62
7
  6
CONTINUOUS
 70
0
 71
3
 72
12
 73
8
 74
0
 42
0.0000001
 43
0.0000001
 44
0.0000000001
 40
0.0
 40
0.0
 40
0.0
 40
0.0
 40
0.1449139211
 40
0.2849822998
 40
0.5415175544
 40
0.7760737693
 40
1.0
 40
1.0
 40
1.0
 40
1.0
 10
8.8958681708
 20
52.4101968454
 30
0.0
 10
8.9016832952
 20
52.3937716601
 30
0.0
 10
8.915884752
 20
52.3623796023
 30
0.0
 10
8.9518609144
 20
52.3078462831
 30
0.0
 10
9.0085967682
 20
52.2553449934
 30
0.0
 10
9.0874693777
 20
52.2182317015
 30
0.0
 10
9.1429316266
 20
52.2101968454
 30
0.0
 10
9.1698561144
 20
52.2101968454
 30
0.0
  0
SPLINE
  5
367
100
AcDbEntity
  8
0
100
AcDbSpline
 62
7
  6
CONTINUOUS
 70
0
 71
3
 72
11
 73
7
 74
0
 42
0.0000001
 43
0.0000001
 44
0.0000000001
 40
0.0
 40
0.0
 40
0.0
 40
0.0
 40
0.2427859013
 40
0.4898485223
 40
0.7428559746
 40
1.0
 40
1.0
 40
1.0
 40
1.0
 10
18.737350055
 20
52.2101968454
 30
0.0
 10
18.7618557328
 20
52.2101968454
 30
0.0
 10
18.8118827914
 20
52.2208459143
 30
0.0
 10
18.8743357172
 20
52.265819238
 30
0.0
 10
18.9157065689
 20
52.3322352262
 30
0.0
 10
18.9252886714
 20
52.3842426815
 30
0.0
 10
18.9252885792
 20
52.4101976014
 30
0.0
  0
LINE
  5
368
100
AcDbEntity
  8
0
100
AcDbLine
 62
7
  6
CONTINUOUS
 10
8.4925568456
 20
54.860196819
 11
8.8549462599
 21
53.8658594018
  0
SPLINE
  5
369
100
AcDbEntity
  8
0
100
AcDbSpline
 62
7
  6
CONTINUOUS
 70
0
 71
3
 72
9
 73
5
 74
0
 42
0.0000001
 43
0.0000001
 44
0.0000000001
 40
0.0
 40
0.0
 40
0.0
 40
0.0
 40
0.4999551688
 40
1.0
 40
1.0
 40
1.0
 40
1.0
 10
8.4748237356
 20
53.4275173535
 30
0.0
 10
8.4748238013
 20
53.4449203679
 30
0.0
 10
8.4701400118
 20
53.4798637406
 30
0.0
 10
8.4566876558
 20
53.5124512724
 30
0.0
 10
8.4479706742
 20
53.5275173862
 30
0.0
  0
LINE
  5
36A
100
AcDbEntity
  8
0
100
AcDbLine
 62
7
  6
CONTINUOUS
 10
8.4479706418
 20
53.5275174069
 11
8.3114630852
 21
53.7637866481
  0
LINE
  5
36B
100
AcDbEntity
  8
0
100
AcDbLine
 62
7
  6
CONTINUOUS
 10
29.1674365535
 20
53.865859299
 11
29.3263483702
 21
54.8601968964
  0
SPLINE
  5
36C
100
AcDbEntity
  8
0
100
AcDbSpline
 62
7
  6
CONTINUOUS
 70
0
 71
3
 72
11
 73
7
 74
0
 42
0.0000001
 43
0.0000001
 44
0.0000000001
 40
0.0
 40
0.0
 40
0.0
 40
0.0
 40
0.2397442983
 40
0.4996592516
 40
0.7597555735
 40
1.0
 40
1.0
 40
1.0
 40
1.0
 10
31.2943765597
 20
53.6672771597
 30
0.0
 10
31.3056960394
 20
53.6772207615
 30
0.0
 10
31.3304289194
 20
53.6966530481
 30
0.0
 10
31.3703133539
 20
53.7229993256
 30
0.0
 10
31.4123704209
 20
53.7457831763
 30
0.0
 10
31.4411991797
 20
53.7584678793
 30
0.0
 10
31.4553294438
 20
53.7637866736
 30
0.0
  0
SPLINE
  5
36D
100
AcDbEntity
  8
0
100
AcDbSpline
 62
7
  6
CONTINUOUS
 70
0
 71
3
 72
10
 73
6
 74
0
 42
0.0000001
 43
0.0000001
 44
0.0000000001
 40
0.0
 40
0.0
 40
0.0
 40
0.0
 40
0.5033273354
 40
0.7526826652
 40
1.0
 40
1.0
 40
1.0
 40
1.0
 10
31.2943765584
 20
53.6672771617
 30
0.0
 10
31.410654515
 20
53.4701360856
 30
0.0
 10
31.5859922028
 20
53.1761682015
 30
0.0
 10
31.8250664567
 20
52.789346102
 30
0.0
 10
31.946728016
 20
52.5990442808
 30
0.0
 10
32.0083413344
 20
52.5049611235
 30
0.0
  0
SPLINE
  5
36E
100
AcDbEntity
  8
0
100
AcDbSpline
 62
7
  6
CONTINUOUS
 70
0
 71
3
 72
9
 73
5
 74
0
 42
0.0000001
 43
0.0000001
 44
0.0000000001
 40
0.0
 40
0.0
 40
0.0
 40
0.0
 40
0.4914888124
 40
1.0
 40
1.0
 40
1.0
 40
1.0
 10
32.0083341444
 20
52.5049553343
 30
0.0
 10
32.0537696203
 20
52.4785123247
 30
0.0
 10
32.14782708
 20
52.427478576
 30
0.0
 10
32.2444943172
 20
52.3814744591
 30
0.0
 10
32.2945458126
 20
52.3601857323
 30
0.0
  0
SPLINE
  5
36F
100
AcDbEntity
  8
0
100
AcDbSpline
 62
7
  6
CONTINUOUS
 70
0
 71
3
 72
11
 73
7
 74
0
 42
0.0000001
 43
0.0000001
 44
0.0000000001
 40
0.0
 40
0.0
 40
0.0
 40
0.0
 40
0.2489553753
 40
0.5085974729
 40
0.7637211986
 40
1.0
 40
1.0
 40
1.0
 40
1.0
 10
32.1419683105
 20
52.6014708675
 30
0.0
 10
32.1295762882
 20
52.5955207277
 30
0.0
 10
32.104850874
 20
52.5821149317
 30
0.0
 10
32.0695347959
 20
52.558975742
 30
0.0
 10
32.0369930247
 20
52.5331860141
 30
0.0
 10
32.0172728669
 20
52.5144731129
 30
0.0
 10
32.0083381683
 20
52.504966089
 30
0.0
  0
SPLINE
  5
370
100
AcDbEntity
  8
0
100
AcDbSpline
 62
7
  6
CONTINUOUS
 70
0
 71
3
 72
15
 73
11
 74
0
 42
0.0000001
 43
0.0000001
 44
0.0000000001
 40
0.0
 40
0.0
 40
0.0
 40
0.0
 40
0.142783028
 40
0.2901419829
 40
0.4364713947
 40
0.5753559019
 40
0.7017067326
 40
0.8137157978
 40
0.9118472733
 40
1.0
 40
1.0
 40
1.0
 40
1.0
 10
32.0083327946
 20
52.5049611502
 30
0.0
 10
32.0081403542
 20
52.4869114008
 30
0.0
 10
32.0057047635
 20
52.4502271315
 30
0.0
 10
31.9957962086
 20
52.3958031104
 30
0.0
 10
31.9788670277
 20
52.3436246807
 30
0.0
 10
31.9557279598
 20
52.2967502876
 30
0.0
 10
31.9268455236
 20
52.2584169292
 30
0.0
 10
31.8943711923
 20
52.2302954101
 30
0.0
 10
31.8598982052
 20
52.2138431412
 30
0.0
 10
31.8362294652
 20
52.2101890057
 30
0.0
 10
31.8250851081
 20
52.2101887935
 30
0.0
  0
SPLINE
  5
371
100
AcDbEntity
  8
0
100
AcDbSpline
 62
7
  6
CONTINUOUS
 70
0
 71
3
 72
17
 73
13
 74
0
 42
0.0000001
 43
0.0000001
 44
0.0000000001
 40
0.0
 40
0.0
 40
0.0
 40
0.0
 40
0.1764736636
 40
0.3472033268
 40
0.5058670827
 40
0.6475577494
 40
0.7682862283
 40
0.8656109926
 40
0.9056808727
 40
0.9406055848
 40
0.9714816627
 40
1.0
 40
1.0
 40
1.0
 40
1.0
 10
27.8168136441
 20
52.5101968454
 30
0.0
 10
27.8168132606
 20
52.4906938519
 30
0.0
 10
27.8156166669
 20
52.4523120147
 30
0.0
 10
27.8103398699
 20
52.3966154256
 30
0.0
 10
27.8017689229
 20
52.345215357
 30
0.0
 10
27.790252845
 20
52.3000453628
 30
0.0
 10
27.7762902883
 20
52.2627421426
 30
0.0
 10
27.7621867158
 20
52.2376695767
 30
0.0
 10
27.7496406635
 20
52.2232475422
 30
0.0
 10
27.7404679873
 20
52.215857219
 30
0.0
 10
27.7309862025
 20
52.2112705278
 30
0.0
 10
27.7243879471
 20
52.2101962095
 30
0.0
 10
27.721236242
 20
52.2101968454
 30
0.0
  0
SPLINE
  5
372
100
AcDbEntity
  8
0
100
AcDbSpline
 62
7
  6
CONTINUOUS
 70
0
 71
3
 72
11
 73
7
 74
0
 42
0.0000001
 43
0.0000001
 44
0.0000000001
 40
0.0
 40
0.0
 40
0.0
 40
0.0
 40
0.2438308648
 40
0.49128081
 40
0.743833958
 40
1.0
 40
1.0
 40
1.0
 40
1.0
 10
37.1794315756
 20
52.2101973449
 30
0.0
 10
37.2164607867
 20
52.2102692717
 30
0.0
 10
37.2919134118
 20
52.2262944854
 30
0.0
 10
37.3862071499
 20
52.2937118478
 30
0.0
 10
37.4487966758
 20
52.3932503761
 30
0.0
 10
37.4632878046
 20
52.4712942875
 30
0.0
 10
37.4632901294
 20
52.5101968454
 30
0.0
  0
SPLINE
  5
373
100
AcDbEntity
  8
0
100
AcDbSpline
 62
7
  6
CONTINUOUS
 70
0
 71
3
 72
11
 73
7
 74
0
 42
0.0000001
 43
0.0000001
 44
0.0000000001
 40
0.0
 40
0.0
 40
0.0
 40
0.0
 40
0.2571440041
 40
0.5101514534
 40
0.7572140844
 40
1.0
 40
1.0
 40
1.0
 40
1.0
 10
27.5332977511
 20
52.4101968454
 30
0.0
 10
27.5332977511
 20
52.3842419913
 30
0.0
 10
27.5428799888
 20
52.332234702
 30
0.0
 10
27.5842508866
 20
52.2658189789
 30
0.0
 10
27.6467037203
 20
52.2208458614
 30
0.0
 10
27.6967306561
 20
52.2101968454
 30
0.0
 10
27.7212362752
 20
52.2101968454
 30
0.0
  0
SPLINE
  5
374
100
AcDbEntity
  8
0
100
AcDbSpline
 62
7
  6
CONTINUOUS
 70
0
 71
3
 72
9
 73
5
 74
0
 42
0.0000001
 43
0.0000001
 44
0.0000000001
 40
0.0
 40
0.0
 40
0.0
 40
0.0
 40
0.254136508
 40
1.0
 40
1.0
 40
1.0
 40
1.0
 10
27.4327079453
 20
52.5049611235
 30
0.0
 10
27.4326598494
 20
52.4969158191
 30
0.0
 10
27.4320263759
 20
52.4652635587
 30
0.0
 10
27.4296822054
 20
52.4336381501
 30
0.0
 10
27.4268437493
 20
52.4101968454
 30
0.0
  0
SPLINE
  5
375
100
AcDbEntity
  8
0
100
AcDbSpline
 62
7
  6
CONTINUOUS
 70
0
 71
3
 72
14
 73
10
 74
0
 42
0.0000001
 43
0.0000001
 44
0.0000000001
 40
0.0
 40
0.0
 40
0.0
 40
0.0
 40
0.062107221
 40
0.1389801613
 40
0.2372999278
 40
0.3578827352
 40
0.498778
 40
0.6562864102
 40
1.0
 40
1.0
 40
1.0
 40
1.0
 10
27.5332925594
 20
52.4101968454
 30
0.0
 10
27.5356034153
 20
52.4101942716
 30
0.0
 10
27.5407854598
 20
52.4119099788
 30
0.0
 10
27.5472294095
 20
52.4181734106
 30
0.0
 10
27.5529810261
 20
52.4276338743
 30
0.0
 10
27.558000777
 20
52.4400887136
 30
0.0
 10
27.5621244155
 20
52.4551505061
 30
0.0
 10
27.5663434409
 20
52.4786877976
 30
0.0
 10
27.5675226148
 20
52.4973825
 30
0.0
 10
27.5675242279
 20
52.5101712389
 30
0.0
  0
LINE
  5
376
100
AcDbEntity
  8
0
100
AcDbLine
 62
7
  6
CONTINUOUS
 10
36.4802457425
 20
53.8658594017
 11
36.8207804009
 21
54.860196819
  0
SPLINE
  5
377
100
AcDbEntity
  8
0
100
AcDbSpline
 62
7
  6
CONTINUOUS
 70
0
 71
3
 72
15
 73
11
 74
0
 42
0.0000001
 43
0.0000001
 44
0.0000000001
 40
0.0
 40
0.0
 40
0.0
 40
0.0
 40
0.1956286907
 40
0.3695057452
 40
0.5182714239
 40
0.6446945883
 40
0.7519722241
 40
0.8440125784
 40
0.9250297667
 40
1.0
 40
1.0
 40
1.0
 40
1.0
 10
19.0317424199
 20
52.4101976014
 30
0.0
 10
19.0336534963
 20
52.3944155064
 30
0.0
 10
19.0348366863
 20
52.3642604392
 30
0.0
 10
19.0301082956
 20
52.322252504
 30
0.0
 10
19.0203122817
 20
52.286933
 30
0.0
 10
19.0071340221
 20
52.2586174298
 30
0.0
 10
18.991663834
 20
52.2369223435
 30
0.0
 10
18.974552298
 20
52.2215559512
 30
0.0
 10
18.9563615115
 20
52.2122867
 30
0.0
 10
18.9436057298
 20
52.2101968454
 30
0.0
 10
18.937513421
 20
52.2101968454
 30
0.0
  0
SPLINE
  5
378
100
AcDbEntity
  8
0
100
AcDbSpline
 62
7
  6
CONTINUOUS
 70
0
 71
3
 72
15
 73
11
 74
0
 42
0.0000001
 43
0.0000001
 44
0.0000000001
 40
0.0
 40
0.0
 40
0.0
 40
0.0
 40
0.0749680799
 40
0.1559828554
 40
0.2480257379
 40
0.3553110797
 40
0.481750644
 40
0.6305243045
 40
0.8043724497
 40
1.0
 40
1.0
 40
1.0
 40
1.0
 10
27.5210728777
 20
52.2101968454
 30
0.0
 10
27.5149807594
 20
52.2101968454
 30
0.0
 10
27.5022253446
 20
52.2122866155
 30
0.0
 10
27.4840349833
 20
52.2215560788
 30
0.0
 10
27.4669222341
 20
52.236921842
 30
0.0
 10
27.4514501059
 20
52.2586184126
 30
0.0
 10
27.4382735957
 20
52.286937588
 30
0.0
 10
27.4284765305
 20
52.3222561602
 30
0.0
 10
27.4237490568
 20
52.3642624199
 30
0.0
 10
27.4249327452
 20
52.3944148757
 30
0.0
 10
27.4268437493
 20
52.4101968454
 30
0.0
  0
SPLINE
  5
379
100
AcDbEntity
  8
0
100
AcDbSpline
 62
7
  6
CONTINUOUS
 70
0
 71
3
 72
12
 73
8
 74
0
 42
0.0000001
 43
0.0000001
 44
0.0000000001
 40
0.0
 40
0.0
 40
0.0
 40
0.0
 40
0.2239254644
 40
0.4584882242
 40
0.7150417577
 40
0.855089242
 40
1.0
 40
1.0
 40
1.0
 40
1.0
 10
37.2887301844
 20
52.2101968454
 30
0.0
 10
37.3156546013
 20
52.2101968454
 30
0.0
 10
37.3711174222
 20
52.2182317143
 30
0.0
 10
37.4499936598
 20
52.2553456986
 30
0.0
 10
37.5067262371
 20
52.3078507658
 30
0.0
 10
37.5427057077
 20
52.3623811406
 30
0.0
 10
37.5569031259
 20
52.3937720056
 30
0.0
 10
37.5627181279
 20
52.4101968454
 30
0.0
  0
LINE
  5
37A
100
AcDbEntity
  8
0
100
AcDbLine
 62
7
  6
CONTINUOUS
 10
37.6036400388
 20
53.8658594018
 11
37.9660294531
 21
54.860196819
  0
SPLINE
  5
37B
100
AcDbEntity
  8
0
100
AcDbSpline
 62
7
  6
CONTINUOUS
 70
0
 71
3
 72
13
 73
9
 74
0
 42
0.0000001
 43
0.0000001
 44
0.0000000001
 40
0.0
 40
0.0
 40
0.0
 40
0.0
 40
0.2575752359
 40
0.5103683188
 40
0.6348059438
 40
0.7575936538
 40
0.8792538659
 40
1.0
 40
1.0
 40
1.0
 40
1.0
 10
37.08196906
 20
52.5101968454
 30
0.0
 10
37.0819666819
 20
52.4712717577
 30
0.0
 10
37.0678252103
 20
52.3934130287
 30
0.0
 10
37.0160933766
 20
52.3097126881
 30
0.0
 10
36.9591544018
 20
52.2593737378
 30
0.0
 10
36.9104976595
 20
52.23134264
 30
0.0
 10
36.8576672424
 20
52.2141185902
 30
0.0
 10
36.8209230068
 20
52.210195586
 30
0.0
 10
36.8026757019
 20
52.2101968454
 30
0.0
  0
LINE
  5
37C
100
AcDbEntity
  8
0
100
AcDbLine
 62
7
  6
CONTINUOUS
 10
36.6665472621
 20
54.8601968975
 11
36.341227116
 21
53.8658592562
  0
LINE
  5
37D
100
AcDbEntity
  8
0
100
AcDbLine
 62
7
  6
CONTINUOUS
 10
27.4408361809
 20
53.8658594018
 11
27.5647843295
 21
54.8601967537
  0
LINE
  5
37E
100
AcDbEntity
  8
0
100
AcDbLine
 62
7
  6
CONTINUOUS
 10
18.8938019692
 20
54.8601967537
 11
19.0177501178
 21
53.8658594018
  0
SPLINE
  5
37F
100
AcDbEntity
  8
0
100
AcDbSpline
 62
7
  6
CONTINUOUS
 70
0
 71
3
 72
19
 73
15
 74
0
 42
0.0000001
 43
0.0000001
 44
0.0000000001
 40
0.0
 40
0.0
 40
0.0
 40
0.0
 40
0.1274858927
 40
0.2548002478
 40
0.381859751
 40
0.5085256016
 40
0.6345402069
 40
0.6971853737
 40
0.7594395763
 40
0.8211194697
 40
0.8819318849
 40
0.9414843882
 40
0.9708532993
 40
1.0
 40
1.0
 40
1.0
 40
1.0
 10
29.503899803
 20
54.5443788552
 30
0.0
 10
29.4985588625
 20
54.5109147967
 30
0.0
 10
29.4867728557
 20
54.4442017309
 30
0.0
 10
29.4653138042
 20
54.3449646174
 30
0.0
 10
29.4394210179
 20
54.2469973634
 30
0.0
 10
29.4080935204
 20
54.1509789164
 30
0.0
 10
29.3760798223
 20
54.073363815
 30
0.0
 10
29.3454704007
 20
54.0140562394
 30
0.0
 10
29.3195031211
 20
53.9717353558
 30
0.0
 10
29.2897048615
 20
53.9325516547
 30
0.0
 10
29.2551175794
 20
53.8984237119
 30
0.0
 10
29.22088089
 20
53.8769847041
 30
0.0
 10
29.1907829836
 20
53.8675196675
 30
0.0
 10
29.1751841674
 20
53.8658592985
 30
0.0
 10
29.1674365535
 20
53.865859299
 30
0.0
  0
SPLINE
  5
380
100
AcDbEntity
  8
0
100
AcDbSpline
 62
7
  6
CONTINUOUS
 70
0
 71
3
 72
11
 73
7
 74
0
 42
0.0000001
 43
0.0000001
 44
0.0000000001
 40
0.0
 40
0.0
 40
0.0
 40
0.0
 40
0.213701337
 40
0.4514300717
 40
0.7146972001
 40
1.0
 40
1.0
 40
1.0
 40
1.0
 10
11.8763677969
 20
52.5776813473
 30
0.0
 10
11.8771288774
 20
52.5721676409
 30
0.0
 10
11.877105597
 20
52.5602584018
 30
0.0
 10
11.8726779435
 20
52.5420505193
 30
0.0
 10
11.8644023248
 20
52.5232309842
 30
0.0
 10
11.8568592393
 20
52.5110422749
 30
0.0
 10
11.8525851958
 20
52.5049635663
 30
0.0
  0
SPLINE
  5
381
100
AcDbEntity
  8
0
100
AcDbSpline
 62
7
  6
CONTINUOUS
 70
0
 71
3
 72
17
 73
13
 74
0
 42
0.0000001
 43
0.0000001
 44
0.0000000001
 40
0.0
 40
0.0
 40
0.0
 40
0.0
 40
0.0285192585
 40
0.0593979595
 40
0.0943252673
 40
0.1343966262
 40
0.2317217734
 40
0.3524494107
 40
0.4941387199
 40
0.6528006574
 40
0.8235281674
 40
1.0
 40
1.0
 40
1.0
 40
1.0
 10
18.7373502697
 20
52.2101968454
 30
0.0
 10
18.7341984318
 20
52.2101961825
 30
0.0
 10
18.727599736
 20
52.2112705763
 30
0.0
 10
18.7181170638
 20
52.2158571522
 30
0.0
 10
18.7089431849
 20
52.2232473586
 30
0.0
 10
18.6963959155
 20
52.2376692756
 30
0.0
 10
18.6822916527
 20
52.2627419808
 30
0.0
 10
18.668328765
 20
52.3000452797
 30
0.0
 10
18.6568126483
 20
52.3452152899
 30
0.0
 10
18.6482420667
 20
52.3966153675
 30
0.0
 10
18.6429672743
 20
52.4523120875
 30
0.0
 10
18.641771914
 20
52.4906938623
 30
0.0
 10
18.6417714906
 20
52.5101968454
 30
0.0
  0
LINE
  5
382
100
AcDbEntity
  8
0
100
AcDbLine
 62
7
  6
CONTINUOUS
 10
17.1322379464
 20
54.8601968975
 11
17.2911496968
 21
53.8658592562
  0
SPLINE
  5
383
100
AcDbEntity
  8
0
100
AcDbSpline
 62
7
  6
CONTINUOUS
 70
0
 71
3
 72
23
 73
19
 74
0
 42
0.0000001
 43
0.0000001
 44
0.0000000001
 40
0.0
 40
0.0
 40
0.0
 40
0.0
 40
0.0071916417
 40
0.0149231998
 40
0.0235293152
 40
0.0331202133
 40
0.0550384058
 40
0.0799115148
 40
0.1354252194
 40
0.1955699352
 40
0.2583817348
 40
0.3228775608
 40
0.3885145657
 40
0.454965918
 40
0.5895316417
 40
0.7255560344
 40
0.8624910345
 40
1.0
 40
1.0
 40
1.0
 40
1.0
 10
36.341227116
 20
53.8658592562
 30
0.0
 10
36.3387674755
 20
53.8658592556
 30
0.0
 10
36.3336368487
 20
53.8667315135
 30
0.0
 10
36.3263583076
 20
53.8703580555
 30
0.0
 10
36.3194557145
 20
53.876009808
 30
0.0
 10
36.3103163052
 20
53.8862940918
 30
0.0
 10
36.3001254203
 20
53.9027988204
 30
0.0
 10
36.2854601164
 20
53.9346007789
 30
0.0
 10
36.2704915646
 20
53.9804102076
 30
0.0
 10
36.2558237867
 20
54.0396721852
 30
0.0
 10
36.2434347879
 20
54.1025984751
 30
0.0
 10
36.2328629908
 20
54.1677430904
 30
0.0
 10
36.2237976169
 20
54.2343700823
 30
0.0
 10
36.2133656314
 20
54.3249755819
 30
0.0
 10
36.2031244114
 20
54.4398120355
 30
0.0
 10
36.1943367313
 20
54.5789254749
 30
0.0
 10
36.1885042367
 20
54.7191993951
 30
0.0
 10
36.1863772341
 20
54.8130447752
 30
0.0
 10
36.1857190217
 20
54.8600701279
 30
0.0
  0
SPLINE
  5
384
100
AcDbEntity
  8
0
100
AcDbSpline
 62
7
  6
CONTINUOUS
 70
0
 71
3
 72
16
 73
12
 74
0
 42
0.0000001
 43
0.0000001
 44
0.0000000001
 40
0.0
 40
0.0
 40
0.0
 40
0.0
 40
0.1726384584
 40
0.3398722047
 40
0.4957508793
 40
0.6357335985
 40
0.7562343057
 40
0.8552927475
 40
0.9341844729
 40
0.9680815071
 40
1.0
 40
1.0
 40
1.0
 40
1.0
 10
17.5941005958
 20
52.5101968454
 30
0.0
 10
17.5941010954
 20
52.4906920578
 30
0.0
 10
17.5954666228
 20
52.4522787314
 30
0.0
 10
17.6015102085
 20
52.396544138
 30
0.0
 10
17.6113554695
 20
52.3450884294
 30
0.0
 10
17.6245855866
 20
52.2998600257
 30
0.0
 10
17.6407064167
 20
52.2624123318
 30
0.0
 10
17.65914294
 20
52.2339650227
 30
0.0
 10
17.6773870524
 20
52.2176142859
 30
0.0
 10
17.6926043007
 20
52.2112454587
 30
0.0
 10
17.7000717747
 20
52.210197142
 30
0.0
 10
17.7036779435
 20
52.2101968449
 30
0.0
  0
SPLINE
  5
385
100
AcDbEntity
  8
0
100
AcDbSpline
 62
7
  6
CONTINUOUS
 70
0
 71
3
 72
9
 73
5
 74
0
 42
0.0000001
 43
0.0000001
 44
0.0000000001
 40
0.0
 40
0.0
 40
0.0
 40
0.0
 40
0.4987398167
 40
1.0
 40
1.0
 40
1.0
 40
1.0
 10
34.6396945948
 20
52.5694237193
 30
0.0
 10
34.6939707216
 20
52.674170756
 30
0.0
 10
34.7992008348
 20
52.8860658866
 30
0.0
 10
34.8988886564
 20
53.1006015178
 30
0.0
 10
34.947702065
 20
53.2086575819
 30
0.0
  0
LINE
  5
386
100
AcDbEntity
  8
0
100
AcDbLine
 62
7
  6
CONTINUOUS
 10
38.1471232117
 20
53.763786645
 11
38.0106156553
 21
53.5275174039
  0
SPLINE
  5
387
100
AcDbEntity
  8
0
100
AcDbSpline
 62
7
  6
CONTINUOUS
 70
0
 71
3
 72
9
 73
5
 74
0
 42
0.0000001
 43
0.0000001
 44
0.0000000001
 40
0.0
 40
0.0
 40
0.0
 40
0.0
 40
0.5000371997
 40
1.0
 40
1.0
 40
1.0
 40
1.0
 10
38.0106156246
 20
53.5275173863
 30
0.0
 10
38.0018985513
 20
53.5124516325
 30
0.0
 10
37.9884463448
 20
53.4798639491
 30
0.0
 10
37.9837627572
 20
53.4449206335
 30
0.0
 10
37.9837625631
 20
53.4275173535
 30
0.0
  0
SPLINE
  5
388
100
AcDbEntity
  8
0
100
AcDbSpline
 62
7
  6
CONTINUOUS
 70
0
 71
3
 72
11
 73
7
 74
0
 42
0.0000001
 43
0.0000001
 44
0.0000000001
 40
0.0
 40
0.0
 40
0.0
 40
0.0
 40
0.1969937514
 40
0.4357302739
 40
0.705448619
 40
1.0
 40
1.0
 40
1.0
 40
1.0
 10
34.4572260565
 20
52.3601898736
 30
0.0
 10
34.4640707919
 20
52.3720567515
 30
0.0
 10
34.4825902628
 20
52.3962942177
 30
0.0
 10
34.5167512638
 20
52.4315369476
 30
0.0
 10
34.5586134015
 20
52.468577862
 30
0.0
 10
34.5895525123
 20
52.4927480654
 30
0.0
 10
34.6060015267
 20
52.5049552133
 30
0.0
  0
SPLINE
  5
389
100
AcDbEntity
  8
0
100
AcDbSpline
 62
7
  6
CONTINUOUS
 70
0
 71
3
 72
11
 73
7
 74
0
 42
0.0000001
 43
0.0000001
 44
0.0000000001
 40
0.0
 40
0.0
 40
0.0
 40
0.0
 40
0.2853828421
 40
0.5486722462
 40
0.7863605987
 40
1.0
 40
1.0
 40
1.0
 40
1.0
 10
34.6059997868
 20
52.5049649345
 30
0.0
 10
34.6017181318
 20
52.5110546068
 30
0.0
 10
34.5941635533
 20
52.5232650886
 30
0.0
 10
34.5858822841
 20
52.5421183902
 30
0.0
 10
34.5814654462
 20
52.5603567704
 30
0.0
 10
34.5814619262
 20
52.5722822163
 30
0.0
 10
34.582235103
 20
52.5778011236
 30
0.0
  0
SPLINE
  5
38A
100
AcDbEntity
  8
0
100
AcDbSpline
 62
7
  6
CONTINUOUS
 70
0
 71
3
 72
9
 73
5
 74
0
 42
0.0000001
 43
0.0000001
 44
0.0000000001
 40
0.0
 40
0.0
 40
0.0
 40
0.0
 40
0.4713130063
 40
1.0
 40
1.0
 40
1.0
 40
1.0
 10
34.3685315352
 20
52.2101901563
 30
0.0
 10
34.3905640301
 20
52.2101904245
 30
0.0
 10
34.4376547317
 20
52.2186080606
 30
0.0
 10
34.4787602047
 20
52.2430109099
 30
0.0
 10
34.4978730856
 20
52.258679581
 30
0.0
  0
SPLINE
  5
38B
100
AcDbEntity
  8
0
100
AcDbSpline
 62
7
  6
CONTINUOUS
 70
0
 71
3
 72
9
 73
5
 74
0
 42
0.0000001
 43
0.0000001
 44
0.0000000001
 40
0.0
 40
0.0
 40
0.0
 40
0.0
 40
0.489144663
 40
1.0
 40
1.0
 40
1.0
 40
1.0
 10
34.4978730856
 20
52.258679581
 30
0.0
 10
34.5099481361
 20
52.2685786639
 30
0.0
 10
34.5327699242
 20
52.2911964235
 30
0.0
 10
34.5510816472
 20
52.3175571001
 30
0.0
 10
34.5593151433
 20
52.3316329843
 30
0.0
  0
SPLINE
  5
38C
100
AcDbEntity
  8
0
100
AcDbSpline
 62
7
  6
CONTINUOUS
 70
0
 71
3
 72
9
 73
5
 74
0
 42
0.0000001
 43
0.0000001
 44
0.0000000001
 40
0.0
 40
0.0
 40
0.0
 40
0.0
 40
0.5095219891
 40
1.0
 40
1.0
 40
1.0
 40
1.0
 10
34.5593151433
 20
52.3316329843
 30
0.0
 10
34.5748357306
 20
52.3581667904
 30
0.0
 10
34.5977676193
 20
52.4149286586
 30
0.0
 10
34.6055928453
 20
52.4753731664
 30
0.0
 10
34.606001717
 20
52.504961146
 30
0.0
  0
SPLINE
  5
38D
100
AcDbEntity
  8
0
100
AcDbSpline
 62
7
  6
CONTINUOUS
 70
0
 71
3
 72
14
 73
10
 74
0
 42
0.0000001
 43
0.0000001
 44
0.0000000001
 40
0.0
 40
0.0
 40
0.0
 40
0.0
 40
0.089917324
 40
0.1837049324
 40
0.3960986609
 40
0.5221599156
 40
0.6648151206
 40
0.825600401
 40
1.0
 40
1.0
 40
1.0
 40
1.0
 10
36.2527313047
 20
52.2101968454
 30
0.0
 10
36.2614980233
 20
52.2101968454
 30
0.0
 10
36.2794704314
 20
52.2121937248
 30
0.0
 10
36.3162628576
 20
52.2247595526
 30
0.0
 10
36.3508798224
 20
52.2506345948
 30
0.0
 10
36.381404542
 20
52.2863158356
 30
0.0
 10
36.4042736274
 20
52.3215598415
 30
0.0
 10
36.4248303411
 20
52.3634556741
 30
0.0
 10
36.4364241359
 20
52.394062747
 30
0.0
 10
36.4417917248
 20
52.4101968454
 30
0.0
  0
SPLINE
  5
38E
100
AcDbEntity
  8
0
100
AcDbSpline
 62
7
  6
CONTINUOUS
 70
0
 71
3
 72
9
 73
5
 74
0
 42
0.0000001
 43
0.0000001
 44
0.0000000001
 40
0.0
 40
0.0
 40
0.0
 40
0.0
 40
0.5042716216
 40
1.0
 40
1.0
 40
1.0
 40
1.0
 10
31.455217907
 20
53.7637471294
 30
0.0
 10
31.5682150242
 20
53.5669521103
 30
0.0
 10
31.7929912194
 20
53.177095409
 30
0.0
 10
32.0242551619
 20
52.7909905768
 30
0.0
 10
32.1418533609
 20
52.6014195176
 30
0.0
  0
SPLINE
  5
38F
100
AcDbEntity
  8
0
100
AcDbSpline
 62
7
  6
CONTINUOUS
 70
0
 71
3
 72
10
 73
6
 74
0
 42
0.0000001
 43
0.0000001
 44
0.0000000001
 40
0.0
 40
0.0
 40
0.0
 40
0.0
 40
0.2527865038
 40
0.5043927953
 40
1.0
 40
1.0
 40
1.0
 40
1.0
 10
31.4121524442
 20
53.8637866839
 30
0.0
 10
31.4117634579
 20
53.8543889251
 30
0.0
 10
31.4135177487
 20
53.8354594148
 30
0.0
 10
31.4255412508
 20
53.7999893612
 30
0.0
 10
31.4424157407
 20
53.7769510128
 30
0.0
 10
31.455329435
 20
53.7637866839
 30
0.0
  0
LINE
  5
390
100
AcDbEntity
  8
0
100
AcDbLine
 62
7
  6
CONTINUOUS
 10
15.0464384978
 20
53.8637866839
 11
15.0262714093
 21
54.8601968442
  0
SPLINE
  5
391
100
AcDbEntity
  8
0
100
AcDbSpline
 62
7
  6
CONTINUOUS
 70
0
 71
3
 72
9
 73
5
 74
0
 42
0.0000001
 43
0.0000001
 44
0.0000000001
 40
0.0
 40
0.0
 40
0.0
 40
0.0
 40
0.499999083
 40
1.0
 40
1.0
 40
1.0
 40
1.0
 10
15.1955772906
 20
54.8601979778
 30
0.0
 10
15.199098305
 20
54.6947116323
 30
0.0
 10
15.2056160067
 20
54.3637274148
 30
0.0
 10
15.2127313258
 20
54.032755532
 30
0.0
 10
15.216383164
 20
53.8672714144
 30
0.0
  0
SPLINE
  5
392
100
AcDbEntity
  8
0
100
AcDbSpline
 62
7
  6
CONTINUOUS
 70
0
 71
3
 72
19
 73
15
 74
0
 42
0.0000001
 43
0.0000001
 44
0.0000000001
 40
0.0
 40
0.0
 40
0.0
 40
0.0
 40
0.0291469759
 40
0.0585157622
 40
0.1180677277
 40
0.1788802106
 40
0.2405603316
 40
0.3028145933
 40
0.3654597785
 40
0.4914743975
 40
0.6181402294
 40
0.7451997031
 40
0.8725140658
 40
1.0
 40
1.0
 40
1.0
 40
1.0
 10
17.2911496968
 20
53.8658592562
 30
0.0
 10
17.2834020078
 20
53.8658592553
 30
0.0
 10
17.2678031555
 20
53.867519512
 30
0.0
 10
17.2377051666
 20
53.8769840555
 30
0.0
 10
17.2034688364
 20
53.8984234437
 30
0.0
 10
17.1688814775
 20
53.9325511591
 30
0.0
 10
17.1390832064
 20
53.9717350141
 30
0.0
 10
17.1131158827
 20
54.0140559695
 30
0.0
 10
17.0825064384
 20
54.0733635821
 30
0.0
 10
17.0504927781
 20
54.1509787234
 30
0.0
 10
17.0191652836
 20
54.2469971863
 30
0.0
 10
16.9932725167
 20
54.3449644589
 30
0.0
 10
16.9718134528
 20
54.4442015998
 30
0.0
 10
16.9600274672
 20
54.5109146986
 30
0.0
 10
16.9546865145
 20
54.5443787744
 30
0.0
  0
SPLINE
  5
393
100
AcDbEntity
  8
0
100
AcDbSpline
 62
7
  6
CONTINUOUS
 70
0
 71
3
 72
11
 73
7
 74
0
 42
0.0000001
 43
0.0000001
 44
0.0000000001
 40
0.0
 40
0.0
 40
0.0
 40
0.0
 40
0.2434441038
 40
0.4918664992
 40
0.7448593844
 40
1.0
 40
1.0
 40
1.0
 40
1.0
 10
15.1642105008
 20
53.6672784134
 30
0.0
 10
15.172584484
 20
53.682048894
 30
0.0
 10
15.188201335
 20
53.7126895788
 30
0.0
 10
15.2053076773
 20
53.7619433236
 30
0.0
 10
15.215135075
 20
53.8139606197
 30
0.0
 10
15.2169215126
 20
53.8494857413
 30
0.0
 10
15.2165725952
 20
53.8672772242
 30
0.0
  0
SPLINE
  5
394
100
AcDbEntity
  8
0
100
AcDbSpline
 62
7
  6
CONTINUOUS
 70
0
 71
3
 72
11
 73
7
 74
0
 42
0.0000001
 43
0.0000001
 44
0.0000000001
 40
0.0
 40
0.0
 40
0.0
 40
0.0
 40
0.2397445856
 40
0.4996596496
 40
0.7597558497
 40
1.0
 40
1.0
 40
1.0
 40
1.0
 10
15.1642106789
 20
53.6672787111
 30
0.0
 10
15.1528911884
 20
53.6772223215
 30
0.0
 10
15.1281582936
 20
53.6966546152
 30
0.0
 10
15.0882738536
 20
53.7230008908
 30
0.0
 10
15.0462168134
 20
53.7457847242
 30
0.0
 10
15.0173880863
 20
53.7584694139
 30
0.0
 10
15.0032578433
 20
53.7637882027
 30
0.0
  0
SPLINE
  5
395
100
AcDbEntity
  8
0
100
AcDbSpline
 62
7
  6
CONTINUOUS
 70
0
 71
3
 72
10
 73
6
 74
0
 42
0.0000001
 43
0.0000001
 44
0.0000000001
 40
0.0
 40
0.0
 40
0.0
 40
0.0
 40
0.2473185656
 40
0.4966723356
 40
1.0
 40
1.0
 40
1.0
 40
1.0
 10
14.4502464704
 20
52.5049611235
 30
0.0
 10
14.511860234
 20
52.5990447247
 30
0.0
 10
14.6335087972
 20
52.7893547332
 30
0.0
 10
14.8726136941
 20
53.1761580619
 30
0.0
 10
15.0479324197
 20
53.4701371056
 30
0.0
 10
15.1642105008
 20
53.6672784134
 30
0.0
  0
SPLINE
  5
396
100
AcDbEntity
  8
0
100
AcDbSpline
 62
7
  6
CONTINUOUS
 70
0
 71
3
 72
9
 73
5
 74
0
 42
0.0000001
 43
0.0000001
 44
0.0000000001
 40
0.0
 40
0.0
 40
0.0
 40
0.0
 40
0.5084934098
 40
1.0
 40
1.0
 40
1.0
 40
1.0
 10
14.1640399009
 20
52.3601893992
 30
0.0
 10
14.2140894395
 20
52.3814779044
 30
0.0
 10
14.3107595245
 20
52.4274758514
 30
0.0
 10
14.4048166935
 20
52.4785105804
 30
0.0
 10
14.4502534411
 20
52.5049552121
 30
0.0
  0
SPLINE
  5
397
100
AcDbEntity
  8
0
100
AcDbSpline
 62
7
  6
CONTINUOUS
 70
0
 71
3
 72
11
 73
7
 74
0
 42
0.0000001
 43
0.0000001
 44
0.0000000001
 40
0.0
 40
0.0
 40
0.0
 40
0.0
 40
0.2362784476
 40
0.4914022254
 40
0.7510445342
 40
1.0
 40
1.0
 40
1.0
 40
1.0
 10
14.4502488674
 20
52.5049649226
 30
0.0
 10
14.4413141457
 20
52.5144720486
 30
0.0
 10
14.4215938904
 20
52.5331851571
 30
0.0
 10
14.3890519016
 20
52.5589751662
 30
0.0
 10
14.3537355349
 20
52.5821146007
 30
0.0
 10
14.3290099036
 20
52.5955205291
 30
0.0
 10
14.3166177725
 20
52.601470721
 30
0.0
  0
SPLINE
  5
398
100
AcDbEntity
  8
0
100
AcDbSpline
 62
7
  6
CONTINUOUS
 70
0
 71
3
 72
15
 73
11
 74
0
 42
0.0000001
 43
0.0000001
 44
0.0000000001
 40
0.0
 40
0.0
 40
0.0
 40
0.0
 40
0.0881530138
 40
0.1862847144
 40
0.2982939275
 40
0.4246448195
 40
0.5635292915
 40
0.7098585608
 40
0.8572172821
 40
1.0
 40
1.0
 40
1.0
 40
1.0
 10
14.6335011971
 20
52.2101904505
 30
0.0
 10
14.6223568416
 20
52.2101906202
 30
0.0
 10
14.5986881023
 20
52.2138446589
 30
0.0
 10
14.5642150927
 20
52.2302967793
 30
0.0
 10
14.5317407384
 20
52.2584181372
 30
0.0
 10
14.5028582913
 20
52.296751314
 30
0.0
 10
14.4797192228
 20
52.3436254941
 30
0.0
 10
14.4627900484
 20
52.3958036767
 30
0.0
 10
14.4528815017
 20
52.4502274209
 30
0.0
 10
14.450445908
 20
52.4869114964
 30
0.0
 10
14.4502534657
 20
52.5049611452
 30
0.0
  0
LINE
  5
399
100
AcDbEntity
  8
0
100
AcDbLine
 62
7
  6
CONTINUOUS
 10
31.4323129074
 20
54.8601968441
 11
31.4121524452
 21
53.8637866839
  0
SPLINE
  5
39A
100
AcDbEntity
  8
0
100
AcDbSpline
 62
7
  6
CONTINUOUS
 70
0
 71
3
 72
9
 73
5
 74
0
 42
0.0000001
 43
0.0000001
 44
0.0000000001
 40
0.0
 40
0.0
 40
0.0
 40
0.0
 40
0.5000010178
 40
1.0
 40
1.0
 40
1.0
 40
1.0
 10
31.2422216204
 20
53.8672709083
 30
0.0
 10
31.2458865017
 20
54.0327547138
 30
0.0
 10
31.2530068081
 20
54.3637264119
 30
0.0
 10
31.2594599036
 20
54.6947118255
 30
0.0
 10
31.2629793846
 20
54.8601981131
 30
0.0
  0
SPLINE
  5
39B
100
AcDbEntity
  8
0
100
AcDbSpline
 62
7
  6
CONTINUOUS
 70
0
 71
3
 72
11
 73
7
 74
0
 42
0.0000001
 43
0.0000001
 44
0.0000000001
 40
0.0
 40
0.0
 40
0.0
 40
0.0
 40
0.2499679155
 40
0.4999805062
 40
0.7500040077
 40
1.0
 40
1.0
 40
1.0
 40
1.0
 10
37.3714287731
 20
51.6101968454
 30
0.0
 10
37.3714287731
 20
51.6232512491
 30
0.0
 10
37.366139355
 20
51.6496533985
 30
0.0
 10
37.3435999389
 20
51.6828973547
 30
0.0
 10
37.3101103415
 20
51.7050394555
 30
0.0
 10
37.2837164741
 20
51.7101968454
 30
0.0
 10
37.2706606041
 20
51.7101968454
 30
0.0
  0
SPLINE
  5
39C
100
AcDbEntity
  8
0
100
AcDbSpline
 62
7
  6
CONTINUOUS
 70
0
 71
3
 72
11
 73
7
 74
0
 42
0.0000001
 43
0.0000001
 44
0.0000000001
 40
0.0
 40
0.0
 40
0.0
 40
0.0
 40
0.2499679155
 40
0.4999805062
 40
0.7500040077
 40
1.0
 40
1.0
 40
1.0
 40
1.0
 10
9.0871575256
 20
51.6101968454
 30
0.0
 10
9.0871575256
 20
51.6232512491
 30
0.0
 10
9.0924469437
 20
51.6496533985
 30
0.0
 10
9.1149863598
 20
51.6828973547
 30
0.0
 10
9.1484759572
 20
51.7050394555
 30
0.0
 10
9.1748698246
 20
51.7101968454
 30
0.0
 10
9.1879256946
 20
51.7101968454
 30
0.0
  0
SPLINE
  5
39D
100
AcDbEntity
  8
0
100
AcDbSpline
 62
7
  6
CONTINUOUS
 70
0
 71
3
 72
11
 73
7
 74
0
 42
0.0000001
 43
0.0000001
 44
0.0000000001
 40
0.0
 40
0.0
 40
0.0
 40
0.0
 40
0.2844648389
 40
0.5568494214
 40
0.8007926114
 40
1.0
 40
1.0
 40
1.0
 40
1.0
 10
31.6791452191
 20
46.9668620808
 30
0.0
 10
31.7059707221
 20
46.9849197741
 30
0.0
 10
31.761231374
 20
47.0163346049
 30
0.0
 10
31.8460717478
 20
47.0500714236
 30
0.0
 10
31.9250283213
 20
47.0702926503
 30
0.0
 10
31.9753622711
 20
47.0762222492
 30
0.0
 10
31.9980075613
 20
47.0762222492
 30
0.0
  0
SPLINE
  5
39E
100
AcDbEntity
  8
0
100
AcDbSpline
 62
7
  6
CONTINUOUS
 70
0
 71
3
 72
12
 73
8
 74
0
 42
0.0000001
 43
0.0000001
 44
0.0000000001
 40
0.0
 40
0.0
 40
0.0
 40
0.0
 40
0.1251310095
 40
0.2502657894
 40
0.500010213
 40
0.7499333426
 40
1.0
 40
1.0
 40
1.0
 40
1.0
 10
31.2299181249
 20
46.2101968454
 30
0.0
 10
31.2299181249
 20
46.248351248
 30
0.0
 10
31.2356957416
 20
46.3247914684
 30
0.0
 10
31.2695975734
 20
46.4739009026
 30
0.0
 10
31.3512707854
 20
46.6488134472
 30
0.0
 10
31.4966501037
 20
46.8275514788
 30
0.0
 10
31.6158920439
 20
46.9242829559
 30
0.0
 10
31.6791452191
 20
46.9668620808
 30
0.0
  0
SPLINE
  5
39F
100
AcDbEntity
  8
0
100
AcDbSpline
 62
7
  6
CONTINUOUS
 70
0
 71
3
 72
12
 73
8
 74
0
 42
0.0000001
 43
0.0000001
 44
0.0000000001
 40
0.0
 40
0.0
 40
0.0
 40
0.0
 40
0.2500666641
 40
0.4999897992
 40
0.7497342401
 40
0.874869004
 40
1.0
 40
1.0
 40
1.0
 40
1.0
 10
14.7794410796
 20
46.9668620808
 30
0.0
 10
14.8426942565
 20
46.9242829548
 30
0.0
 10
14.9619361994
 20
46.827551475
 30
0.0
 10
15.1073155224
 20
46.6488134353
 30
0.0
 10
15.1889887306
 20
46.4739008864
 30
0.0
 10
15.2228905589
 20
46.3247914554
 30
0.0
 10
15.2286681738
 20
46.2483512439
 30
0.0
 10
15.2286681738
 20
46.2101968454
 30
0.0
  0
SPLINE
  5
3A0
100
AcDbEntity
  8
0
100
AcDbSpline
 62
7
  6
CONTINUOUS
 70
0
 71
3
 72
11
 73
7
 74
0
 42
0.0000001
 43
0.0000001
 44
0.0000000001
 40
0.0
 40
0.0
 40
0.0
 40
0.0
 40
0.1991970482
 40
0.4432080878
 40
0.7156861434
 40
1.0
 40
1.0
 40
1.0
 40
1.0
 10
14.4605787374
 20
47.0762222492
 30
0.0
 10
14.4832226079
 20
47.0762222492
 30
0.0
 10
14.5335597341
 20
47.070282143
 30
0.0
 10
14.6125462971
 20
47.0500987155
 30
0.0
 10
14.6973449901
 20
47.0162604213
 30
0.0
 10
14.7526301038
 20
46.9849099952
 30
0.0
 10
14.7794410796
 20
46.9668620808
 30
0.0
  0
ENDSEC
  0
SECTION
  2
OBJECTS
  0
DICTIONARY
  5
C
100
AcDbDictionary
280
0
281
1
  3
ACAD_GROUP
350
D
  3
ACAD_MLINESTYLE
350
17
  3
ACAD_LAYOUT
350
1A
  3
ACAD_PLOTSETTINGS
350
19
  3
ACAD_PLOTSTYLENAME
350
E
  0
DICTIONARY
  5
D
102
{ACAD_REACTORS
330
C
102
}
100
AcDbDictionary
280
0
281
1
  0
ACDBDICTIONARYWDFLT
  5
E
102
{ACAD_REACTORS
330
C
102
}
100
AcDbDictionary
281
1
  3
Normal
350
F
100
AcDbDictionaryWithDefault
340
F
  0
DICTIONARY
  5
17
102
{ACAD_REACTORS
330
C
102
}
100
AcDbDictionary
280
0
281
1
  3
Standard
350
18
  0
DICTIONARY
  5
19
102
{ACAD_REACTORS
330
C
102
}
100
AcDbDictionary
281
1
  0
DICTIONARY
  5
1A
102
{ACAD_REACTORS
330
C
102
}
100
AcDbDictionary
281
1
  3
Model
350
3A1
  3
Layout1
350
3A2
  0
ACDBPLACEHOLDER
  5
F
102
{ACAD_REACTORS
330
E
102
}
  0
MLINESTYLE
  5
18
102
{ACAD_REACTORS
330
17
102
}
100
AcDbMlineStyle
  2
STANDARD
 70
0
  3

 62
256
 51
90.0
 52
90.0
 71
2
 49
0.5
 62
256
  6
BYLAYER
 49
-0.5
 62
256
  6
BYLAYER
  0
LAYOUT
  5
3A1
102
{ACAD_REACTORS
330
1A
102
}
100
AcDbPlotSettings
  1

  2
none_device
  4

  6

 40
0.0
 41
0.0
 42
0.0
 43
0.0
 44
210.0
 45
297.0
 46
0.0
 47
0.0
 48
0.0
 49
0.0
140
0.0
141
0.0
142
1.0
143
1.0
 70
1024
 72
1
 73
0
 74
0
  7

 75
0
147
1.0
148
0.0
149
0.0
100
AcDbLayout
  1
Model
 70
0
 71
0
 10
0.0
 20
0.0
 11
210.0
 21
297.0
 12
0.0
 22
0.0
 32
0.0
 14
0.0
 24
0.0
 34
0.0
 15
0.0
 25
0.0
 35
0.0
146
0.0
 13
0.0
 23
0.0
 33
0.0
 16
1.0
 26
0.0
 36
0.0
 17
0.0
 27
1.0
 37
0.0
 76
0
330
210
345
0
346
0
  0
LAYOUT
  5
3A2
102
{ACAD_REACTORS
330
1A
102
}
100
AcDbPlotSettings
  1

  2
none_device
  4

  6

 40
0.0
 41
0.0
 42
0.0
 43
0.0
 44
210.0
 45
297.0
 46
0.0
 47
0.0
 48
0.0
 49
0.0
140
0.0
141
0.0
142
1.0
143
1.0
 70
0
 72
1
 73
0
 74
0
  7

 75
0
147
1.0
148
0.0
149
0.0
100
AcDbLayout
  1
Layout1
 70
0
 71
1
 10
0.0
 20
0.0
 11
210.0
 21
297.0
 12
0.0
 22
0.0
 32
0.0
 14
0.0
 24
0.0
 34
0.0
 15
0.0
 25
0.0
 35
0.0
146
0.0
 13
0.0
 23
0.0
 33
0.0
 16
1.0
 26
0.0
 36
0.0
 17
0.0
 27
1.0
 37
0.0
 76
0
330
211
345
0
346
0
  0
ENDSEC
  0
EOF
