999
DXF file: C:\Users\sesa63760\Dev\_Creo\CAD\MCADID0001977_3D-CAD\drw0001_1.dxf
999
Pro/ENGINEER 2019471 by Parametric Technology Corporation
  0
SECTION
  2
HEADER
  9
$ACADVER
  1
AC1024
  9
$DWGCODEPAGE
  3
ANSI_1252
  9
$EXTMAX
 10
126.5194948622
 20
178.9347141623
 30
0.0
  9
$EXTMIN
 10
0.0
 20
0.0
 30
0.0
  9
$LIMMIN
 10
0.0
 20
0.0
  9
$LIMMAX
 10
126.5194948622
 20
178.9347141623
  9
$VIEWCTR
 10
63.2597474311
 20
89.4673570811
  9
$VIEWSIZE
 40
178.9347141623
  9
$CLAYER
  8
0
  9
$LTSCALE
 40
11.6638924787
  9
$CELTYPE
  6
BYLAYER
  9
$DIMSCALE
 40
1.0
  9
$DIMASZ
 40
1.5061844626
  9
$DIMEXO
 40
1.0
  9
$DIMDLI
 40
8.0586893489
  9
$DIMEXE
 40
1.0
  9
$DIMCEN
 40
1.9086369511
  9
$DIMLFAC
 40
1.0
  9
$DIMBLK
  1
_FILLED
  9
$DIMALT
 70
0
  9
$DIMALTF
 40
0.0393700787
  9
$DIMTXT
 40
2.1086582477
  9
$DIMTOL
 70
1
  9
$DIMLIM
 70
0
  9
$DIMTFAC
 40
1.0
  9
$DIMTP
 40
0.01
  9
$DIMTM
 40
0.01
  9
$DIMGAP
 40
0.625
  9
$DIMDSEP
 70
46
  9
$AUNITS
 70
0
  9
$PDMODE
 70
3
  9
$PDSIZE
 40
0.3125
  9
$HANDSEED
  5
2C3
  9
$TILEMODE
 70
1
  9
$MEASUREMENT
 70
1
  9
$INSUNITS
 70
4
  0
ENDSEC
  0
SECTION
  2
CLASSES
  0
CLASS
  1
ACDBDICTIONARYWDFLT
  2
AcDbDictionaryWithDefault
  3
AutoCAD 2000
 90
0
 91
1
280
0
281
0
  0
CLASS
  1
ACDBPLACEHOLDER
  2
AcDbPlaceHolder
  3
AutoCAD 2000
 90
0
 91
1
280
0
281
0
  0
CLASS
  1
LAYOUT
  2
AcDbLayout
  3
AutoCAD 2000
 90
0
 91
0
280
0
281
0
  0
ENDSEC
  0
SECTION
  2
TABLES
  0
TABLE
  2
VPORT
  5
8
100
AcDbSymbolTable
 70
2
  0
VPORT
  5
1F4
100
AcDbSymbolTableRecord
100
AcDbViewportTableRecord
  2
*ACTIVE
 70
0
 10
0.0
 20
0.0
 11
1.0
 21
1.0
 12
63.2597474311
 22
89.4673570811
 13
0.0
 23
0.0
 14
1.0
 24
1.0
 15
0.0
 25
0.0
 16
0.0
 26
0.0
 36
1.0
 17
0.0
 27
0.0
 37
0.0
 40
178.9347141623
 41
0.7070707071
 42
50.0
 43
0.0
 44
0.0
 50
0.0
 51
0.0
 71
0
 72
100
 73
1
 74
1
 75
0
 76
0
 77
0
 78
0
  0
ENDTAB
  0
TABLE
  2
LTYPE
  5
5
100
AcDbSymbolTable
 70
6
  0
LTYPE
  5
14
100
AcDbSymbolTableRecord
100
AcDbLinetypeTableRecord
  2
BYBLOCK
 70
0
  3

 72
65
 73
0
 40
0.0
  0
LTYPE
  5
15
100
AcDbSymbolTableRecord
100
AcDbLinetypeTableRecord
  2
BYLAYER
 70
0
  3

 72
65
 73
0
 40
0.0
  0
LTYPE
  5
16
100
AcDbSymbolTableRecord
100
AcDbLinetypeTableRecord
  2
CONTINUOUS
 70
64
  3
Solid line
 72
65
 73
0
 40
0.0
  0
LTYPE
  5
1F5
100
AcDbSymbolTableRecord
100
AcDbLinetypeTableRecord
  2
CENTER
 70
64
  3
____ _ ____ _ ____ _ ____ _ ____ _ ____ _ ____
 72
65
 73
4
 40
0.6
 49
0.375
 74
0
 49
-0.075
 74
0
 49
0.075
 74
0
 49
-0.075
 74
0
  0
LTYPE
  5
1F6
100
AcDbSymbolTableRecord
100
AcDbLinetypeTableRecord
  2
HIDDEN
 70
64
  3
- - - - - - - - - - - - - - - - - - - -
 72
65
 73
2
 40
0.2
 49
0.1
 74
0
 49
-0.1
 74
0
  0
LTYPE
  5
1F7
100
AcDbSymbolTableRecord
100
AcDbLinetypeTableRecord
  2
PHANTOM
 70
64
  3
_____ _ _ _____ _ _ _____ _ _ _____
 72
65
 73
6
 40
0.8
 49
0.45
 74
0
 49
-0.05
 74
0
 49
0.1
 74
0
 49
-0.05
 74
0
 49
0.1
 74
0
 49
-0.05
 74
0
  0
LTYPE
  5
1F8
100
AcDbSymbolTableRecord
100
AcDbLinetypeTableRecord
  2
DOT
 70
64
  3
. . . . . . . . . . . . . . . . . . . .
 72
65
 73
2
 40
0.2
 49
0.1
 74
0
 49
-0.1
 74
0
  0
LTYPE
  5
1F9
100
AcDbSymbolTableRecord
100
AcDbLinetypeTableRecord
  2
DASHED
 70
64
  3
- - - - - - - - - - - - - - - - - - - -
 72
65
 73
2
 40
0.2
 49
0.1
 74
0
 49
-0.1
 74
0
  0
ENDTAB
  0
TABLE
  2
LAYER
  5
2
100
AcDbSymbolTable
 70
36
  0
LAYER
  5
10
100
AcDbSymbolTableRecord
100
AcDbLayerTableRecord
  2
0
 70
0
 62
7
  6
CONTINUOUS
370
-3
390
F
  0
LAYER
  5
1FA
100
AcDbSymbolTableRecord
100
AcDbLayerTableRecord
  2
DEFAULT_1
 70
0
 62
7
  6
CENTER
370
-3
390
F
  0
LAYER
  5
1FB
100
AcDbSymbolTableRecord
100
AcDbLayerTableRecord
  2
DEFAULT_2
 70
0
 62
8
  6
HIDDEN
370
-3
390
F
  0
LAYER
  5
1FC
100
AcDbSymbolTableRecord
100
AcDbLayerTableRecord
  2
DEFAULT_3
 70
0
 62
7
  6
PHANTOM
370
-3
390
F
  0
LAYER
  5
1FD
100
AcDbSymbolTableRecord
100
AcDbLayerTableRecord
  2
00_COMPONENTS
 70
0
 62
7
  6
CONTINUOUS
370
-3
390
F
  0
LAYER
  5
1FE
100
AcDbSymbolTableRecord
100
AcDbLayerTableRecord
  2
01_1_DEFAULT_DATUMS
 70
0
 62
7
  6
CONTINUOUS
370
-3
390
F
  0
LAYER
  5
1FF
100
AcDbSymbolTableRecord
100
AcDbLayerTableRecord
  2
01_PLANES
 70
0
 62
7
  6
CONTINUOUS
370
-3
390
F
  0
LAYER
  5
200
100
AcDbSymbolTableRecord
100
AcDbLayerTableRecord
  2
02_COORD_SYS
 70
0
 62
7
  6
CONTINUOUS
370
-3
390
F
  0
LAYER
  5
201
100
AcDbSymbolTableRecord
100
AcDbLayerTableRecord
  2
03_AXES
 70
0
 62
7
  6
CONTINUOUS
370
-3
390
F
  0
LAYER
  5
202
100
AcDbSymbolTableRecord
100
AcDbLayerTableRecord
  2
04_POINTS
 70
0
 62
7
  6
CONTINUOUS
370
-3
390
F
  0
LAYER
  5
203
100
AcDbSymbolTableRecord
100
AcDbLayerTableRecord
  2
05_CURVES
 70
0
 62
7
  6
CONTINUOUS
370
-3
390
F
  0
LAYER
  5
204
100
AcDbSymbolTableRecord
100
AcDbLayerTableRecord
  2
06_SURFS
 70
0
 62
7
  6
CONTINUOUS
370
-3
390
F
  0
LAYER
  5
205
100
AcDbSymbolTableRecord
100
AcDbLayerTableRecord
  2
07_COSMETICS
 70
0
 62
7
  6
CONTINUOUS
370
-3
390
F
  0
LAYER
  5
206
100
AcDbSymbolTableRecord
100
AcDbLayerTableRecord
  2
10_NOTES
 70
0
 62
7
  6
CONTINUOUS
370
-3
390
F
  0
LAYER
  5
207
100
AcDbSymbolTableRecord
100
AcDbLayerTableRecord
  2
11_NOTES_PUB
 70
0
 62
7
  6
CONTINUOUS
370
-3
390
F
  0
LAYER
  5
208
100
AcDbSymbolTableRecord
100
AcDbLayerTableRecord
  2
13_REF_GTOL
 70
0
 62
7
  6
CONTINUOUS
370
-3
390
F
  0
LAYER
  5
209
100
AcDbSymbolTableRecord
100
AcDbLayerTableRecord
  2
16_MISC
 70
0
 62
7
  6
CONTINUOUS
370
-3
390
F
  0
LAYER
  5
20A
100
AcDbSymbolTableRecord
100
AcDbLayerTableRecord
  2
17_NO_PRINT
 70
0
 62
7
  6
CONTINUOUS
370
-3
390
F
  0
LAYER
  5
20B
100
AcDbSymbolTableRecord
100
AcDbLayerTableRecord
  2
18_DATUM_CAMS_JOINTS
 70
0
 62
7
  6
CONTINUOUS
370
-3
390
F
  0
LAYER
  5
20C
100
AcDbSymbolTableRecord
100
AcDbLayerTableRecord
  2
19_DATUM_FUNCTIONAL
 70
0
 62
7
  6
CONTINUOUS
370
-3
390
F
  0
LAYER
  5
20D
100
AcDbSymbolTableRecord
100
AcDbLayerTableRecord
  2
20_DATUM_KINEMATIC_SCHEME
 70
0
 62
7
  6
CONTINUOUS
370
-3
390
F
  0
ENDTAB
  0
TABLE
  2
STYLE
  5
3
100
AcDbSymbolTable
 70
1
  0
STYLE
  5
11
100
AcDbSymbolTableRecord
100
AcDbTextStyleTableRecord
  2
STANDARD
 70
0
 40
0.0
 41
0.8
 50
0.0
 71
0
 42
0.2
  3
txt
  4

  0
STYLE
  5
20E
100
AcDbSymbolTableRecord
100
AcDbTextStyleTableRecord
  2
TEXTSTYLE_1
 70
0
 40
0.0
 41
0.8
 50
0.0
 71
0
 42
0.2
  3
gdt
  4

  0
ENDTAB
  0
TABLE
  2
VIEW
  5
6
100
AcDbSymbolTable
 70
0
  0
ENDTAB
  0
TABLE
  2
UCS
  5
7
100
AcDbSymbolTable
 70
0
  0
ENDTAB
  0
TABLE
  2
APPID
  5
9
100
AcDbSymbolTable
 70
1
  0
APPID
  5
20F
100
AcDbSymbolTableRecord
100
AcDbRegAppTableRecord
  2
ACAD
 70
0
  0
ENDTAB
  0
TABLE
  2
BLOCK_RECORD
  5
1
100
AcDbSymbolTable
 70
0
  0
BLOCK_RECORD
  5
210
100
AcDbSymbolTableRecord
100
AcDbBlockTableRecord
  2
*Model_Space
  0
BLOCK_RECORD
  5
211
100
AcDbSymbolTableRecord
100
AcDbBlockTableRecord
  2
*Paper_Space
  0
BLOCK_RECORD
  5
212
100
AcDbSymbolTableRecord
100
AcDbBlockTableRecord
  2
_FILLED
  0
ENDTAB
  0
TABLE
  2
DIMSTYLE
  5
A
100
AcDbSymbolTable
 70
1
100
AcDbDimStyleTable
 71
0
  0
DIMSTYLE
105
213
100
AcDbSymbolTableRecord
100
AcDbDimStyleTableRecord
  2
STANDARD
 70
0
  3

  4

 40
1.0
 41
1.5061844626
 42
1.0
 43
0.38
 44
1.0
 45
0.0
 46
0.0
 47
0.01
 48
0.01
140
2.1086582477
141
0.09
142
0.0
143
25.4
144
1.0
145
0.0
146
1.0
147
0.625
 71
1
 72
0
 73
0
 74
0
 75
0
 76
0
 77
1
 78
8
 79
2
170
0
171
1
172
0
173
0
174
0
175
0
176
0
177
0
178
0
270
2
179
2
271
2
272
2
273
2
274
2
275
0
280
0
281
0
282
0
283
1
284
8
285
0
286
0
287
3
288
0
340
11
278
46
341
212
342
212
343
212
344
212
  0
ENDTAB
  0
ENDSEC
  0
SECTION
  2
BLOCKS
  0
BLOCK
  5
20
100
AcDbEntity
  8
0
100
AcDbBlockBegin
  2
*Model_Space
 70
0
 10
0.0
 20
0.0
 30
0.0
  3
*Model_Space
  1

  0
ENDBLK
  5
21
100
AcDbEntity
  8
0
100
AcDbBlockEnd
  0
BLOCK
  5
1C
100
AcDbEntity
  8
0
100
AcDbBlockBegin
  2
*Paper_Space
 70
0
 10
0.0
 20
0.0
 30
0.0
  3
*Paper_Space
  1

  0
ENDBLK
  5
1D
100
AcDbEntity
  8
0
100
AcDbBlockEnd
  0
BLOCK
  5
214
100
AcDbEntity
  8
0
100
AcDbBlockBegin
  2
_FILLED
 70
64
 10
0.0
 20
0.0
  3
_FILLED
  1

  0
SOLID
  5
215
100
AcDbEntity
  8
0
  6
BYBLOCK
 62
0
100
AcDbTrace
 10
0.0
 20
0.0
 11
-1.0
 21
0.25
 12
-1.0
 22
-0.25
 13
-1.0
 23
-0.25
  0
ENDBLK
  5
216
100
AcDbEntity
  8
0
  6
BYBLOCK
 62
0
100
AcDbBlockEnd
  0
ENDSEC
  0
SECTION
  2
ENTITIES
  0
LINE
  5
217
100
AcDbEntity
  8
0
100
AcDbLine
 62
7
  6
CONTINUOUS
 10
21.5513469981
 20
45.1049416853
 11
63.977930507
 21
20.6104964141
  0
LINE
  5
218
100
AcDbEntity
  8
0
100
AcDbLine
 62
7
  6
CONTINUOUS
 10
14.6777170454
 20
105.9473235772
 11
14.6777170454
 21
56.9571785495
  0
LINE
  5
219
100
AcDbEntity
  8
0
100
AcDbLine
 62
7
  6
CONTINUOUS
 10
42.5716878063
 20
136.4731338469
 11
40.6874418778
 21
132.413138558
  0
LINE
  5
21A
100
AcDbEntity
  8
0
100
AcDbLine
 62
7
  6
CONTINUOUS
 10
40.6874418778
 20
124.5689905645
 11
27.5071585265
 21
116.9593958468
  0
LINE
  5
21B
100
AcDbEntity
  8
0
100
AcDbLine
 62
7
  6
CONTINUOUS
 10
27.629957221
 20
116.7467009993
 11
25.5086457094
 21
115.5219685377
  0
LINE
  5
21C
100
AcDbEntity
  8
0
100
AcDbLine
 62
7
  6
CONTINUOUS
 10
16.6775560015
 20
110.3676291153
 11
25.5294491912
 21
115.4781579584
  0
LINE
  5
21D
100
AcDbEntity
  8
0
100
AcDbLine
 62
7
  6
CONTINUOUS
 10
25.5164602554
 20
115.470496931
 11
25.5301082343
 21
115.4770123261
  0
LINE
  5
21E
100
AcDbEntity
  8
0
100
AcDbLine
 62
7
  6
CONTINUOUS
 10
42.0355681573
 20
121.8367860901
 11
40.9105126433
 21
119.4126226528
  0
LINE
  5
21F
100
AcDbEntity
  8
0
100
AcDbLine
 62
7
  6
CONTINUOUS
 10
32.5049353962
 20
116.4643710384
 11
41.9229265258
 21
121.9018182951
  0
LINE
  5
220
100
AcDbEntity
  8
0
100
AcDbLine
 62
7
  6
CONTINUOUS
 10
30.3836238846
 20
115.0391068173
 11
32.5049353962
 21
116.2638392789
  0
LINE
  5
221
100
AcDbEntity
  8
0
100
AcDbLine
 62
7
  6
CONTINUOUS
 10
21.5513469981
 20
109.8627557889
 11
30.3901449633
 21
114.9658077122
  0
LINE
  5
222
100
AcDbEntity
  8
0
100
AcDbLine
 62
7
  6
CONTINUOUS
 10
40.6874418778
 20
122.6151095524
 11
40.6874418778
 21
132.413138558
  0
LINE
  5
223
100
AcDbEntity
  8
0
100
AcDbLine
 62
7
  6
CONTINUOUS
 10
40.9105126433
 20
119.4126226528
 11
40.9105126433
 21
114.4727830292
  0
LINE
  5
224
100
AcDbEntity
  8
0
100
AcDbLine
 62
7
  6
CONTINUOUS
 10
42.5716878063
 20
134.4836934902
 11
42.5716878063
 21
139.382707993
  0
LINE
  5
225
100
AcDbEntity
  8
0
100
AcDbLine
 62
7
  6
CONTINUOUS
 10
63.8696875701
 20
128.8269436618
 11
66.2849825047
 21
134.0311932279
  0
LINE
  5
226
100
AcDbEntity
  8
0
100
AcDbLine
 62
7
  6
CONTINUOUS
 10
48.5716878063
 20
156.5582722728
 11
48.5716878063
 21
139.3827080239
  0
LINE
  5
227
100
AcDbEntity
  8
0
100
AcDbLine
 62
7
  6
CONTINUOUS
 10
50.4854416416
 20
116.958359724
 11
50.4854416416
 21
126.7563887296
  0
LINE
  5
228
100
AcDbEntity
  8
0
100
AcDbLine
 62
7
  6
CONTINUOUS
 10
50.545212411
 20
108.9103123646
 11
50.545212411
 21
113.8501519883
  0
LINE
  5
229
100
AcDbEntity
  8
0
100
AcDbLine
 62
7
  6
CONTINUOUS
 10
66.2849825047
 20
124.2331642223
 11
63.8696875701
 21
119.0289146563
  0
LINE
  5
22A
100
AcDbEntity
  8
0
100
AcDbLine
 62
7
  6
CONTINUOUS
 10
64.3990142416
 20
117.3786042437
 11
66.2849825047
 21
121.4423106567
  0
LINE
  5
22B
100
AcDbEntity
  8
0
100
AcDbLine
 62
7
  6
CONTINUOUS
 10
103.9197227585
 20
59.7412017188
 11
106.3913178678
 21
58.3142578989
  0
LINE
  5
22C
100
AcDbEntity
  8
0
100
AcDbLine
 62
7
  6
CONTINUOUS
 10
59.5716878063
 20
156.5582722728
 11
59.5716878063
 21
139.3827079622
  0
LINE
  5
22D
100
AcDbEntity
  8
0
100
AcDbLine
 62
7
  6
CONTINUOUS
 10
61.2207630544
 20
105.237802979
 11
61.2207630544
 21
112.6108198057
  0
LINE
  5
22E
100
AcDbEntity
  8
0
100
AcDbLine
 62
7
  6
CONTINUOUS
 10
63.8696875701
 20
128.8269436618
 11
63.8696875701
 21
119.0289146563
  0
LINE
  5
22F
100
AcDbEntity
  8
0
100
AcDbLine
 62
7
  6
CONTINUOUS
 10
63.8707630544
 20
114.1315320532
 11
63.8707630544
 21
111.8633138098
  0
LINE
  5
230
100
AcDbEntity
  8
0
100
AcDbLine
 62
7
  6
CONTINUOUS
 10
64.9258995136
 20
100.0735144325
 11
64.9258995136
 21
107.4465312592
  0
LINE
  5
231
100
AcDbEntity
  8
0
100
AcDbLine
 62
7
  6
CONTINUOUS
 10
63.9779305069
 20
85.4214838744
 11
21.5513469981
 21
109.8627557889
  0
LINE
  5
232
100
AcDbEntity
  8
0
100
AcDbLine
 62
7
  6
CONTINUOUS
 10
65.5716878063
 20
134.4836934902
 11
65.5716878063
 21
139.382707993
  0
LINE
  5
233
100
AcDbEntity
  8
0
100
AcDbLine
 62
7
  6
CONTINUOUS
 10
66.2849825047
 20
139.0348766838
 11
66.2849825047
 21
113.3150505442
  0
LINE
  5
234
100
AcDbEntity
  8
0
100
AcDbLine
 62
7
  6
CONTINUOUS
 10
66.7997246822
 20
108.4059060406
 11
66.7997246822
 21
110.0490905145
  0
LINE
  5
235
100
AcDbEntity
  8
0
100
AcDbLine
 62
7
  6
CONTINUOUS
 10
67.7543384142
 20
105.8135682411
 11
67.7543384142
 21
98.4405514144
  0
LINE
  5
236
100
AcDbEntity
  8
0
100
AcDbLine
 62
7
  6
CONTINUOUS
 10
69.6281635828
 20
108.4161274964
 11
69.6281635828
 21
106.7811268351
  0
LINE
  5
237
100
AcDbEntity
  8
0
100
AcDbLine
 62
7
  6
CONTINUOUS
 10
99.6801532075
 20
106.2584711527
 11
74.931518905
 21
91.9699257672
  0
LINE
  5
238
100
AcDbEntity
  8
0
100
AcDbLine
 62
7
  6
CONTINUOUS
 10
74.931518905
 20
91.7693940077
 11
72.8102073934
 21
90.5446615461
  0
LINE
  5
239
100
AcDbEntity
  8
0
100
AcDbLine
 62
7
  6
CONTINUOUS
 10
72.8167284721
 20
90.5245357978
 11
63.9779305069
 21
85.4214838744
  0
LINE
  5
23A
100
AcDbEntity
  8
0
100
AcDbLine
 62
7
  6
CONTINUOUS
 10
30.3901449633
 20
114.9658077122
 11
72.8167284721
 21
90.5245357978
  0
LINE
  5
23B
100
AcDbEntity
  8
0
100
AcDbLine
 62
7
  6
CONTINUOUS
 10
72.8239976276
 20
90.5366839024
 11
30.3836238846
 21
115.0391068173
  0
LINE
  5
23C
100
AcDbEntity
  8
0
100
AcDbLine
 62
7
  6
CONTINUOUS
 10
72.8239921305
 20
90.533533864
 11
72.8102073934
 21
90.5446615461
  0
LINE
  5
23D
100
AcDbEntity
  8
0
100
AcDbLine
 62
7
  6
CONTINUOUS
 10
70.8055111194
 20
24.5525146233
 11
70.8055111194
 21
73.5426596511
  0
LINE
  5
23E
100
AcDbEntity
  8
0
100
AcDbLine
 62
7
  6
CONTINUOUS
 10
74.931518905
 20
91.7693940077
 11
32.5049353962
 21
116.2638392789
  0
LINE
  5
23F
100
AcDbEntity
  8
0
100
AcDbLine
 62
7
  6
CONTINUOUS
 10
74.931518905
 20
91.9699257672
 11
32.5049353962
 21
116.4643710384
  0
LINE
  5
240
100
AcDbEntity
  8
0
100
AcDbLine
 62
7
  6
CONTINUOUS
 10
64.9258995136
 20
100.0735144325
 11
67.7543384142
 21
98.4405514144
  0
LINE
  5
241
100
AcDbEntity
  8
0
100
AcDbLine
 62
7
  6
CONTINUOUS
 10
50.545212411
 20
108.9103123646
 11
40.9105126433
 21
114.4727830292
  0
LINE
  5
242
100
AcDbEntity
  8
0
100
AcDbLine
 62
7
  6
CONTINUOUS
 10
106.3929864098
 20
74.6057265339
 11
103.9197227585
 21
76.0498113545
  0
LINE
  5
243
100
AcDbEntity
  8
0
100
AcDbLine
 62
7
  6
CONTINUOUS
 10
106.7481381074
 20
77.68278797
 11
109.2214017586
 21
76.2387031494
  0
LINE
  5
244
100
AcDbEntity
  8
0
100
AcDbLine
 62
7
  6
CONTINUOUS
 10
79.6443090845
 20
78.6457115745
 11
79.6443090845
 21
29.6555665467
  0
LINE
  5
245
100
AcDbEntity
  8
0
100
AcDbLine
 62
7
  6
CONTINUOUS
 10
79.7045272136
 20
29.6132705947
 11
79.7045272136
 21
78.6034156225
  0
LINE
  5
246
100
AcDbEntity
  8
0
100
AcDbLine
 62
7
  6
CONTINUOUS
 10
81.8258387252
 20
30.8380030563
 11
81.8258387252
 21
79.8281480841
  0
LINE
  5
247
100
AcDbEntity
  8
0
100
AcDbLine
 62
7
  6
CONTINUOUS
 10
81.9995038049
 20
30.7377397441
 11
81.9995038049
 21
79.7278847719
  0
LINE
  5
248
100
AcDbEntity
  8
0
100
AcDbLine
 62
7
  6
CONTINUOUS
 10
70.8055111194
 20
73.5426596511
 11
79.6443090845
 21
78.6457115745
  0
LINE
  5
249
100
AcDbEntity
  8
0
100
AcDbLine
 62
7
  6
CONTINUOUS
 10
79.7045272136
 20
78.6034156225
 11
81.8258387252
 21
79.8281480841
  0
LINE
  5
24A
100
AcDbEntity
  8
0
100
AcDbLine
 62
7
  6
CONTINUOUS
 10
81.9995038049
 20
79.7278847719
 11
106.7481381074
 21
94.0164301574
  0
LINE
  5
24B
100
AcDbEntity
  8
0
100
AcDbLine
 62
7
  6
CONTINUOUS
 10
50.545212411
 20
113.8501519883
 11
40.9105126433
 21
119.4126226528
  0
LINE
  5
24C
100
AcDbEntity
  8
0
100
AcDbLine
 62
7
  6
CONTINUOUS
 10
67.7543384142
 20
105.8135682411
 11
64.9258995136
 21
107.4465312592
  0
LINE
  5
24D
100
AcDbEntity
  8
0
100
AcDbLine
 62
7
  6
CONTINUOUS
 10
40.6874418778
 20
122.6151095524
 11
50.4854416416
 21
116.958359724
  0
LINE
  5
24E
100
AcDbEntity
  8
0
100
AcDbLine
 62
7
  6
CONTINUOUS
 10
66.6936591066
 20
108.4671416439
 11
69.5220980072
 21
106.8341786258
  0
LINE
  5
24F
100
AcDbEntity
  8
0
100
AcDbLine
 62
7
  6
CONTINUOUS
 10
84.2849825047
 20
139.0348766838
 11
84.2849825047
 21
113.3150505442
  0
LINE
  5
250
100
AcDbEntity
  8
0
100
AcDbLine
 62
7
  6
CONTINUOUS
 10
86.6992019549
 20
112.4985690351
 11
86.6992019549
 21
110.2303540298
  0
LINE
  5
251
100
AcDbEntity
  8
0
100
AcDbLine
 62
7
  6
CONTINUOUS
 10
61.2207630544
 20
110.5618296901
 11
50.545212411
 21
108.9103123646
  0
LINE
  5
252
100
AcDbEntity
  8
0
100
AcDbLine
 62
7
  6
CONTINUOUS
 10
69.6281635828
 20
108.4161274964
 11
66.7997246822
 21
110.0490905145
  0
LINE
  5
253
100
AcDbEntity
  8
0
100
AcDbLine
 62
7
  6
CONTINUOUS
 10
89.3492019549
 20
103.6048399609
 11
89.3492019549
 21
110.9778567876
  0
LINE
  5
254
100
AcDbEntity
  8
0
100
AcDbLine
 62
7
  6
CONTINUOUS
 10
50.545212411
 20
113.8501519883
 11
62.5129467565
 21
115.7015712994
  0
LINE
  5
255
100
AcDbEntity
  8
0
100
AcDbLine
 62
7
  6
CONTINUOUS
 10
63.8696875701
 20
119.0289146563
 11
50.4854416416
 21
116.958359724
  0
LINE
  5
256
100
AcDbEntity
  8
0
100
AcDbLine
 62
7
  6
CONTINUOUS
 10
50.4854416416
 20
126.7563887296
 11
40.6874418778
 21
132.413138558
  0
LINE
  5
257
100
AcDbEntity
  8
0
100
AcDbLine
 62
7
  6
CONTINUOUS
 10
110.9784783038
 20
66.663465685
 11
106.3929864098
 21
74.6057265339
  0
LINE
  5
258
100
AcDbEntity
  8
0
100
AcDbLine
 62
7
  6
CONTINUOUS
 10
106.7481381074
 20
77.68278797
 11
103.9197227585
 21
76.0498113545
  0
LINE
  5
259
100
AcDbEntity
  8
0
100
AcDbLine
 62
7
  6
CONTINUOUS
 10
109.2214017586
 20
76.2387031494
 11
106.3929864098
 21
74.6057265339
  0
LINE
  5
25A
100
AcDbEntity
  8
0
100
AcDbLine
 62
7
  6
CONTINUOUS
 10
66.211336682
 20
124.0744791543
 11
66.2849825047
 21
124.0319606807
  0
LINE
  5
25B
100
AcDbEntity
  8
0
100
AcDbLine
 62
7
  6
CONTINUOUS
 10
89.0224722219
 20
112.4115469374
 11
99.6801532075
 21
106.2584711527
  0
LINE
  5
25C
100
AcDbEntity
  8
0
100
AcDbLine
 62
7
  6
CONTINUOUS
 10
84.2849825047
 20
116.9267945137
 11
85.6440654957
 21
116.1421453341
  0
LINE
  5
25D
100
AcDbEntity
  8
0
100
AcDbLine
 62
7
  6
CONTINUOUS
 10
109.2214017586
 20
76.2387031494
 11
113.8068936527
 21
68.2964423005
  0
LINE
  5
25E
100
AcDbEntity
  8
0
100
AcDbLine
 62
7
  6
CONTINUOUS
 10
103.9197227585
 20
76.0498113545
 11
103.9197227585
 21
59.7412017188
  0
LINE
  5
25F
100
AcDbEntity
  8
0
100
AcDbLine
 62
7
  6
CONTINUOUS
 10
50.4854416416
 20
126.7563887296
 11
63.8696875701
 21
128.8269436618
  0
LINE
  5
260
100
AcDbEntity
  8
0
100
AcDbLine
 62
7
  6
CONTINUOUS
 10
106.7481381074
 20
94.0164301574
 11
106.7481381074
 21
77.68278797
  0
LINE
  5
261
100
AcDbEntity
  8
0
100
AcDbLine
 62
7
  6
CONTINUOUS
 10
106.7481381074
 20
58.5202740504
 11
106.7481381074
 21
45.0262851296
  0
LINE
  5
262
100
AcDbEntity
  8
0
100
AcDbLine
 62
7
  6
CONTINUOUS
 10
113.8068936527
 20
68.2964423005
 11
110.9784783038
 21
66.663465685
  0
LINE
  5
263
100
AcDbEntity
  8
0
100
AcDbLine
 62
7
  6
CONTINUOUS
 10
65.5716878063
 20
137.6420937062
 11
66.2849825047
 21
137.2302821365
  0
LINE
  5
264
100
AcDbEntity
  8
0
100
AcDbLine
 62
7
  6
CONTINUOUS
 10
110.9784783038
 20
60.9627319329
 11
110.9784783038
 21
66.663465685
  0
LINE
  5
265
100
AcDbEntity
  8
0
100
AcDbLine
 62
7
  6
CONTINUOUS
 10
113.8068936527
 20
68.2964423005
 11
113.8068936527
 21
62.5957085484
  0
LINE
  5
266
100
AcDbEntity
  8
0
100
AcDbLine
 62
7
  6
CONTINUOUS
 10
106.3913178678
 20
58.3142578989
 11
113.8068936527
 21
62.5957085484
  0
LINE
  5
267
100
AcDbEntity
  8
0
100
AcDbLine
 62
7
  6
CONTINUOUS
 10
79.6443090845
 20
29.6555665467
 11
70.8055111194
 21
24.5525146233
  0
LINE
  5
268
100
AcDbEntity
  8
0
100
AcDbLine
 62
7
  6
CONTINUOUS
 10
81.8258387252
 20
30.8380030563
 11
79.7045272136
 21
29.6132705947
  0
LINE
  5
269
100
AcDbEntity
  8
0
100
AcDbLine
 62
7
  6
CONTINUOUS
 10
106.7481381074
 20
45.0262851296
 11
81.9995038049
 21
30.7377397441
  0
LINE
  5
26A
100
AcDbEntity
  8
0
100
AcDbLine
 62
7
  6
CONTINUOUS
 10
68.8382845795
 20
20.0759026806
 11
77.6770825447
 21
25.1789546039
  0
LINE
  5
26B
100
AcDbEntity
  8
0
100
AcDbLine
 62
7
  6
CONTINUOUS
 10
79.8064970803
 20
26.3745901255
 11
77.6851855686
 21
25.1498576639
  0
LINE
  5
26C
100
AcDbEntity
  8
0
100
AcDbLine
 62
7
  6
CONTINUOUS
 10
104.6779300772
 20
40.4504406635
 11
79.9292957747
 21
26.161895278
  0
ARC
  5
26D
100
AcDbEntity
  8
0
100
AcDbCircle
 62
7
  6
CONTINUOUS
 10
72.5265457241
 20
79.7276640525
 40
9.4729580833
100
AcDbArc
 50
0.0013349883
 51
0.69009366
  0
ARC
  5
26E
100
AcDbEntity
  8
0
100
AcDbCircle
 62
7
  6
CONTINUOUS
 10
70.1950477951
 20
83.7663730228
 40
9.4727206337
100
AcDbArc
 50
59.3104448638
 51
59.999226195
  0
ARC
  5
26F
100
AcDbEntity
  8
0
100
AcDbCircle
 62
7
  6
CONTINUOUS
 10
70.5275877453
 20
78.6033782686
 40
9.1769394684
100
AcDbArc
 50
0.0002332172
 51
0.2877121098
  0
ARC
  5
270
100
AcDbEntity
  8
0
100
AcDbCircle
 62
7
  6
CONTINUOUS
 10
70.5767668314
 20
29.5288768638
 40
9.06842725
100
AcDbArc
 50
0.0016122643
 51
0.8004717992
  0
ARC
  5
271
100
AcDbEntity
  8
0
100
AcDbCircle
 62
7
  6
CONTINUOUS
 10
61.7379688663
 20
24.4258249404
 40
9.0684272499
100
AcDbArc
 50
0.0016122643
 51
0.8004717992
  0
ARC
  5
272
100
AcDbEntity
  8
0
100
AcDbCircle
 62
7
  6
CONTINUOUS
 10
70.6505427419
 20
29.6131234199
 40
9.0539844729
100
AcDbArc
 50
359.3539808064
 51
0.0009313572
  0
ARC
  5
273
100
AcDbEntity
  8
0
100
AcDbCircle
 62
7
  6
CONTINUOUS
 10
27.2041486499
 20
110.6971942502
 40
5.2873663215
100
AcDbArc
 50
78.8786491306
 51
81.2684796373
  0
ARC
  5
274
100
AcDbEntity
  8
0
100
AcDbCircle
 62
7
  6
CONTINUOUS
 10
74.3871446357
 20
29.0208070459
 40
5.2534567903
100
AcDbArc
 50
337.760845625
 51
342.7892309242
  0
ARC
  5
275
100
AcDbEntity
  8
0
100
AcDbCircle
 62
7
  6
CONTINUOUS
 10
83.418667799
 20
110.9757044449
 40
3.4305190287
100
AcDbArc
 50
0.0359479608
 51
12.7069016969
  0
ARC
  5
276
100
AcDbEntity
  8
0
100
AcDbCircle
 62
7
  6
CONTINUOUS
 10
67.1512967505
 20
112.6086674994
 40
3.4305185689
100
AcDbArc
 50
167.2931520811
 51
179.9640526432
  0
ARC
  5
277
100
AcDbEntity
  8
0
100
AcDbCircle
 62
7
  6
CONTINUOUS
 10
78.2322843595
 20
29.1123413744
 40
3.4037578558
100
AcDbArc
 50
287.591954962
 51
298.6309858461
  0
ARC
  5
278
100
AcDbEntity
  8
0
100
AcDbCircle
 62
7
  6
CONTINUOUS
 10
29.1970374963
 20
114.0368434011
 40
3.3759639997
100
AcDbArc
 50
121.3232206834
 51
132.4523840656
  0
ARC
  5
279
100
AcDbEntity
  8
0
100
AcDbCircle
 62
7
  6
CONTINUOUS
 10
78.2670238626
 20
29.0410288168
 40
3.3245216771
100
AcDbArc
 50
298.6939853325
 51
301.3058486253
  0
ARC
  5
27A
100
AcDbEntity
  8
0
100
AcDbCircle
 62
7
  6
CONTINUOUS
 10
29.1694303669
 20
114.0802624299
 40
3.3245215356
100
AcDbArc
 50
118.6939284946
 51
121.3057917837
  0
ARC
  5
27B
100
AcDbEntity
  8
0
100
AcDbCircle
 62
7
  6
CONTINUOUS
 10
27.1332614774
 20
112.7078053645
 40
3.2494340155
100
AcDbArc
 50
116.6618450414
 51
119.9978301385
  0
ARC
  5
27C
100
AcDbEntity
  8
0
100
AcDbCircle
 62
7
  6
CONTINUOUS
 10
27.1325441612
 20
112.7094657496
 40
3.2476380348
100
AcDbArc
 50
120.5645112185
 51
122.4874869482
  0
ARC
  5
27D
100
AcDbEntity
  8
0
100
AcDbCircle
 62
7
  6
CONTINUOUS
 10
76.0626002866
 20
27.9601951783
 40
3.2451057952
100
AcDbArc
 50
300.2784615496
 51
301.8625807867
  0
ARC
  5
27E
100
AcDbEntity
  8
0
100
AcDbCircle
 62
7
  6
CONTINUOUS
 10
76.0633902442
 20
27.9589384696
 40
3.2436223321
100
AcDbArc
 50
298.4944276465
 51
299.9995680739
  0
ARC
  5
27F
100
AcDbEntity
  8
0
100
AcDbCircle
 62
7
  6
CONTINUOUS
 10
27.1294067348
 20
112.7147147163
 40
3.2415229677
100
AcDbArc
 50
119.999881764
 51
120.5639392178
  0
ARC
  5
280
100
AcDbEntity
  8
0
100
AcDbCircle
 62
7
  6
CONTINUOUS
 10
76.0646846113
 20
27.9566637214
 40
3.2410051587
100
AcDbArc
 50
299.9998579916
 51
300.2781182239
  0
SPLINE
  5
281
100
AcDbEntity
  8
0
100
AcDbSpline
 62
7
  6
CONTINUOUS
 70
0
 71
3
 72
23
 73
19
 74
0
 42
0.0000001
 43
0.0000001
 44
0.0000000001
 40
0.0
 40
0.0
 40
0.0
 40
0.0
 40
0.0623866736
 40
0.1287470302
 40
0.1983460047
 40
0.270335178
 40
0.3437229177
 40
0.4174668811
 40
0.4905039043
 40
0.5618026578
 40
0.6304118234
 40
0.6955105134
 40
0.756467766
 40
0.8129136786
 40
0.8648223282
 40
0.9126048479
 40
0.9571863243
 40
1.0
 40
1.0
 40
1.0
 40
1.0
 10
57.960758911
 20
158.8036151191
 30
0.0
 10
57.7631751565
 20
158.9176875723
 30
0.0
 10
57.3396850095
 20
159.126462696
 30
0.0
 10
56.6565925857
 20
159.3740081103
 30
0.0
 10
55.9183611562
 20
159.5613766183
 30
0.0
 10
55.1408872111
 20
159.6846828531
 30
0.0
 10
54.3405789315
 20
159.741255441
 30
0.0
 10
53.5345391336
 20
159.7299076572
 30
0.0
 10
52.7399502946
 20
159.6508839536
 30
0.0
 10
51.9737498938
 20
159.5058694852
 30
0.0
 10
51.2522159834
 20
159.2979307785
 30
0.0
 10
50.5906057929
 20
159.0313958713
 30
0.0
 10
50.0028266126
 20
158.7116970778
 30
0.0
 10
49.5011813639
 20
158.3451282265
 30
0.0
 10
49.0963398526
 20
157.9385872884
 30
0.0
 10
48.7976402051
 20
157.4992543192
 30
0.0
 10
48.6135424328
 20
157.0358105098
 30
0.0
 10
48.5717176734
 20
156.7148423237
 30
0.0
 10
48.5717031158
 20
156.5582722236
 30
0.0
  0
SPLINE
  5
282
100
AcDbEntity
  8
0
100
AcDbSpline
 62
7
  6
CONTINUOUS
 70
0
 71
3
 72
14
 73
10
 74
0
 42
0.0000001
 43
0.0000001
 44
0.0000000001
 40
0.0
 40
0.0
 40
0.0
 40
0.0
 40
0.1080439283
 40
0.2181251801
 40
0.3321022928
 40
0.4514974309
 40
0.5774434865
 40
0.7107181157
 40
1.0
 40
1.0
 40
1.0
 40
1.0
 10
59.5716724967
 20
156.558272322
 30
0.0
 10
59.5716821776
 20
156.6623920856
 30
0.0
 10
59.5535843653
 20
156.8730164999
 30
0.0
 10
59.4729016598
 20
157.1841291231
 30
0.0
 10
59.3396463191
 20
157.4885233154
 30
0.0
 10
59.1556365235
 20
157.7831418623
 30
0.0
 10
58.9228185758
 20
158.0653346589
 30
0.0
 10
58.5403057444
 20
158.4314441098
 30
0.0
 10
58.2021866317
 20
158.6642299128
 30
0.0
 10
57.960758911
 20
158.8036151191
 30
0.0
  0
SPLINE
  5
283
100
AcDbEntity
  8
0
100
AcDbSpline
 62
7
  6
CONTINUOUS
 70
0
 71
3
 72
14
 73
10
 74
0
 42
0.0000001
 43
0.0000001
 44
0.0000000001
 40
0.0
 40
0.0
 40
0.0
 40
0.0
 40
0.1080439283
 40
0.2181251801
 40
0.3321022928
 40
0.4514974309
 40
0.5774434865
 40
0.7107181157
 40
1.0
 40
1.0
 40
1.0
 40
1.0
 10
48.5717031158
 20
156.5582722236
 30
0.0
 10
48.571693435
 20
156.4541524601
 30
0.0
 10
48.5897912472
 20
156.2435280457
 30
0.0
 10
48.6704739528
 20
155.9324154225
 30
0.0
 10
48.8037292935
 20
155.6280212303
 30
0.0
 10
48.987739089
 20
155.3334026833
 30
0.0
 10
49.2205570367
 20
155.0512098868
 30
0.0
 10
49.6030698681
 20
154.6851004358
 30
0.0
 10
49.9411889808
 20
154.4523146328
 30
0.0
 10
50.1826167016
 20
154.3129294265
 30
0.0
  0
SPLINE
  5
284
100
AcDbEntity
  8
0
100
AcDbSpline
 62
7
  6
CONTINUOUS
 70
0
 71
3
 72
23
 73
19
 74
0
 42
0.0000001
 43
0.0000001
 44
0.0000000001
 40
0.0
 40
0.0
 40
0.0
 40
0.0
 40
0.0623866736
 40
0.1287470302
 40
0.1983460047
 40
0.270335178
 40
0.3437229177
 40
0.4174668811
 40
0.4905039043
 40
0.5618026578
 40
0.6304118234
 40
0.6955105134
 40
0.756467766
 40
0.8129136786
 40
0.8648223282
 40
0.9126048479
 40
0.9571863243
 40
1.0
 40
1.0
 40
1.0
 40
1.0
 10
50.1826167016
 20
154.3129294265
 30
0.0
 10
50.380200456
 20
154.1988569734
 30
0.0
 10
50.803690603
 20
153.9900818496
 30
0.0
 10
51.4867830269
 20
153.7425364354
 30
0.0
 10
52.2250144563
 20
153.5551679274
 30
0.0
 10
53.0024884015
 20
153.4318616925
 30
0.0
 10
53.8027966811
 20
153.3752891046
 30
0.0
 10
54.608836479
 20
153.3866368884
 30
0.0
 10
55.403425318
 20
153.4656605921
 30
0.0
 10
56.1696257188
 20
153.6106750604
 30
0.0
 10
56.8911596291
 20
153.8186137672
 30
0.0
 10
57.5527698196
 20
154.0851486744
 30
0.0
 10
58.1405489999
 20
154.4048474678
 30
0.0
 10
58.6421942486
 20
154.7714163191
 30
0.0
 10
59.0470357599
 20
155.1779572572
 30
0.0
 10
59.3457354075
 20
155.6172902264
 30
0.0
 10
59.5298331797
 20
156.0807340358
 30
0.0
 10
59.5716579392
 20
156.4017022219
 30
0.0
 10
59.5716724967
 20
156.558272322
 30
0.0
  0
SPLINE
  5
285
100
AcDbEntity
  8
0
100
AcDbSpline
 62
7
  6
CONTINUOUS
 70
0
 71
3
 72
15
 73
11
 74
0
 42
0.0000001
 43
0.0000001
 44
0.0000000001
 40
0.0
 40
0.0
 40
0.0
 40
0.0
 40
0.1080120383
 40
0.2180606657
 40
0.3319979082
 40
0.4513569912
 40
0.5772762228
 40
0.7104911011
 40
0.8514142413
 40
1.0
 40
1.0
 40
1.0
 40
1.0
 10
86.8491861525
 20
110.9778567876
 30
0.0
 10
86.8491861529
 20
110.7857056807
 30
0.0
 10
86.8158218669
 20
110.3970002937
 30
0.0
 10
86.6668848843
 20
109.8228678364
 30
0.0
 10
86.421026078
 20
109.2611062139
 30
0.0
 10
86.0813798188
 20
108.7174016896
 30
0.0
 10
85.6517762446
 20
108.1966820003
 30
0.0
 10
85.1365906276
 20
107.7035477144
 30
0.0
 10
84.5409624093
 20
107.2425295623
 30
0.0
 10
84.1052832709
 20
106.9663779816
 30
0.0
 10
83.8763656652
 20
106.8342131292
 30
0.0
  0
SPLINE
  5
286
100
AcDbEntity
  8
0
100
AcDbSpline
 62
7
  6
CONTINUOUS
 70
0
 71
3
 72
15
 73
11
 74
0
 42
0.0000001
 43
0.0000001
 44
0.0000000001
 40
0.0
 40
0.0
 40
0.0
 40
0.0
 40
0.1485937669
 40
0.2895065953
 40
0.4227224271
 40
0.5486441971
 40
0.668002129
 40
0.7819390529
 40
0.8919877629
 40
1.0
 40
1.0
 40
1.0
 40
1.0
 10
64.9258250313
 20
117.7750653504
 30
0.0
 10
64.6405082592
 20
117.6103386185
 30
0.0
 10
64.0975156926
 20
117.2661830229
 30
0.0
 10
63.35519362
 20
116.6916000772
 30
0.0
 10
62.7131327794
 20
116.0770090149
 30
0.0
 10
62.1776901929
 20
115.4280468019
 30
0.0
 10
61.7543912822
 20
114.7504170625
 30
0.0
 10
61.4479955407
 20
114.0502856629
 30
0.0
 10
61.262365376
 20
113.3347452659
 30
0.0
 10
61.2207676746
 20
112.8502993323
 30
0.0
 10
61.2207676737
 20
112.6108198057
 30
0.0
  0
SPLINE
  5
287
100
AcDbEntity
  8
0
100
AcDbSpline
 62
7
  6
CONTINUOUS
 70
0
 71
3
 72
9
 73
5
 74
0
 42
0.0000001
 43
0.0000001
 44
0.0000000001
 40
0.0
 40
0.0
 40
0.0
 40
0.0
 40
0.2559555496
 40
1.0
 40
1.0
 40
1.0
 40
1.0
 10
66.2195108716
 20
118.4268310032
 30
0.0
 10
66.1062920591
 20
118.3771823513
 30
0.0
 10
65.6664889379
 20
118.1775129052
 30
0.0
 10
65.237051735
 20
117.954751099
 30
0.0
 10
64.9258250313
 20
117.7750653504
 30
0.0
  0
SPLINE
  5
288
100
AcDbEntity
  8
0
100
AcDbSpline
 62
7
  6
CONTINUOUS
 70
0
 71
3
 72
19
 73
15
 74
0
 42
0.0000001
 43
0.0000001
 44
0.0000000001
 40
0.0
 40
0.0
 40
0.0
 40
0.0
 40
0.0558438317
 40
0.1142079096
 40
0.1748217148
 40
0.2374060436
 40
0.3670160699
 40
0.4999994833
 40
0.6329829687
 40
0.7625932051
 40
0.8251776858
 40
0.8857916698
 40
0.9441559486
 40
1.0
 40
1.0
 40
1.0
 40
1.0
 10
83.8763656652
 20
106.8342131292
 30
0.0
 10
83.6359350449
 20
106.6954012745
 30
0.0
 10
83.1317051673
 20
106.4327796557
 30
0.0
 10
82.3315681038
 20
106.0915747169
 30
0.0
 10
81.4775108252
 20
105.7971826243
 30
0.0
 10
80.2640321616
 20
105.4670856398
 30
0.0
 10
78.6668082708
 20
105.1911557234
 30
0.0
 10
76.6992438863
 20
105.0807202967
 30
0.0
 10
74.7316779366
 20
105.1911463981
 30
0.0
 10
73.1344505592
 20
105.467068662
 30
0.0
 10
71.9209675106
 20
105.7971597445
 30
0.0
 10
71.0669060298
 20
106.091547737
 30
0.0
 10
70.2667640933
 20
106.4327488256
 30
0.0
 10
69.762530574
 20
106.695367959
 30
0.0
 10
69.5220980072
 20
106.8341786258
 30
0.0
  0
SPLINE
  5
289
100
AcDbEntity
  8
0
100
AcDbSpline
 62
7
  6
CONTINUOUS
 70
0
 71
3
 72
15
 73
11
 74
0
 42
0.0000001
 43
0.0000001
 44
0.0000000001
 40
0.0
 40
0.0
 40
0.0
 40
0.0
 40
0.1485860221
 40
0.2895093716
 40
0.4227243815
 40
0.548643655
 40
0.668002686
 40
0.7819397887
 40
0.8919882079
 40
1.0
 40
1.0
 40
1.0
 40
1.0
 10
66.6936591066
 20
108.4671416439
 30
0.0
 10
66.4647371865
 20
108.5993067861
 30
0.0
 10
66.0290497423
 20
108.8754592831
 30
0.0
 10
65.4334098039
 20
109.3364799512
 30
0.0
 10
64.9182138151
 20
109.829617721
 30
0.0
 10
64.4886014214
 20
110.3503417369
 30
0.0
 10
64.1489480656
 20
110.8940513039
 30
0.0
 10
63.9030840454
 20
111.4558185507
 30
0.0
 10
63.7541438655
 20
112.0299570444
 30
0.0
 10
63.7207788571
 20
112.4186666558
 30
0.0
 10
63.7207788568
 20
112.6108198057
 30
0.0
  0
SPLINE
  5
28A
100
AcDbEntity
  8
0
100
AcDbSpline
 62
7
  6
CONTINUOUS
 70
0
 71
3
 72
19
 73
15
 74
0
 42
0.0000001
 43
0.0000001
 44
0.0000000001
 40
0.0
 40
0.0
 40
0.0
 40
0.0
 40
0.0558465018
 40
0.1142069878
 40
0.1748214093
 40
0.2374062218
 40
0.3670160797
 40
0.4999994771
 40
0.6329829474
 40
0.7625930181
 40
0.8251779842
 40
0.8857925865
 40
0.944153277
 40
1.0
 40
1.0
 40
1.0
 40
1.0
 10
85.6441399781
 20
98.4405944162
 30
0.0
 10
85.3444756307
 20
98.2675841574
 30
0.0
 10
84.71606165
 20
97.9402691033
 30
0.0
 10
83.7188407621
 20
97.5150401583
 30
0.0
 10
82.6544384757
 20
97.1481469162
 30
0.0
 10
81.1420742303
 20
96.7367174929
 30
0.0
 10
79.151437205
 20
96.392859759
 30
0.0
 10
76.6992543252
 20
96.2551852132
 30
0.0
 10
74.2470694757
 20
96.392848111
 30
0.0
 10
72.2564280705
 20
96.7366963016
 30
0.0
 10
70.7440583163
 20
97.148118361
 30
0.0
 10
69.6796507477
 20
97.5150065006
 30
0.0
 10
68.6824237464
 20
97.940230665
 30
0.0
 10
68.0540051963
 20
98.2675426311
 30
0.0
 10
67.7543384142
 20
98.4405514144
 30
0.0
  0
SPLINE
  5
28B
100
AcDbEntity
  8
0
100
AcDbSpline
 62
7
  6
CONTINUOUS
 70
0
 71
3
 72
15
 73
11
 74
0
 42
0.0000001
 43
0.0000001
 44
0.0000000001
 40
0.0
 40
0.0
 40
0.0
 40
0.0
 40
0.1080119914
 40
0.2180604935
 40
0.3319972779
 40
0.4513551578
 40
0.5772769699
 40
0.7104929331
 40
0.8514059698
 40
1.0
 40
1.0
 40
1.0
 40
1.0
 10
89.3491973356
 20
110.9778567876
 30
0.0
 10
89.3491973365
 20
111.2173388614
 30
0.0
 10
89.3075987296
 20
111.7017900616
 30
0.0
 10
89.121964582
 20
112.4173379844
 30
0.0
 10
88.8155623403
 20
113.1174763946
 30
0.0
 10
88.3922545846
 20
113.7951124198
 30
0.0
 10
87.8568010036
 20
114.4440800232
 30
0.0
 10
87.2147272383
 20
115.0586754252
 30
0.0
 10
86.4723905618
 20
115.6332615061
 30
0.0
 10
85.9293876451
 20
115.977418241
 30
0.0
 10
85.6440654957
 20
116.1421453341
 30
0.0
  0
SPLINE
  5
28C
100
AcDbEntity
  8
0
100
AcDbSpline
 62
7
  6
CONTINUOUS
 70
0
 71
3
 72
15
 73
11
 74
0
 42
0.0000001
 43
0.0000001
 44
0.0000000001
 40
0.0
 40
0.0
 40
0.0
 40
0.0
 40
0.1080122362
 40
0.2180609456
 40
0.3319978691
 40
0.4513558008
 40
0.5772775707
 40
0.7104934026
 40
0.8514062329
 40
1.0
 40
1.0
 40
1.0
 40
1.0
 10
89.3491973356
 20
103.6048399609
 30
0.0
 10
89.3491973316
 20
103.3653604362
 30
0.0
 10
89.3075996369
 20
102.8809145057
 30
0.0
 10
89.1219694701
 20
102.1653741131
 30
0.0
 10
88.8155737313
 20
101.4652427159
 30
0.0
 10
88.3922748238
 20
100.7876129765
 30
0.0
 10
87.8568322398
 20
100.1386507621
 30
0.0
 10
87.2147713972
 20
99.5240596957
 30
0.0
 10
86.47244932
 20
98.9494767479
 30
0.0
 10
85.9294567505
 20
98.6053211483
 30
0.0
 10
85.6441399781
 20
98.4405944162
 30
0.0
  0
SPLINE
  5
28D
100
AcDbEntity
  8
0
100
AcDbSpline
 62
7
  6
CONTINUOUS
 70
0
 71
3
 72
15
 73
11
 74
0
 42
0.0000001
 43
0.0000001
 44
0.0000000001
 40
0.0
 40
0.0
 40
0.0
 40
0.0
 40
0.14859403
 40
0.2895070648
 40
0.4227230279
 40
0.5486448401
 40
0.6680027202
 40
0.7819395051
 40
0.8919880078
 40
1.0
 40
1.0
 40
1.0
 40
1.0
 10
64.9258995136
 20
100.0735144325
 30
0.0
 10
64.6405773646
 20
100.2382415254
 30
0.0
 10
64.0975744508
 20
100.5823982562
 30
0.0
 10
63.3552377789
 20
101.1569843352
 30
0.0
 10
62.7131640156
 20
101.771579733
 30
0.0
 10
62.1777104321
 20
102.420547335
 30
0.0
 10
61.7544026732
 20
103.0981833602
 30
0.0
 10
61.4480004289
 20
103.7983217728
 30
0.0
 10
61.2623662834
 20
104.5138697
 30
0.0
 10
61.2207676697
 20
104.9983209033
 30
0.0
 10
61.2207676737
 20
105.237802979
 30
0.0
  0
SPLINE
  5
28E
100
AcDbEntity
  8
0
100
AcDbSpline
 62
7
  6
CONTINUOUS
 70
0
 71
3
 72
15
 73
11
 74
0
 42
0.0000001
 43
0.0000001
 44
0.0000000001
 40
0.0
 40
0.0
 40
0.0
 40
0.0
 40
0.1080119914
 40
0.2180604935
 40
0.3319972779
 40
0.4513551578
 40
0.5772769699
 40
0.7104929331
 40
0.8514059698
 40
1.0
 40
1.0
 40
1.0
 40
1.0
 10
61.2207676737
 20
112.6108198057
 30
0.0
 10
61.2207676728
 20
112.3713377319
 30
0.0
 10
61.2623662797
 20
111.8868865317
 30
0.0
 10
61.4480004273
 20
111.1713386089
 30
0.0
 10
61.754402669
 20
110.4712001987
 30
0.0
 10
62.1777104247
 20
109.7935641735
 30
0.0
 10
62.7131640057
 20
109.1445965701
 30
0.0
 10
63.355237771
 20
108.5300011681
 30
0.0
 10
64.0975744475
 20
107.9554150872
 30
0.0
 10
64.6405773643
 20
107.6112583523
 30
0.0
 10
64.9258995136
 20
107.4465312592
 30
0.0
  0
SPLINE
  5
28F
100
AcDbEntity
  8
0
100
AcDbSpline
 62
7
  6
CONTINUOUS
 70
0
 71
3
 72
15
 73
11
 74
0
 42
0.0000001
 43
0.0000001
 44
0.0000000001
 40
0.0
 40
0.0
 40
0.0
 40
0.0
 40
0.1485937669
 40
0.2895065953
 40
0.4227224271
 40
0.5486441971
 40
0.668002129
 40
0.7819390529
 40
0.8919877629
 40
1.0
 40
1.0
 40
1.0
 40
1.0
 10
85.6441399781
 20
105.8136112429
 30
0.0
 10
85.9294567501
 20
105.9783379748
 30
0.0
 10
86.4724493167
 20
106.3224935703
 30
0.0
 10
87.2147713893
 20
106.897076516
 30
0.0
 10
87.8568322299
 20
107.5116675784
 30
0.0
 10
88.3922748164
 20
108.1606297914
 30
0.0
 10
88.8155737271
 20
108.8382595308
 30
0.0
 10
89.1219694686
 20
109.5383909304
 30
0.0
 10
89.3075996333
 20
110.2539313274
 30
0.0
 10
89.3491973347
 20
110.738377261
 30
0.0
 10
89.3491973356
 20
110.9778567876
 30
0.0
  0
SPLINE
  5
290
100
AcDbEntity
  8
0
100
AcDbSpline
 62
7
  6
CONTINUOUS
 70
0
 71
3
 72
19
 73
15
 74
0
 42
0.0000001
 43
0.0000001
 44
0.0000000001
 40
0.0
 40
0.0
 40
0.0
 40
0.0
 40
0.0558467224
 40
0.1142074115
 40
0.174822013
 40
0.2374069784
 40
0.3670170481
 40
0.500000518
 40
0.6329839158
 40
0.7625937748
 40
0.825178588
 40
0.8857930102
 40
0.9441534976
 40
1.0
 40
1.0
 40
1.0
 40
1.0
 10
67.7543384142
 20
105.8135682411
 30
0.0
 10
68.0540051927
 20
105.6405594598
 30
0.0
 10
68.6824237308
 20
105.3132474977
 30
0.0
 10
69.6796507164
 20
104.8880233399
 30
0.0
 10
70.7440582675
 20
104.5211352031
 30
0.0
 10
72.2564280052
 20
104.1097131417
 30
0.0
 10
74.2470693961
 20
103.7658649468
 30
0.0
 10
76.6992542385
 20
103.6282020399
 30
0.0
 10
79.1514371254
 20
103.7658765766
 30
0.0
 10
81.142074165
 20
104.1097343061
 30
0.0
 10
82.6544384268
 20
104.5211637275
 30
0.0
 10
83.7188407308
 20
104.8880569723
 30
0.0
 10
84.7160616343
 20
105.3132859239
 30
0.0
 10
85.3444756272
 20
105.640600982
 30
0.0
 10
85.6441399781
 20
105.8136112429
 30
0.0
  0
SPLINE
  5
291
100
AcDbEntity
  8
0
100
AcDbSpline
 62
7
  6
CONTINUOUS
 70
0
 71
3
 72
24
 73
20
 74
0
 42
0.0000001
 43
0.0000001
 44
0.0000000001
 40
0.0
 40
0.0
 40
0.0
 40
0.0
 40
0.0213338046
 40
0.0428960578
 40
0.0874739645
 40
0.1352526297
 40
0.1871575069
 40
0.2435993206
 40
0.3045513544
 40
0.3696432848
 40
0.4382450224
 40
0.5095364288
 40
0.5825662761
 40
0.6563040623
 40
0.7296855579
 40
0.8016681976
 40
0.8712633168
 40
0.9376153811
 40
1.0
 40
1.0
 40
1.0
 40
1.0
 10
59.5716689165
 20
139.3827079621
 30
0.0
 10
59.5716688289
 20
139.3046833193
 30
0.0
 10
59.5616075062
 20
139.1476045773
 30
0.0
 10
59.5008395286
 20
138.8327873567
 30
0.0
 10
59.3457457095
 20
138.4415384191
 30
0.0
 10
59.047034164
 20
138.0024228435
 30
0.0
 10
58.6421884955
 20
137.5958129541
 30
0.0
 10
58.1405279828
 20
137.2292747017
 30
0.0
 10
57.5527446809
 20
136.9095827942
 30
0.0
 10
56.8911458525
 20
136.6430496651
 30
0.0
 10
56.1696287039
 20
136.4351048876
 30
0.0
 10
55.4034423662
 20
136.290088702
 30
0.0
 10
54.6088604643
 20
136.2110677891
 30
0.0
 10
53.802823383
 20
136.199730681
 30
0.0
 10
53.0025160533
 20
136.2562979386
 30
0.0
 10
52.2250335579
 20
136.3795943968
 30
0.0
 10
51.4868071553
 20
136.5669684557
 30
0.0
 10
50.8036999629
 20
136.814503085
 30
0.0
 10
50.3802108546
 20
137.0232866901
 30
0.0
 10
50.1826167016
 20
137.1373651467
 30
0.0
  0
SPLINE
  5
292
100
AcDbEntity
  8
0
100
AcDbSpline
 62
7
  6
CONTINUOUS
 70
0
 71
3
 72
15
 73
11
 74
0
 42
0.0000001
 43
0.0000001
 44
0.0000000001
 40
0.0
 40
0.0
 40
0.0
 40
0.0
 40
0.1080115469
 40
0.2180597418
 40
0.3319963583
 40
0.4513552396
 40
0.5772748058
 40
0.7104903709
 40
0.8514141455
 40
1.0
 40
1.0
 40
1.0
 40
1.0
 10
65.5716718265
 20
139.3827079944
 30
0.0
 10
65.5716723452
 20
139.6004180244
 30
0.0
 10
65.5338691781
 20
140.0408270909
 30
0.0
 10
65.3651209434
 20
140.6913273571
 30
0.0
 10
65.0865571342
 20
141.3278114466
 30
0.0
 10
64.7017273954
 20
141.9438359127
 30
0.0
 10
64.2149748657
 20
142.5338211969
 30
0.0
 10
63.6312525944
 20
143.0925500833
 30
0.0
 10
62.9563880088
 20
143.6148896885
 30
0.0
 10
62.4627513752
 20
143.9277721336
 30
0.0
 10
62.2033819342
 20
144.0775157625
 30
0.0
  0
SPLINE
  5
293
100
AcDbEntity
  8
0
100
AcDbSpline
 62
7
  6
CONTINUOUS
 70
0
 71
3
 72
9
 73
5
 74
0
 42
0.0000001
 43
0.0000001
 44
0.0000000001
 40
0.0
 40
0.0
 40
0.0
 40
0.0
 40
0.4849624645
 40
1.0
 40
1.0
 40
1.0
 40
1.0
 10
62.2033819342
 20
144.0775157625
 30
0.0
 10
61.8015930538
 20
144.309483433
 30
0.0
 10
60.9420982556
 20
144.735179103
 30
0.0
 10
60.0423960342
 20
145.0655635719
 30
0.0
 10
59.572370806
 20
145.2133611656
 30
0.0
  0
SPLINE
  5
294
100
AcDbEntity
  8
0
100
AcDbSpline
 62
7
  6
CONTINUOUS
 70
0
 71
3
 72
17
 73
13
 74
0
 42
0.0000001
 43
0.0000001
 44
0.0000000001
 40
0.0
 40
0.0
 40
0.0
 40
0.0
 40
0.1552088998
 40
0.30202142
 40
0.4395137552
 40
0.5672939515
 40
0.6856446074
 40
0.7956694767
 40
0.8482273534
 40
0.8995385917
 40
0.9499893227
 40
1.0
 40
1.0
 40
1.0
 40
1.0
 10
48.5151834739
 20
145.1956882741
 30
0.0
 10
48.0785513886
 20
145.0565672627
 30
0.0
 10
47.240236642
 20
144.747997769
 30
0.0
 10
46.0712195144
 20
144.1792626799
 30
0.0
 10
45.0415832299
 20
143.5254956318
 30
0.0
 10
44.1692788677
 20
142.7971479333
 30
0.0
 10
43.4699118364
 20
142.0058676924
 30
0.0
 10
43.0359091819
 20
141.2924323473
 30
0.0
 10
42.7943272307
 20
140.707814959
 30
0.0
 10
42.6661361539
 20
140.2695988864
 30
0.0
 10
42.5888975367
 20
139.8272661938
 30
0.0
 10
42.5717041377
 20
139.5303663626
 30
0.0
 10
42.571703786
 20
139.3827079916
 30
0.0
  0
SPLINE
  5
295
100
AcDbEntity
  8
0
100
AcDbSpline
 62
7
  6
CONTINUOUS
 70
0
 71
3
 72
14
 73
10
 74
0
 42
0.0000001
 43
0.0000001
 44
0.0000000001
 40
0.0
 40
0.0
 40
0.0
 40
0.0
 40
0.2892815416
 40
0.4225481749
 40
0.5484966089
 40
0.6678957267
 40
0.7818699926
 40
0.8919527859
 40
1.0
 40
1.0
 40
1.0
 40
1.0
 10
50.1826167016
 20
137.1373651467
 30
0.0
 10
49.9411890911
 20
137.2767502893
 30
0.0
 10
49.6030787018
 20
137.5095329192
 30
0.0
 10
49.2205619253
 20
137.8756328624
 30
0.0
 10
48.9877607579
 20
138.1578348353
 30
0.0
 10
48.8037095478
 20
138.4524344793
 30
0.0
 10
48.6704960581
 20
138.7568485189
 30
0.0
 10
48.5897650306
 20
139.0679519242
 30
0.0
 10
48.571706579
 20
139.2785850178
 30
0.0
 10
48.571706696
 20
139.382708024
 30
0.0
  0
SPLINE
  5
296
100
AcDbEntity
  8
0
100
AcDbSpline
 62
7
  6
CONTINUOUS
 70
0
 71
3
 72
15
 73
11
 74
0
 42
0.0000001
 43
0.0000001
 44
0.0000000001
 40
0.0
 40
0.0
 40
0.0
 40
0.0
 40
0.148585859
 40
0.289509077
 40
0.422724338
 40
0.5486438199
 40
0.6680026052
 40
0.7819393697
 40
0.8919879626
 40
1.0
 40
1.0
 40
1.0
 40
1.0
 10
45.9399936783
 20
129.7888857207
 30
0.0
 10
45.6806242196
 20
129.9386293599
 30
0.0
 10
45.1869883265
 20
130.2515109315
 30
0.0
 10
44.5121251381
 20
130.7738496109
 30
0.0
 10
43.9284042263
 20
131.3325771067
 30
0.0
 10
43.4416508719
 20
131.9225604761
 30
0.0
 10
43.0568209709
 20
132.5385848868
 30
0.0
 10
42.778256515
 20
133.1750695778
 30
0.0
 10
42.6095056459
 20
133.8255714677
 30
0.0
 10
42.5717034075
 20
134.2659824623
 30
0.0
 10
42.5717036556
 20
134.4836934893
 30
0.0
  0
SPLINE
  5
297
100
AcDbEntity
  8
0
100
AcDbSpline
 62
7
  6
CONTINUOUS
 70
0
 71
3
 72
25
 73
21
 74
0
 42
0.0000001
 43
0.0000001
 44
0.0000000001
 40
0.0
 40
0.0
 40
0.0
 40
0.0
 40
0.0623840336
 40
0.1287222446
 40
0.1983153961
 40
0.2702918594
 40
0.3436693995
 40
0.4174012963
 40
0.4904258461
 40
0.5617125061
 40
0.6303099833
 40
0.6953978631
 40
0.7563457079
 40
0.8127831727
 40
0.8646837614
 40
0.9124584201
 40
0.9351030502
 40
0.9571080297
 40
0.9786682752
 40
1.0
 40
1.0
 40
1.0
 40
1.0
 10
45.9399936783
 20
134.6879002235
 30
0.0
 10
46.3531727458
 20
134.4493565742
 30
0.0
 10
47.2386041115
 20
134.0127921346
 30
0.0
 10
48.6669297228
 20
133.4952801213
 30
0.0
 10
50.2104296884
 20
133.103438666
 30
0.0
 10
51.8361155947
 20
132.8456710777
 30
0.0
 10
53.5094885139
 20
132.7273779542
 30
0.0
 10
55.1948519532
 20
132.7510982585
 30
0.0
 10
56.8562556206
 20
132.9163189782
 30
0.0
 10
58.4582981419
 20
133.2195297615
 30
0.0
 10
59.9669450137
 20
133.6543205851
 30
0.0
 10
61.3503064778
 20
134.2116360054
 30
0.0
 10
62.5793055108
 20
134.8800612229
 30
0.0
 10
63.6282441546
 20
135.6465949102
 30
0.0
 10
64.4746510605
 20
136.4963896236
 30
0.0
 10
65.0044779637
 20
137.276066326
 30
0.0
 10
65.2997624093
 20
137.9197797566
 30
0.0
 10
65.4562571403
 20
138.402659617
 30
0.0
 10
65.5506387771
 20
138.891162471
 30
0.0
 10
65.5716714379
 20
139.2195690138
 30
0.0
 10
65.5716718265
 20
139.3827079944
 30
0.0
  0
SPLINE
  5
298
100
AcDbEntity
  8
0
100
AcDbSpline
 62
7
  6
CONTINUOUS
 70
0
 71
3
 72
15
 73
11
 74
0
 42
0.0000001
 43
0.0000001
 44
0.0000000001
 40
0.0
 40
0.0
 40
0.0
 40
0.0
 40
0.1080115469
 40
0.2180597418
 40
0.3319963583
 40
0.4513552396
 40
0.5772748058
 40
0.7104903709
 40
0.8514141455
 40
1.0
 40
1.0
 40
1.0
 40
1.0
 10
42.571703786
 20
139.3827079916
 30
0.0
 10
42.5717032674
 20
139.1649979616
 30
0.0
 10
42.6095064344
 20
138.7245888952
 30
0.0
 10
42.7782546692
 20
138.0740886289
 30
0.0
 10
43.0568184784
 20
137.4376045394
 30
0.0
 10
43.4416482171
 20
136.8215800733
 30
0.0
 10
43.9284007468
 20
136.2315947891
 30
0.0
 10
44.5121230182
 20
135.6728659027
 30
0.0
 10
45.1869876038
 20
135.1505262976
 30
0.0
 10
45.6806242374
 20
134.8376438524
 30
0.0
 10
45.9399936783
 20
134.6879002235
 30
0.0
  0
SPLINE
  5
299
100
AcDbEntity
  8
0
100
AcDbSpline
 62
7
  6
CONTINUOUS
 70
0
 71
3
 72
25
 73
21
 74
0
 42
0.0000001
 43
0.0000001
 44
0.0000000001
 40
0.0
 40
0.0
 40
0.0
 40
0.0
 40
0.0213317673
 40
0.0428920449
 40
0.064897041
 40
0.0875416754
 40
0.1353163413
 40
0.1872169623
 40
0.2436544524
 40
0.3046022528
 40
0.369690022
 40
0.4382873875
 40
0.5095739519
 40
0.5825983415
 40
0.6563299923
 40
0.7297073704
 40
0.8016839112
 40
0.8712772806
 40
0.9376157976
 40
1.0
 40
1.0
 40
1.0
 40
1.0
 10
65.571671957
 20
134.4836934912
 30
0.0
 10
65.571671771
 20
134.3205541847
 30
0.0
 10
65.5506387961
 20
133.9921470649
 30
0.0
 10
65.456256957
 20
133.5036435455
 30
0.0
 10
65.2997617121
 20
133.0207634175
 30
0.0
 10
65.0044771046
 20
132.3770498291
 30
0.0
 10
64.474649535
 20
131.5973731366
 30
0.0
 10
63.6282419473
 20
130.7475784149
 30
0.0
 10
62.579302915
 20
129.9810450706
 30
0.0
 10
61.3503045972
 20
129.3126206288
 30
0.0
 10
59.9669449813
 20
128.7553060925
 30
0.0
 10
58.4583004772
 20
128.3205158416
 30
0.0
 10
56.8562607739
 20
128.0173052859
 30
0.0
 10
55.1948609848
 20
127.8520843758
 30
0.0
 10
53.5095019156
 20
127.8283632162
 30
0.0
 10
51.8361314173
 20
127.9466547731
 30
0.0
 10
50.2104443007
 20
128.2044212518
 30
0.0
 10
48.6669394567
 20
128.5962623103
 30
0.0
 10
47.2386086592
 20
129.1137756757
 30
0.0
 10
46.3531738657
 20
129.5503414249
 30
0.0
 10
45.9399936783
 20
129.7888857207
 30
0.0
  0
SPLINE
  5
29A
100
AcDbEntity
  8
0
100
AcDbSpline
 62
7
  6
CONTINUOUS
 70
0
 71
3
 72
13
 73
9
 74
0
 42
0.0000001
 43
0.0000001
 44
0.0000000001
 40
0.0
 40
0.0
 40
0.0
 40
0.0
 40
0.283461033
 40
0.4162344568
 40
0.5430718917
 40
0.7800863003
 40
0.8917934914
 40
1.0
 40
1.0
 40
1.0
 40
1.0
 10
47.0006494341
 20
117.3662267975
 30
0.0
 10
46.6425244259
 20
117.5729856899
 30
0.0
 10
46.1350197428
 20
117.9118085868
 30
0.0
 10
45.5348472311
 20
118.4303606065
 30
0.0
 10
45.0303237592
 20
118.9511313919
 30
0.0
 10
44.6197180512
 20
119.5181972715
 30
0.0
 10
44.3294110532
 20
120.1197323268
 30
0.0
 10
44.2265785518
 20
120.4247575993
 30
0.0
 10
44.1862315116
 20
120.577370472
 30
0.0
  0
SPLINE
  5
29B
100
AcDbEntity
  8
0
100
AcDbSpline
 62
7
  6
CONTINUOUS
 70
0
 71
3
 72
23
 73
19
 74
0
 42
0.0000001
 43
0.0000001
 44
0.0000000001
 40
0.0
 40
0.0
 40
0.0
 40
0.0
 40
0.0488210112
 40
0.1010566783
 40
0.1567261178
 40
0.2156697436
 40
0.2775847221
 40
0.342055103
 40
0.4085775536
 40
0.4765838013
 40
0.5454615325
 40
0.614573879
 40
0.6832769846
 40
0.7509383575
 40
0.8169574262
 40
0.8807763115
 40
0.9419273273
 40
1.0
 40
1.0
 40
1.0
 40
1.0
 10
63.0207914637
 20
118.8723246894
 30
0.0
 10
62.8387520313
 20
118.6615658472
 30
0.0
 10
62.4285982117
 20
118.2534241129
 30
0.0
 10
61.7183173396
 20
117.7073001253
 30
0.0
 10
60.902460322
 20
117.2137206339
 30
0.0
 10
59.9923909581
 20
116.7793291677
 30
0.0
 10
59.0005285367
 20
116.4098469132
 30
0.0
 10
57.9405101751
 20
116.1102935357
 30
0.0
 10
56.8269374822
 20
115.884769896
 30
0.0
 10
55.6752013432
 20
115.7363806076
 30
0.0
 10
54.5012458025
 20
115.6671652411
 30
0.0
 10
53.3213359286
 20
115.6780836836
 30
0.0
 10
52.1518261337
 20
115.7689852527
 30
0.0
 10
51.0089078698
 20
115.9386198169
 30
0.0
 10
49.9084368896
 20
116.1846577637
 30
0.0
 10
48.86549022
 20
116.5036777995
 30
0.0
 10
47.8946751334
 20
116.8913448304
 30
0.0
 10
47.2875361487
 20
117.2005964227
 30
0.0
 10
47.0006494341
 20
117.3662267975
 30
0.0
  0
SPLINE
  5
29C
100
AcDbEntity
  8
0
100
AcDbSpline
 62
7
  6
CONTINUOUS
 70
0
 71
3
 72
14
 73
10
 74
0
 42
0.0000001
 43
0.0000001
 44
0.0000000001
 40
0.0
 40
0.0
 40
0.0
 40
0.0
 40
0.2841414958
 40
0.4160117896
 40
0.5415726734
 40
0.6615724073
 40
0.7770598851
 40
0.8893566575
 40
1.0
 40
1.0
 40
1.0
 40
1.0
 10
66.2088255386
 20
117.8415542193
 30
0.0
 10
65.853140809
 20
117.5967112005
 30
0.0
 10
65.3580982414
 20
117.1958560414
 30
0.0
 10
64.8046334349
 20
116.5850072619
 30
0.0
 10
64.4682544358
 20
116.1187466076
 30
0.0
 10
64.2033220184
 20
115.6365714651
 30
0.0
 10
64.0121262101
 20
115.1419935664
 30
0.0
 10
63.8966336352
 20
114.6390180738
 30
0.0
 10
63.8707703904
 20
114.299676741
 30
0.0
 10
63.8707703879
 20
114.1315320532
 30
0.0
  0
SPLINE
  5
29D
100
AcDbEntity
  8
0
100
AcDbSpline
 62
7
  6
CONTINUOUS
 70
0
 71
3
 72
25
 73
21
 74
0
 42
0.0000001
 43
0.0000001
 44
0.0000000001
 40
0.0
 40
0.0
 40
0.0
 40
0.0
 40
0.0213320944
 40
0.0428927233
 40
0.0648979454
 40
0.0875430046
 40
0.13531812
 40
0.1872188719
 40
0.2436562232
 40
0.304603764
 40
0.3696912488
 40
0.4382883901
 40
0.5095748299
 40
0.5825991644
 40
0.6563311217
 40
0.7297074603
 40
0.801684062
 40
0.871275085
 40
0.9376185798
 40
1.0
 40
1.0
 40
1.0
 40
1.0
 10
84.2849664062
 20
139.0348767496
 30
0.0
 10
84.2849747
 20
139.1625532952
 30
0.0
 10
84.2684933866
 20
139.4195719601
 30
0.0
 10
84.1946340618
 20
139.8018848407
 30
0.0
 10
84.0721612949
 20
140.1798001486
 30
0.0
 10
83.8410469427
 20
140.6835747946
 30
0.0
 10
83.4263981143
 20
141.2937637025
 30
0.0
 10
82.7639828997
 20
141.9588198461
 30
0.0
 10
81.9430722831
 20
142.5587141862
 30
0.0
 10
80.9812468212
 20
143.0818257812
 30
0.0
 10
79.8986171151
 20
143.5179801329
 30
0.0
 10
78.7179370772
 20
143.858243584
 30
0.0
 10
77.4641643162
 20
144.0955302877
 30
0.0
 10
76.1639333321
 20
144.2248286109
 30
0.0
 10
74.8449580838
 20
144.2433804411
 30
0.0
 10
73.5353630956
 20
144.1508119228
 30
0.0
 10
72.2631071436
 20
143.9490597855
 30
0.0
 10
71.0551197826
 20
143.6424270871
 30
0.0
 10
69.9373053064
 20
143.2373815058
 30
0.0
 10
69.2443385012
 20
142.8957248301
 30
0.0
 10
68.9209949783
 20
142.7090434745
 30
0.0
  0
SPLINE
  5
29E
100
AcDbEntity
  8
0
100
AcDbSpline
 62
7
  6
CONTINUOUS
 70
0
 71
3
 72
14
 73
10
 74
0
 42
0.0000001
 43
0.0000001
 44
0.0000000001
 40
0.0
 40
0.0
 40
0.0
 40
0.0
 40
0.2892814018
 40
0.422543424
 40
0.548494911
 40
0.6678954951
 40
0.7818684284
 40
0.8919514907
 40
1.0
 40
1.0
 40
1.0
 40
1.0
 10
68.9209949783
 20
142.7090434745
 30
0.0
 10
68.5259383658
 20
142.4809587943
 30
0.0
 10
67.9726860587
 20
142.1000436328
 30
0.0
 10
67.3467551741
 20
141.5009832969
 30
0.0
 10
66.9658262181
 20
141.0391942451
 30
0.0
 10
66.6646298025
 20
140.5571378249
 30
0.0
 10
66.4466654535
 20
140.0590013086
 30
0.0
 10
66.3145728858
 20
139.5499276893
 30
0.0
 10
66.285009671
 20
139.2052596416
 30
0.0
 10
66.2849986031
 20
139.0348766179
 30
0.0
  0
SPLINE
  5
29F
100
AcDbEntity
  8
0
100
AcDbSpline
 62
7
  6
CONTINUOUS
 70
0
 71
3
 72
14
 73
10
 74
0
 42
0.0000001
 43
0.0000001
 44
0.0000000001
 40
0.0
 40
0.0
 40
0.0
 40
0.0
 40
0.1106433655
 40
0.2229401579
 40
0.3384276498
 40
0.4584273894
 40
0.5839882719
 40
0.7158585548
 40
1.0
 40
1.0
 40
1.0
 40
1.0
 10
86.6991946215
 20
112.4985690351
 30
0.0
 10
86.699194624
 20
112.6667135402
 30
0.0
 10
86.6733314262
 20
113.0060544974
 30
0.0
 10
86.5578391141
 20
113.5090294501
 30
0.0
 10
86.3666437103
 20
114.0036068306
 30
0.0
 10
86.1017118734
 20
114.4857815084
 30
0.0
 10
85.7653335721
 20
114.9520417347
 30
0.0
 10
85.2118699442
 20
115.5628900093
 30
0.0
 10
84.7168283766
 20
115.9637449405
 30
0.0
 10
84.3611443428
 20
116.208587848
 30
0.0
  0
SPLINE
  5
2A0
100
AcDbEntity
  8
0
100
AcDbSpline
 62
7
  6
CONTINUOUS
 70
0
 71
3
 72
15
 73
11
 74
0
 42
0.0000001
 43
0.0000001
 44
0.0000000001
 40
0.0
 40
0.0
 40
0.0
 40
0.0
 40
0.1141588269
 40
0.2373260415
 40
0.366976732
 40
0.5000005214
 40
0.6330242383
 40
0.7626747169
 40
0.8858415979
 40
1.0
 40
1.0
 40
1.0
 40
1.0
 10
69.6281635828
 20
108.4161274964
 30
0.0
 10
70.112253501
 20
108.1366443746
 30
0.0
 10
71.1707597957
 20
107.6437366554
 30
0.0
 10
72.894494085
 20
107.1198719411
 30
0.0
 10
74.7606674257
 20
106.7973741036
 30
0.0
 10
76.6992433197
 20
106.6885765723
 30
0.0
 10
78.6378176642
 20
106.7973833044
 30
0.0
 10
80.503986426
 20
107.119890003
 30
0.0
 10
82.2277132952
 20
107.643762911
 30
0.0
 10
83.2862131047
 20
108.1366759171
 30
0.0
 10
83.7702992064
 20
108.4161614899
 30
0.0
  0
SPLINE
  5
2A1
100
AcDbEntity
  8
0
100
AcDbSpline
 62
7
  6
CONTINUOUS
 70
0
 71
3
 72
14
 73
10
 74
0
 42
0.0000001
 43
0.0000001
 44
0.0000000001
 40
0.0
 40
0.0
 40
0.0
 40
0.0
 40
0.2892814018
 40
0.422543424
 40
0.548494911
 40
0.6678954951
 40
0.7818684284
 40
0.8919514907
 40
1.0
 40
1.0
 40
1.0
 40
1.0
 10
81.648970031
 20
135.3607098931
 30
0.0
 10
82.0440266435
 20
135.5887945732
 30
0.0
 10
82.5972789506
 20
135.9697097347
 30
0.0
 10
83.2232098352
 20
136.5687700706
 30
0.0
 10
83.6041387913
 20
137.0305591225
 30
0.0
 10
83.9053352068
 20
137.5126155426
 30
0.0
 10
84.1232995558
 20
138.0107520589
 30
0.0
 10
84.2553921235
 20
138.5198256782
 30
0.0
 10
84.2849553383
 20
138.864493726
 30
0.0
 10
84.2849664062
 20
139.0348767496
 30
0.0
  0
SPLINE
  5
2A2
100
AcDbEntity
  8
0
100
AcDbSpline
 62
7
  6
CONTINUOUS
 70
0
 71
3
 72
15
 73
11
 74
0
 42
0.0000001
 43
0.0000001
 44
0.0000000001
 40
0.0
 40
0.0
 40
0.0
 40
0.0
 40
0.1080119943
 40
0.2180592782
 40
0.3319961604
 40
0.4513575451
 40
0.5772711684
 40
0.7104879551
 40
0.851425795
 40
1.0
 40
1.0
 40
1.0
 40
1.0
 10
63.8707703879
 20
114.1315320532
 30
0.0
 10
63.870770385
 20
113.9422183944
 30
0.0
 10
63.9036726017
 20
113.5592574762
 30
0.0
 10
64.0503964811
 20
112.9936062901
 30
0.0
 10
64.2926057741
 20
112.4401270031
 30
0.0
 10
64.6272723374
 20
111.9044812165
 30
0.0
 10
65.0505033771
 20
111.3914327533
 30
0.0
 10
65.5581028898
 20
110.905570768
 30
0.0
 10
66.1449613585
 20
110.4513803521
 30
0.0
 10
66.5742039528
 20
110.1792920228
 30
0.0
 10
66.7997246822
 20
110.0490905145
 30
0.0
  0
SPLINE
  5
2A3
100
AcDbEntity
  8
0
100
AcDbSpline
 62
7
  6
CONTINUOUS
 70
0
 71
3
 72
25
 73
21
 74
0
 42
0.0000001
 43
0.0000001
 44
0.0000000001
 40
0.0
 40
0.0
 40
0.0
 40
0.0
 40
0.0623807001
 40
0.1287233544
 40
0.1983143555
 40
0.2702912252
 40
0.3436682911
 40
0.4174012795
 40
0.4904267563
 40
0.5617142024
 40
0.6303119977
 40
0.6953996814
 40
0.7563470403
 40
0.8127839228
 40
0.8646840028
 40
0.9124583577
 40
0.9351030288
 40
0.9571079011
 40
0.9786681975
 40
1.0
 40
1.0
 40
1.0
 40
1.0
 10
81.648970031
 20
109.6408837535
 30
0.0
 10
81.3256302359
 20
109.4542045501
 30
0.0
 10
80.6326726821
 20
109.1125503109
 30
0.0
 10
79.514867331
 20
108.7075073767
 30
0.0
 10
78.306884402
 20
108.4008717513
 30
0.0
 10
77.0346228093
 20
108.1991173805
 30
0.0
 10
75.7250157784
 20
108.1065467372
 30
0.0
 10
74.4060230856
 20
108.1250988544
 30
0.0
 10
73.1057732118
 20
108.2544003875
 30
0.0
 10
71.8519844399
 20
108.4916932692
 30
0.0
 10
70.6712950562
 20
108.8319648909
 30
0.0
 10
69.588664217
 20
109.2681274042
 30
0.0
 10
68.626844724
 20
109.7912443379
 30
0.0
 10
67.8059448268
 20
110.3911400357
 30
0.0
 10
67.143542949
 20
111.0561931166
 30
0.0
 10
66.7289034679
 20
111.6663753183
 30
0.0
 10
66.4977978378
 20
112.1701439957
 30
0.0
 10
66.3753272092
 20
112.548053203
 30
0.0
 10
66.3014710843
 20
112.9303608087
 30
0.0
 10
66.2849904214
 20
113.187375682
 30
0.0
 10
66.2849986039
 20
113.3150504826
 30
0.0
  0
SPLINE
  5
2A4
100
AcDbEntity
  8
0
100
AcDbSpline
 62
7
  6
CONTINUOUS
 70
0
 71
3
 72
14
 73
10
 74
0
 42
0.0000001
 43
0.0000001
 44
0.0000000001
 40
0.0
 40
0.0
 40
0.0
 40
0.0
 40
0.1080470875
 40
0.2181290295
 40
0.3321012046
 40
0.4515012709
 40
0.5774524266
 40
0.7107152798
 40
1.0
 40
1.0
 40
1.0
 40
1.0
 10
84.2849664054
 20
113.3150506058
 30
0.0
 10
84.2849554858
 20
113.1446698322
 30
0.0
 10
84.2553931012
 20
112.8000058055
 30
0.0
 10
84.1233029379
 20
112.2909369768
 30
0.0
 10
83.9053413132
 20
111.7928035315
 30
0.0
 10
83.6041493607
 20
111.3107473554
 30
0.0
 10
83.2232216557
 20
110.8489572883
 30
0.0
 10
82.5972889749
 20
110.2498901803
 30
0.0
 10
82.0440311566
 20
109.8689710392
 30
0.0
 10
81.648970031
 20
109.6408837535
 30
0.0
  0
SPLINE
  5
2A5
100
AcDbEntity
  8
0
100
AcDbSpline
 62
7
  6
CONTINUOUS
 70
0
 71
3
 72
15
 73
11
 74
0
 42
0.0000001
 43
0.0000001
 44
0.0000000001
 40
0.0
 40
0.0
 40
0.0
 40
0.0
 40
0.1485739416
 40
0.2895115751
 40
0.4227282311
 40
0.5486418119
 40
0.6680032485
 40
0.7819402697
 40
0.8919877609
 40
1.0
 40
1.0
 40
1.0
 40
1.0
 10
83.7702992064
 20
108.4161614899
 30
0.0
 10
83.9958156854
 20
108.5463627126
 30
0.0
 10
84.4250500993
 20
108.8184501443
 30
0.0
 10
85.0118970279
 20
109.2726380832
 30
0.0
 10
85.5194863243
 20
109.7584966423
 30
0.0
 10
85.9427086708
 20
110.2715408455
 30
0.0
 10
86.2773682434
 20
110.8071816608
 30
0.0
 10
86.5195723888
 20
111.3606554067
 30
0.0
 10
86.6662931269
 20
111.9263006386
 30
0.0
 10
86.6991946186
 20
112.3092573914
 30
0.0
 10
86.6991946215
 20
112.4985690351
 30
0.0
  0
SPLINE
  5
2A6
100
AcDbEntity
  8
0
100
AcDbSpline
 62
7
  6
CONTINUOUS
 70
0
 71
3
 72
25
 73
21
 74
0
 42
0.0000001
 43
0.0000001
 44
0.0000000001
 40
0.0
 40
0.0
 40
0.0
 40
0.0
 40
0.0213320944
 40
0.0428927233
 40
0.0648979454
 40
0.0875430046
 40
0.13531812
 40
0.1872188719
 40
0.2436562232
 40
0.304603764
 40
0.3696912488
 40
0.4382883901
 40
0.5095748299
 40
0.5825991644
 40
0.6563311217
 40
0.7297074603
 40
0.801684062
 40
0.871275085
 40
0.9376185798
 40
1.0
 40
1.0
 40
1.0
 40
1.0
 10
66.2849986031
 20
139.0348766179
 30
0.0
 10
66.2849903093
 20
138.9072000723
 30
0.0
 10
66.3014716227
 20
138.6501814075
 30
0.0
 10
66.3753309475
 20
138.2678685268
 30
0.0
 10
66.4978037144
 20
137.8899532189
 30
0.0
 10
66.7289180666
 20
137.3861785729
 30
0.0
 10
67.143566895
 20
136.775989665
 30
0.0
 10
67.8059821096
 20
136.1109335214
 30
0.0
 10
68.6268927262
 20
135.5110391813
 30
0.0
 10
69.5887181881
 20
134.9879275863
 30
0.0
 10
70.6713478942
 20
134.5517732346
 30
0.0
 10
71.8520279321
 20
134.2115097835
 30
0.0
 10
73.1058006931
 20
133.9742230799
 30
0.0
 10
74.4060316773
 20
133.8449247566
 30
0.0
 10
75.7250069255
 20
133.8263729265
 30
0.0
 10
77.0346019137
 20
133.9189414447
 30
0.0
 10
78.3068578657
 20
134.120693582
 30
0.0
 10
79.5148452267
 20
134.4273262805
 30
0.0
 10
80.6326597029
 20
134.8323718618
 30
0.0
 10
81.3256265081
 20
135.1740285375
 30
0.0
 10
81.648970031
 20
135.3607098931
 30
0.0
  0
SPLINE
  5
2A7
100
AcDbEntity
  8
0
100
AcDbSpline
 62
7
  6
CONTINUOUS
 70
0
 71
3
 72
14
 73
10
 74
0
 42
0.0000001
 43
0.0000001
 44
0.0000000001
 40
0.0
 40
0.0
 40
0.0
 40
0.0
 40
0.2892720869
 40
0.422555362
 40
0.5484994548
 40
0.667888693
 40
0.7818693321
 40
0.8919533257
 40
1.0
 40
1.0
 40
1.0
 40
1.0
 10
81.8258387252
 20
30.8380030563
 30
0.0
 10
81.8258387252
 20
30.3438164107
 30
0.0
 10
81.7681360346
 20
29.618380388
 30
0.0
 10
81.5451087568
 20
28.7066200224
 30
0.0
 10
81.3182609742
 20
28.0990378973
 30
0.0
 10
81.0289967458
 20
27.5554287
 30
0.0
 10
80.6798384193
 20
27.0809969198
 30
0.0
 10
80.2736515964
 20
26.6814031673
 30
0.0
 10
79.9663470969
 20
26.4668913282
 30
0.0
 10
79.8064917457
 20
26.3745993654
 30
0.0
  0
SPLINE
  5
2A8
100
AcDbEntity
  8
0
100
AcDbSpline
 62
7
  6
CONTINUOUS
 70
0
 71
3
 72
15
 73
11
 74
0
 42
0.0000001
 43
0.0000001
 44
0.0000000001
 40
0.0
 40
0.0
 40
0.0
 40
0.0
 40
0.1141547311
 40
0.2373259733
 40
0.3669751276
 40
0.4999989055
 40
0.633022836
 40
0.7626724346
 40
0.8858443789
 40
1.0
 40
1.0
 40
1.0
 40
1.0
 10
74.931518905
 20
91.7693940077
 30
0.0
 10
75.4034905865
 20
91.4969071948
 30
0.0
 10
76.3357139958
 20
90.843426042
 30
0.0
 10
77.6184159996
 20
89.6433848608
 30
0.0
 10
78.8004959171
 20
88.2248390407
 30
0.0
 10
79.8374159625
 20
86.6409963619
 30
0.0
 10
80.6906129279
 20
84.9510780997
 30
0.0
 10
81.3280809637
 20
83.2180915409
 30
0.0
 10
81.7260091644
 20
81.5072115536
 30
0.0
 10
81.8258387252
 20
80.3731352053
 30
0.0
 10
81.8258387252
 20
79.8281480841
 30
0.0
  0
SPLINE
  5
2A9
100
AcDbEntity
  8
0
100
AcDbSpline
 62
7
  6
CONTINUOUS
 70
0
 71
3
 72
14
 73
10
 74
0
 42
0.0000001
 43
0.0000001
 44
0.0000000001
 40
0.0
 40
0.0
 40
0.0
 40
0.0
 40
0.1080471782
 40
0.2181315987
 40
0.3321125239
 40
0.4515018634
 40
0.5774458686
 40
0.7107288814
 40
1.0
 40
1.0
 40
1.0
 40
1.0
 10
27.6299625556
 20
116.7466917595
 30
0.0
 10
27.78981437
 20
116.8389816804
 30
0.0
 10
28.1292320895
 20
116.9978545772
 30
0.0
 10
28.6783710026
 20
117.1498224473
 30
0.0
 10
29.2638055403
 20
117.214986919
 30
0.0
 10
29.8792011248
 20
117.1936965666
 30
0.0
 10
30.5187897644
 20
117.0863690573
 30
0.0
 10
31.4198869099
 20
116.82365139
 30
0.0
 10
32.0769676842
 20
116.5109209629
 30
0.0
 10
32.5049353962
 20
116.2638392789
 30
0.0
  0
SPLINE
  5
2AA
100
AcDbEntity
  8
0
100
AcDbSpline
 62
7
  6
CONTINUOUS
 70
0
 71
3
 72
9
 73
5
 74
0
 42
0.0000001
 43
0.0000001
 44
0.0000000001
 40
0.0
 40
0.0
 40
0.0
 40
0.0
 40
0.4933070637
 40
1.0
 40
1.0
 40
1.0
 40
1.0
 10
77.7756389628
 20
25.2040728813
 30
0.0
 10
77.9512176899
 20
25.313200819
 30
0.0
 10
78.2865876212
 20
25.5691811161
 30
0.0
 10
78.5687449209
 20
25.8823754002
 30
0.0
 10
78.6971262429
 20
26.051507961
 30
0.0
  0
SPLINE
  5
2AB
100
AcDbEntity
  8
0
100
AcDbSpline
 62
7
  6
CONTINUOUS
 70
0
 71
3
 72
9
 73
5
 74
0
 42
0.0000001
 43
0.0000001
 44
0.0000000001
 40
0.0
 40
0.0
 40
0.0
 40
0.0
 40
0.2419627448
 40
1.0
 40
1.0
 40
1.0
 40
1.0
 10
78.6971262429
 20
26.051507961
 30
0.0
 10
78.7521232067
 20
26.1239622494
 30
0.0
 10
78.9686844506
 20
26.4315062684
 30
0.0
 10
79.1418357458
 20
26.7687843755
 30
0.0
 10
79.2498081362
 20
27.032513323
 30
0.0
  0
SPLINE
  5
2AC
100
AcDbEntity
  8
0
100
AcDbSpline
 62
7
  6
CONTINUOUS
 70
0
 71
3
 72
9
 73
5
 74
0
 42
0.0000001
 43
0.0000001
 44
0.0000000001
 40
0.0
 40
0.0
 40
0.0
 40
0.0
 40
0.2355300849
 40
1.0
 40
1.0
 40
1.0
 40
1.0
 10
79.4053661578
 20
27.466374351
 30
0.0
 10
79.4536676536
 20
27.6215932368
 30
0.0
 10
79.6301940821
 20
28.2894709359
 30
0.0
 10
79.6979941
 20
28.9834444086
 30
0.0
 10
79.7039517076
 20
29.5110404416
 30
0.0
  0
SPLINE
  5
2AD
100
AcDbEntity
  8
0
100
AcDbSpline
 62
7
  6
CONTINUOUS
 70
0
 71
3
 72
9
 73
5
 74
0
 42
0.0000001
 43
0.0000001
 44
0.0000000001
 40
0.0
 40
0.0
 40
0.0
 40
0.0
 40
0.5222351915
 40
1.0
 40
1.0
 40
1.0
 40
1.0
 10
30.3836238846
 20
115.0391068173
 30
0.0
 10
30.0327745836
 20
115.2416651732
 30
0.0
 10
29.3343641237
 20
115.5861335536
 30
0.0
 10
28.5876890202
 20
115.8138156439
 30
0.0
 10
28.2240161819
 20
115.8852683471
 30
0.0
  0
SPLINE
  5
2AE
100
AcDbEntity
  8
0
100
AcDbSpline
 62
7
  6
CONTINUOUS
 70
0
 71
3
 72
9
 73
5
 74
0
 42
0.0000001
 43
0.0000001
 44
0.0000000001
 40
0.0
 40
0.0
 40
0.0
 40
0.0
 40
0.5142295283
 40
1.0
 40
1.0
 40
1.0
 40
1.0
 10
28.0067951875
 20
115.9232827639
 30
0.0
 10
27.7654455405
 20
115.960275382
 30
0.0
 10
27.2900360941
 20
115.9986626208
 30
0.0
 10
26.8141578674
 20
115.9570533136
 30
0.0
 10
26.5873235773
 20
115.915244093
 30
0.0
  0
SPLINE
  5
2AF
100
AcDbEntity
  8
0
100
AcDbSpline
 62
7
  6
CONTINUOUS
 70
0
 71
3
 72
9
 73
5
 74
0
 42
0.0000001
 43
0.0000001
 44
0.0000000001
 40
0.0
 40
0.0
 40
0.0
 40
0.0
 40
0.5047719613
 40
1.0
 40
1.0
 40
1.0
 40
1.0
 10
26.5873235773
 20
115.915244093
 30
0.0
 10
26.4278507396
 20
115.8858506751
 30
0.0
 10
26.1154013513
 20
115.8063281608
 30
0.0
 10
25.8173376372
 20
115.6831205037
 30
0.0
 10
25.6751625245
 20
115.6117283773
 30
0.0
  0
SPLINE
  5
2B0
100
AcDbEntity
  8
0
100
AcDbSpline
 62
7
  6
CONTINUOUS
 70
0
 71
3
 72
15
 73
11
 74
0
 42
0.0000001
 43
0.0000001
 44
0.0000000001
 40
0.0
 40
0.0
 40
0.0
 40
0.0
 40
0.1143591642
 40
0.2376247682
 40
0.3672777379
 40
0.500238297
 40
0.6331660656
 40
0.7627226511
 40
0.8858378641
 40
1.0
 40
1.0
 40
1.0
 40
1.0
 10
79.7044115124
 20
78.6494602932
 30
0.0
 10
79.7016840172
 20
79.1930564025
 30
0.0
 10
79.5976482448
 20
80.3231400289
 30
0.0
 10
79.1962747459
 20
82.026835718
 30
0.0
 10
78.5580817579
 20
83.7511723286
 30
0.0
 10
77.7066373524
 20
85.4319450267
 30
0.0
 10
76.6735898666
 20
87.007079397
 30
0.0
 10
75.4969859146
 20
88.4182439871
 30
0.0
 10
74.2207282266
 20
89.6130291829
 30
0.0
 10
73.2934898972
 20
90.2645372269
 30
0.0
 10
72.8239976276
 20
90.5366839024
 30
0.0
  0
SPLINE
  5
2B1
100
AcDbEntity
  8
0
100
AcDbSpline
 62
7
  6
CONTINUOUS
 70
0
 71
3
 72
14
 73
10
 74
0
 42
0.0000001
 43
0.0000001
 44
0.0000000001
 40
0.0
 40
0.0
 40
0.0
 40
0.0
 40
0.1078254003
 40
0.2177582766
 40
0.3316572063
 40
0.4510515821
 40
0.5770567623
 40
0.7104287458
 40
1.0
 40
1.0
 40
1.0
 40
1.0
 10
25.5294491912
 20
115.4781579584
 30
0.0
 10
25.6890428168
 20
115.5693042845
 30
0.0
 10
26.0279048845
 20
115.7259142063
 30
0.0
 10
26.5759820042
 20
115.8740057146
 30
0.0
 10
27.1600884287
 20
115.9355263653
 30
0.0
 10
27.7739283043
 20
115.9102633
 30
0.0
 10
28.4116540907
 20
115.7991849047
 30
0.0
 10
29.3098196223
 20
115.5312691522
 30
0.0
 10
29.9641362539
 20
115.2150650433
 30
0.0
 10
30.3901449633
 20
114.9658077122
 30
0.0
  0
SPLINE
  5
2B2
100
AcDbEntity
  8
0
100
AcDbSpline
 62
7
  6
CONTINUOUS
 70
0
 71
3
 72
15
 73
11
 74
0
 42
0.0000001
 43
0.0000001
 44
0.0000000001
 40
0.0
 40
0.0
 40
0.0
 40
0.0
 40
0.1144139131
 40
0.2377371311
 40
0.3674335499
 40
0.5004182141
 40
0.6333447837
 40
0.7628714195
 40
0.8859270275
 40
1.0
 40
1.0
 40
1.0
 40
1.0
 10
72.8167284721
 20
90.5245357978
 30
0.0
 10
73.2850207343
 20
90.2505383962
 30
0.0
 10
74.2093803518
 20
89.595922857
 30
0.0
 10
75.4807244495
 20
88.3978870159
 30
0.0
 10
76.6514276222
 20
86.9850531261
 30
0.0
 10
77.6777541036
 20
85.4099893661
 30
0.0
 10
78.5218143372
 20
83.7310836702
 30
0.0
 10
79.15224222
 20
82.0104285174
 30
0.0
 10
79.5456723708
 20
80.3121860277
 30
0.0
 10
79.6443090845
 20
79.1866556018
 30
0.0
 10
79.6443090845
 20
78.6457115745
 30
0.0
  0
SPLINE
  5
2B3
100
AcDbEntity
  8
0
100
AcDbSpline
 62
7
  6
CONTINUOUS
 70
0
 71
3
 72
14
 73
10
 74
0
 42
0.0000001
 43
0.0000001
 44
0.0000000001
 40
0.0
 40
0.0
 40
0.0
 40
0.0
 40
0.1080468785
 40
0.2181313085
 40
0.3321070292
 40
0.4515057475
 40
0.5774529914
 40
0.7107192171
 40
1.0
 40
1.0
 40
1.0
 40
1.0
 10
16.6775744861
 20
110.3675970906
 30
0.0
 10
16.5192618993
 20
110.2761974963
 30
0.0
 10
16.2148602229
 20
110.0638386613
 30
0.0
 10
15.8127076384
 20
109.6680008785
 30
0.0
 10
15.466797545
 20
109.1982361816
 30
0.0
 10
15.1804332243
 20
108.6597976845
 30
0.0
 10
14.955716706
 20
108.0581211496
 30
0.0
 10
14.7348548608
 20
107.1551663907
 30
0.0
 10
14.6777170454
 20
106.4367523934
 30
0.0
 10
14.6777170454
 20
105.9473235772
 30
0.0
  0
SPLINE
  5
2B4
100
AcDbEntity
  8
0
100
AcDbSpline
 62
7
  6
CONTINUOUS
 70
0
 71
3
 72
14
 73
10
 74
0
 42
0.0000001
 43
0.0000001
 44
0.0000000001
 40
0.0
 40
0.0
 40
0.0
 40
0.0
 40
0.2892806218
 40
0.4225474689
 40
0.5484944096
 40
0.6678928001
 40
0.7818687636
 40
0.8919531987
 40
1.0
 40
1.0
 40
1.0
 40
1.0
 10
79.6451940778
 20
29.5291320432
 30
0.0
 10
79.6451940778
 20
29.0474683181
 30
0.0
 10
79.5889632514
 20
28.3404510183
 30
0.0
 10
79.3716039431
 20
27.451822025
 30
0.0
 10
79.1504551722
 20
26.859689842
 30
0.0
 10
78.8686289111
 20
26.3297975132
 30
0.0
 10
78.5282120669
 20
25.8674817
 30
0.0
 10
78.1324354166
 20
25.4779279933
 30
0.0
 10
77.832865947
 20
25.2689342874
 30
0.0
 10
77.6770640944
 20
25.1789865807
 30
0.0
  0
SPLINE
  5
2B5
100
AcDbEntity
  8
0
100
AcDbSpline
 62
7
  6
CONTINUOUS
 70
0
 71
3
 72
14
 73
10
 74
0
 42
0.0000001
 43
0.0000001
 44
0.0000000001
 40
0.0
 40
0.0
 40
0.0
 40
0.0
 40
0.2901836828
 40
0.4237047002
 40
0.5497362519
 40
0.6690378161
 40
0.7827449527
 40
0.8924280022
 40
1.0
 40
1.0
 40
1.0
 40
1.0
 10
63.977930507
 20
20.6104964141
 30
0.0
 10
64.4034324805
 20
20.3568632235
 30
0.0
 10
65.0575115654
 20
20.0345024898
 30
0.0
 10
65.9565930308
 20
19.7599682133
 30
0.0
 10
66.5948511668
 20
19.6452885937
 30
0.0
 10
67.2091220262
 20
19.6176476896
 30
0.0
 10
67.7933748797
 20
19.6781157043
 30
0.0
 10
68.3411136266
 20
19.8264697379
 30
0.0
 10
68.6792345163
 20
19.9841223457
 30
0.0
 10
68.8382661298
 20
20.0759346564
 30
0.0
  0
SPLINE
  5
2B6
100
AcDbEntity
  8
0
100
AcDbSpline
 62
7
  6
CONTINUOUS
 70
0
 71
3
 72
15
 73
11
 74
0
 42
0.0000001
 43
0.0000001
 44
0.0000000001
 40
0.0
 40
0.0
 40
0.0
 40
0.0
 40
0.1142422517
 40
0.2375272623
 40
0.3673024727
 40
0.5004235297
 40
0.6334856379
 40
0.7630886322
 40
0.8861025156
 40
1.0
 40
1.0
 40
1.0
 40
1.0
 10
14.6777170454
 20
56.9571785495
 30
0.0
 10
14.6777170454
 20
56.4150365625
 30
0.0
 10
14.777448729
 20
55.2867802074
 30
0.0
 10
15.174894238
 20
53.5849441835
 30
0.0
 10
15.8113162983
 20
51.8615971215
 30
0.0
 10
16.6628399513
 20
50.1820822819
 30
0.0
 10
17.6972144743
 20
48.6095454794
 30
0.0
 10
18.8756745016
 20
47.203307626
 30
0.0
 10
20.1534194067
 20
46.0164578576
 30
0.0
 10
21.0816819811
 20
45.3724512653
 30
0.0
 10
21.5513469981
 20
45.1049416853
 30
0.0
  0
SPLINE
  5
2B7
100
AcDbEntity
  8
0
100
AcDbSpline
 62
7
  6
CONTINUOUS
 70
0
 71
3
 72
14
 73
10
 74
0
 42
0.0000001
 43
0.0000001
 44
0.0000000001
 40
0.0
 40
0.0
 40
0.0
 40
0.0
 40
0.1080467976
 40
0.2181312299
 40
0.3321071925
 40
0.4515055807
 40
0.5774525203
 40
0.7107193714
 40
1.0
 40
1.0
 40
1.0
 40
1.0
 10
68.8382661298
 20
20.0759346564
 30
0.0
 10
68.9940679792
 20
20.165882356
 30
0.0
 10
69.2936374299
 20
20.3748760691
 30
0.0
 10
69.689414088
 20
20.7644297493
 30
0.0
 10
70.0298309106
 20
21.2267455664
 30
0.0
 10
70.3116571934
 20
21.7566378739
 30
0.0
 10
70.5328059604
 20
22.3487700603
 30
0.0
 10
70.7501652846
 20
23.237399065
 30
0.0
 10
70.8063961126
 20
23.9444163835
 30
0.0
 10
70.8063961126
 20
24.4260801198
 30
0.0
  0
SPLINE
  5
2B8
100
AcDbEntity
  8
0
100
AcDbSpline
 62
7
  6
CONTINUOUS
 70
0
 71
3
 72
14
 73
10
 74
0
 42
0.0000001
 43
0.0000001
 44
0.0000000001
 40
0.0
 40
0.0
 40
0.0
 40
0.0
 40
0.2896565106
 40
0.4230278568
 40
0.5490096848
 40
0.6683677816
 40
0.7822317805
 40
0.8921497941
 40
1.0
 40
1.0
 40
1.0
 40
1.0
 10
21.5513469981
 20
109.8627557889
 30
0.0
 10
21.1239613294
 20
110.1128187777
 30
0.0
 10
20.4674725298
 20
110.4298720867
 30
0.0
 10
19.5663058033
 20
110.697775011
 30
0.0
 10
18.9266299767
 20
110.8082248037
 30
0.0
 10
18.3110772901
 20
110.8322574318
 30
0.0
 10
17.7255582954
 20
110.7688891762
 30
0.0
 10
17.1764357497
 20
110.618362453
 30
0.0
 10
16.8372441228
 20
110.459780159
 30
0.0
 10
16.6775744861
 20
110.3675970906
 30
0.0
  0
SPLINE
  5
2B9
100
AcDbEntity
  8
0
100
AcDbSpline
 62
7
  6
CONTINUOUS
 70
0
 71
3
 72
15
 73
11
 74
0
 42
0.0000001
 43
0.0000001
 44
0.0000000001
 40
0.0
 40
0.0
 40
0.0
 40
0.0
 40
0.1140729846
 40
0.2371286064
 40
0.3666552487
 40
0.4995818213
 40
0.6325664825
 40
0.7622628949
 40
0.8855860991
 40
1.0
 40
1.0
 40
1.0
 40
1.0
 10
70.8055111194
 20
73.5426596511
 30
0.0
 10
70.8055111194
 20
74.0836037357
 30
0.0
 10
70.7068743738
 20
75.2091342834
 30
0.0
 10
70.3134441668
 20
76.9073769185
 30
0.0
 10
69.6830161893
 20
78.6280321555
 30
0.0
 10
68.8389559001
 20
80.3069378573
 30
0.0
 10
67.8126293957
 20
81.8820015666
 30
0.0
 10
66.641926248
 20
83.2948353324
 30
0.0
 10
65.3705822477
 20
84.4928710516
 30
0.0
 10
64.4462227195
 20
85.1474865018
 30
0.0
 10
63.9779305069
 20
85.4214838744
 30
0.0
  0
SPLINE
  5
2BA
100
AcDbEntity
  8
0
100
AcDbSpline
 62
7
  6
CONTINUOUS
 70
0
 71
3
 72
15
 73
11
 74
0
 42
0.0000001
 43
0.0000001
 44
0.0000000001
 40
0.0
 40
0.0
 40
0.0
 40
0.0
 40
0.1141546703
 40
0.2373261017
 40
0.3669753162
 40
0.4999989361
 40
0.6330227034
 40
0.7626723508
 40
0.8858444607
 40
1.0
 40
1.0
 40
1.0
 40
1.0
 10
99.6801532075
 20
106.2584711527
 30
0.0
 10
100.1640133509
 20
105.9791206884
 30
0.0
 10
101.1197240075
 20
105.3091846079
 30
0.0
 10
102.4347306135
 20
104.0789059667
 30
0.0
 10
103.646580249
 20
102.6246231225
 30
0.0
 10
104.7096279627
 20
101.0008908863
 30
0.0
 10
105.584306593
 20
99.2684006867
 30
0.0
 10
106.2378390467
 20
97.4917643697
 30
0.0
 10
106.6458015906
 20
95.7377891345
 30
0.0
 10
106.7481381074
 20
94.5751448192
 30
0.0
 10
106.7481381074
 20
94.0164301574
 30
0.0
  0
SPLINE
  5
2BB
100
AcDbEntity
  8
0
100
AcDbSpline
 62
7
  6
CONTINUOUS
 70
0
 71
3
 72
9
 73
5
 74
0
 42
0.0000001
 43
0.0000001
 44
0.0000000001
 40
0.0
 40
0.0
 40
0.0
 40
0.0
 40
0.2454443573
 40
1.0
 40
1.0
 40
1.0
 40
1.0
 10
26.9183385778
 20
116.5277597317
 30
0.0
 10
26.864225058
 20
116.4783835354
 30
0.0
 10
26.6500818353
 20
116.2703317203
 30
0.0
 10
26.46228602
 20
116.0355886377
 30
0.0
 10
26.3366091668
 20
115.8487146084
 30
0.0
  0
SPLINE
  5
2BC
100
AcDbEntity
  8
0
100
AcDbSpline
 62
7
  6
CONTINUOUS
 70
0
 71
3
 72
13
 73
9
 74
0
 42
0.0000001
 43
0.0000001
 44
0.0000000001
 40
0.0
 40
0.0
 40
0.0
 40
0.0
 40
0.2894511012
 40
0.4228163301
 40
0.5488374872
 40
0.7817349557
 40
0.8918868606
 40
1.0
 40
1.0
 40
1.0
 40
1.0
 10
106.7481381074
 20
45.0262851296
 30
0.0
 10
106.7481381074
 20
44.5196489279
 30
0.0
 10
106.6890712152
 20
43.776042685
 30
0.0
 10
106.460215752
 20
42.8410549643
 30
0.0
 10
106.1587370109
 20
42.0325823481
 30
0.0
 10
105.7221010387
 20
41.3208375444
 30
0.0
 10
105.1568628789
 20
40.7650511458
 30
0.0
 10
104.8418033623
 20
40.5450720884
 30
0.0
 10
104.677921545
 20
40.4504554418
 30
0.0
  0
SPLINE
  5
2BD
100
AcDbEntity
  8
0
100
AcDbSpline
 62
7
  6
CONTINUOUS
 70
0
 71
3
 72
9
 73
5
 74
0
 42
0.0000001
 43
0.0000001
 44
0.0000000001
 40
0.0
 40
0.0
 40
0.0
 40
0.0
 40
0.2553574094
 40
1.0
 40
1.0
 40
1.0
 40
1.0
 10
78.4062510782
 20
25.7052426395
 30
0.0
 10
78.4802007573
 20
25.7107506571
 30
0.0
 10
78.7691309843
 20
25.740159168
 30
0.0
 10
79.0549267544
 20
25.8023111425
 30
0.0
 10
79.2610226821
 20
25.8677666712
 30
0.0
  0
SPLINE
  5
2BE
100
AcDbEntity
  8
0
100
AcDbSpline
 62
7
  6
CONTINUOUS
 70
0
 71
3
 72
12
 73
8
 74
0
 42
0.0000001
 43
0.0000001
 44
0.0000000001
 40
0.0
 40
0.0
 40
0.0
 40
0.0
 40
0.1080457899
 40
0.2183178693
 40
0.4516795798
 40
0.7108532177
 40
1.0
 40
1.0
 40
1.0
 40
1.0
 10
79.9944663716
 20
26.2005382326
 30
0.0
 10
80.1536639996
 20
26.2973535523
 30
0.0
 10
80.459384839
 20
26.5206350482
 30
0.0
 10
81.0070692086
 20
27.0786472183
 30
0.0
 10
81.5481969436
 20
27.9848419025
 30
0.0
 10
81.9250525177
 20
29.2902655919
 30
0.0
 10
81.9995038049
 20
30.2391054109
 30
0.0
 10
81.9995038049
 20
30.7377397441
 30
0.0
  0
SPLINE
  5
2BF
100
AcDbEntity
  8
0
100
AcDbSpline
 62
7
  6
CONTINUOUS
 70
0
 71
3
 72
12
 73
8
 74
0
 42
0.0000001
 43
0.0000001
 44
0.0000000001
 40
0.0
 40
0.0
 40
0.0
 40
0.0
 40
0.2891458429
 40
0.5483191324
 40
0.7816812111
 40
0.8919537055
 40
1.0
 40
1.0
 40
1.0
 40
1.0
 10
32.5049353962
 20
116.4643710384
 30
0.0
 10
32.0731157
 20
116.7136766162
 30
0.0
 10
31.2141913763
 20
117.1235998407
 30
0.0
 10
29.8952670711
 20
117.4499250285
 30
0.0
 10
28.8399431207
 20
117.4343862692
 30
0.0
 10
28.0828663236
 20
117.2390873801
 30
0.0
 10
27.7366458974
 20
117.0859701486
 30
0.0
 10
27.5732057386
 20
116.9965111864
 30
0.0
  0
SPLINE
  5
2C0
100
AcDbEntity
  8
0
100
AcDbSpline
 62
7
  6
CONTINUOUS
 70
0
 71
3
 72
15
 73
11
 74
0
 42
0.0000001
 43
0.0000001
 44
0.0000000001
 40
0.0
 40
0.0
 40
0.0
 40
0.0
 40
0.1145300265
 40
0.2377690378
 40
0.3672602404
 40
0.5000010691
 40
0.6327417493
 40
0.7622325197
 40
0.8854708456
 40
1.0
 40
1.0
 40
1.0
 40
1.0
 10
81.9988167055
 20
79.841757452
 30
0.0
 10
81.9921826379
 20
80.3935941789
 30
0.0
 10
81.8808422139
 20
81.5391065704
 30
0.0
 10
81.4691488126
 20
83.2647915537
 30
0.0
 10
80.8210646223
 20
85.0101052864
 30
0.0
 10
79.9598950156
 20
86.7117104988
 30
0.0
 10
78.9168402019
 20
88.3083012871
 30
0.0
 10
77.7293927701
 20
89.7422047653
 30
0.0
 10
76.4407518485
 20
90.9615697223
 30
0.0
 10
75.504379935
 20
91.6307378458
 30
0.0
 10
75.0297933109
 20
91.9123948741
 30
0.0
  0
ENDSEC
  0
SECTION
  2
OBJECTS
  0
DICTIONARY
  5
C
100
AcDbDictionary
280
0
281
1
  3
ACAD_GROUP
350
D
  3
ACAD_MLINESTYLE
350
17
  3
ACAD_LAYOUT
350
1A
  3
ACAD_PLOTSETTINGS
350
19
  3
ACAD_PLOTSTYLENAME
350
E
  0
DICTIONARY
  5
D
102
{ACAD_REACTORS
330
C
102
}
100
AcDbDictionary
280
0
281
1
  0
ACDBDICTIONARYWDFLT
  5
E
102
{ACAD_REACTORS
330
C
102
}
100
AcDbDictionary
281
1
  3
Normal
350
F
100
AcDbDictionaryWithDefault
340
F
  0
DICTIONARY
  5
17
102
{ACAD_REACTORS
330
C
102
}
100
AcDbDictionary
280
0
281
1
  3
Standard
350
18
  0
DICTIONARY
  5
19
102
{ACAD_REACTORS
330
C
102
}
100
AcDbDictionary
281
1
  0
DICTIONARY
  5
1A
102
{ACAD_REACTORS
330
C
102
}
100
AcDbDictionary
281
1
  3
Model
350
2C1
  3
Layout1
350
2C2
  0
ACDBPLACEHOLDER
  5
F
102
{ACAD_REACTORS
330
E
102
}
  0
MLINESTYLE
  5
18
102
{ACAD_REACTORS
330
17
102
}
100
AcDbMlineStyle
  2
STANDARD
 70
0
  3

 62
256
 51
90.0
 52
90.0
 71
2
 49
0.5
 62
256
  6
BYLAYER
 49
-0.5
 62
256
  6
BYLAYER
  0
LAYOUT
  5
2C1
102
{ACAD_REACTORS
330
1A
102
}
100
AcDbPlotSettings
  1

  2
none_device
  4

  6

 40
0.0
 41
0.0
 42
0.0
 43
0.0
 44
210.0
 45
297.0
 46
0.0
 47
0.0
 48
0.0
 49
0.0
140
0.0
141
0.0
142
1.0
143
1.0
 70
1024
 72
1
 73
0
 74
0
  7

 75
0
147
1.0
148
0.0
149
0.0
100
AcDbLayout
  1
Model
 70
0
 71
0
 10
0.0
 20
0.0
 11
210.0
 21
297.0
 12
0.0
 22
0.0
 32
0.0
 14
0.0
 24
0.0
 34
0.0
 15
0.0
 25
0.0
 35
0.0
146
0.0
 13
0.0
 23
0.0
 33
0.0
 16
1.0
 26
0.0
 36
0.0
 17
0.0
 27
1.0
 37
0.0
 76
0
330
210
345
0
346
0
  0
LAYOUT
  5
2C2
102
{ACAD_REACTORS
330
1A
102
}
100
AcDbPlotSettings
  1

  2
none_device
  4

  6

 40
0.0
 41
0.0
 42
0.0
 43
0.0
 44
210.0
 45
297.0
 46
0.0
 47
0.0
 48
0.0
 49
0.0
140
0.0
141
0.0
142
1.0
143
1.0
 70
0
 72
1
 73
0
 74
0
  7

 75
0
147
1.0
148
0.0
149
0.0
100
AcDbLayout
  1
Layout1
 70
0
 71
1
 10
0.0
 20
0.0
 11
210.0
 21
297.0
 12
0.0
 22
0.0
 32
0.0
 14
0.0
 24
0.0
 34
0.0
 15
0.0
 25
0.0
 35
0.0
146
0.0
 13
0.0
 23
0.0
 33
0.0
 16
1.0
 26
0.0
 36
0.0
 17
0.0
 27
1.0
 37
0.0
 76
0
330
211
345
0
346
0
  0
ENDSEC
  0
EOF
