999
DXF file: C:\Users\sesa63760\Dev\_Creo\CAD\MCADID0000509_3D-CAD\drw0001_1.dxf
999
Pro/ENGINEER 2019471 by Parametric Technology Corporation
  0
SECTION
  2
HEADER
  9
$ACADVER
  1
AC1024
  9
$DWGCODEPAGE
  3
ANSI_1252
  9
$EXTMAX
 10
218.0317616204
 20
308.3592057203
 30
0.0
  9
$EXTMIN
 10
0.0
 20
0.0
 30
0.0
  9
$LIMMIN
 10
0.0
 20
0.0
  9
$LIMMAX
 10
218.0317616204
 20
308.3592057203
  9
$VIEWCTR
 10
109.0158808102
 20
154.1796028601
  9
$VIEWSIZE
 40
308.3592057203
  9
$CLAYER
  8
0
  9
$LTSCALE
 40
20.1004519284
  9
$CELTYPE
  6
BYLAYER
  9
$DIMSCALE
 40
1.0
  9
$DIMASZ
 40
2.5956162098
  9
$DIMEXO
 40
1.0
  9
$DIMDLI
 40
13.8875849687
  9
$DIMEXE
 40
1.0
  9
$DIMCEN
 40
3.289164861
  9
$DIMLFAC
 40
1.0
  9
$DIMBLK
  1
_FILLED
  9
$DIMALT
 70
0
  9
$DIMALTF
 40
0.0393700787
  9
$DIMTXT
 40
3.6338626937
  9
$DIMTOL
 70
1
  9
$DIMLIM
 70
0
  9
$DIMTFAC
 40
1.0
  9
$DIMTP
 40
0.01
  9
$DIMTM
 40
0.01
  9
$DIMGAP
 40
0.625
  9
$DIMDSEP
 70
46
  9
$AUNITS
 70
0
  9
$PDMODE
 70
3
  9
$PDSIZE
 40
0.3125
  9
$HANDSEED
  5
31C
  9
$TILEMODE
 70
1
  9
$MEASUREMENT
 70
1
  9
$INSUNITS
 70
4
  0
ENDSEC
  0
SECTION
  2
CLASSES
  0
CLASS
  1
ACDBDICTIONARYWDFLT
  2
AcDbDictionaryWithDefault
  3
AutoCAD 2000
 90
0
 91
1
280
0
281
0
  0
CLASS
  1
ACDBPLACEHOLDER
  2
AcDbPlaceHolder
  3
AutoCAD 2000
 90
0
 91
1
280
0
281
0
  0
CLASS
  1
LAYOUT
  2
AcDbLayout
  3
AutoCAD 2000
 90
0
 91
0
280
0
281
0
  0
ENDSEC
  0
SECTION
  2
TABLES
  0
TABLE
  2
VPORT
  5
8
100
AcDbSymbolTable
 70
2
  0
VPORT
  5
1F4
100
AcDbSymbolTableRecord
100
AcDbViewportTableRecord
  2
*ACTIVE
 70
0
 10
0.0
 20
0.0
 11
1.0
 21
1.0
 12
109.0158808102
 22
154.1796028601
 13
0.0
 23
0.0
 14
1.0
 24
1.0
 15
0.0
 25
0.0
 16
0.0
 26
0.0
 36
1.0
 17
0.0
 27
0.0
 37
0.0
 40
308.3592057203
 41
0.7070707071
 42
50.0
 43
0.0
 44
0.0
 50
0.0
 51
0.0
 71
0
 72
100
 73
1
 74
1
 75
0
 76
0
 77
0
 78
0
  0
ENDTAB
  0
TABLE
  2
LTYPE
  5
5
100
AcDbSymbolTable
 70
6
  0
LTYPE
  5
14
100
AcDbSymbolTableRecord
100
AcDbLinetypeTableRecord
  2
BYBLOCK
 70
0
  3

 72
65
 73
0
 40
0.0
  0
LTYPE
  5
15
100
AcDbSymbolTableRecord
100
AcDbLinetypeTableRecord
  2
BYLAYER
 70
0
  3

 72
65
 73
0
 40
0.0
  0
LTYPE
  5
16
100
AcDbSymbolTableRecord
100
AcDbLinetypeTableRecord
  2
CONTINUOUS
 70
64
  3
Solid line
 72
65
 73
0
 40
0.0
  0
LTYPE
  5
1F5
100
AcDbSymbolTableRecord
100
AcDbLinetypeTableRecord
  2
CENTER
 70
64
  3
____ _ ____ _ ____ _ ____ _ ____ _ ____ _ ____
 72
65
 73
4
 40
0.6
 49
0.375
 74
0
 49
-0.075
 74
0
 49
0.075
 74
0
 49
-0.075
 74
0
  0
LTYPE
  5
1F6
100
AcDbSymbolTableRecord
100
AcDbLinetypeTableRecord
  2
HIDDEN
 70
64
  3
- - - - - - - - - - - - - - - - - - - -
 72
65
 73
2
 40
0.2
 49
0.1
 74
0
 49
-0.1
 74
0
  0
LTYPE
  5
1F7
100
AcDbSymbolTableRecord
100
AcDbLinetypeTableRecord
  2
PHANTOM
 70
64
  3
_____ _ _ _____ _ _ _____ _ _ _____
 72
65
 73
6
 40
0.8
 49
0.45
 74
0
 49
-0.05
 74
0
 49
0.1
 74
0
 49
-0.05
 74
0
 49
0.1
 74
0
 49
-0.05
 74
0
  0
LTYPE
  5
1F8
100
AcDbSymbolTableRecord
100
AcDbLinetypeTableRecord
  2
DOT
 70
64
  3
. . . . . . . . . . . . . . . . . . . .
 72
65
 73
2
 40
0.2
 49
0.1
 74
0
 49
-0.1
 74
0
  0
LTYPE
  5
1F9
100
AcDbSymbolTableRecord
100
AcDbLinetypeTableRecord
  2
DASHED
 70
64
  3
- - - - - - - - - - - - - - - - - - - -
 72
65
 73
2
 40
0.2
 49
0.1
 74
0
 49
-0.1
 74
0
  0
ENDTAB
  0
TABLE
  2
LAYER
  5
2
100
AcDbSymbolTable
 70
36
  0
LAYER
  5
10
100
AcDbSymbolTableRecord
100
AcDbLayerTableRecord
  2
0
 70
0
 62
7
  6
CONTINUOUS
370
-3
390
F
  0
LAYER
  5
1FA
100
AcDbSymbolTableRecord
100
AcDbLayerTableRecord
  2
DEFAULT_1
 70
0
 62
7
  6
CENTER
370
-3
390
F
  0
LAYER
  5
1FB
100
AcDbSymbolTableRecord
100
AcDbLayerTableRecord
  2
DEFAULT_2
 70
0
 62
8
  6
HIDDEN
370
-3
390
F
  0
LAYER
  5
1FC
100
AcDbSymbolTableRecord
100
AcDbLayerTableRecord
  2
DEFAULT_3
 70
0
 62
7
  6
PHANTOM
370
-3
390
F
  0
LAYER
  5
1FD
100
AcDbSymbolTableRecord
100
AcDbLayerTableRecord
  2
00_COMPONENTS
 70
0
 62
7
  6
CONTINUOUS
370
-3
390
F
  0
LAYER
  5
1FE
100
AcDbSymbolTableRecord
100
AcDbLayerTableRecord
  2
01_1_DEFAULT_DATUMS
 70
0
 62
7
  6
CONTINUOUS
370
-3
390
F
  0
LAYER
  5
1FF
100
AcDbSymbolTableRecord
100
AcDbLayerTableRecord
  2
01_PLANES
 70
0
 62
7
  6
CONTINUOUS
370
-3
390
F
  0
LAYER
  5
200
100
AcDbSymbolTableRecord
100
AcDbLayerTableRecord
  2
02_COORD_SYS
 70
0
 62
7
  6
CONTINUOUS
370
-3
390
F
  0
LAYER
  5
201
100
AcDbSymbolTableRecord
100
AcDbLayerTableRecord
  2
03_AXES
 70
0
 62
7
  6
CONTINUOUS
370
-3
390
F
  0
LAYER
  5
202
100
AcDbSymbolTableRecord
100
AcDbLayerTableRecord
  2
04_POINTS
 70
0
 62
7
  6
CONTINUOUS
370
-3
390
F
  0
LAYER
  5
203
100
AcDbSymbolTableRecord
100
AcDbLayerTableRecord
  2
05_CURVES
 70
0
 62
7
  6
CONTINUOUS
370
-3
390
F
  0
LAYER
  5
204
100
AcDbSymbolTableRecord
100
AcDbLayerTableRecord
  2
06_SURFS
 70
0
 62
7
  6
CONTINUOUS
370
-3
390
F
  0
LAYER
  5
205
100
AcDbSymbolTableRecord
100
AcDbLayerTableRecord
  2
07_COSMETICS
 70
0
 62
7
  6
CONTINUOUS
370
-3
390
F
  0
LAYER
  5
206
100
AcDbSymbolTableRecord
100
AcDbLayerTableRecord
  2
10_NOTES
 70
0
 62
7
  6
CONTINUOUS
370
-3
390
F
  0
LAYER
  5
207
100
AcDbSymbolTableRecord
100
AcDbLayerTableRecord
  2
11_NOTES_PUB
 70
0
 62
7
  6
CONTINUOUS
370
-3
390
F
  0
LAYER
  5
208
100
AcDbSymbolTableRecord
100
AcDbLayerTableRecord
  2
13_REF_GTOL
 70
0
 62
7
  6
CONTINUOUS
370
-3
390
F
  0
LAYER
  5
209
100
AcDbSymbolTableRecord
100
AcDbLayerTableRecord
  2
16_MISC
 70
0
 62
7
  6
CONTINUOUS
370
-3
390
F
  0
LAYER
  5
20A
100
AcDbSymbolTableRecord
100
AcDbLayerTableRecord
  2
17_NO_PRINT
 70
0
 62
7
  6
CONTINUOUS
370
-3
390
F
  0
LAYER
  5
20B
100
AcDbSymbolTableRecord
100
AcDbLayerTableRecord
  2
18_DATUM_CAMS_JOINTS
 70
0
 62
7
  6
CONTINUOUS
370
-3
390
F
  0
LAYER
  5
20C
100
AcDbSymbolTableRecord
100
AcDbLayerTableRecord
  2
19_DATUM_FUNCTIONAL
 70
0
 62
7
  6
CONTINUOUS
370
-3
390
F
  0
LAYER
  5
20D
100
AcDbSymbolTableRecord
100
AcDbLayerTableRecord
  2
20_DATUM_KINEMATIC_SCHEME
 70
0
 62
7
  6
CONTINUOUS
370
-3
390
F
  0
ENDTAB
  0
TABLE
  2
STYLE
  5
3
100
AcDbSymbolTable
 70
1
  0
STYLE
  5
11
100
AcDbSymbolTableRecord
100
AcDbTextStyleTableRecord
  2
STANDARD
 70
0
 40
0.0
 41
0.8
 50
0.0
 71
0
 42
0.2
  3
txt
  4

  0
STYLE
  5
20E
100
AcDbSymbolTableRecord
100
AcDbTextStyleTableRecord
  2
TEXTSTYLE_1
 70
0
 40
0.0
 41
0.8
 50
0.0
 71
0
 42
0.2
  3
gdt
  4

  0
ENDTAB
  0
TABLE
  2
VIEW
  5
6
100
AcDbSymbolTable
 70
0
  0
ENDTAB
  0
TABLE
  2
UCS
  5
7
100
AcDbSymbolTable
 70
0
  0
ENDTAB
  0
TABLE
  2
APPID
  5
9
100
AcDbSymbolTable
 70
1
  0
APPID
  5
20F
100
AcDbSymbolTableRecord
100
AcDbRegAppTableRecord
  2
ACAD
 70
0
  0
ENDTAB
  0
TABLE
  2
BLOCK_RECORD
  5
1
100
AcDbSymbolTable
 70
0
  0
BLOCK_RECORD
  5
210
100
AcDbSymbolTableRecord
100
AcDbBlockTableRecord
  2
*Model_Space
  0
BLOCK_RECORD
  5
211
100
AcDbSymbolTableRecord
100
AcDbBlockTableRecord
  2
*Paper_Space
  0
BLOCK_RECORD
  5
212
100
AcDbSymbolTableRecord
100
AcDbBlockTableRecord
  2
_FILLED
  0
ENDTAB
  0
TABLE
  2
DIMSTYLE
  5
A
100
AcDbSymbolTable
 70
1
100
AcDbDimStyleTable
 71
0
  0
DIMSTYLE
105
213
100
AcDbSymbolTableRecord
100
AcDbDimStyleTableRecord
  2
STANDARD
 70
0
  3

  4

 40
1.0
 41
2.5956162098
 42
1.0
 43
0.38
 44
1.0
 45
0.0
 46
0.0
 47
0.01
 48
0.01
140
3.6338626937
141
0.09
142
0.0
143
25.4
144
1.0
145
0.0
146
1.0
147
0.625
 71
1
 72
0
 73
0
 74
0
 75
0
 76
0
 77
1
 78
8
 79
2
170
0
171
1
172
0
173
0
174
0
175
0
176
0
177
0
178
0
270
2
179
2
271
2
272
2
273
2
274
2
275
0
280
0
281
0
282
0
283
1
284
8
285
0
286
0
287
3
288
0
340
11
278
46
341
212
342
212
343
212
344
212
  0
ENDTAB
  0
ENDSEC
  0
SECTION
  2
BLOCKS
  0
BLOCK
  5
20
100
AcDbEntity
  8
0
100
AcDbBlockBegin
  2
*Model_Space
 70
0
 10
0.0
 20
0.0
 30
0.0
  3
*Model_Space
  1

  0
ENDBLK
  5
21
100
AcDbEntity
  8
0
100
AcDbBlockEnd
  0
BLOCK
  5
1C
100
AcDbEntity
  8
0
100
AcDbBlockBegin
  2
*Paper_Space
 70
0
 10
0.0
 20
0.0
 30
0.0
  3
*Paper_Space
  1

  0
ENDBLK
  5
1D
100
AcDbEntity
  8
0
100
AcDbBlockEnd
  0
BLOCK
  5
214
100
AcDbEntity
  8
0
100
AcDbBlockBegin
  2
_FILLED
 70
64
 10
0.0
 20
0.0
  3
_FILLED
  1

  0
SOLID
  5
215
100
AcDbEntity
  8
0
  6
BYBLOCK
 62
0
100
AcDbTrace
 10
0.0
 20
0.0
 11
-1.0
 21
0.25
 12
-1.0
 22
-0.25
 13
-1.0
 23
-0.25
  0
ENDBLK
  5
216
100
AcDbEntity
  8
0
  6
BYBLOCK
 62
0
100
AcDbBlockEnd
  0
ENDSEC
  0
SECTION
  2
ENTITIES
  0
LINE
  5
217
100
AcDbEntity
  8
0
100
AcDbLine
 62
7
  6
CONTINUOUS
 10
30.4866077577
 20
257.5482456267
 11
26.9510885717
 21
255.5070248574
  0
LINE
  5
218
100
AcDbEntity
  8
0
100
AcDbLine
 62
7
  6
CONTINUOUS
 10
30.9510706869
 20
255.1108306121
 11
34.4865898729
 21
257.1520513815
  0
LINE
  5
219
100
AcDbEntity
  8
0
100
AcDbLine
 62
7
  6
CONTINUOUS
 10
34.8401508224
 20
256.94792749
 11
35.547245606
 21
257.3561664168
  0
LINE
  5
21A
100
AcDbEntity
  8
0
100
AcDbLine
 62
7
  6
CONTINUOUS
 10
27.0619671758
 20
250.8241354381
 11
27.4155190944
 21
251.028257515
  0
LINE
  5
21B
100
AcDbEntity
  8
0
100
AcDbLine
 62
7
  6
CONTINUOUS
 10
31.0924926092
 20
252.7429757064
 11
31.3046291925
 21
252.8654520888
  0
LINE
  5
21C
100
AcDbEntity
  8
0
100
AcDbLine
 62
7
  6
CONTINUOUS
 10
45.7948143584
 20
251.4398636838
 11
52.456687974
 21
254.6424539009
  0
LINE
  5
21D
100
AcDbEntity
  8
0
100
AcDbLine
 62
7
  6
CONTINUOUS
 10
54.8079968915
 20
254.3185748821
 11
47.1692334943
 21
250.6463603771
  0
LINE
  5
21E
100
AcDbEntity
  8
0
100
AcDbLine
 62
7
  6
CONTINUOUS
 10
65.9976121518
 20
252.2936151566
 11
61.8918255762
 21
250.3198232958
  0
LINE
  5
21F
100
AcDbEntity
  8
0
100
AcDbLine
 62
7
  6
CONTINUOUS
 10
59.0348539289
 20
244.625076831
 11
58.2839668999
 21
244.2294112242
  0
LINE
  5
220
100
AcDbEntity
  8
0
100
AcDbLine
 62
7
  6
CONTINUOUS
 10
68.380603929
 20
251.9849671707
 11
63.2662447142
 21
249.5263199879
  0
LINE
  5
221
100
AcDbEntity
  8
0
100
AcDbLine
 62
7
  6
CONTINUOUS
 10
44.0043161904
 20
220.3933408305
 11
44.0750265741
 21
220.4341652459
  0
LINE
  5
222
100
AcDbEntity
  8
0
100
AcDbLine
 62
7
  6
CONTINUOUS
 10
66.509021624
 20
239.4807810935
 11
67.259908653
 21
239.8764467003
  0
LINE
  5
223
100
AcDbEntity
  8
0
100
AcDbLine
 62
7
  6
CONTINUOUS
 10
25.294192863
 20
251.8447373244
 11
25.294192863
 21
139.9839061776
  0
LINE
  5
224
100
AcDbEntity
  8
0
100
AcDbLine
 62
7
  6
CONTINUOUS
 10
27.0619671758
 20
250.8241354381
 11
27.0619671758
 21
145.0870724198
  0
LINE
  5
225
100
AcDbEntity
  8
0
100
AcDbLine
 62
7
  6
CONTINUOUS
 10
27.2741000934
 20
250.5383627283
 11
27.2741000934
 21
145.1279006768
  0
LINE
  5
226
100
AcDbEntity
  8
0
100
AcDbLine
 62
7
  6
CONTINUOUS
 10
58.5283499449
 20
222.4511416478
 11
58.5990603286
 21
222.4919660632
  0
LINE
  5
227
100
AcDbEntity
  8
0
100
AcDbLine
 62
7
  6
CONTINUOUS
 10
72.7412548315
 20
214.3271509728
 11
72.6705444478
 21
214.2863265574
  0
LINE
  5
228
100
AcDbEntity
  8
0
100
AcDbLine
 62
7
  6
CONTINUOUS
 10
44.0043161904
 20
220.3933408305
 11
44.0043161904
 21
149.8312019422
  0
LINE
  5
229
100
AcDbEntity
  8
0
100
AcDbLine
 62
7
  6
CONTINUOUS
 10
44.0750265741
 20
149.8720263576
 11
44.0750265741
 21
220.4341652459
  0
LINE
  5
22A
100
AcDbEntity
  8
0
100
AcDbLine
 62
7
  6
CONTINUOUS
 10
111.4306504125
 20
226.1986867573
 11
107.5873095908
 21
224.3510615355
  0
LINE
  5
22B
100
AcDbEntity
  8
0
100
AcDbLine
 62
7
  6
CONTINUOUS
 10
111.6627065006
 20
226.164820704
 11
107.8194715419
 21
224.3172464184
  0
LINE
  5
22C
100
AcDbEntity
  8
0
100
AcDbLine
 62
7
  6
CONTINUOUS
 10
111.4303403333
 20
226.1985374782
 11
111.5615234868
 21
226.2406444653
  0
LINE
  5
22D
100
AcDbEntity
  8
0
100
AcDbLine
 62
7
  6
CONTINUOUS
 10
110.3215869116
 20
224.687379028
 11
109.8595685907
 21
224.4206342182
  0
LINE
  5
22E
100
AcDbEntity
  8
0
100
AcDbLine
 62
7
  6
CONTINUOUS
 10
114.3191615526
 20
221.8459452684
 11
114.7811798736
 21
222.1126900782
  0
LINE
  5
22F
100
AcDbEntity
  8
0
100
AcDbLine
 62
7
  6
CONTINUOUS
 10
114.3191635104
 20
218.4712436287
 11
119.1744186297
 21
221.0092254557
  0
LINE
  5
230
100
AcDbEntity
  8
0
100
AcDbLine
 62
7
  6
CONTINUOUS
 10
30.9510706641
 20
130.1859608044
 11
166.7161378696
 21
51.8037359496
  0
LINE
  5
231
100
AcDbEntity
  8
0
100
AcDbLine
 62
7
  6
CONTINUOUS
 10
30.9510706641
 20
138.3509849757
 11
166.7161378924
 21
59.9687601078
  0
LINE
  5
232
100
AcDbEntity
  8
0
100
AcDbLine
 62
7
  6
CONTINUOUS
 10
31.0924926092
 20
138.5142875499
 11
166.5747159473
 21
60.2953589838
  0
LINE
  5
233
100
AcDbEntity
  8
0
100
AcDbLine
 62
7
  6
CONTINUOUS
 10
119.6806504375
 20
217.4693463856
 11
123.2023238742
 21
219.5025702268
  0
LINE
  5
234
100
AcDbEntity
  8
0
100
AcDbLine
 62
7
  6
CONTINUOUS
 10
123.5555422309
 20
218.890781483
 11
120.0338689476
 21
216.8575578094
  0
LINE
  5
235
100
AcDbEntity
  8
0
100
AcDbLine
 62
7
  6
CONTINUOUS
 10
44.1810936216
 20
149.5250161493
 11
153.4861149349
 21
86.4191603155
  0
LINE
  5
236
100
AcDbEntity
  8
0
100
AcDbLine
 62
7
  6
CONTINUOUS
 10
153.5568253186
 20
86.4599847309
 11
44.2518040054
 21
149.5658405647
  0
LINE
  5
237
100
AcDbEntity
  8
0
100
AcDbLine
 62
7
  6
CONTINUOUS
 10
27.2741000934
 20
145.2095466858
 11
27.0619671758
 21
145.0870724198
  0
LINE
  5
238
100
AcDbEntity
  8
0
100
AcDbLine
 62
7
  6
CONTINUOUS
 10
44.0750265741
 20
149.8720263576
 11
44.0043161904
 21
149.8312019422
  0
LINE
  5
239
100
AcDbEntity
  8
0
100
AcDbLine
 62
7
  6
CONTINUOUS
 10
44.1810936216
 20
149.5250161493
 11
44.2518040054
 21
149.5658405647
  0
LINE
  5
23A
100
AcDbEntity
  8
0
100
AcDbLine
 62
7
  6
CONTINUOUS
 10
30.9510706641
 20
138.3509849757
 11
31.1632072475
 21
138.4734613581
  0
LINE
  5
23B
100
AcDbEntity
  8
0
100
AcDbLine
 62
7
  6
CONTINUOUS
 10
125.6983695552
 20
218.3610806714
 11
125.8297544699
 21
218.5561131456
  0
LINE
  5
23C
100
AcDbEntity
  8
0
100
AcDbLine
 62
7
  6
CONTINUOUS
 10
109.3893273671
 20
221.317421464
 11
109.8595685907
 21
224.4206342182
  0
LINE
  5
23D
100
AcDbEntity
  8
0
100
AcDbLine
 62
7
  6
CONTINUOUS
 10
154.4946668237
 20
189.5125749708
 11
153.7437797947
 21
189.116909364
  0
LINE
  5
23E
100
AcDbEntity
  8
0
100
AcDbLine
 62
7
  6
CONTINUOUS
 10
161.9688345189
 20
184.3682792333
 11
162.7197215479
 21
184.7639448401
  0
LINE
  5
23F
100
AcDbEntity
  8
0
100
AcDbLine
 62
7
  6
CONTINUOUS
 10
114.3191615526
 20
221.8459452684
 11
114.3191635104
 21
218.4712436287
  0
LINE
  5
240
100
AcDbEntity
  8
0
100
AcDbLine
 62
7
  6
CONTINUOUS
 10
170.2516570784
 20
178.7698265267
 11
166.7161378924
 21
176.7286057573
  0
LINE
  5
241
100
AcDbEntity
  8
0
100
AcDbLine
 62
7
  6
CONTINUOUS
 10
171.3123128342
 20
178.9739415489
 11
170.5692542681
 21
178.5449390466
  0
LINE
  5
242
100
AcDbEntity
  8
0
100
AcDbLine
 62
7
  6
CONTINUOUS
 10
120.0338689476
 20
216.8575578094
 11
120.0362461583
 21
216.7768604097
  0
LINE
  5
243
100
AcDbEntity
  8
0
100
AcDbLine
 62
7
  6
CONTINUOUS
 10
125.6983945447
 20
218.3610964152
 11
125.6983566747
 21
213.4819387743
  0
LINE
  5
244
100
AcDbEntity
  8
0
100
AcDbLine
 62
7
  6
CONTINUOUS
 10
125.82975447
 20
218.5561188351
 11
125.82975447
 21
213.406077938
  0
LINE
  5
245
100
AcDbEntity
  8
0
100
AcDbLine
 62
7
  6
CONTINUOUS
 10
166.7514946005
 20
174.626109734
 11
166.5747159473
 21
174.5240471403
  0
LINE
  5
246
100
AcDbEntity
  8
0
100
AcDbLine
 62
7
  6
CONTINUOUS
 10
172.8024417133
 20
177.7890230117
 11
180.0831998558
 21
181.9925389621
  0
LINE
  5
247
100
AcDbEntity
  8
0
100
AcDbLine
 62
7
  6
CONTINUOUS
 10
183.7264352485
 20
175.9387668364
 11
176.3345866629
 21
171.6711132759
  0
LINE
  5
248
100
AcDbEntity
  8
0
100
AcDbLine
 62
7
  6
CONTINUOUS
 10
170.3931084631
 20
167.9104340134
 11
170.5698877273
 21
168.0124969599
  0
LINE
  5
249
100
AcDbEntity
  8
0
100
AcDbLine
 62
7
  6
CONTINUOUS
 10
183.8277625156
 20
175.296023348
 11
192.5201937378
 21
180.3145629787
  0
LINE
  5
24A
100
AcDbEntity
  8
0
100
AcDbLine
 62
7
  6
CONTINUOUS
 10
175.8725728351
 20
169.3593627352
 11
176.6156357729
 21
169.7883677616
  0
LINE
  5
24B
100
AcDbEntity
  8
0
100
AcDbLine
 62
7
  6
CONTINUOUS
 10
172.3730156935
 20
166.9306603841
 11
175.9085348796
 21
168.9718811535
  0
LINE
  5
24C
100
AcDbEntity
  8
0
100
AcDbLine
 62
7
  6
CONTINUOUS
 10
196.0523773046
 20
174.1966755374
 11
184.3719062894
 21
167.4530033624
  0
LINE
  5
24D
100
AcDbEntity
  8
0
100
AcDbLine
 62
7
  6
CONTINUOUS
 10
153.4861149349
 20
157.3895504125
 11
44.1810936216
 21
220.4954062462
  0
LINE
  5
24E
100
AcDbEntity
  8
0
100
AcDbLine
 62
7
  6
CONTINUOUS
 10
58.5283499449
 20
222.4511416478
 11
72.6705444478
 21
214.2863265574
  0
LINE
  5
24F
100
AcDbEntity
  8
0
100
AcDbLine
 62
7
  6
CONTINUOUS
 10
72.7412548315
 20
214.3271509728
 11
58.5990603286
 21
222.4919660632
  0
LINE
  5
250
100
AcDbEntity
  8
0
100
AcDbLine
 62
7
  6
CONTINUOUS
 10
72.6705444478
 20
215.1028289745
 11
58.5283499449
 21
223.2676440649
  0
LINE
  5
251
100
AcDbEntity
  8
0
100
AcDbLine
 62
7
  6
CONTINUOUS
 10
125.8297544699
 20
218.5561131456
 11
125.7600273455
 21
218.8108054065
  0
LINE
  5
252
100
AcDbEntity
  8
0
100
AcDbLine
 62
7
  6
CONTINUOUS
 10
153.6628923661
 20
86.5212257312
 11
153.6628923661
 21
157.0833646195
  0
LINE
  5
253
100
AcDbEntity
  8
0
100
AcDbLine
 62
7
  6
CONTINUOUS
 10
166.5747159473
 20
174.5240471403
 11
31.0924926092
 21
252.7429757064
  0
LINE
  5
254
100
AcDbEntity
  8
0
100
AcDbLine
 62
7
  6
CONTINUOUS
 10
166.7161378924
 20
174.6873497145
 11
30.9510706641
 21
253.0695745824
  0
LINE
  5
255
100
AcDbEntity
  8
0
100
AcDbLine
 62
7
  6
CONTINUOUS
 10
166.7161378924
 20
176.7286057573
 11
30.9510706869
 21
255.1108306121
  0
LINE
  5
256
100
AcDbEntity
  8
0
100
AcDbLine
 62
7
  6
CONTINUOUS
 10
34.4865898616
 20
257.152051388
 11
170.2516570784
 21
178.7698265267
  0
LINE
  5
257
100
AcDbEntity
  8
0
100
AcDbLine
 62
7
  6
CONTINUOUS
 10
35.547245606
 20
257.3561664168
 11
171.3123128342
 21
178.9739415489
  0
LINE
  5
258
100
AcDbEntity
  8
0
100
AcDbLine
 62
7
  6
CONTINUOUS
 10
162.7197215479
 20
184.7639448401
 11
154.4946668237
 21
189.5125749708
  0
LINE
  5
259
100
AcDbEntity
  8
0
100
AcDbLine
 62
7
  6
CONTINUOUS
 10
67.259908653
 20
239.8764467003
 11
59.0348539289
 21
244.625076831
  0
LINE
  5
25A
100
AcDbEntity
  8
0
100
AcDbLine
 62
7
  6
CONTINUOUS
 10
170.3931084631
 20
62.4999719619
 11
170.3931084631
 21
167.9104340134
  0
LINE
  5
25B
100
AcDbEntity
  8
0
100
AcDbLine
 62
7
  6
CONTINUOUS
 10
170.6052413807
 20
62.2141992522
 11
170.6052413807
 21
167.9512622659
  0
LINE
  5
25C
100
AcDbEntity
  8
0
100
AcDbLine
 62
7
  6
CONTINUOUS
 10
172.3730156935
 20
55.0698292374
 11
172.3730156935
 21
166.9306603841
  0
LINE
  5
25D
100
AcDbEntity
  8
0
100
AcDbLine
 62
7
  6
CONTINUOUS
 10
109.3893273671
 20
221.317421464
 11
114.3191635104
 21
218.4712436287
  0
LINE
  5
25E
100
AcDbEntity
  8
0
100
AcDbLine
 62
7
  6
CONTINUOUS
 10
54.8079968915
 20
254.3185748821
 11
106.5656323974
 21
224.4369661036
  0
LINE
  5
25F
100
AcDbEntity
  8
0
100
AcDbLine
 62
7
  6
CONTINUOUS
 10
119.8402481129
 20
216.7730365279
 11
180.0831998558
 21
181.9925389621
  0
LINE
  5
260
100
AcDbEntity
  8
0
100
AcDbLine
 62
7
  6
CONTINUOUS
 10
180.2239442811
 20
182.0022882569
 11
119.9809925343
 21
216.7827858247
  0
LINE
  5
261
100
AcDbEntity
  8
0
100
AcDbLine
 62
7
  6
CONTINUOUS
 10
106.7063764122
 20
224.4467156349
 11
54.9487413166
 21
254.3283241777
  0
LINE
  5
262
100
AcDbEntity
  8
0
100
AcDbLine
 62
7
  6
CONTINUOUS
 10
109.8595685907
 20
224.4206342182
 11
114.3191615526
 21
221.8459452684
  0
LINE
  5
263
100
AcDbEntity
  8
0
100
AcDbLine
 62
7
  6
CONTINUOUS
 10
114.7811798736
 20
222.1126900782
 11
110.3215869116
 21
224.687379028
  0
LINE
  5
264
100
AcDbEntity
  8
0
100
AcDbLine
 62
7
  6
CONTINUOUS
 10
114.2076307567
 20
223.8767368993
 11
119.1744186297
 21
221.0092254557
  0
LINE
  5
265
100
AcDbEntity
  8
0
100
AcDbLine
 62
7
  6
CONTINUOUS
 10
111.6627065006
 20
226.164820704
 11
123.2023238742
 21
219.5025702268
  0
LINE
  5
266
100
AcDbEntity
  8
0
100
AcDbLine
 62
7
  6
CONTINUOUS
 10
123.3947147598
 20
219.5360660152
 11
111.8550973966
 21
226.1983164859
  0
LINE
  5
267
100
AcDbEntity
  8
0
100
AcDbLine
 62
7
  6
CONTINUOUS
 10
68.380603929
 20
251.9849671707
 11
114.1097352587
 21
225.5838381611
  0
LINE
  5
268
100
AcDbEntity
  8
0
100
AcDbLine
 62
7
  6
CONTINUOUS
 10
125.6971290871
 20
218.8940045593
 11
192.5201937378
 21
180.3145629787
  0
LINE
  5
269
100
AcDbEntity
  8
0
100
AcDbLine
 62
7
  6
CONTINUOUS
 10
114.1936120469
 20
225.555668271
 11
125.5797502282
 21
218.989133986
  0
LINE
  5
26A
100
AcDbEntity
  8
0
100
AcDbLine
 62
7
  6
CONTINUOUS
 10
192.6609381619
 20
180.324312275
 11
68.5213483515
 21
251.9947164679
  0
LINE
  5
26B
100
AcDbEntity
  8
0
100
AcDbLine
 62
7
  6
CONTINUOUS
 10
119.9805670503
 20
216.7830657529
 11
119.8860212768
 21
216.8506568128
  0
LINE
  5
26C
100
AcDbEntity
  8
0
100
AcDbLine
 62
7
  6
CONTINUOUS
 10
175.9085348796
 20
168.9718811535
 11
175.9085348796
 21
57.1110500067
  0
LINE
  5
26D
100
AcDbEntity
  8
0
100
AcDbLine
 62
7
  6
CONTINUOUS
 10
176.6156357729
 20
169.7883677616
 11
176.6156357729
 21
57.9275366148
  0
LINE
  5
26E
100
AcDbEntity
  8
0
100
AcDbLine
 62
7
  6
CONTINUOUS
 10
180.6343159795
 20
100.2160522832
 11
180.6343159795
 21
74.0910918676
  0
LINE
  5
26F
100
AcDbEntity
  8
0
100
AcDbLine
 62
7
  6
CONTINUOUS
 10
180.7131319346
 20
74.2081053194
 11
180.7131319346
 21
100.3330937461
  0
LWPOLYLINE
  5
270
100
AcDbEntity
  8
0
100
AcDbPolyline
 62
7
  6
CONTINUOUS
 90
5
 70
0
 10
107.5868899684
 20
224.3508146233
 10
107.3539142792
 20
224.3034337742
 10
106.9877137528
 20
224.3369631531
 10
106.8363063475
 20
224.3843769707
 10
106.7063333196
 20
224.4467598459
  0
LINE
  5
271
100
AcDbEntity
  8
0
100
AcDbLine
 62
7
  6
CONTINUOUS
 10
107.587539284
 20
224.3511717401
 11
107.8194715675
 21
224.3172464086
  0
LINE
  5
272
100
AcDbEntity
  8
0
100
AcDbLine
 62
7
  6
CONTINUOUS
 10
110.3215869116
 20
224.687379028
 11
114.2076307567
 21
223.8767368993
  0
LINE
  5
273
100
AcDbEntity
  8
0
100
AcDbLine
 62
7
  6
CONTINUOUS
 10
125.6983945447
 20
218.3610964152
 11
123.5555422309
 21
218.890781483
  0
LINE
  5
274
100
AcDbEntity
  8
0
100
AcDbLine
 62
7
  6
CONTINUOUS
 10
123.3947147598
 20
219.5360660152
 11
125.5375670736
 21
219.0063809473
  0
LINE
  5
275
100
AcDbEntity
  8
0
100
AcDbLine
 62
7
  6
CONTINUOUS
 10
114.7811798736
 20
222.1126900782
 11
119.1744186297
 21
221.0092254557
  0
LINE
  5
276
100
AcDbEntity
  8
0
100
AcDbLine
 62
7
  6
CONTINUOUS
 10
114.1936120469
 20
225.555668271
 11
111.8550973966
 21
226.1983164859
  0
LINE
  5
277
100
AcDbEntity
  8
0
100
AcDbLine
 62
7
  6
CONTINUOUS
 10
114.1182926062
 20
225.5875322438
 11
111.7797780614
 21
226.2301804296
  0
LINE
  5
278
100
AcDbEntity
  8
0
100
AcDbLine
 62
7
  6
CONTINUOUS
 10
125.5797502282
 20
218.989133986
 11
125.5375670736
 21
219.0063809473
  0
LINE
  5
279
100
AcDbEntity
  8
0
100
AcDbLine
 62
7
  6
CONTINUOUS
 10
114.2357952015
 20
225.5384213097
 11
114.1127303635
 21
225.5890259521
  0
LINE
  5
27A
100
AcDbEntity
  8
0
100
AcDbLine
 62
7
  6
CONTINUOUS
 10
111.8550973966
 20
226.1983164859
 11
111.7797780614
 21
226.2301804296
  0
LINE
  5
27B
100
AcDbEntity
  8
0
100
AcDbLine
 62
7
  6
CONTINUOUS
 10
114.1182926062
 20
225.5875322438
 11
114.1936120469
 21
225.555668271
  0
LINE
  5
27C
100
AcDbEntity
  8
0
100
AcDbLine
 62
7
  6
CONTINUOUS
 10
183.927357095
 20
169.1182396283
 11
183.7264352485
 21
175.9387668364
  0
LINE
  5
27D
100
AcDbEntity
  8
0
100
AcDbLine
 62
7
  6
CONTINUOUS
 10
184.0060423776
 20
169.2440897224
 11
183.8051211192
 21
176.0646139591
  0
LWPOLYLINE
  5
27E
100
AcDbEntity
  8
0
100
AcDbPolyline
 62
7
  6
CONTINUOUS
 90
3
 70
0
 10
180.7131306263
 20
100.3343797225
 10
180.8002779924
 20
101.1659119773
 10
180.9240794671
 20
101.7521020479
  0
LINE
  5
27F
100
AcDbEntity
  8
0
100
AcDbLine
 62
7
  6
CONTINUOUS
 10
180.9255769924
 20
101.7583906705
 11
180.9240717962
 21
101.752058822
  0
LINE
  5
280
100
AcDbEntity
  8
0
100
AcDbLine
 62
7
  6
CONTINUOUS
 10
153.5568253186
 20
86.4599847309
 11
153.4861149349
 21
86.4191603155
  0
LWPOLYLINE
  5
281
100
AcDbEntity
  8
0
100
AcDbPolyline
 62
7
  6
CONTINUOUS
 90
3
 70
0
 10
54.9488211589
 20
254.3282791851
 10
53.6763666177
 20
254.7995002163
 10
52.4513161813
 20
254.6398378584
  0
LINE
  5
282
100
AcDbEntity
  8
0
100
AcDbLine
 62
7
  6
CONTINUOUS
 10
184.1063586625
 20
168.5836593724
 11
184.1032532621
 21
168.595713515
  0
LWPOLYLINE
  5
283
100
AcDbEntity
  8
0
100
AcDbPolyline
 62
7
  6
CONTINUOUS
 90
4
 70
0
 10
183.8051310905
 20
176.0642627453
 10
183.3599720216
 20
178.1186707426
 10
182.0171951295
 20
180.4255428769
 10
180.2238655652
 20
182.0023346792
  0
LWPOLYLINE
  5
284
100
AcDbEntity
  8
0
100
AcDbPolyline
 62
7
  6
CONTINUOUS
 90
3
 70
0
 10
184.1063586625
 20
168.5836593724
 10
184.0372589927
 20
168.9125354881
 10
184.0059609482
 20
169.2461823423
  0
LINE
  5
285
100
AcDbEntity
  8
0
100
AcDbLine
 62
7
  6
CONTINUOUS
 10
196.0523773046
 20
174.1966755374
 11
196.0523773046
 21
113.0017505105
  0
LINE
  5
286
100
AcDbEntity
  8
0
100
AcDbLine
 62
7
  6
CONTINUOUS
 10
196.1311932597
 20
113.1187639625
 11
196.1311932597
 21
174.3136889931
  0
LINE
  5
287
100
AcDbEntity
  8
0
100
AcDbLine
 62
7
  6
CONTINUOUS
 10
181.1517038763
 20
102.8278538862
 11
196.0523773046
 21
113.0017505105
  0
LINE
  5
288
100
AcDbEntity
  8
0
100
AcDbLine
 62
7
  6
CONTINUOUS
 10
195.1299254107
 20
110.784831681
 11
180.7816419681
 21
100.988093002
  0
LINE
  5
289
100
AcDbEntity
  8
0
100
AcDbLine
 62
7
  6
CONTINUOUS
 10
176.6156357729
 20
71.3472128953
 11
180.6343159795
 21
74.0910918676
  0
LINE
  5
28A
100
AcDbEntity
  8
0
100
AcDbLine
 62
7
  6
CONTINUOUS
 10
176.6156357729
 20
69.7601251648
 11
179.7104069142
 21
71.8731764707
  0
LINE
  5
28B
100
AcDbEntity
  8
0
100
AcDbLine
 62
7
  6
CONTINUOUS
 10
170.6052413807
 20
62.6224462279
 11
170.3931084631
 21
62.4999719619
  0
LINE
  5
28C
100
AcDbEntity
  8
0
100
AcDbLine
 62
7
  6
CONTINUOUS
 10
167.069689811
 20
60.1728821847
 11
166.7161378924
 21
59.9687601078
  0
LINE
  5
28D
100
AcDbEntity
  8
0
100
AcDbLine
 62
7
  6
CONTINUOUS
 10
176.6156357729
 20
57.9275366148
 11
175.9085348796
 21
57.5192941606
  0
LINE
  5
28E
100
AcDbEntity
  8
0
100
AcDbLine
 62
7
  6
CONTINUOUS
 10
175.9085348796
 20
57.1110500067
 11
172.3730156935
 21
55.0698292374
  0
LINE
  5
28F
100
AcDbEntity
  8
0
100
AcDbLine
 62
7
  6
CONTINUOUS
 10
174.2516391709
 20
53.4487624737
 11
170.7161199848
 21
51.4075417044
  0
ARC
  5
290
100
AcDbEntity
  8
0
100
AcDbCircle
 62
7
  6
CONTINUOUS
 10
194.0141755946
 20
98.5709286934
 40
13.528617924
100
AcDbArc
 50
166.3546393364
 51
167.677191609
  0
ARC
  5
291
100
AcDbEntity
  8
0
100
AcDbCircle
 62
7
  6
CONTINUOUS
 10
177.1116628909
 20
166.8608657994
 40
7.306154225
100
AcDbArc
 50
14.1685523622
 51
18.8948888244
  0
ARC
  5
292
100
AcDbEntity
  8
0
100
AcDbCircle
 62
7
  6
CONTINUOUS
 10
177.7357580936
 20
167.0276439887
 40
6.660226924
100
AcDbArc
 50
13.2379676956
 51
14.0916297097
  0
ARC
  5
293
100
AcDbEntity
  8
0
100
AcDbCircle
 62
7
  6
CONTINUOUS
 10
177.5710729372
 20
177.632740558
 40
5.0317614987
100
AcDbArc
 50
59.0456043598
 51
60.0493444741
  0
ARC
  5
294
100
AcDbEntity
  8
0
100
AcDbCircle
 62
7
  6
CONTINUOUS
 10
165.5456651449
 20
62.498415401
 40
4.8474435682
100
AcDbArc
 50
357.1053667933
 51
0.0183982289
  0
ARC
  5
295
100
AcDbEntity
  8
0
100
AcDbCircle
 62
7
  6
CONTINUOUS
 10
28.6675264764
 20
248.5458294975
 40
4.8473185416
100
AcDbArc
 50
59.9821614638
 51
62.8952920085
  0
ARC
  5
296
100
AcDbEntity
  8
0
100
AcDbCircle
 62
7
  6
CONTINUOUS
 10
191.2673964083
 20
174.203390414
 40
4.7849903464
100
AcDbArc
 50
359.9196284883
 51
0.9553211214
  0
ARC
  5
297
100
AcDbEntity
  8
0
100
AcDbCircle
 62
7
  6
CONTINUOUS
 10
190.1336334751
 20
176.1673905574
 40
4.7848420437
100
AcDbArc
 50
59.0456799104
 51
60.0809966568
  0
ARC
  5
298
100
AcDbEntity
  8
0
100
AcDbCircle
 62
7
  6
CONTINUOUS
 10
179.0263264935
 20
175.8188346483
 40
4.7016386547
100
AcDbArc
 50
1.4616933042
 51
2.5792558235
  0
ARC
  5
299
100
AcDbEntity
  8
0
100
AcDbCircle
 62
7
  6
CONTINUOUS
 10
183.9628336096
 20
100.2139175401
 40
3.3285183146
100
AcDbArc
 50
177.9492284843
 51
179.9632533858
  0
ARC
  5
29A
100
AcDbEntity
  8
0
100
AcDbCircle
 62
7
  6
CONTINUOUS
 10
172.9157430098
 20
55.7626131226
 40
2.6717427168
100
AcDbArc
 50
299.9998860844
 51
301.0209628415
  0
ARC
  5
29B
100
AcDbEntity
  8
0
100
AcDbCircle
 62
7
  6
CONTINUOUS
 10
31.8225011177
 20
255.2343937413
 40
2.6717423871
100
AcDbArc
 50
118.9789018519
 51
119.9998208024
  0
ARC
  5
29C
100
AcDbEntity
  8
0
100
AcDbCircle
 62
7
  6
CONTINUOUS
 10
168.8638842032
 20
61.5913607131
 40
1.9437119678
100
AcDbArc
 50
285.31927969
 51
287.8479371359
  0
ARC
  5
29D
100
AcDbEntity
  8
0
100
AcDbCircle
 62
7
  6
CONTINUOUS
 10
29.5410587241
 20
251.8729029807
 40
1.9437115503
100
AcDbArc
 50
132.1518158947
 51
134.6802613018
  0
ARC
  5
29E
100
AcDbEntity
  8
0
100
AcDbCircle
 62
7
  6
CONTINUOUS
 10
29.5047001924
 20
251.9135827897
 40
1.8891527086
100
AcDbArc
 50
126.4419642326
 51
132.1622798119
  0
ARC
  5
29F
100
AcDbEntity
  8
0
100
AcDbCircle
 62
7
  6
CONTINUOUS
 10
168.8809345694
 20
61.5395327202
 40
1.8891525193
100
AcDbArc
 50
287.8374757214
 51
293.5573126449
  0
ARC
  5
2A0
100
AcDbEntity
  8
0
100
AcDbCircle
 62
7
  6
CONTINUOUS
 10
168.5530617376
 20
61.277774035
 40
1.8260348531
100
AcDbArc
 50
300.0011845756
 51
302.6086964026
  0
ARC
  5
2A1
100
AcDbEntity
  8
0
100
AcDbCircle
 62
7
  6
CONTINUOUS
 10
29.1141468188
 20
251.7605606553
 40
1.8260348531
100
AcDbArc
 50
117.3915328024
 51
122.6086964027
  0
ARC
  5
2A2
100
AcDbEntity
  8
0
100
AcDbCircle
 62
7
  6
CONTINUOUS
 10
120.6424235634
 20
218.152532995
 40
1.5957744064
100
AcDbArc
 50
238.6803427316
 51
239.8220530418
  0
ARC
  5
2A3
100
AcDbEntity
  8
0
100
AcDbCircle
 62
7
  6
CONTINUOUS
 10
107.3511576528
 20
225.7967930384
 40
1.5704073419
100
AcDbArc
 50
239.986451089
 51
244.1798788549
  0
ARC
  5
2A4
100
AcDbEntity
  8
0
100
AcDbCircle
 62
7
  6
CONTINUOUS
 10
125.32975447
 20
218.5561188351
 40
0.5
100
AcDbArc
 50
30.6297407499
 51
60.0005612631
  0
ARC
  5
2A5
100
AcDbEntity
  8
0
100
AcDbCircle
 62
7
  6
CONTINUOUS
 10
111.647284793
 20
225.7480543737
 40
0.5
100
AcDbArc
 50
74.6722378634
 51
99.8763587151
  0
ARC
  5
2A6
100
AcDbEntity
  8
0
100
AcDbCircle
 62
7
  6
CONTINUOUS
 10
119.5568631036
 20
216.8741494272
 40
0.4772942004
100
AcDbArc
 50
358.0078851265
 51
1.3157797674
  0
ARC
  5
2A7
100
AcDbEntity
  8
0
100
AcDbCircle
 62
7
  6
CONTINUOUS
 10
111.8160171211
 20
225.9066827306
 40
0.2987005606
100
AcDbArc
 50
101.4858180021
 51
106.5830109217
  0
SPLINE
  5
2A8
100
AcDbEntity
  8
0
100
AcDbSpline
 62
7
  6
CONTINUOUS
 70
0
 71
3
 72
9
 73
5
 74
0
 42
0.0000001
 43
0.0000001
 44
0.0000000001
 40
0.0
 40
0.0
 40
0.0
 40
0.0
 40
0.2613838483
 40
1.0
 40
1.0
 40
1.0
 40
1.0
 10
176.6156357729
 20
57.9275366148
 30
0.0
 10
176.6156357729
 20
57.8142602062
 30
0.0
 10
176.6051264317
 20
57.3810493861
 30
0.0
 10
176.5514078354
 20
56.9481427211
 30
0.0
 10
176.4813610635
 20
56.6358054711
 30
0.0
  0
SPLINE
  5
2A9
100
AcDbEntity
  8
0
100
AcDbSpline
 62
7
  6
CONTINUOUS
 70
0
 71
3
 72
10
 73
6
 74
0
 42
0.0000001
 43
0.0000001
 44
0.0000000001
 40
0.0
 40
0.0
 40
0.0
 40
0.0
 40
0.5292760183
 40
0.7690958349
 40
1.0
 40
1.0
 40
1.0
 40
1.0
 10
176.4813610635
 20
56.6358054711
 30
0.0
 10
176.3812518363
 20
56.1894202928
 30
0.0
 10
176.1403016797
 20
55.5488310772
 30
0.0
 10
175.5944669041
 20
54.8711032868
 30
0.0
 10
175.2697989818
 20
54.6183038825
 30
0.0
 10
175.0986653319
 20
54.5156145902
 30
0.0
  0
SPLINE
  5
2AA
100
AcDbEntity
  8
0
100
AcDbSpline
 62
7
  6
CONTINUOUS
 70
0
 71
3
 72
11
 73
7
 74
0
 42
0.0000001
 43
0.0000001
 44
0.0000000001
 40
0.0
 40
0.0
 40
0.0
 40
0.0
 40
0.2372278993
 40
0.4999989081
 40
0.7627705112
 40
1.0
 40
1.0
 40
1.0
 40
1.0
 10
171.3123128342
 20
178.9739415489
 30
0.0
 10
172.0651978724
 20
178.539273003
 30
0.0
 10
173.4900281745
 20
177.3401519899
 30
0.0
 10
175.1529607828
 20
175.0676322019
 30
0.0
 10
176.2895683714
 20
172.4912302139
 30
0.0
 10
176.6156357729
 20
170.6577254286
 30
0.0
 10
176.6156357729
 20
169.7883677616
 30
0.0
  0
SPLINE
  5
2AB
100
AcDbEntity
  8
0
100
AcDbSpline
 62
7
  6
CONTINUOUS
 70
0
 71
3
 72
9
 73
5
 74
0
 42
0.0000001
 43
0.0000001
 44
0.0000000001
 40
0.0
 40
0.0
 40
0.0
 40
0.0
 40
0.2787441914
 40
1.0
 40
1.0
 40
1.0
 40
1.0
 10
175.9085348796
 20
57.1110500067
 30
0.0
 10
175.9085348796
 20
56.8436164326
 30
0.0
 10
175.8588475765
 20
55.8883170508
 30
0.0
 10
175.5781399874
 20
54.9201593194
 30
0.0
 10
175.1933693955
 20
54.345006395
 30
0.0
  0
SPLINE
  5
2AC
100
AcDbEntity
  8
0
100
AcDbSpline
 62
7
  6
CONTINUOUS
 70
0
 71
3
 72
9
 73
5
 74
0
 42
0.0000001
 43
0.0000001
 44
0.0000000001
 40
0.0
 40
0.0
 40
0.0
 40
0.0
 40
0.5089949349
 40
1.0
 40
1.0
 40
1.0
 40
1.0
 10
175.1933693955
 20
54.345006395
 30
0.0
 10
175.0743671764
 20
54.167122545
 30
0.0
 10
174.8054755421
 20
53.8392759575
 30
0.0
 10
174.4695575033
 20
53.579383058
 30
0.0
 10
174.2926300346
 20
53.4729862392
 30
0.0
  0
SPLINE
  5
2AD
100
AcDbEntity
  8
0
100
AcDbSpline
 62
7
  6
CONTINUOUS
 70
0
 71
3
 72
9
 73
5
 74
0
 42
0.0000001
 43
0.0000001
 44
0.0000000001
 40
0.0
 40
0.0
 40
0.0
 40
0.0
 40
0.2449452143
 40
1.0
 40
1.0
 40
1.0
 40
1.0
 10
170.2516570784
 20
178.7698265267
 30
0.0
 10
170.3032274646
 20
178.7400530239
 30
0.0
 10
170.5123092256
 20
178.6159883126
 30
0.0
 10
170.7155960603
 20
178.4822158375
 30
0.0
 10
170.8657271582
 20
178.376599866
 30
0.0
  0
SPLINE
  5
2AE
100
AcDbEntity
  8
0
100
AcDbSpline
 62
7
  6
CONTINUOUS
 70
0
 71
3
 72
11
 73
7
 74
0
 42
0.0000001
 43
0.0000001
 44
0.0000000001
 40
0.0
 40
0.0
 40
0.0
 40
0.0
 40
0.2436780201
 40
0.5064548969
 40
0.7657605004
 40
1.0
 40
1.0
 40
1.0
 40
1.0
 10
170.8657271582
 20
178.376599866
 30
0.0
 10
171.5967937093
 20
177.8623006625
 30
0.0
 10
172.9599434262
 20
176.5668531464
 30
0.0
 10
174.5432976676
 20
174.2244780277
 30
0.0
 10
175.6086697153
 20
171.6430471942
 30
0.0
 10
175.9085348796
 20
169.8311060033
 30
0.0
 10
175.9085348796
 20
168.9718811535
 30
0.0
  0
SPLINE
  5
2AF
100
AcDbEntity
  8
0
100
AcDbSpline
 62
7
  6
CONTINUOUS
 70
0
 71
3
 72
11
 73
7
 74
0
 42
0.0000001
 43
0.0000001
 44
0.0000000001
 40
0.0
 40
0.0
 40
0.0
 40
0.0
 40
0.2897752222
 40
0.5490688037
 40
0.7822250762
 40
1.0
 40
1.0
 40
1.0
 40
1.0
 10
166.7161378696
 20
51.8037359496
 30
0.0
 10
167.0672592956
 20
51.6010204842
 30
0.0
 10
167.7655025118
 20
51.2686853758
 30
0.0
 10
168.8388886615
 20
51.0097147314
 30
0.0
 10
169.8458863156
 20
51.0351125421
 30
0.0
 10
170.4522132157
 20
51.2552438639
 30
0.0
 10
170.7160905818
 20
51.4075926322
 30
0.0
  0
SPLINE
  5
2B0
100
AcDbEntity
  8
0
100
AcDbSpline
 62
7
  6
CONTINUOUS
 70
0
 71
3
 72
11
 73
7
 74
0
 42
0.0000001
 43
0.0000001
 44
0.0000000001
 40
0.0
 40
0.0
 40
0.0
 40
0.0
 40
0.2372294888
 40
0.5000010919
 40
0.7627721007
 40
1.0
 40
1.0
 40
1.0
 40
1.0
 10
25.294192863
 20
139.9839061776
 30
0.0
 10
25.294192863
 20
139.0565913328
 30
0.0
 10
25.6419980912
 20
137.1008528951
 30
0.0
 10
26.854379519
 20
134.3526907746
 30
0.0
 10
28.6281743012
 20
131.9286696674
 30
0.0
 10
30.1479932901
 20
130.6496072534
 30
0.0
 10
30.9510706641
 20
130.1859608044
 30
0.0
  0
SPLINE
  5
2B1
100
AcDbEntity
  8
0
100
AcDbSpline
 62
7
  6
CONTINUOUS
 70
0
 71
3
 72
11
 73
7
 74
0
 42
0.0000001
 43
0.0000001
 44
0.0000000001
 40
0.0
 40
0.0
 40
0.0
 40
0.0
 40
0.2835295325
 40
0.5433103081
 40
0.7804291389
 40
1.0
 40
1.0
 40
1.0
 40
1.0
 10
170.6052413807
 20
62.2141992522
 30
0.0
 10
170.6052413807
 20
61.986442165
 30
0.0
 10
170.5764831065
 20
61.5491280684
 30
0.0
 10
170.4350581572
 20
60.9350618826
 30
0.0
 10
170.1981268479
 20
60.4060429226
 30
0.0
 10
169.9718481984
 20
60.1115102154
 30
0.0
 10
169.846426233
 20
59.9874977697
 30
0.0
  0
SPLINE
  5
2B2
100
AcDbEntity
  8
0
100
AcDbSpline
 62
7
  6
CONTINUOUS
 70
0
 71
3
 72
8
 73
4
 74
0
 42
0.0000001
 43
0.0000001
 44
0.0000000001
 40
0.0
 40
0.0
 40
0.0
 40
0.0
 40
1.0
 40
1.0
 40
1.0
 40
1.0
 10
169.846426233
 20
59.9874977697
 30
0.0
 10
169.7524646487
 20
59.8945921464
 30
0.0
 10
169.6484191862
 20
59.810782515
 30
0.0
 10
169.5371094493
 20
59.7395759378
 30
0.0
  0
SPLINE
  5
2B3
100
AcDbEntity
  8
0
100
AcDbSpline
 62
7
  6
CONTINUOUS
 70
0
 71
3
 72
11
 73
7
 74
0
 42
0.0000001
 43
0.0000001
 44
0.0000000001
 40
0.0
 40
0.0
 40
0.0
 40
0.0
 40
0.237239768
 40
0.4999988393
 40
0.7627585384
 40
1.0
 40
1.0
 40
1.0
 40
1.0
 10
166.7161378924
 20
174.6873497145
 30
0.0
 10
167.2682810234
 20
174.3685769408
 30
0.0
 10
168.3131367782
 20
173.489198754
 30
0.0
 10
169.5326254449
 20
171.8227305589
 30
0.0
 10
170.3660954899
 20
169.9333879717
 30
0.0
 10
170.6052413807
 20
168.5888231865
 30
0.0
 10
170.6052413807
 20
167.9512622704
 30
0.0
  0
SPLINE
  5
2B4
100
AcDbEntity
  8
0
100
AcDbSpline
 62
7
  6
CONTINUOUS
 70
0
 71
3
 72
11
 73
7
 74
0
 42
0.0000001
 43
0.0000001
 44
0.0000000001
 40
0.0
 40
0.0
 40
0.0
 40
0.0
 40
0.2268979379
 40
0.4647138916
 40
0.7213022688
 40
1.0
 40
1.0
 40
1.0
 40
1.0
 10
195.1301210054
 20
110.7851305594
 30
0.0
 10
195.2945240141
 20
110.897873655
 30
0.0
 10
195.595529522
 20
111.1849613399
 30
0.0
 10
195.9112229254
 20
111.7428420349
 30
0.0
 10
196.0949624565
 20
112.4022406692
 30
0.0
 10
196.1312870235
 20
112.8739169229
 30
0.0
 10
196.1312146545
 20
113.1187743443
 30
0.0
  0
SPLINE
  5
2B5
100
AcDbEntity
  8
0
100
AcDbSpline
 62
7
  6
CONTINUOUS
 70
0
 71
3
 72
11
 73
7
 74
0
 42
0.0000001
 43
0.0000001
 44
0.0000000001
 40
0.0
 40
0.0
 40
0.0
 40
0.0
 40
0.289702329
 40
0.5490881649
 40
0.7822156415
 40
1.0
 40
1.0
 40
1.0
 40
1.0
 10
166.5747159473
 20
60.2953589838
 30
0.0
 10
166.8116615973
 20
60.1585614438
 30
0.0
 10
167.2830228996
 20
59.9343256314
 30
0.0
 10
168.0075146004
 20
59.7593738662
 30
0.0
 10
168.6872997665
 20
59.7765859032
 30
0.0
 10
169.0965667327
 20
59.9251120546
 30
0.0
 10
169.2746903871
 20
60.0279512125
 30
0.0
  0
SPLINE
  5
2B6
100
AcDbEntity
  8
0
100
AcDbSpline
 62
7
  6
CONTINUOUS
 70
0
 71
3
 72
11
 73
7
 74
0
 42
0.0000001
 43
0.0000001
 44
0.0000000001
 40
0.0
 40
0.0
 40
0.0
 40
0.0
 40
0.2372413576
 40
0.5000010231
 40
0.762760128
 40
1.0
 40
1.0
 40
1.0
 40
1.0
 10
27.2741000934
 20
145.1279006768
 30
0.0
 10
27.2741000934
 20
144.5019320518
 30
0.0
 10
27.5088977091
 20
143.1818142606
 30
0.0
 10
28.3272134577
 20
141.3268235238
 30
0.0
 10
29.5245295998
 20
139.6906544109
 30
0.0
 10
30.5503882065
 20
138.8272645923
 30
0.0
 10
31.0924926092
 20
138.5142875499
 30
0.0
  0
SPLINE
  5
2B7
100
AcDbEntity
  8
0
100
AcDbSpline
 62
7
  6
CONTINUOUS
 70
0
 71
3
 72
13
 73
9
 74
0
 42
0.0000001
 43
0.0000001
 44
0.0000000001
 40
0.0
 40
0.0
 40
0.0
 40
0.0
 40
0.270021196
 40
0.5613627884
 40
0.6954957814
 40
0.8132028442
 40
0.9128841841
 40
1.0
 40
1.0
 40
1.0
 40
1.0
 10
72.6705444478
 20
215.1028289745
 30
0.0
 10
72.7479274322
 20
215.0581528983
 30
0.0
 10
72.8837331372
 20
214.9230409596
 30
0.0
 10
72.9902941164
 20
214.7146066244
 30
0.0
 10
73.0265941197
 20
214.5373856182
 30
0.0
 10
73.0238558714
 20
214.4198160982
 30
0.0
 10
72.9907402185
 20
214.3223277038
 30
0.0
 10
72.9455046653
 20
214.2759874876
 30
0.0
 10
72.9205350089
 20
214.2615805983
 30
0.0
  0
SPLINE
  5
2B8
100
AcDbEntity
  8
0
100
AcDbSpline
 62
7
  6
CONTINUOUS
 70
0
 71
3
 72
9
 73
5
 74
0
 42
0.0000001
 43
0.0000001
 44
0.0000000001
 40
0.0
 40
0.0
 40
0.0
 40
0.0
 40
0.2939106815
 40
1.0
 40
1.0
 40
1.0
 40
1.0
 10
153.6628923661
 20
86.5212257312
 30
0.0
 10
153.6628923661
 20
86.5086308664
 30
0.0
 10
153.6599297211
 20
86.4663716609
 30
0.0
 10
153.6373299878
 20
86.4218881217
 30
0.0
 10
153.6111259068
 20
86.4067592611
 30
0.0
  0
SPLINE
  5
2B9
100
AcDbEntity
  8
0
100
AcDbSpline
 62
7
  6
CONTINUOUS
 70
0
 71
3
 72
9
 73
5
 74
0
 42
0.0000001
 43
0.0000001
 44
0.0000000001
 40
0.0
 40
0.0
 40
0.0
 40
0.0
 40
0.4999970033
 40
1.0
 40
1.0
 40
1.0
 40
1.0
 10
153.4861149349
 20
157.3895504125
 30
0.0
 10
153.5385858491
 20
157.3592570013
 30
0.0
 10
153.6215149229
 20
157.2636000533
 30
0.0
 10
153.6628923661
 20
157.143953196
 30
0.0
 10
153.6628923661
 20
157.0833646195
 30
0.0
  0
SPLINE
  5
2BA
100
AcDbEntity
  8
0
100
AcDbSpline
 62
7
  6
CONTINUOUS
 70
0
 71
3
 72
11
 73
7
 74
0
 42
0.0000001
 43
0.0000001
 44
0.0000000001
 40
0.0
 40
0.0
 40
0.0
 40
0.0
 40
0.2383907945
 40
0.5000025475
 40
0.7616128743
 40
1.0
 40
1.0
 40
1.0
 40
1.0
 10
196.1311828927
 20
174.3136571956
 30
0.0
 10
196.131355024
 20
174.8855184861
 30
0.0
 10
195.9203656345
 20
176.086133178
 30
0.0
 10
195.1782199796
 20
177.7706061743
 30
0.0
 10
194.0904996376
 20
179.2555510736
 30
0.0
 10
193.156239456
 20
180.0385708543
 30
0.0
 10
192.6609138047
 20
180.324346638
 30
0.0
  0
SPLINE
  5
2BB
100
AcDbEntity
  8
0
100
AcDbSpline
 62
7
  6
CONTINUOUS
 70
0
 71
3
 72
11
 73
7
 74
0
 42
0.0000001
 43
0.0000001
 44
0.0000000001
 40
0.0
 40
0.0
 40
0.0
 40
0.0
 40
0.2787030842
 40
0.5352846115
 40
0.7731020834
 40
1.0
 40
1.0
 40
1.0
 40
1.0
 10
68.521377228
 20
251.9946963479
 30
0.0
 10
68.3093513536
 20
252.1171920665
 30
0.0
 10
67.8826961975
 20
252.3215731662
 30
0.0
 10
67.2197505374
 20
252.4921477552
 30
0.0
 10
66.5787593066
 20
252.4976508048
 30
0.0
 10
66.1796135649
 20
252.3805322313
 30
0.0
 10
65.9997762912
 20
252.2945107411
 30
0.0
  0
SPLINE
  5
2BC
100
AcDbEntity
  8
0
100
AcDbSpline
 62
7
  6
CONTINUOUS
 70
0
 71
3
 72
9
 73
5
 74
0
 42
0.0000001
 43
0.0000001
 44
0.0000000001
 40
0.0
 40
0.0
 40
0.0
 40
0.0
 40
0.2208548516
 40
1.0
 40
1.0
 40
1.0
 40
1.0
 10
44.0560826497
 20
220.5078073007
 30
0.0
 10
44.0643253158
 20
220.5125661833
 30
0.0
 10
44.1057595518
 20
220.5275767833
 30
0.0
 10
44.1520145144
 20
220.5121946968
 30
0.0
 10
44.1810936216
 20
220.4954062462
 30
0.0
  0
SPLINE
  5
2BD
100
AcDbEntity
  8
0
100
AcDbSpline
 62
7
  6
CONTINUOUS
 70
0
 71
3
 72
9
 73
5
 74
0
 42
0.0000001
 43
0.0000001
 44
0.0000000001
 40
0.0
 40
0.0
 40
0.0
 40
0.0
 40
0.4494875461
 40
1.0
 40
1.0
 40
1.0
 40
1.0
 10
58.2783598157
 20
223.2923889722
 30
0.0
 10
58.3121082123
 20
223.311861477
 30
0.0
 10
58.4043859443
 20
223.3257489199
 30
0.0
 10
58.4870226058
 20
223.2915038755
 30
0.0
 10
58.5283499449
 20
223.2676440649
 30
0.0
  0
SPLINE
  5
2BE
100
AcDbEntity
  8
0
100
AcDbSpline
 62
7
  6
CONTINUOUS
 70
0
 71
3
 72
11
 73
7
 74
0
 42
0.0000001
 43
0.0000001
 44
0.0000000001
 40
0.0
 40
0.0
 40
0.0
 40
0.0
 40
0.2177833598
 40
0.4509104088
 40
0.7102966711
 40
1.0
 40
1.0
 40
1.0
 40
1.0
 10
28.3925181694
 20
253.0103834777
 30
0.0
 10
28.2143905707
 20
252.9075420427
 30
0.0
 10
27.8811211549
 20
252.6273631097
 30
0.0
 10
27.5263163629
 20
252.0472411194
 30
0.0
 10
27.3155831818
 20
251.3323151552
 30
0.0
 10
27.2741000934
 20
250.8119707079
 30
0.0
 10
27.2741000934
 20
250.5383627283
 30
0.0
  0
SPLINE
  5
2BF
100
AcDbEntity
  8
0
100
AcDbSpline
 62
7
  6
CONTINUOUS
 70
0
 71
3
 72
8
 73
4
 74
0
 42
0.0000001
 43
0.0000001
 44
0.0000000001
 40
0.0
 40
0.0
 40
0.0
 40
0.0
 40
1.0
 40
1.0
 40
1.0
 40
1.0
 10
28.2739714227
 20
253.3818238432
 30
0.0
 10
28.3912960604
 20
253.4426197958
 30
0.0
 10
28.5159035818
 20
253.4908225524
 30
0.0
 10
28.6433466573
 20
253.52574362
 30
0.0
  0
SPLINE
  5
2C0
100
AcDbEntity
  8
0
100
AcDbSpline
 62
7
  6
CONTINUOUS
 70
0
 71
3
 72
11
 73
7
 74
0
 42
0.0000001
 43
0.0000001
 44
0.0000000001
 40
0.0
 40
0.0
 40
0.0
 40
0.0
 40
0.2195716517
 40
0.4566907739
 40
0.7164713121
 40
1.0
 40
1.0
 40
1.0
 40
1.0
 10
28.6433466573
 20
253.52574362
 30
0.0
 10
28.8134512359
 20
253.5723544966
 30
0.0
 10
29.1816531173
 20
253.6210502473
 30
0.0
 10
29.7582464914
 20
253.5617343622
 30
0.0
 10
30.3607388505
 20
253.3771892271
 30
0.0
 10
30.7538325415
 20
253.1834474894
 30
0.0
 10
30.9510706641
 20
253.0695745824
 30
0.0
  0
SPLINE
  5
2C1
100
AcDbEntity
  8
0
100
AcDbSpline
 62
7
  6
CONTINUOUS
 70
0
 71
3
 72
11
 73
7
 74
0
 42
0.0000001
 43
0.0000001
 44
0.0000000001
 40
0.0
 40
0.0
 40
0.0
 40
0.0
 40
0.2177739674
 40
0.4509298424
 40
0.7102237828
 40
1.0
 40
1.0
 40
1.0
 40
1.0
 10
26.9511179747
 20
255.5069739296
 30
0.0
 10
26.6872347146
 20
255.3546217584
 30
0.0
 10
26.1934192998
 20
254.9395832538
 30
0.0
 10
25.6679162938
 20
254.0801717217
 30
0.0
 10
25.3554982778
 20
253.0210744176
 30
0.0
 10
25.294192863
 20
252.2501873604
 30
0.0
 10
25.294192863
 20
251.8447373244
 30
0.0
  0
SPLINE
  5
2C2
100
AcDbEntity
  8
0
100
AcDbSpline
 62
7
  6
CONTINUOUS
 70
0
 71
3
 72
9
 73
5
 74
0
 42
0.0000001
 43
0.0000001
 44
0.0000000001
 40
0.0
 40
0.0
 40
0.0
 40
0.0
 40
0.4910051038
 40
1.0
 40
1.0
 40
1.0
 40
1.0
 10
30.528075263
 20
257.5716290931
 30
0.0
 10
30.7086821717
 20
257.6716542664
 30
0.0
 10
31.1017168003
 20
257.8326207448
 30
0.0
 10
31.5200877017
 20
257.9015631322
 30
0.0
 10
31.7336414674
 20
257.9156793142
 30
0.0
  0
SPLINE
  5
2C3
100
AcDbEntity
  8
0
100
AcDbSpline
 62
7
  6
CONTINUOUS
 70
0
 71
3
 72
9
 73
5
 74
0
 42
0.0000001
 43
0.0000001
 44
0.0000000001
 40
0.0
 40
0.0
 40
0.0
 40
0.0
 40
0.225072819
 40
1.0
 40
1.0
 40
1.0
 40
1.0
 10
31.7336414674
 20
257.9156793142
 30
0.0
 10
31.9493560749
 20
257.9299383307
 30
0.0
 10
32.9146687772
 20
257.8979074867
 30
0.0
 10
33.8419795943
 20
257.524208883
 30
0.0
 10
34.4865898616
 20
257.152051388
 30
0.0
  0
SPLINE
  5
2C4
100
AcDbEntity
  8
0
100
AcDbSpline
 62
7
  6
CONTINUOUS
 70
0
 71
3
 72
11
 73
7
 74
0
 42
0.0000001
 43
0.0000001
 44
0.0000000001
 40
0.0
 40
0.0
 40
0.0
 40
0.0
 40
0.2263699649
 40
0.4636688203
 40
0.7198715424
 40
1.0
 40
1.0
 40
1.0
 40
1.0
 10
31.8340292543
 20
257.7483512
 30
0.0
 10
32.0314750927
 20
257.8579507332
 30
0.0
 10
32.4689116447
 20
258.027299043
 30
0.0
 10
33.1894397988
 20
258.1067613732
 30
0.0
 10
33.9614699384
 20
258.0175177366
 30
0.0
 10
34.4748768834
 20
257.8564083218
 30
0.0
 10
34.7344854635
 20
257.7529774586
 30
0.0
  0
SPLINE
  5
2C5
100
AcDbEntity
  8
0
100
AcDbSpline
 62
7
  6
CONTINUOUS
 70
0
 71
3
 72
9
 73
5
 74
0
 42
0.0000001
 43
0.0000001
 44
0.0000000001
 40
0.0
 40
0.0
 40
0.0
 40
0.0
 40
0.2425959288
 40
1.0
 40
1.0
 40
1.0
 40
1.0
 10
34.7344854635
 20
257.7529774586
 30
0.0
 10
34.8024642373
 20
257.7258939807
 30
0.0
 10
35.0804560914
 20
257.6087122271
 30
0.0
 10
35.3493929493
 20
257.4703941173
 30
0.0
 10
35.547245606
 20
257.3561664168
 30
0.0
  0
SPLINE
  5
2C6
100
AcDbEntity
  8
0
100
AcDbSpline
 62
7
  6
CONTINUOUS
 70
0
 71
3
 72
11
 73
7
 74
0
 42
0.0000001
 43
0.0000001
 44
0.0000000001
 40
0.0
 40
0.0
 40
0.0
 40
0.0
 40
0.2268992646
 40
0.4647337333
 40
0.7213292757
 40
1.0
 40
1.0
 40
1.0
 40
1.0
 10
179.7148823845
 20
71.8764261169
 30
0.0
 10
179.8788663331
 20
71.9893265146
 30
0.0
 10
180.1790305505
 20
72.2764997671
 30
0.0
 10
180.4937819693
 20
72.8339539744
 30
0.0
 10
180.6769907836
 20
73.4925596451
 30
0.0
 10
180.713218986
 20
73.9636046289
 30
0.0
 10
180.7131474132
 20
74.2081221118
 30
0.0
  0
SPLINE
  5
2C7
100
AcDbEntity
  8
0
100
AcDbSpline
 62
7
  6
CONTINUOUS
 70
0
 71
3
 72
9
 73
5
 74
0
 42
0.0000001
 43
0.0000001
 44
0.0000000001
 40
0.0
 40
0.0
 40
0.0
 40
0.0
 40
0.2939106815
 40
1.0
 40
1.0
 40
1.0
 40
1.0
 10
44.0043161904
 20
220.3933408305
 30
0.0
 10
44.0043161904
 20
220.4059356953
 30
0.0
 10
44.0072788354
 20
220.4481949008
 30
0.0
 10
44.0298785687
 20
220.49267844
 30
0.0
 10
44.0560826497
 20
220.5078073007
 30
0.0
  0
SPLINE
  5
2C8
100
AcDbEntity
  8
0
100
AcDbSpline
 62
7
  6
CONTINUOUS
 70
0
 71
3
 72
9
 73
5
 74
0
 42
0.0000001
 43
0.0000001
 44
0.0000000001
 40
0.0
 40
0.0
 40
0.0
 40
0.0
 40
0.4999970033
 40
1.0
 40
1.0
 40
1.0
 40
1.0
 10
44.1810936216
 20
149.5250161493
 30
0.0
 10
44.1286227074
 20
149.5553095604
 30
0.0
 10
44.0456936336
 20
149.6509665084
 30
0.0
 10
44.0043161904
 20
149.7706133657
 30
0.0
 10
44.0043161904
 20
149.8312019422
 30
0.0
  0
SPLINE
  5
2C9
100
AcDbEntity
  8
0
100
AcDbSpline
 62
7
  6
CONTINUOUS
 70
0
 71
3
 72
9
 73
5
 74
0
 42
0.0000001
 43
0.0000001
 44
0.0000000001
 40
0.0
 40
0.0
 40
0.0
 40
0.0
 40
0.2780218585
 40
1.0
 40
1.0
 40
1.0
 40
1.0
 10
72.7412548315
 20
214.3271509728
 30
0.0
 10
72.7559351392
 20
214.3186754849
 30
0.0
 10
72.8101524037
 20
214.2912195894
 30
0.0
 10
72.8725662555
 20
214.276077126
 30
0.0
 10
72.9164412627
 20
214.2796434438
 30
0.0
  0
SPLINE
  5
2CA
100
AcDbEntity
  8
0
100
AcDbSpline
 62
7
  6
CONTINUOUS
 70
0
 71
3
 72
9
 73
5
 74
0
 42
0.0000001
 43
0.0000001
 44
0.0000000001
 40
0.0
 40
0.0
 40
0.0
 40
0.0
 40
0.4999992608
 40
1.0
 40
1.0
 40
1.0
 40
1.0
 10
44.0750265741
 20
149.8720263576
 30
0.0
 10
44.0750265741
 20
149.8114382338
 30
0.0
 10
44.1164037457
 20
149.6917913943
 30
0.0
 10
44.1993326991
 20
149.5961342022
 30
0.0
 10
44.2518040054
 20
149.5658405647
 30
0.0
  0
SPLINE
  5
2CB
100
AcDbEntity
  8
0
100
AcDbSpline
 62
7
  6
CONTINUOUS
 70
0
 71
3
 72
9
 73
5
 74
0
 42
0.0000001
 43
0.0000001
 44
0.0000000001
 40
0.0
 40
0.0
 40
0.0
 40
0.0
 40
0.277843942
 40
1.0
 40
1.0
 40
1.0
 40
1.0
 10
153.5568253186
 20
86.4599847309
 30
0.0
 10
153.5642442148
 20
86.4557015261
 30
0.0
 10
153.5916830107
 20
86.4418576676
 30
0.0
 10
153.6233184256
 20
86.4343665545
 30
0.0
 10
153.6454965648
 20
86.4363392415
 30
0.0
  0
SPLINE
  5
2CC
100
AcDbEntity
  8
0
100
AcDbSpline
 62
7
  6
CONTINUOUS
 70
0
 71
3
 72
9
 73
5
 74
0
 42
0.0000001
 43
0.0000001
 44
0.0000000001
 40
0.0
 40
0.0
 40
0.0
 40
0.0
 40
0.7322275089
 40
1.0
 40
1.0
 40
1.0
 40
1.0
 10
119.9807390504
 20
216.7829563289
 30
0.0
 10
119.9628266725
 20
216.7930614069
 30
0.0
 10
119.9331908743
 20
216.7980318004
 30
0.0
 10
119.905390056
 20
216.7946905991
 30
0.0
 10
119.8979910565
 20
216.7933417237
 30
0.0
  0
SPLINE
  5
2CD
100
AcDbEntity
  8
0
100
AcDbSpline
 62
7
  6
CONTINUOUS
 70
0
 71
3
 72
8
 73
4
 74
0
 42
0.0000001
 43
0.0000001
 44
0.0000000001
 40
0.0
 40
0.0
 40
0.0
 40
0.0
 40
1.0
 40
1.0
 40
1.0
 40
1.0
 10
119.8979910565
 20
216.7933417237
 30
0.0
 10
119.8779239021
 20
216.789683379
 30
0.0
 10
119.8583129691
 20
216.7825514312
 30
0.0
 10
119.8402527037
 20
216.7730698184
 30
0.0
  0
SPLINE
  5
2CE
100
AcDbEntity
  8
0
100
AcDbSpline
 62
7
  6
CONTINUOUS
 70
0
 71
3
 72
9
 73
5
 74
0
 42
0.0000001
 43
0.0000001
 44
0.0000000001
 40
0.0
 40
0.0
 40
0.0
 40
0.0
 40
0.2231417941
 40
1.0
 40
1.0
 40
1.0
 40
1.0
 10
192.660925194
 20
180.3243662464
 30
0.0
 10
192.6515919002
 20
180.3297512459
 30
0.0
 10
192.6054524277
 20
180.3469941447
 30
0.0
 10
192.5533821147
 20
180.3320509614
 30
0.0
 10
192.5201937378
 20
180.3145629787
 30
0.0
  0
SPLINE
  5
2CF
100
AcDbEntity
  8
0
100
AcDbSpline
 62
7
  6
CONTINUOUS
 70
0
 71
3
 72
9
 73
5
 74
0
 42
0.0000001
 43
0.0000001
 44
0.0000000001
 40
0.0
 40
0.0
 40
0.0
 40
0.0
 40
0.2547820923
 40
1.0
 40
1.0
 40
1.0
 40
1.0
 10
181.1516672363
 20
102.827876553
 30
0.0
 10
181.1352390248
 20
102.7365304094
 30
0.0
 10
181.0683123628
 20
102.3784344391
 30
0.0
 10
180.9885428291
 20
102.0228489063
 30
0.0
 10
180.9256663441
 20
101.758764
 30
0.0
  0
SPLINE
  5
2D0
100
AcDbEntity
  8
0
100
AcDbSpline
 62
7
  6
CONTINUOUS
 70
0
 71
3
 72
9
 73
5
 74
0
 42
0.0000001
 43
0.0000001
 44
0.0000000001
 40
0.0
 40
0.0
 40
0.0
 40
0.0
 40
0.2418293465
 40
1.0
 40
1.0
 40
1.0
 40
1.0
 10
52.4570687967
 20
254.6425567834
 30
0.0
 10
52.5164486118
 20
254.6710640899
 30
0.0
 10
52.7693386811
 20
254.7736091707
 30
0.0
 10
53.0464438009
 20
254.8109302941
 30
0.0
 10
53.2529318721
 20
254.8081538555
 30
0.0
  0
SPLINE
  5
2D1
100
AcDbEntity
  8
0
100
AcDbSpline
 62
7
  6
CONTINUOUS
 70
0
 71
3
 72
9
 73
5
 74
0
 42
0.0000001
 43
0.0000001
 44
0.0000000001
 40
0.0
 40
0.0
 40
0.0
 40
0.0
 40
0.225373696
 40
1.0
 40
1.0
 40
1.0
 40
1.0
 10
53.2529318721
 20
254.8081538555
 30
0.0
 10
53.3761902726
 20
254.806496523
 30
0.0
 10
53.9226533239
 20
254.7518085669
 30
0.0
 10
54.4415237842
 20
254.5311962693
 30
0.0
 10
54.80799689
 20
254.318574883
 30
0.0
  0
SPLINE
  5
2D2
100
AcDbEntity
  8
0
100
AcDbSpline
 62
7
  6
CONTINUOUS
 70
0
 71
3
 72
9
 73
5
 74
0
 42
0.0000001
 43
0.0000001
 44
0.0000000001
 40
0.0
 40
0.0
 40
0.0
 40
0.0
 40
0.2266723035
 40
1.0
 40
1.0
 40
1.0
 40
1.0
 10
44.0964889397
 20
220.5192101196
 30
0.0
 10
44.0928865668
 20
220.5135850898
 30
0.0
 10
44.0794104595
 20
220.4872162911
 30
0.0
 10
44.0750265741
 20
220.4569539908
 30
0.0
 10
44.0750265741
 20
220.4341652459
 30
0.0
  0
SPLINE
  5
2D3
100
AcDbEntity
  8
0
100
AcDbSpline
 62
7
  6
CONTINUOUS
 70
0
 71
3
 72
9
 73
5
 74
0
 42
0.0000001
 43
0.0000001
 44
0.0000000001
 40
0.0
 40
0.0
 40
0.0
 40
0.0
 40
0.2208548516
 40
1.0
 40
1.0
 40
1.0
 40
1.0
 10
153.6111259068
 20
86.4067592611
 30
0.0
 10
153.6028832407
 20
86.4020003784
 30
0.0
 10
153.5614490047
 20
86.3869897784
 30
0.0
 10
153.5151940421
 20
86.402371865
 30
0.0
 10
153.4861149349
 20
86.4191603155
 30
0.0
  0
SPLINE
  5
2D4
100
AcDbEntity
  8
0
100
AcDbSpline
 62
7
  6
CONTINUOUS
 70
0
 71
3
 72
9
 73
5
 74
0
 42
0.0000001
 43
0.0000001
 44
0.0000000001
 40
0.0
 40
0.0
 40
0.0
 40
0.0
 40
0.4494711244
 40
1.0
 40
1.0
 40
1.0
 40
1.0
 10
72.9205350089
 20
214.2615805983
 30
0.0
 10
72.8867873682
 20
214.2421090237
 30
0.0
 10
72.7945101095
 20
214.2282149904
 30
0.0
 10
72.711873342
 20
214.262465849
 30
0.0
 10
72.6705444478
 20
214.2863265574
 30
0.0
  0
SPLINE
  5
2D5
100
AcDbEntity
  8
0
100
AcDbSpline
 62
7
  6
CONTINUOUS
 70
0
 71
3
 72
9
 73
5
 74
0
 42
0.0000001
 43
0.0000001
 44
0.0000000001
 40
0.0
 40
0.0
 40
0.0
 40
0.0
 40
0.2105414523
 40
1.0
 40
1.0
 40
1.0
 40
1.0
 10
58.3240994095
 20
223.3155839176
 30
0.0
 10
58.3069077948
 20
223.3009299151
 30
0.0
 10
58.2394844013
 20
223.2140811886
 30
0.0
 10
58.2395039299
 20
223.0936939788
 30
0.0
 10
58.2540545514
 20
223.0102497135
 30
0.0
  0
SPLINE
  5
2D6
100
AcDbEntity
  8
0
100
AcDbSpline
 62
7
  6
CONTINUOUS
 70
0
 71
3
 72
9
 73
5
 74
0
 42
0.0000001
 43
0.0000001
 44
0.0000000001
 40
0.0
 40
0.0
 40
0.0
 40
0.0
 40
0.5121509921
 40
1.0
 40
1.0
 40
1.0
 40
1.0
 10
58.2540545514
 20
223.0102497135
 30
0.0
 10
58.2726910424
 20
222.9033739832
 30
0.0
 10
58.3590379988
 20
222.7038201562
 30
0.0
 10
58.5095642637
 20
222.5436354714
 30
0.0
 10
58.5990603286
 20
222.4919660632
 30
0.0
  0
SPLINE
  5
2D7
100
AcDbEntity
  8
0
100
AcDbSpline
 62
7
  6
CONTINUOUS
 70
0
 71
3
 72
11
 73
7
 74
0
 42
0.0000001
 43
0.0000001
 44
0.0000000001
 40
0.0
 40
0.0
 40
0.0
 40
0.0
 40
0.2209161473
 40
0.4553727044
 40
0.7134583642
 40
1.0
 40
1.0
 40
1.0
 40
1.0
 10
169.2746903871
 20
60.0279512125
 30
0.0
 10
169.439752802
 20
60.1232495028
 30
0.0
 10
169.7497023312
 20
60.3768598042
 30
0.0
 10
170.0928624298
 20
60.8969301437
 30
0.0
 10
170.3136990352
 20
61.5377622233
 30
0.0
 10
170.3743582326
 20
62.0067256311
 30
0.0
 10
170.3869238198
 20
62.25362245
 30
0.0
  0
SPLINE
  5
2D8
100
AcDbEntity
  8
0
100
AcDbSpline
 62
7
  6
CONTINUOUS
 70
0
 71
3
 72
11
 73
7
 74
0
 42
0.0000001
 43
0.0000001
 44
0.0000000001
 40
0.0
 40
0.0
 40
0.0
 40
0.0
 40
0.2880246704
 40
0.5476505215
 40
0.7820140281
 40
1.0
 40
1.0
 40
1.0
 40
1.0
 10
180.6344212777
 20
74.0911637632
 30
0.0
 10
180.6347957931
 20
73.852249731
 30
0.0
 10
180.601441077
 20
73.3965797684
 30
0.0
 10
180.4294315129
 20
72.7659720166
 30
0.0
 10
180.1389908538
 20
72.2439888275
 30
0.0
 10
179.8636580317
 20
71.9785971366
 30
0.0
 10
179.7146762402
 20
71.8761301526
 30
0.0
  0
SPLINE
  5
2D9
100
AcDbEntity
  8
0
100
AcDbSpline
 62
7
  6
CONTINUOUS
 70
0
 71
3
 72
9
 73
5
 74
0
 42
0.0000001
 43
0.0000001
 44
0.0000000001
 40
0.0
 40
0.0
 40
0.0
 40
0.0
 40
0.2458606198
 40
1.0
 40
1.0
 40
1.0
 40
1.0
 10
28.7460700879
 20
253.2145055546
 30
0.0
 10
28.8036171101
 20
253.2477301196
 30
0.0
 10
29.0450900166
 20
253.3699022257
 30
0.0
 10
29.3133665419
 20
253.4365517186
 30
0.0
 10
29.5161946362
 20
253.456670402
 30
0.0
  0
SPLINE
  5
2DA
100
AcDbEntity
  8
0
100
AcDbSpline
 62
7
  6
CONTINUOUS
 70
0
 71
3
 72
9
 73
5
 74
0
 42
0.0000001
 43
0.0000001
 44
0.0000000001
 40
0.0
 40
0.0
 40
0.0
 40
0.0
 40
0.4283638161
 40
1.0
 40
1.0
 40
1.0
 40
1.0
 10
180.2238789322
 20
182.00232699
 30
0.0
 10
180.2058478294
 20
182.012701027
 30
0.0
 10
180.1551778899
 20
182.0226073299
 30
0.0
 10
180.1077764945
 20
182.0054287362
 30
0.0
 10
180.0831992131
 20
181.9925221222
 30
0.0
  0
SPLINE
  5
2DB
100
AcDbEntity
  8
0
100
AcDbSpline
 62
7
  6
CONTINUOUS
 70
0
 71
3
 72
9
 73
5
 74
0
 42
0.0000001
 43
0.0000001
 44
0.0000000001
 40
0.0
 40
0.0
 40
0.0
 40
0.0
 40
0.2464650335
 40
1.0
 40
1.0
 40
1.0
 40
1.0
 10
28.1743383617
 20
253.2549630524
 30
0.0
 10
28.1528860187
 20
253.2337519279
 30
0.0
 10
28.0678331093
 20
253.1456959577
 30
0.0
 10
27.9908742579
 20
253.0498839385
 30
0.0
 10
27.9377529426
 20
252.9744820936
 30
0.0
  0
SPLINE
  5
2DC
100
AcDbEntity
  8
0
100
AcDbSpline
 62
7
  6
CONTINUOUS
 70
0
 71
3
 72
9
 73
5
 74
0
 42
0.0000001
 43
0.0000001
 44
0.0000000001
 40
0.0
 40
0.0
 40
0.0
 40
0.0
 40
0.2438597012
 40
1.0
 40
1.0
 40
1.0
 40
1.0
 10
27.9377529426
 20
252.9744820936
 30
0.0
 10
27.9155316522
 20
252.9429405874
 30
0.0
 10
27.8278116229
 20
252.8112150672
 30
0.0
 10
27.7537015318
 20
252.6705749788
 30
0.0
 10
27.7050273631
 20
252.5612890819
 30
0.0
  0
SPLINE
  5
2DD
100
AcDbEntity
  8
0
100
AcDbSpline
 62
7
  6
CONTINUOUS
 70
0
 71
3
 72
9
 73
5
 74
0
 42
0.0000001
 43
0.0000001
 44
0.0000000001
 40
0.0
 40
0.0
 40
0.0
 40
0.0
 40
0.2456840635
 40
1.0
 40
1.0
 40
1.0
 40
1.0
 10
169.4661118589
 20
59.6964003407
 30
0.0
 10
169.4061997784
 20
59.6618103178
 30
0.0
 10
169.1544497112
 20
59.5348203971
 30
0.0
 10
168.8742625158
 20
59.4670756526
 30
0.0
 10
168.6627230264
 20
59.4479495866
 30
0.0
  0
SPLINE
  5
2DE
100
AcDbEntity
  8
0
100
AcDbSpline
 62
7
  6
CONTINUOUS
 70
0
 71
3
 72
9
 73
5
 74
0
 42
0.0000001
 43
0.0000001
 44
0.0000000001
 40
0.0
 40
0.0
 40
0.0
 40
0.0
 40
0.2244733977
 40
1.0
 40
1.0
 40
1.0
 40
1.0
 10
168.6627230264
 20
59.4479495866
 30
0.0
 10
168.5111539035
 20
59.4342456628
 30
0.0
 10
167.8290798437
 20
59.4436221927
 30
0.0
 10
167.1714859916
 20
59.7058707075
 30
0.0
 10
166.7161378924
 20
59.9687601078
 30
0.0
  0
SPLINE
  5
2DF
100
AcDbEntity
  8
0
100
AcDbSpline
 62
7
  6
CONTINUOUS
 70
0
 71
3
 72
11
 73
7
 74
0
 42
0.0000001
 43
0.0000001
 44
0.0000000001
 40
0.0
 40
0.0
 40
0.0
 40
0.0
 40
0.2177739674
 40
0.4509298424
 40
0.7102237828
 40
1.0
 40
1.0
 40
1.0
 40
1.0
 10
170.7160905818
 20
51.4075926322
 30
0.0
 10
170.9799738419
 20
51.5599448033
 30
0.0
 10
171.4737892567
 20
51.974983308
 30
0.0
 10
171.9992922627
 20
52.8343948401
 30
0.0
 10
172.3117102787
 20
53.8934921441
 30
0.0
 10
172.3730156935
 20
54.6643792014
 30
0.0
 10
172.3730156935
 20
55.0698292374
 30
0.0
  0
SPLINE
  5
2E0
100
AcDbEntity
  8
0
100
AcDbSpline
 62
7
  6
CONTINUOUS
 70
0
 71
3
 72
9
 73
5
 74
0
 42
0.0000001
 43
0.0000001
 44
0.0000000001
 40
0.0
 40
0.0
 40
0.0
 40
0.0
 40
0.2407956847
 40
1.0
 40
1.0
 40
1.0
 40
1.0
 10
111.4306533345
 20
226.1986806764
 30
0.0
 10
111.4391452657
 20
226.2027574119
 30
0.0
 10
111.4758502475
 20
226.2167394842
 30
0.0
 10
111.5168459363
 20
226.2173552942
 30
0.0
 10
111.5461004702
 20
226.2122324899
 30
0.0
  0
SPLINE
  5
2E1
100
AcDbEntity
  8
0
100
AcDbSpline
 62
7
  6
CONTINUOUS
 70
0
 71
3
 72
9
 73
5
 74
0
 42
0.0000001
 43
0.0000001
 44
0.0000000001
 40
0.0
 40
0.0
 40
0.0
 40
0.0
 40
0.2321271795
 40
1.0
 40
1.0
 40
1.0
 40
1.0
 10
111.5461004702
 20
226.2122324899
 30
0.0
 10
111.555729336
 20
226.2105463651
 30
0.0
 10
111.5967742413
 20
226.2007807329
 30
0.0
 10
111.6353176133
 20
226.1820113638
 30
0.0
 10
111.6627064806
 20
226.1648207166
 30
0.0
  0
SPLINE
  5
2E2
100
AcDbEntity
  8
0
100
AcDbSpline
 62
7
  6
CONTINUOUS
 70
0
 71
3
 72
9
 73
5
 74
0
 42
0.0000001
 43
0.0000001
 44
0.0000000001
 40
0.0
 40
0.0
 40
0.0
 40
0.0
 40
0.2749083612
 40
1.0
 40
1.0
 40
1.0
 40
1.0
 10
68.3806039274
 20
251.9849671717
 30
0.0
 10
68.3885873418
 20
251.9891738798
 30
0.0
 10
68.4183275053
 20
252.0028959619
 30
0.0
 10
68.4518380668
 20
252.0100871148
 30
0.0
 10
68.4755802743
 20
252.0084110062
 30
0.0
  0
SPLINE
  5
2E3
100
AcDbEntity
  8
0
100
AcDbSpline
 62
7
  6
CONTINUOUS
 70
0
 71
3
 72
8
 73
4
 74
0
 42
0.0000001
 43
0.0000001
 44
0.0000000001
 40
0.0
 40
0.0
 40
0.0
 40
0.0
 40
1.0
 40
1.0
 40
1.0
 40
1.0
 10
68.4755802743
 20
252.0084110062
 30
0.0
 10
68.4914680875
 20
252.0072893877
 30
0.0
 10
68.5075733832
 20
252.0027122368
 30
0.0
 10
68.5213680134
 20
251.9947505276
 30
0.0
  0
SPLINE
  5
2E4
100
AcDbEntity
  8
0
100
AcDbSpline
 62
7
  6
CONTINUOUS
 70
0
 71
3
 72
9
 73
5
 74
0
 42
0.0000001
 43
0.0000001
 44
0.0000000001
 40
0.0
 40
0.0
 40
0.0
 40
0.0
 40
0.54630801
 40
1.0
 40
1.0
 40
1.0
 40
1.0
 10
196.0523773046
 20
174.1966755411
 30
0.0
 10
196.0748190581
 20
174.2108152712
 30
0.0
 10
196.1131617013
 20
174.2429313284
 30
0.0
 10
196.1312218774
 20
174.2916256949
 30
0.0
 10
196.1312325765
 20
174.3136537107
 30
0.0
  0
SPLINE
  5
2E5
100
AcDbEntity
  8
0
100
AcDbSpline
 62
7
  6
CONTINUOUS
 70
0
 71
3
 72
11
 73
7
 74
0
 42
0.0000001
 43
0.0000001
 44
0.0000000001
 40
0.0
 40
0.0
 40
0.0
 40
0.0
 40
0.2379931745
 40
0.5000014802
 40
0.7620089862
 40
1.0
 40
1.0
 40
1.0
 40
1.0
 10
196.0517216432
 20
174.283169249
 30
0.0
 10
196.0422896157
 20
174.8506102613
 30
0.0
 10
195.8217053401
 20
176.0406691139
 30
0.0
 10
195.0793477963
 20
177.7135275611
 30
0.0
 10
194.0017761092
 20
179.1928417409
 30
0.0
 10
193.0814416048
 20
179.978886406
 30
0.0
 10
192.5947386171
 20
180.2707641528
 30
0.0
  0
SPLINE
  5
2E6
100
AcDbEntity
  8
0
100
AcDbSpline
 62
7
  6
CONTINUOUS
 70
0
 71
3
 72
9
 73
5
 74
0
 42
0.0000001
 43
0.0000001
 44
0.0000000001
 40
0.0
 40
0.0
 40
0.0
 40
0.0
 40
0.2614432009
 40
1.0
 40
1.0
 40
1.0
 40
1.0
 10
184.2190052708
 20
168.5528091334
 30
0.0
 10
184.2411809241
 20
168.4585298721
 30
0.0
 10
184.3179810501
 20
168.0961452677
 30
0.0
 10
184.3626324357
 20
167.7264459587
 30
0.0
 10
184.371906289
 20
167.4530033547
 30
0.0
  0
SPLINE
  5
2E7
100
AcDbEntity
  8
0
100
AcDbSpline
 62
7
  6
CONTINUOUS
 70
0
 71
3
 72
11
 73
7
 74
0
 42
0.0000001
 43
0.0000001
 44
0.0000000001
 40
0.0
 40
0.0
 40
0.0
 40
0.0
 40
0.2372294888
 40
0.5000010919
 40
0.7627721007
 40
1.0
 40
1.0
 40
1.0
 40
1.0
 10
172.3730156935
 20
166.9306603841
 30
0.0
 10
172.3730156935
 20
167.857975229
 30
0.0
 10
172.0252104653
 20
169.8137136666
 30
0.0
 10
170.8128290375
 20
172.5618757872
 30
0.0
 10
169.0390342553
 20
174.9858968944
 30
0.0
 10
167.5192152664
 20
176.2649593084
 30
0.0
 10
166.7161378924
 20
176.7286057573
 30
0.0
  0
SPLINE
  5
2E8
100
AcDbEntity
  8
0
100
AcDbSpline
 62
7
  6
CONTINUOUS
 70
0
 71
3
 72
9
 73
5
 74
0
 42
0.0000001
 43
0.0000001
 44
0.0000000001
 40
0.0
 40
0.0
 40
0.0
 40
0.0
 40
0.4295749009
 40
1.0
 40
1.0
 40
1.0
 40
1.0
 10
180.7131402835
 20
100.3330936872
 30
0.0
 10
180.7131659921
 20
100.3122227457
 30
0.0
 10
180.6962856179
 20
100.2633705085
 30
0.0
 10
180.6577591486
 20
100.2308627716
 30
0.0
 10
180.6343152891
 20
100.2160823298
 30
0.0
  0
SPLINE
  5
2E9
100
AcDbEntity
  8
0
100
AcDbSpline
 62
7
  6
CONTINUOUS
 70
0
 71
3
 72
8
 73
4
 74
0
 42
0.0000001
 43
0.0000001
 44
0.0000000001
 40
0.0
 40
0.0
 40
0.0
 40
0.0
 40
1.0
 40
1.0
 40
1.0
 40
1.0
 10
180.7131721957
 20
74.2081053208
 30
0.0
 10
180.713173746
 20
74.1932734306
 30
0.0
 10
180.7096482218
 20
74.178175434
 30
0.0
 10
180.703518322
 20
74.1646695354
 30
0.0
  0
SPLINE
  5
2EA
100
AcDbEntity
  8
0
100
AcDbSpline
 62
7
  6
CONTINUOUS
 70
0
 71
3
 72
9
 73
5
 74
0
 42
0.0000001
 43
0.0000001
 44
0.0000000001
 40
0.0
 40
0.0
 40
0.0
 40
0.0
 40
0.2274947373
 40
1.0
 40
1.0
 40
1.0
 40
1.0
 10
180.703518322
 20
74.1646695354
 30
0.0
 10
180.7003263845
 20
74.1576367965
 30
0.0
 10
180.6832564359
 20
74.1280931576
 30
0.0
 10
180.6565047122
 20
74.1050721784
 30
0.0
 10
180.6343159795
 20
74.0910918675
 30
0.0
  0
SPLINE
  5
2EB
100
AcDbEntity
  8
0
100
AcDbSpline
 62
7
  6
CONTINUOUS
 70
0
 71
3
 72
11
 73
7
 74
0
 42
0.0000001
 43
0.0000001
 44
0.0000000001
 40
0.0
 40
0.0
 40
0.0
 40
0.0
 40
0.2897752222
 40
0.5490688037
 40
0.7822250762
 40
1.0
 40
1.0
 40
1.0
 40
1.0
 10
30.9510706869
 20
255.1108306121
 30
0.0
 10
30.5999492609
 20
255.3135460775
 30
0.0
 10
29.9017060447
 20
255.6458811859
 30
0.0
 10
28.828319895
 20
255.9048518304
 30
0.0
 10
27.8213222409
 20
255.8794540196
 30
0.0
 10
27.2149953408
 20
255.6593226979
 30
0.0
 10
26.9511179747
 20
255.5069739296
 30
0.0
  0
SPLINE
  5
2EC
100
AcDbEntity
  8
0
100
AcDbSpline
 62
7
  6
CONTINUOUS
 70
0
 71
3
 72
11
 73
7
 74
0
 42
0.0000001
 43
0.0000001
 44
0.0000000001
 40
0.0
 40
0.0
 40
0.0
 40
0.0
 40
0.237239768
 40
0.4999988393
 40
0.7627585384
 40
1.0
 40
1.0
 40
1.0
 40
1.0
 10
30.9510706641
 20
138.3509849757
 30
0.0
 10
30.3989275331
 20
138.6697577494
 30
0.0
 10
29.3540717783
 20
139.5491359362
 30
0.0
 10
28.1345831116
 20
141.2156041313
 30
0.0
 10
27.3011130666
 20
143.1049467185
 30
0.0
 10
27.0619671758
 20
144.4495115037
 30
0.0
 10
27.0619671758
 20
145.0870724198
 30
0.0
  0
SPLINE
  5
2ED
100
AcDbEntity
  8
0
100
AcDbSpline
 62
7
  6
CONTINUOUS
 70
0
 71
3
 72
11
 73
7
 74
0
 42
0.0000001
 43
0.0000001
 44
0.0000000001
 40
0.0
 40
0.0
 40
0.0
 40
0.0
 40
0.2887894688
 40
0.5483928801
 40
0.7822250073
 40
1.0
 40
1.0
 40
1.0
 40
1.0
 10
27.0619671758
 20
250.8241354381
 30
0.0
 10
27.0619671758
 20
251.0940202398
 30
0.0
 10
27.1017201866
 20
251.6081175146
 30
0.0
 10
27.3025296269
 20
252.3171962767
 30
0.0
 10
27.6401161101
 20
252.8992248119
 30
0.0
 10
27.9586586925
 20
253.1890856414
 30
0.0
 10
28.1300991072
 20
253.2987587524
 30
0.0
  0
SPLINE
  5
2EE
100
AcDbEntity
  8
0
100
AcDbSpline
 62
7
  6
CONTINUOUS
 70
0
 71
3
 72
9
 73
5
 74
0
 42
0.0000001
 43
0.0000001
 44
0.0000000001
 40
0.0
 40
0.0
 40
0.0
 40
0.0
 40
0.2389465877
 40
1.0
 40
1.0
 40
1.0
 40
1.0
 10
184.3719030516
 20
167.453004188
 30
0.0
 10
184.3544815453
 20
167.5438795316
 30
0.0
 10
184.2778504785
 20
167.9235270064
 30
0.0
 10
184.1799294654
 20
168.298422686
 30
0.0
 10
184.106321418
 20
168.5837943787
 30
0.0
  0
SPLINE
  5
2EF
100
AcDbEntity
  8
0
100
AcDbSpline
 62
7
  6
CONTINUOUS
 70
0
 71
3
 72
9
 73
5
 74
0
 42
0.0000001
 43
0.0000001
 44
0.0000000001
 40
0.0
 40
0.0
 40
0.0
 40
0.0
 40
0.2416400659
 40
1.0
 40
1.0
 40
1.0
 40
1.0
 10
184.3720699869
 20
167.4531903344
 30
0.0
 10
184.3357604465
 20
167.5399602352
 30
0.0
 10
184.1888782182
 20
167.9001485341
 30
0.0
 10
184.0593745053
 20
168.2699359557
 30
0.0
 10
183.9975556994
 20
168.5585890728
 30
0.0
  0
SPLINE
  5
2F0
100
AcDbEntity
  8
0
100
AcDbSpline
 62
7
  6
CONTINUOUS
 70
0
 71
3
 72
9
 73
5
 74
0
 42
0.0000001
 43
0.0000001
 44
0.0000000001
 40
0.0
 40
0.0
 40
0.0
 40
0.0
 40
0.2388237951
 40
1.0
 40
1.0
 40
1.0
 40
1.0
 10
183.9975556994
 20
168.5585890728
 30
0.0
 10
183.9881442651
 20
168.6025342737
 30
0.0
 10
183.9521504197
 20
168.7872287845
 30
0.0
 10
183.931750804
 20
168.9751861673
 30
0.0
 10
183.9275335698
 20
169.1183616719
 30
0.0
  0
SPLINE
  5
2F1
100
AcDbEntity
  8
0
100
AcDbSpline
 62
7
  6
CONTINUOUS
 70
0
 71
3
 72
9
 73
5
 74
0
 42
0.0000001
 43
0.0000001
 44
0.0000000001
 40
0.0
 40
0.0
 40
0.0
 40
0.0
 40
0.4877034569
 40
1.0
 40
1.0
 40
1.0
 40
1.0
 10
180.6364471804
 20
100.3330288116
 30
0.0
 10
180.6429842473
 20
100.51786021
 30
0.0
 10
180.6844673543
 20
100.8957886942
 30
0.0
 10
180.7559008188
 20
101.268374756
 30
0.0
 10
180.7972476446
 20
101.458197039
 30
0.0
  0
SPLINE
  5
2F2
100
AcDbEntity
  8
0
100
AcDbSpline
 62
7
  6
CONTINUOUS
 70
0
 71
3
 72
9
 73
5
 74
0
 42
0.0000001
 43
0.0000001
 44
0.0000000001
 40
0.0
 40
0.0
 40
0.0
 40
0.0
 40
0.2482788684
 40
1.0
 40
1.0
 40
1.0
 40
1.0
 10
180.8674091935
 20
101.7624857006
 30
0.0
 10
180.8888845165
 20
101.8511812557
 30
0.0
 10
180.9784905852
 20
102.2076698057
 30
0.0
 10
181.0762295034
 20
102.562056182
 30
0.0
 10
181.1517038763
 20
102.8278538862
 30
0.0
  0
SPLINE
  5
2F3
100
AcDbEntity
  8
0
100
AcDbSpline
 62
7
  6
CONTINUOUS
 70
0
 71
3
 72
11
 73
7
 74
0
 42
0.0000001
 43
0.0000001
 44
0.0000000001
 40
0.0
 40
0.0
 40
0.0
 40
0.0
 40
0.2179663749
 40
0.4522995123
 40
0.7119287564
 40
1.0
 40
1.0
 40
1.0
 40
1.0
 10
195.1299079091
 20
110.7848478961
 30
0.0
 10
195.2792567416
 20
110.8871640054
 30
0.0
 10
195.5553495889
 20
111.1524562089
 30
0.0
 10
195.8466612254
 20
111.6748243566
 30
0.0
 10
196.0192223958
 20
112.3061903194
 30
0.0
 10
196.0527270976
 20
112.7624904531
 30
0.0
 10
196.0523777225
 20
113.0017517293
 30
0.0
  0
SPLINE
  5
2F4
100
AcDbEntity
  8
0
100
AcDbSpline
 62
7
  6
CONTINUOUS
 70
0
 71
3
 72
8
 73
4
 74
0
 42
0.0000001
 43
0.0000001
 44
0.0000000001
 40
0.0
 40
0.0
 40
0.0
 40
0.0
 40
1.0
 40
1.0
 40
1.0
 40
1.0
 10
196.1312335199
 20
113.1187639639
 30
0.0
 10
196.1312350697
 20
113.1039368513
 30
0.0
 10
196.1277119567
 20
113.0888438211
 30
0.0
 10
196.1215857005
 20
113.0753415154
 30
0.0
  0
SPLINE
  5
2F5
100
AcDbEntity
  8
0
100
AcDbSpline
 62
7
  6
CONTINUOUS
 70
0
 71
3
 72
9
 73
5
 74
0
 42
0.0000001
 43
0.0000001
 44
0.0000000001
 40
0.0
 40
0.0
 40
0.0
 40
0.0
 40
0.2274916424
 40
1.0
 40
1.0
 40
1.0
 40
1.0
 10
196.1215857005
 20
113.0753415154
 30
0.0
 10
196.1183942265
 20
113.0683074873
 30
0.0
 10
196.1013247181
 20
113.0387579321
 30
0.0
 10
196.074569251
 20
113.0157328463
 30
0.0
 10
196.0523773046
 20
113.0017505105
 30
0.0
  0
SPLINE
  5
2F6
100
AcDbEntity
  8
0
100
AcDbSpline
 62
7
  6
CONTINUOUS
 70
0
 71
3
 72
9
 73
5
 74
0
 42
0.0000001
 43
0.0000001
 44
0.0000000001
 40
0.0
 40
0.0
 40
0.0
 40
0.0
 40
0.2710073095
 40
1.0
 40
1.0
 40
1.0
 40
1.0
 10
167.069689811
 20
60.1728821847
 30
0.0
 10
167.1922010494
 20
60.1021518884
 30
0.0
 10
167.6541138497
 20
59.860183569
 30
0.0
 10
168.1635199415
 20
59.6968607275
 30
0.0
 10
168.5419661406
 20
59.6571245795
 30
0.0
  0
SPLINE
  5
2F7
100
AcDbEntity
  8
0
100
AcDbSpline
 62
7
  6
CONTINUOUS
 70
0
 71
3
 72
9
 73
5
 74
0
 42
0.0000001
 43
0.0000001
 44
0.0000000001
 40
0.0
 40
0.0
 40
0.0
 40
0.0
 40
0.2567470691
 40
1.0
 40
1.0
 40
1.0
 40
1.0
 10
168.5419661406
 20
59.6571245795
 30
0.0
 10
168.5823652069
 20
59.6528827525
 30
0.0
 10
168.7400500434
 20
59.6398835022
 30
0.0
 10
168.8990525953
 20
59.641478847
 30
0.0
 10
169.0161688928
 20
59.6520620777
 30
0.0
  0
SPLINE
  5
2F8
100
AcDbEntity
  8
0
100
AcDbSpline
 62
7
  6
CONTINUOUS
 70
0
 71
3
 72
9
 73
5
 74
0
 42
0.0000001
 43
0.0000001
 44
0.0000000001
 40
0.0
 40
0.0
 40
0.0
 40
0.0
 40
0.2540833932
 40
1.0
 40
1.0
 40
1.0
 40
1.0
 10
169.0161688928
 20
59.6520620777
 30
0.0
 10
169.047146489
 20
59.6548613725
 30
0.0
 10
169.1688142831
 20
59.6684543212
 30
0.0
 10
169.2893424946
 20
59.692580736
 30
0.0
 10
169.3774082458
 20
59.7167116069
 30
0.0
  0
SPLINE
  5
2F9
100
AcDbEntity
  8
0
100
AcDbSpline
 62
7
  6
CONTINUOUS
 70
0
 71
3
 72
9
 73
5
 74
0
 42
0.0000001
 43
0.0000001
 44
0.0000000001
 40
0.0
 40
0.0
 40
0.0
 40
0.0
 40
0.4312833854
 40
1.0
 40
1.0
 40
1.0
 40
1.0
 10
184.0060429412
 20
169.2440897125
 30
0.0
 10
184.0066953004
 20
169.222054644
 30
0.0
 10
183.9908338037
 20
169.170118142
 30
0.0
 10
183.9514749675
 20
169.1344693107
 30
0.0
 10
183.9273540211
 20
169.1182453519
 30
0.0
  0
SPLINE
  5
2FA
100
AcDbEntity
  8
0
100
AcDbSpline
 62
7
  6
CONTINUOUS
 70
0
 71
3
 72
9
 73
5
 74
0
 42
0.0000001
 43
0.0000001
 44
0.0000000001
 40
0.0
 40
0.0
 40
0.0
 40
0.0
 40
0.4536164187
 40
1.0
 40
1.0
 40
1.0
 40
1.0
 10
106.7063943958
 20
224.4467467845
 30
0.0
 10
106.687316296
 20
224.4577610516
 30
0.0
 10
106.6361043625
 20
224.466486237
 30
0.0
 10
106.5891067742
 20
224.4493359297
 30
0.0
 10
106.5656319886
 20
224.436966339
 30
0.0
  0
SPLINE
  5
2FB
100
AcDbEntity
  8
0
100
AcDbSpline
 62
7
  6
CONTINUOUS
 70
0
 71
3
 72
9
 73
5
 74
0
 42
0.0000001
 43
0.0000001
 44
0.0000000001
 40
0.0
 40
0.0
 40
0.0
 40
0.0
 40
0.2726970141
 40
1.0
 40
1.0
 40
1.0
 40
1.0
 10
170.7129250243
 20
62.1397227674
 30
0.0
 10
170.6966452784
 20
62.0084639971
 30
0.0
 10
170.6146725651
 20
61.5311023094
 30
0.0
 10
170.428759771
 20
61.0646460213
 30
0.0
 10
170.2231022694
 20
60.778038301
 30
0.0
  0
SPLINE
  5
2FC
100
AcDbEntity
  8
0
100
AcDbSpline
 62
7
  6
CONTINUOUS
 70
0
 71
3
 72
9
 73
5
 74
0
 42
0.0000001
 43
0.0000001
 44
0.0000000001
 40
0.0
 40
0.0
 40
0.0
 40
0.0
 40
0.2573753376
 40
1.0
 40
1.0
 40
1.0
 40
1.0
 10
170.2231022694
 20
60.778038301
 30
0.0
 10
170.1825473158
 20
60.7215202421
 30
0.0
 10
170.0146105749
 20
60.5096404074
 30
0.0
 10
169.8020669702
 20
60.3324303304
 30
0.0
 10
169.6282423058
 20
60.2320732895
 30
0.0
  0
SPLINE
  5
2FD
100
AcDbEntity
  8
0
100
AcDbSpline
 62
7
  6
CONTINUOUS
 70
0
 71
3
 72
9
 73
5
 74
0
 42
0.0000001
 43
0.0000001
 44
0.0000000001
 40
0.0
 40
0.0
 40
0.0
 40
0.0
 40
0.2668429084
 40
1.0
 40
1.0
 40
1.0
 40
1.0
 10
181.1517925231
 20
102.8279468523
 30
0.0
 10
181.1514132796
 20
102.7228944457
 30
0.0
 10
181.1367996503
 20
102.3296309421
 30
0.0
 10
181.0670612382
 20
101.9364346616
 30
0.0
 10
180.9746923863
 20
101.6629778541
 30
0.0
  0
SPLINE
  5
2FE
100
AcDbEntity
  8
0
100
AcDbSpline
 62
7
  6
CONTINUOUS
 70
0
 71
3
 72
9
 73
5
 74
0
 42
0.0000001
 43
0.0000001
 44
0.0000000001
 40
0.0
 40
0.0
 40
0.0
 40
0.0
 40
0.5687578867
 40
1.0
 40
1.0
 40
1.0
 40
1.0
 10
183.7264308839
 20
175.9387694385
 30
0.0
 10
183.7505157226
 20
175.9549948757
 30
0.0
 10
183.789847992
 20
175.9905700526
 30
0.0
 10
183.8057457045
 20
176.0424301201
 30
0.0
 10
183.8051262346
 20
176.064440333
 30
0.0
  0
SPLINE
  5
2FF
100
AcDbEntity
  8
0
100
AcDbSpline
 62
7
  6
CONTINUOUS
 70
0
 71
3
 72
11
 73
7
 74
0
 42
0.0000001
 43
0.0000001
 44
0.0000000001
 40
0.0
 40
0.0
 40
0.0
 40
0.0
 40
0.2390119729
 40
0.5022231339
 40
0.7640081899
 40
1.0
 40
1.0
 40
1.0
 40
1.0
 10
180.1591879074
 20
181.9478633466
 30
0.0
 10
180.6465359113
 20
181.6555966372
 30
0.0
 10
181.5728761294
 20
180.8758985268
 30
0.0
 10
182.6705325575
 20
179.4130892509
 30
0.0
 10
183.4459654586
 20
177.7651687899
 30
0.0
 10
183.6979892132
 20
176.5909345673
 30
0.0
 10
183.7232020505
 20
176.0304145172
 30
0.0
  0
SPLINE
  5
300
100
AcDbEntity
  8
0
100
AcDbSpline
 62
7
  6
CONTINUOUS
 70
0
 71
3
 72
11
 73
7
 74
0
 42
0.0000001
 43
0.0000001
 44
0.0000000001
 40
0.0
 40
0.0
 40
0.0
 40
0.0
 40
0.2372413576
 40
0.5000010231
 40
0.762760128
 40
1.0
 40
1.0
 40
1.0
 40
1.0
 10
170.3931084631
 20
167.9104340134
 30
0.0
 10
170.3931084631
 20
168.5364026384
 30
0.0
 10
170.1583108474
 20
169.8565204296
 30
0.0
 10
169.3399950988
 20
171.7115111664
 30
0.0
 10
168.1426789567
 20
173.3476802793
 30
0.0
 10
167.11682035
 20
174.211070098
 30
0.0
 10
166.5747159473
 20
174.5240471403
 30
0.0
  0
SPLINE
  5
301
100
AcDbEntity
  8
0
100
AcDbSpline
 62
7
  6
CONTINUOUS
 70
0
 71
3
 72
12
 73
8
 74
0
 42
0.0000001
 43
0.0000001
 44
0.0000000001
 40
0.0
 40
0.0
 40
0.0
 40
0.0
 40
0.2560720955
 40
0.3648013939
 40
0.4723769149
 40
0.7103360811
 40
1.0
 40
1.0
 40
1.0
 40
1.0
 10
119.6806504375
 20
217.4693463856
 30
0.0
 10
119.6171722943
 20
217.4302904378
 30
0.0
 10
119.5313617718
 20
217.3538534808
 30
0.0
 10
119.4941198263
 20
217.2181566
 30
0.0
 10
119.5076332017
 20
217.0839599229
 30
0.0
 10
119.6139220644
 20
216.9218732975
 30
0.0
 10
119.7409048332
 20
216.8331295233
 30
0.0
 10
119.8129205066
 20
216.7892939716
 30
0.0
  0
SPLINE
  5
302
100
AcDbEntity
  8
0
100
AcDbSpline
 62
7
  6
CONTINUOUS
 70
0
 71
3
 72
9
 73
5
 74
0
 42
0.0000001
 43
0.0000001
 44
0.0000000001
 40
0.0
 40
0.0
 40
0.0
 40
0.0
 40
0.503754035
 40
1.0
 40
1.0
 40
1.0
 40
1.0
 10
120.0340314526
 20
216.8851093767
 30
0.0
 10
120.0313774988
 20
217.0031930309
 30
0.0
 10
119.950937819
 20
217.2345072016
 30
0.0
 10
119.7834047649
 20
217.4147608049
 30
0.0
 10
119.6806504805
 20
217.4693464898
 30
0.0
  0
SPLINE
  5
303
100
AcDbEntity
  8
0
100
AcDbSpline
 62
7
  6
CONTINUOUS
 70
0
 71
3
 72
9
 73
5
 74
0
 42
0.0000001
 43
0.0000001
 44
0.0000000001
 40
0.0
 40
0.0
 40
0.0
 40
0.0
 40
0.2373273381
 40
1.0
 40
1.0
 40
1.0
 40
1.0
 10
123.3947147598
 20
219.5360660152
 30
0.0
 10
123.3871328266
 20
219.5380494619
 30
0.0
 10
123.3546353768
 20
219.5443154432
 30
0.0
 10
123.3208414809
 20
219.5421414834
 30
0.0
 10
123.2961557073
 20
219.5371510658
 30
0.0
  0
SPLINE
  5
304
100
AcDbEntity
  8
0
100
AcDbSpline
 62
7
  6
CONTINUOUS
 70
0
 71
3
 72
10
 73
6
 74
0
 42
0.0000001
 43
0.0000001
 44
0.0000000001
 40
0.0
 40
0.0
 40
0.0
 40
0.0
 40
0.5237672866
 40
0.7704462613
 40
1.0
 40
1.0
 40
1.0
 40
1.0
 10
123.5555422309
 20
218.890781483
 30
0.0
 10
123.605491161
 20
219.0054202025
 30
0.0
 10
123.6262169372
 20
219.2057255333
 30
0.0
 10
123.5284574595
 20
219.4281895994
 30
0.0
 10
123.4423576502
 20
219.5089779186
 30
0.0
 10
123.3947147598
 20
219.5360660152
 30
0.0
  0
SPLINE
  5
305
100
AcDbEntity
  8
0
100
AcDbSpline
 62
7
  6
CONTINUOUS
 70
0
 71
3
 72
8
 73
4
 74
0
 42
0.0000001
 43
0.0000001
 44
0.0000000001
 40
0.0
 40
0.0
 40
0.0
 40
0.0
 40
1.0
 40
1.0
 40
1.0
 40
1.0
 10
123.553919446
 20
218.9517283742
 30
0.0
 10
123.5556457949
 20
218.9314789998
 30
0.0
 10
123.5562589553
 20
218.9110916712
 30
0.0
 10
123.5555422309
 20
218.8907814828
 30
0.0
  0
SPLINE
  5
306
100
AcDbEntity
  8
0
100
AcDbSpline
 62
7
  6
CONTINUOUS
 70
0
 71
3
 72
9
 73
5
 74
0
 42
0.0000001
 43
0.0000001
 44
0.0000000001
 40
0.0
 40
0.0
 40
0.0
 40
0.0
 40
0.2337866608
 40
1.0
 40
1.0
 40
1.0
 40
1.0
 10
106.6671710589
 20
224.3831659452
 30
0.0
 10
106.7094980936
 20
224.3626974664
 30
0.0
 10
106.8944519811
 20
224.2833112526
 30
0.0
 10
107.0955184418
 20
224.2428063514
 30
0.0
 10
107.2492840583
 20
224.2327893088
 30
0.0
  0
SPLINE
  5
307
100
AcDbEntity
  8
0
100
AcDbSpline
 62
7
  6
CONTINUOUS
 70
0
 71
3
 72
9
 73
5
 74
0
 42
0.0000001
 43
0.0000001
 44
0.0000000001
 40
0.0
 40
0.0
 40
0.0
 40
0.0
 40
0.2542221735
 40
1.0
 40
1.0
 40
1.0
 40
1.0
 10
107.2492840583
 20
224.2327893088
 30
0.0
 10
107.2806641343
 20
224.2307450575
 30
0.0
 10
107.4042539011
 20
224.2262054408
 30
0.0
 10
107.5287534034
 20
224.2359332084
 30
0.0
 10
107.6192116942
 20
224.2540298208
 30
0.0
  0
SPLINE
  5
308
100
AcDbEntity
  8
0
100
AcDbSpline
 62
7
  6
CONTINUOUS
 70
0
 71
3
 72
9
 73
5
 74
0
 42
0.0000001
 43
0.0000001
 44
0.0000000001
 40
0.0
 40
0.0
 40
0.0
 40
0.0
 40
0.263217347
 40
1.0
 40
1.0
 40
1.0
 40
1.0
 10
107.6192116942
 20
224.2540298208
 30
0.0
 10
107.6373013218
 20
224.257648737
 30
0.0
 10
107.7056455686
 20
224.2730799109
 30
0.0
 10
107.7726969683
 20
224.2953671998
 30
0.0
 10
107.8194715419
 20
224.3172464184
 30
0.0
  0
SPLINE
  5
309
100
AcDbEntity
  8
0
100
AcDbSpline
 62
7
  6
CONTINUOUS
 70
0
 71
3
 72
9
 73
5
 74
0
 42
0.0000001
 43
0.0000001
 44
0.0000000001
 40
0.0
 40
0.0
 40
0.0
 40
0.0
 40
0.5716349852
 40
1.0
 40
1.0
 40
1.0
 40
1.0
 10
54.8079964476
 20
254.3185631947
 30
0.0
 10
54.8325833822
 20
254.3314804764
 30
0.0
 10
54.8800169589
 20
254.3486539323
 30
0.0
 10
54.9307096509
 20
254.3387177221
 30
0.0
 10
54.9487417806
 20
254.3283249817
 30
0.0
  0
SPLINE
  5
30A
100
AcDbEntity
  8
0
100
AcDbSpline
 62
7
  6
CONTINUOUS
 70
0
 71
3
 72
8
 73
4
 74
0
 42
0.0000001
 43
0.0000001
 44
0.0000000001
 40
0.0
 40
0.0
 40
0.0
 40
0.0
 40
1.0
 40
1.0
 40
1.0
 40
1.0
 10
154.475264871
 20
188.6946874762
 30
0.0
 10
154.4819037545
 20
188.9673125172
 30
0.0
 10
154.4883058237
 20
189.2399433046
 30
0.0
 10
154.4946668237
 20
189.5125749708
 30
0.0
  0
SPLINE
  5
30B
100
AcDbEntity
  8
0
100
AcDbSpline
 62
7
  6
CONTINUOUS
 70
0
 71
3
 72
8
 73
4
 74
0
 42
0.0000001
 43
0.0000001
 44
0.0000000001
 40
0.0
 40
0.0
 40
0.0
 40
0.0
 40
1.0
 40
1.0
 40
1.0
 40
1.0
 10
59.0154519761
 20
243.8071893365
 30
0.0
 10
59.0220908596
 20
244.0798143774
 30
0.0
 10
59.0284929289
 20
244.3524451648
 30
0.0
 10
59.0348539289
 20
244.625076831
 30
0.0
  0
SPLINE
  5
30C
100
AcDbEntity
  8
0
100
AcDbSpline
 62
7
  6
CONTINUOUS
 70
0
 71
3
 72
11
 73
7
 74
0
 42
0.0000001
 43
0.0000001
 44
0.0000000001
 40
0.0
 40
0.0
 40
0.0
 40
0.0
 40
0.286540483
 40
0.5446257295
 40
0.7790827789
 40
1.0
 40
1.0
 40
1.0
 40
1.0
 10
30.8760523195
 20
252.8607930714
 30
0.0
 10
30.6559568109
 20
252.9733529907
 30
0.0
 10
30.2195053547
 20
253.1552913977
 30
0.0
 10
29.5541299824
 20
253.2844468696
 30
0.0
 10
28.9321740097
 20
253.247294073
 30
0.0
 10
28.5575764264
 20
253.1056793676
 30
0.0
 10
28.3925181694
 20
253.0103834777
 30
0.0
  0
SPLINE
  5
30D
100
AcDbEntity
  8
0
100
AcDbSpline
 62
7
  6
CONTINUOUS
 70
0
 71
3
 72
13
 73
9
 74
0
 42
0.0000001
 43
0.0000001
 44
0.0000000001
 40
0.0
 40
0.0
 40
0.0
 40
0.0
 40
0.270020735
 40
0.5613923883
 40
0.6955083056
 40
0.8131901486
 40
0.9128747807
 40
1.0
 40
1.0
 40
1.0
 40
1.0
 10
58.5283499449
 20
222.4511416478
 30
0.0
 10
58.450967243
 20
222.4958175608
 30
0.0
 10
58.3151570365
 20
222.6309390317
 30
0.0
 10
58.2085968655
 20
222.8393776974
 30
0.0
 10
58.172296453
 20
223.0165941933
 30
0.0
 10
58.1750379084
 20
223.1341505333
 30
0.0
 10
58.2081523465
 20
223.2316335634
 30
0.0
 10
58.2533876708
 20
223.2779802815
 30
0.0
 10
58.2783598157
 20
223.2923889722
 30
0.0
  0
SPLINE
  5
30E
100
AcDbEntity
  8
0
100
AcDbSpline
 62
7
  6
CONTINUOUS
 70
0
 71
3
 72
11
 73
7
 74
0
 42
0.0000001
 43
0.0000001
 44
0.0000000001
 40
0.0
 40
0.0
 40
0.0
 40
0.0
 40
0.2880715637
 40
0.5477002086
 40
0.7820327725
 40
1.0
 40
1.0
 40
1.0
 40
1.0
 10
68.3806101799
 20
251.9849701741
 30
0.0
 10
68.1735726559
 20
252.1049034718
 30
0.0
 10
67.7616413403
 20
252.3040353603
 30
0.0
 10
67.1285646333
 20
252.4702625477
 30
0.0
 10
66.530511597
 20
252.4791385277
 30
0.0
 10
66.1627133272
 20
252.3726570207
 30
0.0
 10
65.9994316685
 20
252.2944627296
 30
0.0
  0
SPLINE
  5
30F
100
AcDbEntity
  8
0
100
AcDbSpline
 62
7
  6
CONTINUOUS
 70
0
 71
3
 72
8
 73
4
 74
0
 42
0.0000001
 43
0.0000001
 44
0.0000000001
 40
0.0
 40
0.0
 40
0.0
 40
0.0
 40
1.0
 40
1.0
 40
1.0
 40
1.0
 10
111.6627065087
 20
226.1648206991
 30
0.0
 10
111.6844250686
 20
226.1762648802
 30
0.0
 10
111.7072319018
 20
226.18597545
 30
0.0
 10
111.7307667273
 20
226.1929595115
 30
0.0
  0
SPLINE
  5
310
100
AcDbEntity
  8
0
100
AcDbSpline
 62
7
  6
CONTINUOUS
 70
0
 71
3
 72
8
 73
4
 74
0
 42
0.0000001
 43
0.0000001
 44
0.0000000001
 40
0.0
 40
0.0
 40
0.0
 40
0.0
 40
1.0
 40
1.0
 40
1.0
 40
1.0
 10
111.75653826
 20
226.1994015206
 30
0.0
 10
111.76945492
 20
226.2020127256
 30
0.0
 10
111.7826038014
 20
226.20371668
 30
0.0
 10
111.7957695753
 20
226.2042831566
 30
0.0
  0
SPLINE
  5
311
100
AcDbEntity
  8
0
100
AcDbSpline
 62
7
  6
CONTINUOUS
 70
0
 71
3
 72
8
 73
4
 74
0
 42
0.0000001
 43
0.0000001
 44
0.0000000001
 40
0.0
 40
0.0
 40
0.0
 40
0.0
 40
1.0
 40
1.0
 40
1.0
 40
1.0
 10
111.7957695753
 20
226.2042831566
 30
0.0
 10
111.805934908
 20
226.2047205349
 30
0.0
 10
111.8161590658
 20
226.2044788937
 30
0.0
 10
111.8262826979
 20
226.2034603842
 30
0.0
  0
SPLINE
  5
312
100
AcDbEntity
  8
0
100
AcDbSpline
 62
7
  6
CONTINUOUS
 70
0
 71
3
 72
8
 73
4
 74
0
 42
0.0000001
 43
0.0000001
 44
0.0000000001
 40
0.0
 40
0.0
 40
0.0
 40
0.0
 40
1.0
 40
1.0
 40
1.0
 40
1.0
 10
111.8262826979
 20
226.2034603842
 30
0.0
 10
111.8359904362
 20
226.2024837165
 30
0.0
 10
111.8456582924
 20
226.2007857717
 30
0.0
 10
111.8550973966
 20
226.1983164859
 30
0.0
  0
SPLINE
  5
313
100
AcDbEntity
  8
0
100
AcDbSpline
 62
7
  6
CONTINUOUS
 70
0
 71
3
 72
9
 73
5
 74
0
 42
0.0000001
 43
0.0000001
 44
0.0000000001
 40
0.0
 40
0.0
 40
0.0
 40
0.0
 40
0.2405642345
 40
1.0
 40
1.0
 40
1.0
 40
1.0
 10
125.5375670736
 20
219.0063809473
 30
0.0
 10
125.5587324457
 20
218.9943470393
 30
0.0
 10
125.6415853497
 20
218.9352582176
 30
0.0
 10
125.6979488311
 20
218.8431830222
 30
0.0
 10
125.7219256205
 20
218.7701568242
 30
0.0
  0
SPLINE
  5
314
100
AcDbEntity
  8
0
100
AcDbSpline
 62
7
  6
CONTINUOUS
 70
0
 71
3
 72
9
 73
5
 74
0
 42
0.0000001
 43
0.0000001
 44
0.0000000001
 40
0.0
 40
0.0
 40
0.0
 40
0.0
 40
0.244596381
 40
1.0
 40
1.0
 40
1.0
 40
1.0
 10
125.7219256205
 20
218.7701568242
 30
0.0
 10
125.7272374178
 20
218.7539786632
 30
0.0
 10
125.7455948855
 20
218.6867626678
 30
0.0
 10
125.7505948819
 20
218.6160425772
 30
0.0
 10
125.7472065924
 20
218.5635635425
 30
0.0
  0
SPLINE
  5
315
100
AcDbEntity
  8
0
100
AcDbSpline
 62
7
  6
CONTINUOUS
 70
0
 71
3
 72
8
 73
4
 74
0
 42
0.0000001
 43
0.0000001
 44
0.0000000001
 40
0.0
 40
0.0
 40
0.0
 40
0.0
 40
1.0
 40
1.0
 40
1.0
 40
1.0
 10
125.7472065924
 20
218.5635635425
 30
0.0
 10
125.7427336574
 20
218.4942851323
 30
0.0
 10
125.7261230233
 20
218.4247405523
 30
0.0
 10
125.6983920212
 20
218.361097039
 30
0.0
  0
SPLINE
  5
316
100
AcDbEntity
  8
0
100
AcDbSpline
 62
7
  6
CONTINUOUS
 70
0
 71
3
 72
9
 73
5
 74
0
 42
0.0000001
 43
0.0000001
 44
0.0000000001
 40
0.0
 40
0.0
 40
0.0
 40
0.0
 40
0.4920453514
 40
1.0
 40
1.0
 40
1.0
 40
1.0
 10
123.2023238742
 20
219.5025702268
 30
0.0
 10
123.2995411724
 20
219.4509259295
 30
0.0
 10
123.4613606275
 20
219.2818161234
 30
0.0
 10
123.5442658879
 20
219.0649602522
 30
0.0
 10
123.553919446
 20
218.9517283742
 30
0.0
  0
SPLINE
  5
317
100
AcDbEntity
  8
0
100
AcDbSpline
 62
7
  6
CONTINUOUS
 70
0
 71
3
 72
9
 73
5
 74
0
 42
0.0000001
 43
0.0000001
 44
0.0000000001
 40
0.0
 40
0.0
 40
0.0
 40
0.0
 40
0.236022986
 40
1.0
 40
1.0
 40
1.0
 40
1.0
 10
123.2961557073
 20
219.5371510658
 30
0.0
 10
123.2884289749
 20
219.5355890479
 30
0.0
 10
123.2559731072
 20
219.5275863855
 30
0.0
 10
123.2248980876
 20
219.5144652782
 30
0.0
 10
123.2023238742
 20
219.5025702268
 30
0.0
  0
SPLINE
  5
318
100
AcDbEntity
  8
0
100
AcDbSpline
 62
7
  6
CONTINUOUS
 70
0
 71
3
 72
9
 73
5
 74
0
 42
0.0000001
 43
0.0000001
 44
0.0000000001
 40
0.0
 40
0.0
 40
0.0
 40
0.0
 40
0.3135020598
 40
1.0
 40
1.0
 40
1.0
 40
1.0
 10
120.0338738846
 20
216.857585298
 30
0.0
 10
120.0228752368
 20
216.852271355
 30
0.0
 10
119.9875450762
 20
216.8358992873
 30
0.0
 10
119.9505207111
 20
216.8227882844
 30
0.0
 10
119.9274268397
 20
216.8092923011
 30
0.0
  0
SPLINE
  5
319
100
AcDbEntity
  8
0
100
AcDbSpline
 62
7
  6
CONTINUOUS
 70
0
 71
3
 72
8
 73
4
 74
0
 42
0.0000001
 43
0.0000001
 44
0.0000000001
 40
0.0
 40
0.0
 40
0.0
 40
0.0
 40
1.0
 40
1.0
 40
1.0
 40
1.0
 10
119.9274268397
 20
216.8092923011
 30
0.0
 10
119.9238864943
 20
216.8072233348
 30
0.0
 10
119.9204207905
 20
216.8050087139
 30
0.0
 10
119.9171247145
 20
216.802569339
 30
0.0
  0
ENDSEC
  0
SECTION
  2
OBJECTS
  0
DICTIONARY
  5
C
100
AcDbDictionary
280
0
281
1
  3
ACAD_GROUP
350
D
  3
ACAD_MLINESTYLE
350
17
  3
ACAD_LAYOUT
350
1A
  3
ACAD_PLOTSETTINGS
350
19
  3
ACAD_PLOTSTYLENAME
350
E
  0
DICTIONARY
  5
D
102
{ACAD_REACTORS
330
C
102
}
100
AcDbDictionary
280
0
281
1
  0
ACDBDICTIONARYWDFLT
  5
E
102
{ACAD_REACTORS
330
C
102
}
100
AcDbDictionary
281
1
  3
Normal
350
F
100
AcDbDictionaryWithDefault
340
F
  0
DICTIONARY
  5
17
102
{ACAD_REACTORS
330
C
102
}
100
AcDbDictionary
280
0
281
1
  3
Standard
350
18
  0
DICTIONARY
  5
19
102
{ACAD_REACTORS
330
C
102
}
100
AcDbDictionary
281
1
  0
DICTIONARY
  5
1A
102
{ACAD_REACTORS
330
C
102
}
100
AcDbDictionary
281
1
  3
Model
350
31A
  3
Layout1
350
31B
  0
ACDBPLACEHOLDER
  5
F
102
{ACAD_REACTORS
330
E
102
}
  0
MLINESTYLE
  5
18
102
{ACAD_REACTORS
330
17
102
}
100
AcDbMlineStyle
  2
STANDARD
 70
0
  3

 62
256
 51
90.0
 52
90.0
 71
2
 49
0.5
 62
256
  6
BYLAYER
 49
-0.5
 62
256
  6
BYLAYER
  0
LAYOUT
  5
31A
102
{ACAD_REACTORS
330
1A
102
}
100
AcDbPlotSettings
  1

  2
none_device
  4

  6

 40
0.0
 41
0.0
 42
0.0
 43
0.0
 44
210.0
 45
297.0
 46
0.0
 47
0.0
 48
0.0
 49
0.0
140
0.0
141
0.0
142
1.0
143
1.0
 70
1024
 72
1
 73
0
 74
0
  7

 75
0
147
1.0
148
0.0
149
0.0
100
AcDbLayout
  1
Model
 70
0
 71
0
 10
0.0
 20
0.0
 11
210.0
 21
297.0
 12
0.0
 22
0.0
 32
0.0
 14
0.0
 24
0.0
 34
0.0
 15
0.0
 25
0.0
 35
0.0
146
0.0
 13
0.0
 23
0.0
 33
0.0
 16
1.0
 26
0.0
 36
0.0
 17
0.0
 27
1.0
 37
0.0
 76
0
330
210
345
0
346
0
  0
LAYOUT
  5
31B
102
{ACAD_REACTORS
330
1A
102
}
100
AcDbPlotSettings
  1

  2
none_device
  4

  6

 40
0.0
 41
0.0
 42
0.0
 43
0.0
 44
210.0
 45
297.0
 46
0.0
 47
0.0
 48
0.0
 49
0.0
140
0.0
141
0.0
142
1.0
143
1.0
 70
0
 72
1
 73
0
 74
0
  7

 75
0
147
1.0
148
0.0
149
0.0
100
AcDbLayout
  1
Layout1
 70
0
 71
1
 10
0.0
 20
0.0
 11
210.0
 21
297.0
 12
0.0
 22
0.0
 32
0.0
 14
0.0
 24
0.0
 34
0.0
 15
0.0
 25
0.0
 35
0.0
146
0.0
 13
0.0
 23
0.0
 33
0.0
 16
1.0
 26
0.0
 36
0.0
 17
0.0
 27
1.0
 37
0.0
 76
0
330
211
345
0
346
0
  0
ENDSEC
  0
EOF
