999
DXF file: C:\Users\sesa63760\Dev\_Creo\CAD\MCADID0000494_3D-CAD\drw0001_1.dxf
999
Pro/ENGINEER 2019471 by Parametric Technology Corporation
  0
SECTION
  2
HEADER
  9
$ACADVER
  1
AC1024
  9
$DWGCODEPAGE
  3
ANSI_1252
  9
$EXTMAX
 10
263.9775929587
 20
373.3397386131
 30
0.0
  9
$EXTMIN
 10
0.0
 20
0.0
 30
0.0
  9
$LIMMIN
 10
0.0
 20
0.0
  9
$LIMMAX
 10
263.9775929587
 20
373.3397386131
  9
$VIEWCTR
 10
131.9887964794
 20
186.6698693065
  9
$VIEWSIZE
 40
373.3397386131
  9
$CLAYER
  8
0
  9
$LTSCALE
 40
24.3362199985
  9
$CELTYPE
  6
BYLAYER
  9
$DIMSCALE
 40
1.0
  9
$DIMASZ
 40
3.1425903924
  9
$DIMEXO
 40
1.0
  9
$DIMDLI
 40
16.8141156353
  9
$DIMEXE
 40
1.0
  9
$DIMCEN
 40
3.9822905452
  9
$DIMLFAC
 40
1.0
  9
$DIMBLK
  1
_FILLED
  9
$DIMALT
 70
0
  9
$DIMALTF
 40
0.0393700787
  9
$DIMTXT
 40
4.3996265493
  9
$DIMTOL
 70
1
  9
$DIMLIM
 70
0
  9
$DIMTFAC
 40
1.0
  9
$DIMTP
 40
0.01
  9
$DIMTM
 40
0.01
  9
$DIMGAP
 40
0.625
  9
$DIMDSEP
 70
46
  9
$AUNITS
 70
0
  9
$PDMODE
 70
3
  9
$PDSIZE
 40
0.3125
  9
$HANDSEED
  5
5C5
  9
$TILEMODE
 70
1
  9
$MEASUREMENT
 70
1
  9
$INSUNITS
 70
4
  0
ENDSEC
  0
SECTION
  2
CLASSES
  0
CLASS
  1
ACDBDICTIONARYWDFLT
  2
AcDbDictionaryWithDefault
  3
AutoCAD 2000
 90
0
 91
1
280
0
281
0
  0
CLASS
  1
ACDBPLACEHOLDER
  2
AcDbPlaceHolder
  3
AutoCAD 2000
 90
0
 91
1
280
0
281
0
  0
CLASS
  1
LAYOUT
  2
AcDbLayout
  3
AutoCAD 2000
 90
0
 91
0
280
0
281
0
  0
ENDSEC
  0
SECTION
  2
TABLES
  0
TABLE
  2
VPORT
  5
8
100
AcDbSymbolTable
 70
2
  0
VPORT
  5
1F4
100
AcDbSymbolTableRecord
100
AcDbViewportTableRecord
  2
*ACTIVE
 70
0
 10
0.0
 20
0.0
 11
1.0
 21
1.0
 12
131.9887964794
 22
186.6698693065
 13
0.0
 23
0.0
 14
1.0
 24
1.0
 15
0.0
 25
0.0
 16
0.0
 26
0.0
 36
1.0
 17
0.0
 27
0.0
 37
0.0
 40
373.3397386131
 41
0.7070707071
 42
50.0
 43
0.0
 44
0.0
 50
0.0
 51
0.0
 71
0
 72
100
 73
1
 74
1
 75
0
 76
0
 77
0
 78
0
  0
ENDTAB
  0
TABLE
  2
LTYPE
  5
5
100
AcDbSymbolTable
 70
6
  0
LTYPE
  5
14
100
AcDbSymbolTableRecord
100
AcDbLinetypeTableRecord
  2
BYBLOCK
 70
0
  3

 72
65
 73
0
 40
0.0
  0
LTYPE
  5
15
100
AcDbSymbolTableRecord
100
AcDbLinetypeTableRecord
  2
BYLAYER
 70
0
  3

 72
65
 73
0
 40
0.0
  0
LTYPE
  5
16
100
AcDbSymbolTableRecord
100
AcDbLinetypeTableRecord
  2
CONTINUOUS
 70
64
  3
Solid line
 72
65
 73
0
 40
0.0
  0
LTYPE
  5
1F5
100
AcDbSymbolTableRecord
100
AcDbLinetypeTableRecord
  2
CENTER
 70
64
  3
____ _ ____ _ ____ _ ____ _ ____ _ ____ _ ____
 72
65
 73
4
 40
0.6
 49
0.375
 74
0
 49
-0.075
 74
0
 49
0.075
 74
0
 49
-0.075
 74
0
  0
LTYPE
  5
1F6
100
AcDbSymbolTableRecord
100
AcDbLinetypeTableRecord
  2
HIDDEN
 70
64
  3
- - - - - - - - - - - - - - - - - - - -
 72
65
 73
2
 40
0.2
 49
0.1
 74
0
 49
-0.1
 74
0
  0
LTYPE
  5
1F7
100
AcDbSymbolTableRecord
100
AcDbLinetypeTableRecord
  2
PHANTOM
 70
64
  3
_____ _ _ _____ _ _ _____ _ _ _____
 72
65
 73
6
 40
0.8
 49
0.45
 74
0
 49
-0.05
 74
0
 49
0.1
 74
0
 49
-0.05
 74
0
 49
0.1
 74
0
 49
-0.05
 74
0
  0
LTYPE
  5
1F8
100
AcDbSymbolTableRecord
100
AcDbLinetypeTableRecord
  2
DOT
 70
64
  3
. . . . . . . . . . . . . . . . . . . .
 72
65
 73
2
 40
0.2
 49
0.1
 74
0
 49
-0.1
 74
0
  0
LTYPE
  5
1F9
100
AcDbSymbolTableRecord
100
AcDbLinetypeTableRecord
  2
DASHED
 70
64
  3
- - - - - - - - - - - - - - - - - - - -
 72
65
 73
2
 40
0.2
 49
0.1
 74
0
 49
-0.1
 74
0
  0
ENDTAB
  0
TABLE
  2
LAYER
  5
2
100
AcDbSymbolTable
 70
36
  0
LAYER
  5
10
100
AcDbSymbolTableRecord
100
AcDbLayerTableRecord
  2
0
 70
0
 62
7
  6
CONTINUOUS
370
-3
390
F
  0
LAYER
  5
1FA
100
AcDbSymbolTableRecord
100
AcDbLayerTableRecord
  2
DEFAULT_1
 70
0
 62
7
  6
CENTER
370
-3
390
F
  0
LAYER
  5
1FB
100
AcDbSymbolTableRecord
100
AcDbLayerTableRecord
  2
DEFAULT_2
 70
0
 62
8
  6
HIDDEN
370
-3
390
F
  0
LAYER
  5
1FC
100
AcDbSymbolTableRecord
100
AcDbLayerTableRecord
  2
DEFAULT_3
 70
0
 62
7
  6
PHANTOM
370
-3
390
F
  0
LAYER
  5
1FD
100
AcDbSymbolTableRecord
100
AcDbLayerTableRecord
  2
00_COMPONENTS
 70
0
 62
7
  6
CONTINUOUS
370
-3
390
F
  0
LAYER
  5
1FE
100
AcDbSymbolTableRecord
100
AcDbLayerTableRecord
  2
01_1_DEFAULT_DATUMS
 70
0
 62
7
  6
CONTINUOUS
370
-3
390
F
  0
LAYER
  5
1FF
100
AcDbSymbolTableRecord
100
AcDbLayerTableRecord
  2
01_PLANES
 70
0
 62
7
  6
CONTINUOUS
370
-3
390
F
  0
LAYER
  5
200
100
AcDbSymbolTableRecord
100
AcDbLayerTableRecord
  2
02_COORD_SYS
 70
0
 62
7
  6
CONTINUOUS
370
-3
390
F
  0
LAYER
  5
201
100
AcDbSymbolTableRecord
100
AcDbLayerTableRecord
  2
03_AXES
 70
0
 62
7
  6
CONTINUOUS
370
-3
390
F
  0
LAYER
  5
202
100
AcDbSymbolTableRecord
100
AcDbLayerTableRecord
  2
04_POINTS
 70
0
 62
7
  6
CONTINUOUS
370
-3
390
F
  0
LAYER
  5
203
100
AcDbSymbolTableRecord
100
AcDbLayerTableRecord
  2
05_CURVES
 70
0
 62
7
  6
CONTINUOUS
370
-3
390
F
  0
LAYER
  5
204
100
AcDbSymbolTableRecord
100
AcDbLayerTableRecord
  2
06_SURFS
 70
0
 62
7
  6
CONTINUOUS
370
-3
390
F
  0
LAYER
  5
205
100
AcDbSymbolTableRecord
100
AcDbLayerTableRecord
  2
07_COSMETICS
 70
0
 62
7
  6
CONTINUOUS
370
-3
390
F
  0
LAYER
  5
206
100
AcDbSymbolTableRecord
100
AcDbLayerTableRecord
  2
10_NOTES
 70
0
 62
7
  6
CONTINUOUS
370
-3
390
F
  0
LAYER
  5
207
100
AcDbSymbolTableRecord
100
AcDbLayerTableRecord
  2
11_NOTES_PUB
 70
0
 62
7
  6
CONTINUOUS
370
-3
390
F
  0
LAYER
  5
208
100
AcDbSymbolTableRecord
100
AcDbLayerTableRecord
  2
13_REF_GTOL
 70
0
 62
7
  6
CONTINUOUS
370
-3
390
F
  0
LAYER
  5
209
100
AcDbSymbolTableRecord
100
AcDbLayerTableRecord
  2
16_MISC
 70
0
 62
7
  6
CONTINUOUS
370
-3
390
F
  0
LAYER
  5
20A
100
AcDbSymbolTableRecord
100
AcDbLayerTableRecord
  2
17_NO_PRINT
 70
0
 62
7
  6
CONTINUOUS
370
-3
390
F
  0
LAYER
  5
20B
100
AcDbSymbolTableRecord
100
AcDbLayerTableRecord
  2
18_DATUM_CAMS_JOINTS
 70
0
 62
7
  6
CONTINUOUS
370
-3
390
F
  0
LAYER
  5
20C
100
AcDbSymbolTableRecord
100
AcDbLayerTableRecord
  2
19_DATUM_FUNCTIONAL
 70
0
 62
7
  6
CONTINUOUS
370
-3
390
F
  0
LAYER
  5
20D
100
AcDbSymbolTableRecord
100
AcDbLayerTableRecord
  2
20_DATUM_KINEMATIC_SCHEME
 70
0
 62
7
  6
CONTINUOUS
370
-3
390
F
  0
ENDTAB
  0
TABLE
  2
STYLE
  5
3
100
AcDbSymbolTable
 70
1
  0
STYLE
  5
11
100
AcDbSymbolTableRecord
100
AcDbTextStyleTableRecord
  2
STANDARD
 70
0
 40
0.0
 41
0.8
 50
0.0
 71
0
 42
0.2
  3
txt
  4

  0
STYLE
  5
20E
100
AcDbSymbolTableRecord
100
AcDbTextStyleTableRecord
  2
TEXTSTYLE_1
 70
0
 40
0.0
 41
0.8
 50
0.0
 71
0
 42
0.2
  3
gdt
  4

  0
ENDTAB
  0
TABLE
  2
VIEW
  5
6
100
AcDbSymbolTable
 70
0
  0
ENDTAB
  0
TABLE
  2
UCS
  5
7
100
AcDbSymbolTable
 70
0
  0
ENDTAB
  0
TABLE
  2
APPID
  5
9
100
AcDbSymbolTable
 70
1
  0
APPID
  5
20F
100
AcDbSymbolTableRecord
100
AcDbRegAppTableRecord
  2
ACAD
 70
0
  0
ENDTAB
  0
TABLE
  2
BLOCK_RECORD
  5
1
100
AcDbSymbolTable
 70
0
  0
BLOCK_RECORD
  5
210
100
AcDbSymbolTableRecord
100
AcDbBlockTableRecord
  2
*Model_Space
  0
BLOCK_RECORD
  5
211
100
AcDbSymbolTableRecord
100
AcDbBlockTableRecord
  2
*Paper_Space
  0
BLOCK_RECORD
  5
212
100
AcDbSymbolTableRecord
100
AcDbBlockTableRecord
  2
_FILLED
  0
ENDTAB
  0
TABLE
  2
DIMSTYLE
  5
A
100
AcDbSymbolTable
 70
1
100
AcDbDimStyleTable
 71
0
  0
DIMSTYLE
105
213
100
AcDbSymbolTableRecord
100
AcDbDimStyleTableRecord
  2
STANDARD
 70
0
  3

  4

 40
1.0
 41
3.1425903924
 42
1.0
 43
0.38
 44
1.0
 45
0.0
 46
0.0
 47
0.01
 48
0.01
140
4.3996265493
141
0.09
142
0.0
143
25.4
144
1.0
145
0.0
146
1.0
147
0.625
 71
1
 72
0
 73
0
 74
0
 75
0
 76
0
 77
1
 78
8
 79
2
170
0
171
1
172
0
173
0
174
0
175
0
176
0
177
0
178
0
270
2
179
2
271
2
272
2
273
2
274
2
275
0
280
0
281
0
282
0
283
1
284
8
285
0
286
0
287
3
288
0
340
11
278
46
341
212
342
212
343
212
344
212
  0
ENDTAB
  0
ENDSEC
  0
SECTION
  2
BLOCKS
  0
BLOCK
  5
20
100
AcDbEntity
  8
0
100
AcDbBlockBegin
  2
*Model_Space
 70
0
 10
0.0
 20
0.0
 30
0.0
  3
*Model_Space
  1

  0
ENDBLK
  5
21
100
AcDbEntity
  8
0
100
AcDbBlockEnd
  0
BLOCK
  5
1C
100
AcDbEntity
  8
0
100
AcDbBlockBegin
  2
*Paper_Space
 70
0
 10
0.0
 20
0.0
 30
0.0
  3
*Paper_Space
  1

  0
ENDBLK
  5
1D
100
AcDbEntity
  8
0
100
AcDbBlockEnd
  0
BLOCK
  5
214
100
AcDbEntity
  8
0
100
AcDbBlockBegin
  2
_FILLED
 70
64
 10
0.0
 20
0.0
  3
_FILLED
  1

  0
SOLID
  5
215
100
AcDbEntity
  8
0
  6
BYBLOCK
 62
0
100
AcDbTrace
 10
0.0
 20
0.0
 11
-1.0
 21
0.25
 12
-1.0
 22
-0.25
 13
-1.0
 23
-0.25
  0
ENDBLK
  5
216
100
AcDbEntity
  8
0
  6
BYBLOCK
 62
0
100
AcDbBlockEnd
  0
ENDSEC
  0
SECTION
  2
ENTITIES
  0
LINE
  5
217
100
AcDbEntity
  8
0
100
AcDbLine
 62
7
  6
CONTINUOUS
 10
31.3592022305
 20
203.2775575314
 11
30.6244379176
 21
189.7789229074
  0
LINE
  5
218
100
AcDbEntity
  8
0
100
AcDbLine
 62
7
  6
CONTINUOUS
 10
38.7963524155
 20
184.5683376341
 11
39.2976875475
 21
174.8431087502
  0
LINE
  5
219
100
AcDbEntity
  8
0
100
AcDbLine
 62
7
  6
CONTINUOUS
 10
34.1577331514
 20
175.0540479591
 11
33.795826078
 21
187.4580491313
  0
LINE
  5
21A
100
AcDbEntity
  8
0
100
AcDbLine
 62
7
  6
CONTINUOUS
 10
34.7155911028
 20
204.8025397441
 11
34.715591049
 21
205.2107857752
  0
LINE
  5
21B
100
AcDbEntity
  8
0
100
AcDbLine
 62
7
  6
CONTINUOUS
 10
36.7155911028
 20
204.8025398286
 11
36.715591049
 21
205.2107860388
  0
LINE
  5
21C
100
AcDbEntity
  8
0
100
AcDbLine
 62
7
  6
CONTINUOUS
 10
38.7549172573
 20
185.0584218133
 11
39.3082070244
 21
196.1789249076
  0
LINE
  5
21D
100
AcDbEntity
  8
0
100
AcDbLine
 62
7
  6
CONTINUOUS
 10
40.5237603884
 20
212.2322719037
 11
41.2585284187
 21
225.7302168017
  0
LINE
  5
21E
100
AcDbEntity
  8
0
100
AcDbLine
 62
7
  6
CONTINUOUS
 10
31.5309530156
 20
203.6890706923
 11
31.3592022305
 21
203.2775575314
  0
LINE
  5
21F
100
AcDbEntity
  8
0
100
AcDbLine
 62
7
  6
CONTINUOUS
 10
40.5603975437
 20
211.7606182905
 11
40.7091201328
 21
209.0429220432
  0
LINE
  5
220
100
AcDbEntity
  8
0
100
AcDbLine
 62
7
  6
CONTINUOUS
 10
43.8167088925
 20
187.466824496
 11
44.0380264357
 21
177.5797502378
  0
LINE
  5
221
100
AcDbEntity
  8
0
100
AcDbLine
 62
7
  6
CONTINUOUS
 10
45.6858229188
 20
194.1370324979
 11
45.6858229188
 21
185.1616941278
  0
LINE
  5
222
100
AcDbEntity
  8
0
100
AcDbLine
 62
7
  6
CONTINUOUS
 10
46.3222163723
 20
186.9539105842
 11
46.3222163723
 21
190.3015704944
  0
LINE
  5
223
100
AcDbEntity
  8
0
100
AcDbLine
 62
7
  6
CONTINUOUS
 10
46.3929326439
 20
184.3452021647
 11
46.3929326439
 21
182.7121973305
  0
LINE
  5
224
100
AcDbEntity
  8
0
100
AcDbLine
 62
7
  6
CONTINUOUS
 10
46.7464813242
 20
190.5873499865
 11
46.7464813242
 21
193.3634582048
  0
LINE
  5
225
100
AcDbEntity
  8
0
100
AcDbLine
 62
7
  6
CONTINUOUS
 10
46.8525486661
 20
189.9953899285
 11
46.8525486661
 21
186.6477300183
  0
LINE
  5
226
100
AcDbEntity
  8
0
100
AcDbLine
 62
7
  6
CONTINUOUS
 10
46.9939676672
 20
186.3129573637
 11
46.9939676672
 21
186.7293778293
  0
LINE
  5
227
100
AcDbEntity
  8
0
100
AcDbLine
 62
7
  6
CONTINUOUS
 10
46.9939676672
 20
190.3219842318
 11
46.9939676672
 21
190.4444669122
  0
LINE
  5
228
100
AcDbEntity
  8
0
100
AcDbLine
 62
7
  6
CONTINUOUS
 10
47.0520916531
 20
183.5564043881
 11
47.0520916531
 21
181.9233995539
  0
LINE
  5
229
100
AcDbEntity
  8
0
100
AcDbLine
 62
7
  6
CONTINUOUS
 10
47.2061005847
 20
190.3219842318
 11
47.2061005847
 21
190.1995120055
  0
LINE
  5
22A
100
AcDbEntity
  8
0
100
AcDbLine
 62
7
  6
CONTINUOUS
 10
47.2061005847
 20
186.8518520952
 11
47.2061005847
 21
186.5987363459
  0
LINE
  5
22B
100
AcDbEntity
  8
0
100
AcDbLine
 62
7
  6
CONTINUOUS
 10
47.3121699875
 20
185.149454878
 11
47.3121699875
 21
185.9659572951
  0
LINE
  5
22C
100
AcDbEntity
  8
0
100
AcDbLine
 62
7
  6
CONTINUOUS
 10
47.877853646
 20
188.3011503152
 11
47.877853646
 21
189.3217783366
  0
LINE
  5
22D
100
AcDbEntity
  8
0
100
AcDbLine
 62
7
  6
CONTINUOUS
 10
43.941107806
 20
195.1443433716
 11
43.767368501
 21
187.4953105399
  0
LINE
  5
22E
100
AcDbEntity
  8
0
100
AcDbLine
 62
7
  6
CONTINUOUS
 10
54.9661547388
 20
222.2753656876
 11
55.2717038481
 21
222.7012823189
  0
LINE
  5
22F
100
AcDbEntity
  8
0
100
AcDbLine
 62
7
  6
CONTINUOUS
 10
53.5119864993
 20
178.1938618989
 11
53.5119864993
 21
179.8268667332
  0
LINE
  5
230
100
AcDbEntity
  8
0
100
AcDbLine
 62
7
  6
CONTINUOUS
 10
54.8782493457
 20
177.8133082762
 11
54.8782493457
 21
179.4463131105
  0
LINE
  5
231
100
AcDbEntity
  8
0
100
AcDbLine
 62
7
  6
CONTINUOUS
 10
55.1275473071
 20
212.094633027
 11
55.1275473071
 21
213.1908514428
  0
LINE
  5
232
100
AcDbEntity
  8
0
100
AcDbLine
 62
7
  6
CONTINUOUS
 10
55.2317989091
 20
181.3936608445
 11
55.2317989091
 21
180.5771584274
  0
LINE
  5
233
100
AcDbEntity
  8
0
100
AcDbLine
 62
7
  6
CONTINUOUS
 10
55.2717038481
 20
221.8494455087
 11
55.2717038481
 21
222.7012823189
  0
LINE
  5
234
100
AcDbEntity
  8
0
100
AcDbLine
 62
7
  6
CONTINUOUS
 10
55.4439300603
 20
181.2711833655
 11
55.4439300603
 21
180.6996316735
  0
LINE
  5
235
100
AcDbEntity
  8
0
100
AcDbLine
 62
7
  6
CONTINUOUS
 10
55.5853590708
 20
179.4463235645
 11
55.5853590708
 21
188.4215776034
  0
LINE
  5
236
100
AcDbEntity
  8
0
100
AcDbLine
 62
7
  6
CONTINUOUS
 10
47.9813947211
 20
189.550697127
 11
47.877853646
 21
189.3217937698
  0
LINE
  5
237
100
AcDbEntity
  8
0
100
AcDbLine
 62
7
  6
CONTINUOUS
 10
62.345230272
 20
217.3579577939
 11
62.4914638583
 21
217.5617984027
  0
LINE
  5
238
100
AcDbEntity
  8
0
100
AcDbLine
 62
7
  6
CONTINUOUS
 10
62.7980451223
 20
238.1557221723
 11
62.4538293148
 21
237.9538416702
  0
LINE
  5
239
100
AcDbEntity
  8
0
100
AcDbLine
 62
7
  6
CONTINUOUS
 10
104.5590480026
 20
262.2770570949
 11
62.4520445235
 21
237.954856996
  0
LINE
  5
23A
100
AcDbEntity
  8
0
100
AcDbLine
 62
7
  6
CONTINUOUS
 10
104.5357318822
 20
262.5834191375
 11
41.6618833739
 21
226.27605702
  0
LINE
  5
23B
100
AcDbEntity
  8
0
100
AcDbLine
 62
7
  6
CONTINUOUS
 10
59.1562724269
 20
181.9285711942
 11
59.1562724269
 21
172.7020938807
  0
LINE
  5
23C
100
AcDbEntity
  8
0
100
AcDbLine
 62
7
  6
CONTINUOUS
 10
60.1320850252
 20
180.7691556902
 11
60.1320850252
 21
179.6260523063
  0
LINE
  5
23D
100
AcDbEntity
  8
0
100
AcDbLine
 62
7
  6
CONTINUOUS
 10
60.1462260421
 20
181.3570341379
 11
60.1462260421
 21
180.860504819
  0
LINE
  5
23E
100
AcDbEntity
  8
0
100
AcDbLine
 62
7
  6
CONTINUOUS
 10
60.1462260421
 20
179.5571978942
 11
60.1462260421
 21
179.3974283368
  0
LINE
  5
23F
100
AcDbEntity
  8
0
100
AcDbLine
 62
7
  6
CONTINUOUS
 10
60.3017901816
 20
177.4827324685
 11
60.3017901816
 21
174.9515749754
  0
LINE
  5
240
100
AcDbEntity
  8
0
100
AcDbLine
 62
7
  6
CONTINUOUS
 10
60.3230020014
 20
181.4590951764
 11
60.3230020014
 21
180.9470231014
  0
LINE
  5
241
100
AcDbEntity
  8
0
100
AcDbLine
 62
7
  6
CONTINUOUS
 10
60.4785661409
 20
177.3888379448
 11
60.4785661409
 21
175.0536360139
  0
LINE
  5
242
100
AcDbEntity
  8
0
100
AcDbLine
 62
7
  6
CONTINUOUS
 10
60.6412028497
 20
179.1116598086
 11
60.6412028497
 21
177.2867769064
  0
LINE
  5
243
100
AcDbEntity
  8
0
100
AcDbLine
 62
7
  6
CONTINUOUS
 10
60.6412028497
 20
174.7556194133
 11
60.6412028497
 21
172.9878916802
  0
LINE
  5
244
100
AcDbEntity
  8
0
100
AcDbLine
 62
7
  6
CONTINUOUS
 10
60.78969442
 20
174.9556603236
 11
60.78969442
 21
177.3235173333
  0
LINE
  5
245
100
AcDbEntity
  8
0
100
AcDbLine
 62
7
  6
CONTINUOUS
 10
60.817978809
 20
179.0667598206
 11
60.817978809
 21
177.3888379448
  0
LINE
  5
246
100
AcDbEntity
  8
0
100
AcDbLine
 62
7
  6
CONTINUOUS
 10
60.817978809
 20
174.8576804517
 11
60.817978809
 21
173.0899527186
  0
LINE
  5
247
100
AcDbEntity
  8
0
100
AcDbLine
 62
7
  6
CONTINUOUS
 10
61.0725383101
 20
173.1879367721
 11
61.0725383101
 21
174.7923640218
  0
LINE
  5
248
100
AcDbEntity
  8
0
100
AcDbLine
 62
7
  6
CONTINUOUS
 10
61.0725383101
 20
177.1602210315
 11
61.0725383101
 21
178.7074931119
  0
LINE
  5
249
100
AcDbEntity
  8
0
100
AcDbLine
 62
7
  6
CONTINUOUS
 10
61.634374828
 20
209.1482770861
 11
61.634374828
 21
210.7812819203
  0
LINE
  5
24A
100
AcDbEntity
  8
0
100
AcDbLine
 62
7
  6
CONTINUOUS
 10
61.8645038518
 20
178.6258624577
 11
61.8645038518
 21
179.7689658417
  0
LINE
  5
24B
100
AcDbEntity
  8
0
100
AcDbLine
 62
7
  6
CONTINUOUS
 10
62.1827005785
 20
179.9526757109
 11
62.1827005785
 21
178.8095723269
  0
LINE
  5
24C
100
AcDbEntity
  8
0
100
AcDbLine
 62
7
  6
CONTINUOUS
 10
62.1985856882
 20
216.2118579135
 11
62.1985856882
 21
211.4761438942
  0
LINE
  5
24D
100
AcDbEntity
  8
0
100
AcDbLine
 62
7
  6
CONTINUOUS
 10
62.3427422203
 20
226.7837238798
 11
62.3427422203
 21
225.722288705
  0
LINE
  5
24E
100
AcDbEntity
  8
0
100
AcDbLine
 62
7
  6
CONTINUOUS
 10
62.345230272
 20
217.3579577939
 11
62.345230272
 21
216.2965226981
  0
LINE
  5
24F
100
AcDbEntity
  8
0
100
AcDbLine
 62
7
  6
CONTINUOUS
 10
62.4914746899
 20
216.5003633055
 11
62.4914746899
 21
217.5617984027
  0
LINE
  5
250
100
AcDbEntity
  8
0
100
AcDbLine
 62
7
  6
CONTINUOUS
 10
63.0280365728
 20
208.2830623017
 11
63.0280365728
 21
209.3135790717
  0
LINE
  5
251
100
AcDbEntity
  8
0
100
AcDbLine
 62
7
  6
CONTINUOUS
 10
63.0595166377
 20
178.9483907009
 11
63.0595166377
 21
177.5603365917
  0
LINE
  5
252
100
AcDbEntity
  8
0
100
AcDbLine
 62
7
  6
CONTINUOUS
 10
63.1159054216
 20
208.3337931024
 11
63.1159054216
 21
209.1911058255
  0
LINE
  5
253
100
AcDbEntity
  8
0
100
AcDbLine
 62
7
  6
CONTINUOUS
 10
63.2219795347
 20
208.0684393315
 11
63.2219795347
 21
207.417619381
  0
LINE
  5
254
100
AcDbEntity
  8
0
100
AcDbLine
 62
7
  6
CONTINUOUS
 10
63.32803304
 20
209.8034700167
 11
63.32803304
 21
209.5585190391
  0
LINE
  5
255
100
AcDbEntity
  8
0
100
AcDbLine
 62
7
  6
CONTINUOUS
 10
63.8181878324
 20
225.7222922462
 11
63.8181878324
 21
226.7837274184
  0
LINE
  5
256
100
AcDbEntity
  8
0
100
AcDbLine
 62
7
  6
CONTINUOUS
 10
63.8231951409
 20
178.507490686
 11
63.8231951409
 21
179.4383034415
  0
LINE
  5
257
100
AcDbEntity
  8
0
100
AcDbLine
 62
7
  6
CONTINUOUS
 10
64.1039038495
 20
211.4761489746
 11
64.1039038495
 21
216.2118629939
  0
LINE
  5
258
100
AcDbEntity
  8
0
100
AcDbLine
 62
7
  6
CONTINUOUS
 10
65.4633186245
 20
224.5900589144
 11
65.4633186245
 21
223.5286233081
  0
LINE
  5
259
100
AcDbEntity
  8
0
100
AcDbLine
 62
7
  6
CONTINUOUS
 10
66.694060625
 20
177.7808459782
 11
66.694060625
 21
176.8500332226
  0
LINE
  5
25A
100
AcDbEntity
  8
0
100
AcDbLine
 62
7
  6
CONTINUOUS
 10
55.5853590708
 20
179.4463097696
 11
55.4818180142
 21
179.2174047425
  0
LINE
  5
25B
100
AcDbEntity
  8
0
100
AcDbLine
 62
7
  6
CONTINUOUS
 10
69.6719127634
 20
214.8591949347
 11
69.3920164198
 21
214.4590013603
  0
LINE
  5
25C
100
AcDbEntity
  8
0
100
AcDbLine
 62
7
  6
CONTINUOUS
 10
62.4914638583
 20
216.5003633055
 11
62.345230272
 21
216.2965226981
  0
LINE
  5
25D
100
AcDbEntity
  8
0
100
AcDbLine
 62
7
  6
CONTINUOUS
 10
65.7740322685
 20
224.7743390741
 11
65.4954182738
 21
224.6085962266
  0
LINE
  5
25E
100
AcDbEntity
  8
0
100
AcDbLine
 62
7
  6
CONTINUOUS
 10
55.2717038481
 20
222.7012823189
 11
62.342742211
 21
226.7837238744
  0
LINE
  5
25F
100
AcDbEntity
  8
0
100
AcDbLine
 62
7
  6
CONTINUOUS
 10
62.3427570215
 20
225.7222972504
 11
55.4532270026
 21
221.7446489828
  0
LINE
  5
260
100
AcDbEntity
  8
0
100
AcDbLine
 62
7
  6
CONTINUOUS
 10
40.5603975437
 20
211.7634331336
 11
40.9481144145
 21
211.987280236
  0
LINE
  5
261
100
AcDbEntity
  8
0
100
AcDbLine
 62
7
  6
CONTINUOUS
 10
47.0520916531
 20
181.9233995539
 11
46.3929326439
 21
182.7121973305
  0
LINE
  5
262
100
AcDbEntity
  8
0
100
AcDbLine
 62
7
  6
CONTINUOUS
 10
46.3929326439
 20
184.3452021647
 11
47.0520916531
 21
183.5564043881
  0
LINE
  5
263
100
AcDbEntity
  8
0
100
AcDbLine
 62
7
  6
CONTINUOUS
 10
35.0084872656
 20
204.3942956302
 11
34.7156066932
 21
204.8025397517
  0
LINE
  5
264
100
AcDbEntity
  8
0
100
AcDbLine
 62
7
  6
CONTINUOUS
 10
34.7156225674
 20
205.2107858193
 11
35.0084872118
 21
204.8025416288
  0
LINE
  5
265
100
AcDbEntity
  8
0
100
AcDbLine
 62
7
  6
CONTINUOUS
 10
36.7155595306
 20
205.2107859947
 11
36.4226948862
 21
205.6190301852
  0
LINE
  5
266
100
AcDbEntity
  8
0
100
AcDbLine
 62
7
  6
CONTINUOUS
 10
67.4577391281
 20
175.0210790986
 11
67.4577391281
 21
176.4091332077
  0
LINE
  5
267
100
AcDbEntity
  8
0
100
AcDbLine
 62
7
  6
CONTINUOUS
 10
68.0163584606
 20
176.2172712773
 11
68.0163584606
 21
175.0741678934
  0
LINE
  5
268
100
AcDbEntity
  8
0
100
AcDbLine
 62
7
  6
CONTINUOUS
 10
69.3919926196
 20
213.3975663103
 11
69.3919926196
 21
214.4590007344
  0
LINE
  5
269
100
AcDbEntity
  8
0
100
AcDbLine
 62
7
  6
CONTINUOUS
 10
69.4447174558
 20
173.8739225784
 11
69.4447174558
 21
172.326650498
  0
LINE
  5
26A
100
AcDbEntity
  8
0
100
AcDbLine
 62
7
  6
CONTINUOUS
 10
69.4447174558
 20
169.9587934883
 11
69.4447174558
 21
168.3543662386
  0
LINE
  5
26B
100
AcDbEntity
  8
0
100
AcDbLine
 62
7
  6
CONTINUOUS
 10
69.5225009975
 20
167.8603878034
 11
69.5225009975
 21
169.6281155365
  0
LINE
  5
26C
100
AcDbEntity
  8
0
100
AcDbLine
 62
7
  6
CONTINUOUS
 10
69.5225009975
 20
172.1592730296
 11
69.5225009975
 21
173.9841559319
  0
LINE
  5
26D
100
AcDbEntity
  8
0
100
AcDbLine
 62
7
  6
CONTINUOUS
 10
69.6843619158
 20
212.9900563213
 11
69.6843619158
 21
214.0514913768
  0
LINE
  5
26E
100
AcDbEntity
  8
0
100
AcDbLine
 62
7
  6
CONTINUOUS
 10
69.7275613459
 20
172.0408840606
 11
69.7275613459
 21
169.7954971865
  0
LINE
  5
26F
100
AcDbEntity
  8
0
100
AcDbLine
 62
7
  6
CONTINUOUS
 10
69.7487772872
 20
174.0739780448
 11
69.7487772872
 21
175.2170814288
  0
LINE
  5
270
100
AcDbEntity
  8
0
100
AcDbLine
 62
7
  6
CONTINUOUS
 10
69.8619136656
 20
169.4321599743
 11
69.8619136656
 21
171.9633174674
  0
LINE
  5
271
100
AcDbEntity
  8
0
100
AcDbLine
 62
7
  6
CONTINUOUS
 10
70.0174778051
 20
173.6983874037
 11
70.0174778051
 21
175.6579932048
  0
LINE
  5
272
100
AcDbEntity
  8
0
100
AcDbLine
 62
7
  6
CONTINUOUS
 10
71.0074314204
 20
165.8599788349
 11
71.0074314204
 21
175.0864561485
  0
LINE
  5
273
100
AcDbEntity
  8
0
100
AcDbLine
 62
7
  6
CONTINUOUS
 10
72.1175844448
 20
166.5009221565
 11
72.1175844448
 21
175.7273994701
  0
LINE
  5
274
100
AcDbEntity
  8
0
100
AcDbLine
 62
7
  6
CONTINUOUS
 10
72.5344158759
 20
219.4462157629
 11
72.5344158759
 21
220.5076513692
  0
LINE
  5
275
100
AcDbEntity
  8
0
100
AcDbLine
 62
7
  6
CONTINUOUS
 10
73.6116579174
 20
220.068158033
 11
73.6116579174
 21
221.1295994427
  0
LINE
  5
276
100
AcDbEntity
  8
0
100
AcDbLine
 62
7
  6
CONTINUOUS
 10
74.0057458517
 20
211.5565951528
 11
74.0057458528
 21
210.4579085042
  0
LINE
  5
277
100
AcDbEntity
  8
0
100
AcDbLine
 62
7
  6
CONTINUOUS
 10
76.6395582776
 20
219.1319462976
 11
76.3339901517
 21
218.7060031613
  0
LINE
  5
278
100
AcDbEntity
  8
0
100
AcDbLine
 62
7
  6
CONTINUOUS
 10
39.5761669562
 20
196.9266497374
 11
39.7696420451
 21
197.078035909
  0
LINE
  5
279
100
AcDbEntity
  8
0
100
AcDbLine
 62
7
  6
CONTINUOUS
 10
42.1121834633
 20
209.8613869392
 11
31.53102383
 21
203.6889587025
  0
LINE
  5
27A
100
AcDbEntity
  8
0
100
AcDbLine
 62
7
  6
CONTINUOUS
 10
65.7740334762
 20
224.7743426275
 11
67.1067562352
 21
225.5437839805
  0
LINE
  5
27B
100
AcDbEntity
  8
0
100
AcDbLine
 62
7
  6
CONTINUOUS
 10
65.4954189945
 20
224.6085919667
 11
65.4633186245
 21
224.5900589144
  0
LWPOLYLINE
  5
27C
100
AcDbEntity
  8
0
100
AcDbPolyline
 62
7
  6
CONTINUOUS
 90
3
 70
0
 10
56.1124333369
 20
217.8852121392
 10
49.2986532095
 20
213.950923277
 10
42.1121834633
 20
209.8613869392
  0
LINE
  5
27D
100
AcDbEntity
  8
0
100
AcDbLine
 62
7
  6
CONTINUOUS
 10
119.0329549641
 20
254.2135962707
 11
123.2499593996
 21
256.6482703836
  0
LINE
  5
27E
100
AcDbEntity
  8
0
100
AcDbLine
 62
7
  6
CONTINUOUS
 10
56.2495716526
 20
217.6476823085
 11
35.7031956929
 21
205.7852137305
  0
LINE
  5
27F
100
AcDbEntity
  8
0
100
AcDbLine
 62
7
  6
CONTINUOUS
 10
123.2331333337
 20
256.3197986072
 11
119.0554349283
 21
253.9077534326
  0
LINE
  5
280
100
AcDbEntity
  8
0
100
AcDbLine
 62
7
  6
CONTINUOUS
 10
55.1275473071
 20
213.1908514428
 11
62.345230272
 21
217.3579577939
  0
LINE
  5
281
100
AcDbEntity
  8
0
100
AcDbLine
 62
7
  6
CONTINUOUS
 10
62.345230272
 20
216.2965226981
 11
62.1985856882
 21
216.2118579135
  0
LINE
  5
282
100
AcDbEntity
  8
0
100
AcDbLine
 62
7
  6
CONTINUOUS
 10
73.620604836
 20
221.7830767261
 11
72.2879006672
 21
221.0136441364
  0
LINE
  5
283
100
AcDbEntity
  8
0
100
AcDbLine
 62
7
  6
CONTINUOUS
 10
73.8992485419
 20
221.2956289942
 11
72.5344158759
 21
220.5076513692
  0
LINE
  5
284
100
AcDbEntity
  8
0
100
AcDbLine
 62
7
  6
CONTINUOUS
 10
72.5344158759
 20
219.4462157629
 11
73.6116579174
 21
220.068158033
  0
LINE
  5
285
100
AcDbEntity
  8
0
100
AcDbLine
 62
7
  6
CONTINUOUS
 10
34.7137566177
 20
205.2139631161
 11
32.0652888085
 21
203.6849969608
  0
LINE
  5
286
100
AcDbEntity
  8
0
100
AcDbLine
 62
7
  6
CONTINUOUS
 10
155.9437563273
 20
112.0670272282
 11
156.3200590615
 21
111.9548520542
  0
LINE
  5
287
100
AcDbEntity
  8
0
100
AcDbLine
 62
7
  6
CONTINUOUS
 10
34.1577331514
 20
175.0540479591
 11
134.0402633428
 21
117.3881468427
  0
LINE
  5
288
100
AcDbEntity
  8
0
100
AcDbLine
 62
7
  6
CONTINUOUS
 10
40.7436294555
 20
172.470743019
 11
133.9743386414
 21
118.6451856706
  0
LINE
  5
289
100
AcDbEntity
  8
0
100
AcDbLine
 62
7
  6
CONTINUOUS
 10
76.1269058304
 20
172.1307930858
 11
76.1269058304
 21
162.9043157722
  0
LINE
  5
28A
100
AcDbEntity
  8
0
100
AcDbLine
 62
7
  6
CONTINUOUS
 10
76.3340299681
 20
219.5578664442
 11
76.3340299681
 21
218.7060031613
  0
LINE
  5
28B
100
AcDbEntity
  8
0
100
AcDbLine
 62
7
  6
CONTINUOUS
 10
77.1027184287
 20
170.9713775818
 11
77.1027184287
 21
169.8282741978
  0
LINE
  5
28C
100
AcDbEntity
  8
0
100
AcDbLine
 62
7
  6
CONTINUOUS
 10
77.1168594456
 20
171.5592560294
 11
77.1168594456
 21
171.0627267105
  0
LINE
  5
28D
100
AcDbEntity
  8
0
100
AcDbLine
 62
7
  6
CONTINUOUS
 10
77.1168594456
 20
169.7594197857
 11
77.1168594456
 21
169.5996502283
  0
LINE
  5
28E
100
AcDbEntity
  8
0
100
AcDbLine
 62
7
  6
CONTINUOUS
 10
77.2724235852
 20
167.68495436
 11
77.2724235852
 21
165.1537968669
  0
LINE
  5
28F
100
AcDbEntity
  8
0
100
AcDbLine
 62
7
  6
CONTINUOUS
 10
77.2936354049
 20
171.6613170679
 11
77.2936354049
 21
171.1492449929
  0
LINE
  5
290
100
AcDbEntity
  8
0
100
AcDbLine
 62
7
  6
CONTINUOUS
 10
77.4491995445
 20
167.5910598363
 11
77.4491995445
 21
165.2558579054
  0
LINE
  5
291
100
AcDbEntity
  8
0
100
AcDbLine
 62
7
  6
CONTINUOUS
 10
77.6118362532
 20
169.3138817002
 11
77.6118362532
 21
167.4889987979
  0
LINE
  5
292
100
AcDbEntity
  8
0
100
AcDbLine
 62
7
  6
CONTINUOUS
 10
77.6118362532
 20
164.9578413048
 11
77.6118362532
 21
163.1901135717
  0
LINE
  5
293
100
AcDbEntity
  8
0
100
AcDbLine
 62
7
  6
CONTINUOUS
 10
77.7603278235
 20
165.1578822151
 11
77.7603278235
 21
167.5257392248
  0
LINE
  5
294
100
AcDbEntity
  8
0
100
AcDbLine
 62
7
  6
CONTINUOUS
 10
77.7886122125
 20
169.2689817122
 11
77.7886122125
 21
167.5910598363
  0
LINE
  5
295
100
AcDbEntity
  8
0
100
AcDbLine
 62
7
  6
CONTINUOUS
 10
77.7886122125
 20
165.0599023432
 11
77.7886122125
 21
163.2921746101
  0
LINE
  5
296
100
AcDbEntity
  8
0
100
AcDbLine
 62
7
  6
CONTINUOUS
 10
78.0431717136
 20
163.3901586637
 11
78.0431717136
 21
164.9945859133
  0
LINE
  5
297
100
AcDbEntity
  8
0
100
AcDbLine
 62
7
  6
CONTINUOUS
 10
78.0431717136
 20
167.362442923
 11
78.0431717136
 21
168.9097150035
  0
LINE
  5
298
100
AcDbEntity
  8
0
100
AcDbLine
 62
7
  6
CONTINUOUS
 10
78.8351372553
 20
168.8280843492
 11
78.8351372553
 21
169.9711877332
  0
LINE
  5
299
100
AcDbEntity
  8
0
100
AcDbLine
 62
7
  6
CONTINUOUS
 10
79.1533339821
 20
170.1548976024
 11
79.1533339821
 21
169.0117942184
  0
LINE
  5
29A
100
AcDbEntity
  8
0
100
AcDbLine
 62
7
  6
CONTINUOUS
 10
80.0301500412
 20
169.1506125924
 11
80.0301500412
 21
167.7625584833
  0
LINE
  5
29B
100
AcDbEntity
  8
0
100
AcDbLine
 62
7
  6
CONTINUOUS
 10
80.7938285444
 20
168.7097125775
 11
80.7938285444
 21
169.640525333
  0
LINE
  5
29C
100
AcDbEntity
  8
0
100
AcDbLine
 62
7
  6
CONTINUOUS
 10
83.6646940285
 20
167.9830678697
 11
83.6646940285
 21
167.0522551141
  0
LINE
  5
29D
100
AcDbEntity
  8
0
100
AcDbLine
 62
7
  6
CONTINUOUS
 10
62.1985856882
 20
211.4761438942
 11
59.1954427956
 21
209.7422888865
  0
LINE
  5
29E
100
AcDbEntity
  8
0
100
AcDbLine
 62
7
  6
CONTINUOUS
 10
61.634374828
 20
210.7812819203
 11
59.5151117391
 21
209.5577321091
  0
LINE
  5
29F
100
AcDbEntity
  8
0
100
AcDbLine
 62
7
  6
CONTINUOUS
 10
76.3339901517
 20
218.7060031613
 11
69.6719127634
 21
214.8591949347
  0
LINE
  5
2A0
100
AcDbEntity
  8
0
100
AcDbLine
 62
7
  6
CONTINUOUS
 10
61.634374828
 20
209.1482770861
 11
60.9293556198
 21
208.7412364862
  0
LINE
  5
2A1
100
AcDbEntity
  8
0
100
AcDbLine
 62
7
  6
CONTINUOUS
 10
63.3280252712
 20
209.5585190391
 11
63.1159036552
 21
209.4360512981
  0
LINE
  5
2A2
100
AcDbEntity
  8
0
100
AcDbLine
 62
7
  6
CONTINUOUS
 10
63.5224963103
 20
208.5685370602
 11
62.3755009814
 21
207.9063229512
  0
LINE
  5
2A3
100
AcDbEntity
  8
0
100
AcDbLine
 62
7
  6
CONTINUOUS
 10
63.2219795347
 20
208.0684393315
 11
62.6583448698
 21
207.7430266484
  0
LINE
  5
2A4
100
AcDbEntity
  8
0
100
AcDbLine
 62
7
  6
CONTINUOUS
 10
34.2336864517
 20
187.7108464269
 11
33.795826078
 21
187.4580491313
  0
LINE
  5
2A5
100
AcDbEntity
  8
0
100
AcDbLine
 62
7
  6
CONTINUOUS
 10
74.0034491503
 20
210.4579085042
 11
66.9324086007
 21
206.3754656862
  0
LINE
  5
2A6
100
AcDbEntity
  8
0
100
AcDbLine
 62
7
  6
CONTINUOUS
 10
133.3568569299
 20
134.1434695618
 11
134.9478538115
 21
134.2855956173
  0
LINE
  5
2A7
100
AcDbEntity
  8
0
100
AcDbLine
 62
7
  6
CONTINUOUS
 10
138.1593125863
 20
117.849512658
 11
148.8657242966
 21
111.6683507138
  0
LINE
  5
2A8
100
AcDbEntity
  8
0
100
AcDbLine
 62
7
  6
CONTINUOUS
 10
138.5702599365
 20
121.4126904379
 11
45.4517542535
 21
175.1734685292
  0
LINE
  5
2A9
100
AcDbEntity
  8
0
100
AcDbLine
 62
7
  6
CONTINUOUS
 10
155.9437454054
 20
112.067008328
 11
152.8819602955
 21
113.8346907951
  0
LINE
  5
2AA
100
AcDbEntity
  8
0
100
AcDbLine
 62
7
  6
CONTINUOUS
 10
155.5070254784
 20
112.6637600001
 11
152.4452403685
 21
114.4314424672
  0
LINE
  5
2AB
100
AcDbEntity
  8
0
100
AcDbLine
 62
7
  6
CONTINUOUS
 10
152.445234796
 20
115.5627838354
 11
155.5070199059
 21
113.7951013683
  0
LINE
  5
2AC
100
AcDbEntity
  8
0
100
AcDbLine
 62
7
  6
CONTINUOUS
 10
84.4283725317
 20
165.2233009901
 11
84.4283725317
 21
166.6113550993
  0
LINE
  5
2AD
100
AcDbEntity
  8
0
100
AcDbLine
 62
7
  6
CONTINUOUS
 10
84.9869918641
 20
166.4194931689
 11
84.9869918641
 21
165.2763897849
  0
LINE
  5
2AE
100
AcDbEntity
  8
0
100
AcDbLine
 62
7
  6
CONTINUOUS
 10
86.4153508593
 20
164.0761444699
 11
86.4153508593
 21
162.5288723895
  0
LINE
  5
2AF
100
AcDbEntity
  8
0
100
AcDbLine
 62
7
  6
CONTINUOUS
 10
86.4153508593
 20
160.1610153798
 11
86.4153508593
 21
158.5565881301
  0
LINE
  5
2B0
100
AcDbEntity
  8
0
100
AcDbLine
 62
7
  6
CONTINUOUS
 10
86.4931344011
 20
158.0626096949
 11
86.4931344011
 21
159.830337428
  0
LINE
  5
2B1
100
AcDbEntity
  8
0
100
AcDbLine
 62
7
  6
CONTINUOUS
 10
86.4931344011
 20
162.3614949211
 11
86.4931344011
 21
164.1863778234
  0
LINE
  5
2B2
100
AcDbEntity
  8
0
100
AcDbLine
 62
7
  6
CONTINUOUS
 10
86.6981947494
 20
162.2431059521
 11
86.6981947494
 21
159.997719078
  0
LINE
  5
2B3
100
AcDbEntity
  8
0
100
AcDbLine
 62
7
  6
CONTINUOUS
 10
86.7194106907
 20
164.2761999363
 11
86.7194106907
 21
165.4193033203
  0
LINE
  5
2B4
100
AcDbEntity
  8
0
100
AcDbLine
 62
7
  6
CONTINUOUS
 10
86.8325470691
 20
159.6343818658
 11
86.8325470691
 21
162.1655393589
  0
LINE
  5
2B5
100
AcDbEntity
  8
0
100
AcDbLine
 62
7
  6
CONTINUOUS
 10
86.9881112087
 20
163.9006092952
 11
86.9881112087
 21
165.8602150963
  0
LINE
  5
2B6
100
AcDbEntity
  8
0
100
AcDbLine
 62
7
  6
CONTINUOUS
 10
87.9780648239
 20
156.0622007264
 11
87.9780648239
 21
165.28867804
  0
LINE
  5
2B7
100
AcDbEntity
  8
0
100
AcDbLine
 62
7
  6
CONTINUOUS
 10
89.0882178483
 20
156.703144048
 11
89.0882178483
 21
165.9296213616
  0
LINE
  5
2B8
100
AcDbEntity
  8
0
100
AcDbLine
 62
7
  6
CONTINUOUS
 10
46.8860880439
 20
193.4440597009
 11
46.7464813242
 21
193.3634582048
  0
LINE
  5
2B9
100
AcDbEntity
  8
0
100
AcDbLine
 62
7
  6
CONTINUOUS
 10
46.3222163723
 20
190.3015704944
 11
46.5343475234
 21
190.4240437406
  0
LINE
  5
2BA
100
AcDbEntity
  8
0
100
AcDbLine
 62
7
  6
CONTINUOUS
 10
46.8525468998
 20
190.240335401
 11
46.9939676672
 21
190.3219842318
  0
LINE
  5
2BB
100
AcDbEntity
  8
0
100
AcDbLine
 62
7
  6
CONTINUOUS
 10
47.2061005847
 20
190.1995120055
 11
46.8525486661
 21
189.9953899285
  0
LINE
  5
2BC
100
AcDbEntity
  8
0
100
AcDbLine
 62
7
  6
CONTINUOUS
 10
39.1807743524
 20
185.3292809979
 11
43.7766266609
 21
187.9826817531
  0
LINE
  5
2BD
100
AcDbEntity
  8
0
100
AcDbLine
 62
7
  6
CONTINUOUS
 10
39.1811977328
 20
185.3045336336
 11
38.7549171753
 21
185.0584219067
  0
LINE
  5
2BE
100
AcDbEntity
  8
0
100
AcDbLine
 62
7
  6
CONTINUOUS
 10
39.1849041856
 20
184.8496393264
 11
43.767368501
 21
187.4953105399
  0
LINE
  5
2BF
100
AcDbEntity
  8
0
100
AcDbLine
 62
7
  6
CONTINUOUS
 10
38.7963524155
 20
184.5711524772
 11
43.8167088925
 21
187.4696393391
  0
LINE
  5
2C0
100
AcDbEntity
  8
0
100
AcDbLine
 62
7
  6
CONTINUOUS
 10
48.261753524
 20
189.7125269652
 11
47.9814096278
 21
189.5506713075
  0
LINE
  5
2C1
100
AcDbEntity
  8
0
100
AcDbLine
 62
7
  6
CONTINUOUS
 10
48.2314085086
 20
189.5259091679
 11
48.4081989537
 21
189.6279785697
  0
LINE
  5
2C2
100
AcDbEntity
  8
0
100
AcDbLine
 62
7
  6
CONTINUOUS
 10
46.8525486661
 20
186.6477300183
 11
47.2061005847
 21
186.8518520952
  0
LINE
  5
2C3
100
AcDbEntity
  8
0
100
AcDbLine
 62
7
  6
CONTINUOUS
 10
49.0163291409
 20
187.6438660515
 11
47.2061005847
 21
186.5987363459
  0
LINE
  5
2C4
100
AcDbEntity
  8
0
100
AcDbLine
 62
7
  6
CONTINUOUS
 10
47.3475225298
 20
186.3537877116
 11
49.2991754748
 21
187.4805683388
  0
LINE
  5
2C5
100
AcDbEntity
  8
0
100
AcDbLine
 62
7
  6
CONTINUOUS
 10
47.3369273089
 20
186.1149540017
 11
45.6858229188
 21
185.1616941278
  0
LINE
  5
2C6
100
AcDbEntity
  8
0
100
AcDbLine
 62
7
  6
CONTINUOUS
 10
47.6657219061
 20
186.1700793721
 11
47.3121699875
 21
185.9659572951
  0
LINE
  5
2C7
100
AcDbEntity
  8
0
100
AcDbLine
 62
7
  6
CONTINUOUS
 10
46.0393777814
 20
184.549322542
 11
47.3121699875
 21
185.2841650784
  0
LINE
  5
2C8
100
AcDbEntity
  8
0
100
AcDbLine
 62
7
  6
CONTINUOUS
 10
133.3568569299
 20
138.3861405747
 11
131.7658600484
 21
138.2440145191
  0
LINE
  5
2C9
100
AcDbEntity
  8
0
100
AcDbLine
 62
7
  6
CONTINUOUS
 10
135.9377726879
 20
140.652655027
 11
137.5287695695
 21
140.7947810825
  0
LINE
  5
2CA
100
AcDbEntity
  8
0
100
AcDbLine
 62
7
  6
CONTINUOUS
 10
59.1562724269
 20
172.7020938807
 11
71.0074314204
 21
165.8599788349
  0
LINE
  5
2CB
100
AcDbEntity
  8
0
100
AcDbLine
 62
7
  6
CONTINUOUS
 10
76.1269058304
 20
162.9043157722
 11
87.9780648239
 21
156.0622007264
  0
LINE
  5
2CC
100
AcDbEntity
  8
0
100
AcDbLine
 62
7
  6
CONTINUOUS
 10
38.7963524155
 20
184.5711524772
 11
33.795826078
 21
187.4580491313
  0
LINE
  5
2CD
100
AcDbEntity
  8
0
100
AcDbLine
 62
7
  6
CONTINUOUS
 10
37.901457927
 20
185.5511530182
 11
38.7549172573
 21
185.0584218133
  0
LINE
  5
2CE
100
AcDbEntity
  8
0
100
AcDbLine
 62
7
  6
CONTINUOUS
 10
38.7731683664
 20
185.0900346122
 11
39.1848445215
 21
184.8523586502
  0
LINE
  5
2CF
100
AcDbEntity
  8
0
100
AcDbLine
 62
7
  6
CONTINUOUS
 10
158.3936931413
 20
116.310559912
 11
155.3319080314
 21
118.0782423791
  0
LINE
  5
2D0
100
AcDbEntity
  8
0
100
AcDbLine
 62
7
  6
CONTINUOUS
 10
60.6412028497
 20
172.9878916802
 11
69.5225009975
 21
167.8603878034
  0
LINE
  5
2D1
100
AcDbEntity
  8
0
100
AcDbLine
 62
7
  6
CONTINUOUS
 10
77.6118362532
 20
163.1901135717
 11
86.4931344011
 21
158.0626096949
  0
LINE
  5
2D2
100
AcDbEntity
  8
0
100
AcDbLine
 62
7
  6
CONTINUOUS
 10
60.817978809
 20
173.0899527186
 11
69.5225009975
 21
168.0645081807
  0
LINE
  5
2D3
100
AcDbEntity
  8
0
100
AcDbLine
 62
7
  6
CONTINUOUS
 10
77.7886122125
 20
163.2921746101
 11
86.4931344011
 21
158.2667300722
  0
LINE
  5
2D4
100
AcDbEntity
  8
0
100
AcDbLine
 62
7
  6
CONTINUOUS
 10
86.4153508593
 20
158.5565881301
 11
78.0431717136
 21
163.3901586637
  0
LINE
  5
2D5
100
AcDbEntity
  8
0
100
AcDbLine
 62
7
  6
CONTINUOUS
 10
69.4447174558
 20
168.3543662386
 11
61.0725383101
 21
173.1879367721
  0
LINE
  5
2D6
100
AcDbEntity
  8
0
100
AcDbLine
 62
7
  6
CONTINUOUS
 10
53.5119864993
 20
178.1938618989
 11
47.0520916531
 21
181.9233995539
  0
LINE
  5
2D7
100
AcDbEntity
  8
0
100
AcDbLine
 62
7
  6
CONTINUOUS
 10
159.1863243818
 20
117.2080772745
 11
161.8485923649
 21
115.67105091
  0
LINE
  5
2D8
100
AcDbEntity
  8
0
100
AcDbLine
 62
7
  6
CONTINUOUS
 10
161.989602905
 20
115.7511219079
 11
159.0841960466
 21
117.4285213918
  0
LINE
  5
2D9
100
AcDbEntity
  8
0
100
AcDbLine
 62
7
  6
CONTINUOUS
 10
120.8622270268
 20
139.8572278291
 11
128.3080924326
 21
135.558452684
  0
LINE
  5
2DA
100
AcDbEntity
  8
0
100
AcDbLine
 62
7
  6
CONTINUOUS
 10
60.3017901816
 20
174.9515749754
 11
60.6412028497
 21
174.7556194133
  0
LINE
  5
2DB
100
AcDbEntity
  8
0
100
AcDbLine
 62
7
  6
CONTINUOUS
 10
69.5225009975
 20
169.6281155365
 11
69.8619136656
 21
169.4321599743
  0
LINE
  5
2DC
100
AcDbEntity
  8
0
100
AcDbLine
 62
7
  6
CONTINUOUS
 10
77.2724235852
 20
165.1537968669
 11
77.6118362532
 21
164.9578413048
  0
LINE
  5
2DD
100
AcDbEntity
  8
0
100
AcDbLine
 62
7
  6
CONTINUOUS
 10
86.4931344011
 20
159.830337428
 11
86.8325470691
 21
159.6343818658
  0
LINE
  5
2DE
100
AcDbEntity
  8
0
100
AcDbLine
 62
7
  6
CONTINUOUS
 10
60.4785661409
 20
175.0536360139
 11
60.817978809
 21
174.8576804517
  0
LINE
  5
2DF
100
AcDbEntity
  8
0
100
AcDbLine
 62
7
  6
CONTINUOUS
 10
69.6992769568
 20
169.7301765749
 11
69.8619136656
 21
169.6362803516
  0
LINE
  5
2E0
100
AcDbEntity
  8
0
100
AcDbLine
 62
7
  6
CONTINUOUS
 10
77.4491995445
 20
165.2558579054
 11
77.7886122125
 21
165.0599023432
  0
LINE
  5
2E1
100
AcDbEntity
  8
0
100
AcDbLine
 62
7
  6
CONTINUOUS
 10
86.6699103604
 20
159.9323984665
 11
86.8325470691
 21
159.8385022431
  0
LINE
  5
2E2
100
AcDbEntity
  8
0
100
AcDbLine
 62
7
  6
CONTINUOUS
 10
128.3080924326
 20
135.9667038925
 11
120.8622270268
 21
140.2654790376
  0
LINE
  5
2E3
100
AcDbEntity
  8
0
100
AcDbLine
 62
7
  6
CONTINUOUS
 10
60.78969442
 20
174.9556603236
 11
61.0725383101
 21
174.7923640218
  0
LINE
  5
2E4
100
AcDbEntity
  8
0
100
AcDbLine
 62
7
  6
CONTINUOUS
 10
69.4447174558
 20
169.9587934883
 11
69.7275613459
 21
169.7954971865
  0
LINE
  5
2E5
100
AcDbEntity
  8
0
100
AcDbLine
 62
7
  6
CONTINUOUS
 10
77.7603278235
 20
165.1578822151
 11
78.0431717136
 21
164.9945859133
  0
LINE
  5
2E6
100
AcDbEntity
  8
0
100
AcDbLine
 62
7
  6
CONTINUOUS
 10
86.4153508593
 20
160.1610153798
 11
86.6981947494
 21
159.997719078
  0
LINE
  5
2E7
100
AcDbEntity
  8
0
100
AcDbLine
 62
7
  6
CONTINUOUS
 10
138.6110563338
 20
130.4247000138
 11
148.6423167584
 21
124.6332801268
  0
LINE
  5
2E8
100
AcDbEntity
  8
0
100
AcDbLine
 62
7
  6
CONTINUOUS
 10
47.0520916531
 20
183.5564043881
 11
53.5119864993
 21
179.8268667332
  0
LINE
  5
2E9
100
AcDbEntity
  8
0
100
AcDbLine
 62
7
  6
CONTINUOUS
 10
139.4134473652
 20
130.2368940202
 11
138.4586371107
 21
130.7881415068
  0
LINE
  5
2EA
100
AcDbEntity
  8
0
100
AcDbLine
 62
7
  6
CONTINUOUS
 10
151.990535469
 20
123.0874619443
 11
148.6202819275
 21
125.0332347145
  0
LINE
  5
2EB
100
AcDbEntity
  8
0
100
AcDbLine
 62
7
  6
CONTINUOUS
 10
139.5061207085
 20
130.3679265404
 11
151.984284938
 21
123.1638180422
  0
LINE
  5
2EC
100
AcDbEntity
  8
0
100
AcDbLine
 62
7
  6
CONTINUOUS
 10
55.2318178131
 20
179.2421848786
 11
54.8782493457
 21
179.4463131105
  0
LINE
  5
2ED
100
AcDbEntity
  8
0
100
AcDbLine
 62
7
  6
CONTINUOUS
 10
46.3929326439
 20
184.3452021647
 11
46.0393659574
 21
184.5493293684
  0
LINE
  5
2EE
100
AcDbEntity
  8
0
100
AcDbLine
 62
7
  6
CONTINUOUS
 10
86.8325470691
 20
162.1655393589
 11
86.4931344011
 21
162.3614949211
  0
LINE
  5
2EF
100
AcDbEntity
  8
0
100
AcDbLine
 62
7
  6
CONTINUOUS
 10
77.6118362532
 20
167.4889987979
 11
77.2724235852
 21
167.68495436
  0
LINE
  5
2F0
100
AcDbEntity
  8
0
100
AcDbLine
 62
7
  6
CONTINUOUS
 10
69.8619136656
 20
171.9633174674
 11
69.5225009975
 21
172.1592730296
  0
LINE
  5
2F1
100
AcDbEntity
  8
0
100
AcDbLine
 62
7
  6
CONTINUOUS
 10
60.6412028497
 20
177.2867769064
 11
60.3017901816
 21
177.4827324685
  0
LINE
  5
2F2
100
AcDbEntity
  8
0
100
AcDbLine
 62
7
  6
CONTINUOUS
 10
86.4931344011
 20
162.4839650566
 11
86.4153508593
 21
162.5288723895
  0
LINE
  5
2F3
100
AcDbEntity
  8
0
100
AcDbLine
 62
7
  6
CONTINUOUS
 10
78.0431717136
 20
167.362442923
 11
77.7603278235
 21
167.5257392248
  0
LINE
  5
2F4
100
AcDbEntity
  8
0
100
AcDbLine
 62
7
  6
CONTINUOUS
 10
69.5225009975
 20
172.2817431651
 11
69.4447174558
 21
172.326650498
  0
LINE
  5
2F5
100
AcDbEntity
  8
0
100
AcDbLine
 62
7
  6
CONTINUOUS
 10
61.0725383101
 20
177.1602210315
 11
60.78969442
 21
177.3235173333
  0
LINE
  5
2F6
100
AcDbEntity
  8
0
100
AcDbLine
 62
7
  6
CONTINUOUS
 10
47.3121699875
 20
185.149454878
 11
55.2317989091
 21
180.5771584274
  0
LINE
  5
2F7
100
AcDbEntity
  8
0
100
AcDbLine
 62
7
  6
CONTINUOUS
 10
43.8167088925
 20
187.4696393391
 11
43.767368501
 21
187.498125383
  0
LINE
  5
2F8
100
AcDbEntity
  8
0
100
AcDbLine
 62
7
  6
CONTINUOUS
 10
102.0778414574
 20
154.0375090985
 11
112.6844873347
 21
147.9138977807
  0
LINE
  5
2F9
100
AcDbEntity
  8
0
100
AcDbLine
 62
7
  6
CONTINUOUS
 10
47.3121699875
 20
185.9659572951
 11
55.2317989091
 21
181.3936608445
  0
LINE
  5
2FA
100
AcDbEntity
  8
0
100
AcDbLine
 62
7
  6
CONTINUOUS
 10
47.4535853228
 20
186.0476029897
 11
46.9939676672
 21
186.3129573637
  0
LINE
  5
2FB
100
AcDbEntity
  8
0
100
AcDbLine
 62
7
  6
CONTINUOUS
 10
47.3475225298
 20
186.3537877116
 11
47.6657219061
 21
186.1700793721
  0
LINE
  5
2FC
100
AcDbEntity
  8
0
100
AcDbLine
 62
7
  6
CONTINUOUS
 10
46.3222163723
 20
186.9539105842
 11
46.8525486661
 21
186.6477300183
  0
LINE
  5
2FD
100
AcDbEntity
  8
0
100
AcDbLine
 62
7
  6
CONTINUOUS
 10
61.0725383101
 20
178.7074931119
 11
63.0595166377
 21
177.5603365917
  0
LINE
  5
2FE
100
AcDbEntity
  8
0
100
AcDbLine
 62
7
  6
CONTINUOUS
 10
67.4577391281
 20
175.0210790986
 11
69.4447174558
 21
173.8739225784
  0
LINE
  5
2FF
100
AcDbEntity
  8
0
100
AcDbLine
 62
7
  6
CONTINUOUS
 10
78.0431717136
 20
168.9097150035
 11
80.0301500412
 21
167.7625584833
  0
LINE
  5
300
100
AcDbEntity
  8
0
100
AcDbLine
 62
7
  6
CONTINUOUS
 10
84.4283725317
 20
165.2233009901
 11
86.4153508593
 21
164.0761444699
  0
LINE
  5
301
100
AcDbEntity
  8
0
100
AcDbLine
 62
7
  6
CONTINUOUS
 10
60.1462260421
 20
179.3974283368
 11
60.6412028497
 21
179.1116598086
  0
LINE
  5
302
100
AcDbEntity
  8
0
100
AcDbLine
 62
7
  6
CONTINUOUS
 10
69.5225009975
 20
173.9841559319
 11
70.0174778051
 21
173.6983874037
  0
LINE
  5
303
100
AcDbEntity
  8
0
100
AcDbLine
 62
7
  6
CONTINUOUS
 10
77.1168594456
 20
169.5996502283
 11
77.6118362532
 21
169.3138817002
  0
LINE
  5
304
100
AcDbEntity
  8
0
100
AcDbLine
 62
7
  6
CONTINUOUS
 10
86.4931344011
 20
164.1863778234
 11
86.9881112087
 21
163.9006092952
  0
LINE
  5
305
100
AcDbEntity
  8
0
100
AcDbLine
 62
7
  6
CONTINUOUS
 10
60.2735069702
 20
179.3811036719
 11
61.7230819068
 21
178.5442101252
  0
LINE
  5
306
100
AcDbEntity
  8
0
100
AcDbLine
 62
7
  6
CONTINUOUS
 10
68.1577804056
 20
174.829219259
 11
69.6073553421
 21
173.9923257123
  0
LINE
  5
307
100
AcDbEntity
  8
0
100
AcDbLine
 62
7
  6
CONTINUOUS
 10
77.2441403737
 20
169.5833255634
 11
78.6937153103
 21
168.7464320167
  0
LINE
  5
308
100
AcDbEntity
  8
0
100
AcDbLine
 62
7
  6
CONTINUOUS
 10
85.1284138091
 20
165.0314411505
 11
86.5779887457
 21
164.1945476038
  0
LINE
  5
309
100
AcDbEntity
  8
0
100
AcDbLine
 62
7
  6
CONTINUOUS
 10
102.9970841001
 20
154.7723748642
 11
111.765244692
 21
149.7101895081
  0
LINE
  5
30A
100
AcDbEntity
  8
0
100
AcDbLine
 62
7
  6
CONTINUOUS
 10
69.7932073158
 20
174.0319874792
 11
70.0174778051
 21
173.902507781
  0
LINE
  5
30B
100
AcDbEntity
  8
0
100
AcDbLine
 62
7
  6
CONTINUOUS
 10
86.7638407193
 20
164.2342093707
 11
86.9881112087
 21
164.1047296725
  0
LINE
  5
30C
100
AcDbEntity
  8
0
100
AcDbLine
 62
7
  6
CONTINUOUS
 10
103.1738600594
 20
154.8744359027
 11
103.3506374907
 21
154.772375714
  0
LINE
  5
30D
100
AcDbEntity
  8
0
100
AcDbLine
 62
7
  6
CONTINUOUS
 10
125.1896737653
 20
142.763949855
 11
130.4110066418
 21
139.7494801096
  0
LINE
  5
30E
100
AcDbEntity
  8
0
100
AcDbLine
 62
7
  6
CONTINUOUS
 10
111.76524322
 20
150.8124403952
 11
104.1284517117
 21
155.2214442833
  0
LINE
  5
30F
100
AcDbEntity
  8
0
100
AcDbLine
 62
7
  6
CONTINUOUS
 10
84.4283725317
 20
166.6113550993
 11
83.6646940285
 21
167.0522551141
  0
LINE
  5
310
100
AcDbEntity
  8
0
100
AcDbLine
 62
7
  6
CONTINUOUS
 10
80.7938285444
 20
168.7097125775
 11
80.0301500412
 21
169.1506125924
  0
LINE
  5
311
100
AcDbEntity
  8
0
100
AcDbLine
 62
7
  6
CONTINUOUS
 10
67.4577391281
 20
176.4091332077
 11
66.694060625
 21
176.8500332226
  0
LINE
  5
312
100
AcDbEntity
  8
0
100
AcDbLine
 62
7
  6
CONTINUOUS
 10
63.8231951409
 20
178.507490686
 11
63.0595166377
 21
178.9483907009
  0
LINE
  5
313
100
AcDbEntity
  8
0
100
AcDbLine
 62
7
  6
CONTINUOUS
 10
104.1284517117
 20
155.3847447667
 11
111.76524322
 21
150.9757408786
  0
LINE
  5
314
100
AcDbEntity
  8
0
100
AcDbLine
 62
7
  6
CONTINUOUS
 10
60.2735069702
 20
180.8508080228
 11
61.7230819068
 21
180.013914476
  0
LINE
  5
315
100
AcDbEntity
  8
0
100
AcDbLine
 62
7
  6
CONTINUOUS
 10
68.1577804056
 20
176.2989236099
 11
69.6073553421
 21
175.4620300631
  0
LINE
  5
316
100
AcDbEntity
  8
0
100
AcDbLine
 62
7
  6
CONTINUOUS
 10
77.2441403737
 20
171.0530299143
 11
78.6937153103
 21
170.2161363675
  0
LINE
  5
317
100
AcDbEntity
  8
0
100
AcDbLine
 62
7
  6
CONTINUOUS
 10
85.1284138091
 20
166.5011455014
 11
86.5779887457
 21
165.6642519546
  0
LINE
  5
318
100
AcDbEntity
  8
0
100
AcDbLine
 62
7
  6
CONTINUOUS
 10
103.1738615314
 20
156.3441446307
 11
102.9970841001
 21
156.4462048193
  0
LINE
  5
319
100
AcDbEntity
  8
0
100
AcDbLine
 62
7
  6
CONTINUOUS
 10
111.5884672607
 20
151.4860796519
 11
111.765244692
 21
151.3840194633
  0
LINE
  5
31A
100
AcDbEntity
  8
0
100
AcDbLine
 62
7
  6
CONTINUOUS
 10
47.877853646
 20
188.3011503152
 11
55.5853590708
 21
183.851320652
  0
LINE
  5
31B
100
AcDbEntity
  8
0
100
AcDbLine
 62
7
  6
CONTINUOUS
 10
60.591703697
 20
181.034517892
 11
62.0412786335
 21
180.1976243452
  0
LINE
  5
31C
100
AcDbEntity
  8
0
100
AcDbLine
 62
7
  6
CONTINUOUS
 10
68.4759771323
 20
176.4826334791
 11
69.9255520689
 21
175.6457399323
  0
LINE
  5
31D
100
AcDbEntity
  8
0
100
AcDbLine
 62
7
  6
CONTINUOUS
 10
77.5623371005
 20
171.2367397835
 11
79.011912037
 21
170.3998462368
  0
LINE
  5
31E
100
AcDbEntity
  8
0
100
AcDbLine
 62
7
  6
CONTINUOUS
 10
85.4466105359
 20
166.6848553706
 11
86.8961854724
 21
165.8479618239
  0
LINE
  5
31F
100
AcDbEntity
  8
0
100
AcDbLine
 62
7
  6
CONTINUOUS
 10
87.9780648239
 20
165.28867804
 11
86.9881112087
 21
165.8602150963
  0
LINE
  5
320
100
AcDbEntity
  8
0
100
AcDbLine
 62
7
  6
CONTINUOUS
 10
71.0074314204
 20
175.0864561485
 11
70.0174778051
 21
175.6579932048
  0
LINE
  5
321
100
AcDbEntity
  8
0
100
AcDbLine
 62
7
  6
CONTINUOUS
 10
59.1562724269
 20
181.9285711942
 11
60.1462260421
 21
181.3570341379
  0
LINE
  5
322
100
AcDbEntity
  8
0
100
AcDbLine
 62
7
  6
CONTINUOUS
 10
76.1269058304
 20
172.1307930858
 11
77.1168594456
 21
171.5592560294
  0
LINE
  5
323
100
AcDbEntity
  8
0
100
AcDbLine
 62
7
  6
CONTINUOUS
 10
87.164887168
 20
165.9622761348
 11
83.6646940285
 21
167.9830678697
  0
LINE
  5
324
100
AcDbEntity
  8
0
100
AcDbLine
 62
7
  6
CONTINUOUS
 10
80.7938285444
 20
169.640525333
 11
77.2936354049
 21
171.6613170679
  0
LINE
  5
325
100
AcDbEntity
  8
0
100
AcDbLine
 62
7
  6
CONTINUOUS
 10
70.1942537644
 20
175.7600542433
 11
66.694060625
 21
177.7808459782
  0
LINE
  5
326
100
AcDbEntity
  8
0
100
AcDbLine
 62
7
  6
CONTINUOUS
 10
63.8231951409
 20
179.4383034415
 11
60.3230020014
 21
181.4590951764
  0
LINE
  5
327
100
AcDbEntity
  8
0
100
AcDbLine
 62
7
  6
CONTINUOUS
 10
30.6244379176
 20
189.7789229074
 11
34.2184769333
 21
187.6845900309
  0
LINE
  5
328
100
AcDbEntity
  8
0
100
AcDbLine
 62
7
  6
CONTINUOUS
 10
55.271709991
 20
221.8494455087
 11
54.9661547388
 21
222.2753656876
  0
LINE
  5
329
100
AcDbEntity
  8
0
100
AcDbLine
 62
7
  6
CONTINUOUS
 10
55.4792962051
 20
185.5455710245
 11
55.3025057601
 21
185.4435016227
  0
LINE
  5
32A
100
AcDbEntity
  8
0
100
AcDbLine
 62
7
  6
CONTINUOUS
 10
44.0380224997
 20
177.5799260743
 11
39.2976875475
 21
174.8431087502
  0
LINE
  5
32B
100
AcDbEntity
  8
0
100
AcDbLine
 62
7
  6
CONTINUOUS
 10
55.2317989091
 20
181.3936608445
 11
55.5853508277
 21
181.5977829214
  0
LINE
  5
32C
100
AcDbEntity
  8
0
100
AcDbLine
 62
7
  6
CONTINUOUS
 10
55.4439300603
 20
181.2711833655
 11
55.5853508277
 21
181.3528321963
  0
LINE
  5
32D
100
AcDbEntity
  8
0
100
AcDbLine
 62
7
  6
CONTINUOUS
 10
55.2317989091
 20
180.5771584274
 11
55.4439300603
 21
180.6996316735
  0
LINE
  5
32E
100
AcDbEntity
  8
0
100
AcDbLine
 62
7
  6
CONTINUOUS
 10
40.7436294555
 20
172.470743019
 11
45.4517542535
 21
175.1734685292
  0
LINE
  5
32F
100
AcDbEntity
  8
0
100
AcDbLine
 62
7
  6
CONTINUOUS
 10
115.558905148
 20
144.418889353
 11
117.1499020296
 21
144.5610154086
  0
LINE
  5
330
100
AcDbEntity
  8
0
100
AcDbLine
 62
7
  6
CONTINUOUS
 10
115.558905148
 20
148.661560366
 11
113.9679082664
 21
148.5194343104
  0
LINE
  5
331
100
AcDbEntity
  8
0
100
AcDbLine
 62
7
  6
CONTINUOUS
 10
118.139820906
 20
150.9280748182
 11
119.7308177875
 21
151.0702008738
  0
LINE
  5
332
100
AcDbEntity
  8
0
100
AcDbLine
 62
7
  6
CONTINUOUS
 10
120.4802333604
 20
147.2058330874
 11
128.6899316841
 21
142.4660687781
  0
LINE
  5
333
100
AcDbEntity
  8
0
100
AcDbLine
 62
7
  6
CONTINUOUS
 10
46.3222163723
 20
190.3015704944
 11
46.8525486661
 21
189.9953899285
  0
LINE
  5
334
100
AcDbEntity
  8
0
100
AcDbLine
 62
7
  6
CONTINUOUS
 10
128.6899316841
 20
142.8743199866
 11
120.4803877752
 21
147.6139951466
  0
LINE
  5
335
100
AcDbEntity
  8
0
100
AcDbLine
 62
7
  6
CONTINUOUS
 10
46.5343475234
 20
190.4240437406
 11
46.8525468998
 21
190.240335401
  0
LINE
  5
336
100
AcDbEntity
  8
0
100
AcDbLine
 62
7
  6
CONTINUOUS
 10
89.0882178483
 20
165.9296213616
 11
77.2370588548
 21
172.7717364073
  0
LINE
  5
337
100
AcDbEntity
  8
0
100
AcDbLine
 62
7
  6
CONTINUOUS
 10
72.1175844448
 20
175.7273994701
 11
60.2664254513
 21
182.5695145158
  0
LINE
  5
338
100
AcDbEntity
  8
0
100
AcDbLine
 62
7
  6
CONTINUOUS
 10
55.3025193623
 20
185.4434937697
 11
48.2313969411
 21
189.5259158463
  0
LINE
  5
339
100
AcDbEntity
  8
0
100
AcDbLine
 62
7
  6
CONTINUOUS
 10
46.9939676672
 20
190.3219842318
 11
47.2061005847
 21
190.1995120055
  0
LINE
  5
33A
100
AcDbEntity
  8
0
100
AcDbLine
 62
7
  6
CONTINUOUS
 10
103.1738615314
 20
157.9771494649
 11
102.9970841001
 21
158.0792096536
  0
LINE
  5
33B
100
AcDbEntity
  8
0
100
AcDbLine
 62
7
  6
CONTINUOUS
 10
111.5884672607
 20
153.1190844862
 11
111.765244692
 21
153.0170242975
  0
LINE
  5
33C
100
AcDbEntity
  8
0
100
AcDbLine
 62
7
  6
CONTINUOUS
 10
55.5853590708
 20
185.4843369857
 11
46.7464813242
 21
190.5873499865
  0
LINE
  5
33D
100
AcDbEntity
  8
0
100
AcDbLine
 62
7
  6
CONTINUOUS
 10
103.1738600594
 20
158.181270692
 11
103.3506374907
 21
158.0792105034
  0
LINE
  5
33E
100
AcDbEntity
  8
0
100
AcDbLine
 62
7
  6
CONTINUOUS
 10
111.765244692
 20
155.5890069115
 11
110.3510252417
 21
156.4054884205
  0
LINE
  5
33F
100
AcDbEntity
  8
0
100
AcDbLine
 62
7
  6
CONTINUOUS
 10
104.5880795097
 20
159.7326461927
 11
102.9970841001
 21
160.6511922675
  0
LINE
  5
340
100
AcDbEntity
  8
0
100
AcDbLine
 62
7
  6
CONTINUOUS
 10
110.3510252417
 20
156.6096140248
 11
109.6085600303
 21
157.0382668171
  0
LINE
  5
341
100
AcDbEntity
  8
0
100
AcDbLine
 62
7
  6
CONTINUOUS
 10
105.1537687618
 20
159.6101835705
 11
104.4113035504
 21
160.0388363628
  0
LINE
  5
342
100
AcDbEntity
  8
0
100
AcDbLine
 62
7
  6
CONTINUOUS
 10
46.7464813242
 20
193.3634582048
 11
55.5853590708
 21
188.260445204
  0
LINE
  5
343
100
AcDbEntity
  8
0
100
AcDbLine
 62
7
  6
CONTINUOUS
 10
40.7651886581
 20
196.9779595696
 11
133.8627776247
 21
143.2290889302
  0
LINE
  5
344
100
AcDbEntity
  8
0
100
AcDbLine
 62
7
  6
CONTINUOUS
 10
162.1441401381
 20
127.8959896342
 11
161.2316621862
 21
128.4227971074
  0
LINE
  5
345
100
AcDbEntity
  8
0
100
AcDbLine
 62
7
  6
CONTINUOUS
 10
161.7193596474
 20
128.724270961
 11
162.1608696048
 21
128.4693708348
  0
LINE
  5
346
100
AcDbEntity
  8
0
100
AcDbLine
 62
7
  6
CONTINUOUS
 10
32.0652888085
 20
203.6849969608
 11
133.8711607634
 21
144.9085806379
  0
LINE
  5
347
100
AcDbEntity
  8
0
100
AcDbLine
 62
7
  6
CONTINUOUS
 10
138.104733012
 20
144.9146122483
 11
139.1583954567
 21
144.3062937141
  0
LINE
  5
348
100
AcDbEntity
  8
0
100
AcDbLine
 62
7
  6
CONTINUOUS
 10
139.1561779248
 20
145.0958484071
 11
151.207818601
 21
138.1380231532
  0
LINE
  5
349
100
AcDbEntity
  8
0
100
AcDbLine
 62
7
  6
CONTINUOUS
 10
113.9679082664
 20
146.3980988039
 11
115.558905148
 21
144.418889353
  0
LINE
  5
34A
100
AcDbEntity
  8
0
100
AcDbLine
 62
7
  6
CONTINUOUS
 10
117.1499020296
 20
146.6823509151
 11
115.558905148
 21
148.661560366
  0
LINE
  5
34B
100
AcDbEntity
  8
0
100
AcDbLine
 62
7
  6
CONTINUOUS
 10
119.7308177875
 20
151.0702008738
 11
121.2922620525
 21
149.1277550513
  0
LINE
  5
34C
100
AcDbEntity
  8
0
100
AcDbLine
 62
7
  6
CONTINUOUS
 10
131.7658600484
 20
136.1226790127
 11
133.3568569299
 21
134.1434695618
  0
LINE
  5
34D
100
AcDbEntity
  8
0
100
AcDbLine
 62
7
  6
CONTINUOUS
 10
62.4914638583
 20
217.5617984027
 11
62.345227332
 21
217.7656407094
  0
LINE
  5
34E
100
AcDbEntity
  8
0
100
AcDbLine
 62
7
  6
CONTINUOUS
 10
69.6843617056
 20
212.9900564426
 11
69.3920164198
 21
213.3975663009
  0
LINE
  5
34F
100
AcDbEntity
  8
0
100
AcDbLine
 62
7
  6
CONTINUOUS
 10
69.3920164198
 20
214.4590013603
 11
69.6843621505
 21
214.0514912412
  0
LINE
  5
350
100
AcDbEntity
  8
0
100
AcDbLine
 62
7
  6
CONTINUOUS
 10
72.5665194741
 20
220.5261864016
 11
72.2879037873
 21
221.0136386777
  0
LINE
  5
351
100
AcDbEntity
  8
0
100
AcDbLine
 62
7
  6
CONTINUOUS
 10
73.620604836
 20
221.7830767261
 11
73.899224293
 21
221.2956177536
  0
LINE
  5
352
100
AcDbEntity
  8
0
100
AcDbLine
 62
7
  6
CONTINUOUS
 10
102.0778414574
 20
154.0375090985
 11
102.0778414574
 21
161.5797243305
  0
LINE
  5
353
100
AcDbEntity
  8
0
100
AcDbLine
 62
7
  6
CONTINUOUS
 10
102.6385016292
 20
162.8627422364
 11
102.6385016292
 21
162.8149126322
  0
LINE
  5
354
100
AcDbEntity
  8
0
100
AcDbLine
 62
7
  6
CONTINUOUS
 10
102.7849467666
 20
163.0668626137
 11
102.7849467666
 21
163.0190330094
  0
LINE
  5
355
100
AcDbEntity
  8
0
100
AcDbLine
 62
7
  6
CONTINUOUS
 10
102.7849497106
 20
162.6107905552
 11
102.7849497106
 21
162.6586201595
  0
LINE
  5
356
100
AcDbEntity
  8
0
100
AcDbLine
 62
7
  6
CONTINUOUS
 10
102.9970841001
 20
160.6511922675
 11
102.9970841001
 21
158.0792096536
  0
LINE
  5
357
100
AcDbEntity
  8
0
100
AcDbLine
 62
7
  6
CONTINUOUS
 10
102.9970841001
 20
156.4462048193
 11
102.9970841001
 21
154.7723748642
  0
LINE
  5
358
100
AcDbEntity
  8
0
100
AcDbLine
 62
7
  6
CONTINUOUS
 10
103.1738600594
 20
160.5491329287
 11
103.1738600594
 21
158.181270692
  0
LINE
  5
359
100
AcDbEntity
  8
0
100
AcDbLine
 62
7
  6
CONTINUOUS
 10
103.1738600594
 20
154.8744359027
 11
103.1738615314
 21
157.9771494649
  0
LINE
  5
35A
100
AcDbEntity
  8
0
100
AcDbLine
 62
7
  6
CONTINUOUS
 10
103.3506374907
 20
160.4470675131
 11
103.3506374907
 21
158.0792105034
  0
LINE
  5
35B
100
AcDbEntity
  8
0
100
AcDbLine
 62
7
  6
CONTINUOUS
 10
103.3506374907
 20
156.4462056692
 11
103.3506374907
 21
154.772375714
  0
LINE
  5
35C
100
AcDbEntity
  8
0
100
AcDbLine
 62
7
  6
CONTINUOUS
 10
103.5166802378
 20
260.3645034868
 11
103.516680184
 21
260.7727636756
  0
LINE
  5
35D
100
AcDbEntity
  8
0
100
AcDbLine
 62
7
  6
CONTINUOUS
 10
104.1284517117
 20
155.2214442833
 11
104.1284517117
 21
155.3847447667
  0
LINE
  5
35E
100
AcDbEntity
  8
0
100
AcDbLine
 62
7
  6
CONTINUOUS
 10
104.4113035504
 20
159.8347107585
 11
104.4113035504
 21
160.0388363628
  0
LINE
  5
35F
100
AcDbEntity
  8
0
100
AcDbLine
 62
7
  6
CONTINUOUS
 10
104.5880795097
 20
159.936771797
 11
104.5880795097
 21
159.7326461927
  0
LINE
  5
360
100
AcDbEntity
  8
0
100
AcDbLine
 62
7
  6
CONTINUOUS
 10
105.1537687618
 20
159.803876142
 11
105.1537687618
 21
159.6101835705
  0
LINE
  5
361
100
AcDbEntity
  8
0
100
AcDbLine
 62
7
  6
CONTINUOUS
 10
105.5166802378
 20
260.3645035712
 11
105.516680184
 21
260.7727639393
  0
LINE
  5
362
100
AcDbEntity
  8
0
100
AcDbLine
 62
7
  6
CONTINUOUS
 10
108.1942528042
 20
173.9803986506
 11
108.1942528042
 21
174.7968931004
  0
LINE
  5
363
100
AcDbEntity
  8
0
100
AcDbLine
 62
7
  6
CONTINUOUS
 10
59.1562724269
 20
181.9285711942
 11
60.2664254513
 21
182.5695145158
  0
LINE
  5
364
100
AcDbEntity
  8
0
100
AcDbLine
 62
7
  6
CONTINUOUS
 10
55.5853561522
 20
179.4463148248
 11
55.2318042083
 21
179.2421927332
  0
LINE
  5
365
100
AcDbEntity
  8
0
100
AcDbLine
 62
7
  6
CONTINUOUS
 10
60.3230020014
 20
181.4590951764
 11
60.1462260421
 21
181.3570341379
  0
LINE
  5
366
100
AcDbEntity
  8
0
100
AcDbLine
 62
7
  6
CONTINUOUS
 10
60.1735074179
 20
180.8607128786
 11
60.4917041446
 21
181.0444227478
  0
LINE
  5
367
100
AcDbEntity
  8
0
100
AcDbLine
 62
7
  6
CONTINUOUS
 10
60.2735069702
 20
180.8508080228
 11
60.591703697
 21
181.034517892
  0
LINE
  5
368
100
AcDbEntity
  8
0
100
AcDbLine
 62
7
  6
CONTINUOUS
 10
60.1462260421
 20
179.3974283368
 11
60.2346182569
 21
179.4484613012
  0
LINE
  5
369
100
AcDbEntity
  8
0
100
AcDbLine
 62
7
  6
CONTINUOUS
 10
62.0412786335
 20
180.1976243452
 11
61.7230819068
 21
180.013914476
  0
LINE
  5
36A
100
AcDbEntity
  8
0
100
AcDbLine
 62
7
  6
CONTINUOUS
 10
60.6907050072
 20
179.140239722
 11
60.6412028497
 21
179.1116598086
  0
LINE
  5
36B
100
AcDbEntity
  8
0
100
AcDbLine
 62
7
  6
CONTINUOUS
 10
61.8645038518
 20
179.7689658417
 11
62.1827005785
 21
179.9526757109
  0
LINE
  5
36C
100
AcDbEntity
  8
0
100
AcDbLine
 62
7
  6
CONTINUOUS
 10
62.1827005785
 20
178.8095723269
 11
61.8645038518
 21
178.6258624577
  0
LINE
  5
36D
100
AcDbEntity
  8
0
100
AcDbLine
 62
7
  6
CONTINUOUS
 10
62.1412781858
 20
178.7180151386
 11
61.8230814591
 21
178.5343052694
  0
LINE
  5
36E
100
AcDbEntity
  8
0
100
AcDbLine
 62
7
  6
CONTINUOUS
 10
64.756572206
 20
179.9771857246
 11
63.8231951409
 21
179.4383034415
  0
LINE
  5
36F
100
AcDbEntity
  8
0
100
AcDbLine
 62
7
  6
CONTINUOUS
 10
60.6412028497
 20
177.2867769064
 11
60.817978809
 21
177.3888379448
  0
LINE
  5
370
100
AcDbEntity
  8
0
100
AcDbLine
 62
7
  6
CONTINUOUS
 10
61.0725383101
 20
177.1602210315
 11
62.4125343947
 21
177.9338635136
  0
LINE
  5
371
100
AcDbEntity
  8
0
100
AcDbLine
 62
7
  6
CONTINUOUS
 10
63.8231951409
 20
178.507490686
 11
65.5626912226
 21
179.5117832222
  0
LINE
  5
372
100
AcDbEntity
  8
0
100
AcDbLine
 62
7
  6
CONTINUOUS
 10
66.0011200249
 20
179.2586619615
 11
63.0595166377
 21
177.5603365917
  0
LINE
  5
373
100
AcDbEntity
  8
0
100
AcDbLine
 62
7
  6
CONTINUOUS
 10
60.3017901816
 20
174.9515749754
 11
60.4785661409
 21
175.0536360139
  0
LINE
  5
374
100
AcDbEntity
  8
0
100
AcDbLine
 62
7
  6
CONTINUOUS
 10
60.78969442
 20
174.9556603236
 11
67.1219475305
 21
178.6115665387
  0
LINE
  5
375
100
AcDbEntity
  8
0
100
AcDbLine
 62
7
  6
CONTINUOUS
 10
60.6412028497
 20
174.7556194133
 11
60.817978809
 21
174.8576804517
  0
LINE
  5
376
100
AcDbEntity
  8
0
100
AcDbLine
 62
7
  6
CONTINUOUS
 10
67.4047914205
 20
178.4482702369
 11
61.0725383101
 21
174.7923640218
  0
LINE
  5
377
100
AcDbEntity
  8
0
100
AcDbLine
 62
7
  6
CONTINUOUS
 10
66.694060625
 20
177.7808459782
 11
67.6274376901
 21
178.3197282613
  0
LINE
  5
378
100
AcDbEntity
  8
0
100
AcDbLine
 62
7
  6
CONTINUOUS
 10
54.8782493457
 20
177.8133082762
 11
53.5119864993
 21
178.1938618989
  0
LINE
  5
379
100
AcDbEntity
  8
0
100
AcDbLine
 62
7
  6
CONTINUOUS
 10
53.5119864993
 20
179.8268667332
 11
54.8782493457
 21
179.4463131105
  0
LINE
  5
37A
100
AcDbEntity
  8
0
100
AcDbLine
 62
7
  6
CONTINUOUS
 10
42.9873837196
 20
210.3594288677
 11
40.5603975437
 21
211.7606182905
  0
LINE
  5
37B
100
AcDbEntity
  8
0
100
AcDbLine
 62
7
  6
CONTINUOUS
 10
43.380358433
 20
210.5830552694
 11
40.5237602932
 21
212.2322756588
  0
LINE
  5
37C
100
AcDbEntity
  8
0
100
AcDbLine
 62
7
  6
CONTINUOUS
 10
134.9478538115
 20
136.4069311238
 11
133.3568569299
 21
138.3861405747
  0
LINE
  5
37D
100
AcDbEntity
  8
0
100
AcDbLine
 62
7
  6
CONTINUOUS
 10
137.5287695695
 20
140.7947810825
 11
138.4974775793
 21
139.5897026375
  0
LINE
  5
37E
100
AcDbEntity
  8
0
100
AcDbLine
 62
7
  6
CONTINUOUS
 10
108.1942671184
 20
173.9803986506
 11
107.9013827369
 21
174.388651485
  0
LINE
  5
37F
100
AcDbEntity
  8
0
100
AcDbLine
 62
7
  6
CONTINUOUS
 10
76.3339840199
 20
219.5578929718
 11
76.6395582776
 21
219.1319462976
  0
LINE
  5
380
100
AcDbEntity
  8
0
100
AcDbLine
 62
7
  6
CONTINUOUS
 10
109.6085600303
 20
157.0382668171
 11
109.6085600303
 21
157.2319580759
  0
LINE
  5
381
100
AcDbEntity
  8
0
100
AcDbLine
 62
7
  6
CONTINUOUS
 10
110.3510252417
 20
156.4054884205
 11
110.3510252417
 21
156.6096140248
  0
LINE
  5
382
100
AcDbEntity
  8
0
100
AcDbLine
 62
7
  6
CONTINUOUS
 10
111.5884672607
 20
153.1190844862
 11
111.5884672607
 21
151.4860796519
  0
LINE
  5
383
100
AcDbEntity
  8
0
100
AcDbLine
 62
7
  6
CONTINUOUS
 10
111.7297717165
 20
176.8381140103
 11
111.7297717165
 21
175.2051276466
  0
LINE
  5
384
100
AcDbEntity
  8
0
100
AcDbLine
 62
7
  6
CONTINUOUS
 10
111.765244692
 20
149.7101895081
 11
111.765244692
 21
151.3840194633
  0
LINE
  5
385
100
AcDbEntity
  8
0
100
AcDbLine
 62
7
  6
CONTINUOUS
 10
111.765244692
 20
153.0170242975
 11
111.765244692
 21
155.5890069115
  0
LINE
  5
386
100
AcDbEntity
  8
0
100
AcDbLine
 62
7
  6
CONTINUOUS
 10
112.6844873347
 20
155.4561099063
 11
112.6844873347
 21
147.9138977807
  0
LINE
  5
387
100
AcDbEntity
  8
0
100
AcDbLine
 62
7
  6
CONTINUOUS
 10
113.1439853038
 20
175.2051310604
 11
113.1439853038
 21
176.8381174216
  0
LINE
  5
388
100
AcDbEntity
  8
0
100
AcDbLine
 62
7
  6
CONTINUOUS
 10
113.9679082664
 20
148.5194343104
 11
113.9679082664
 21
146.3980988039
  0
LINE
  5
389
100
AcDbEntity
  8
0
100
AcDbLine
 62
7
  6
CONTINUOUS
 10
114.8411540382
 20
154.2109853632
 11
114.8411540382
 21
149.15904245
  0
LINE
  5
38A
100
AcDbEntity
  8
0
100
AcDbLine
 62
7
  6
CONTINUOUS
 10
117.1499020296
 20
144.5610154086
 11
117.1499020296
 21
146.6823509151
  0
LINE
  5
38B
100
AcDbEntity
  8
0
100
AcDbLine
 62
7
  6
CONTINUOUS
 10
60.6412028497
 20
172.9878916802
 11
60.817978809
 21
173.0899527186
  0
LINE
  5
38C
100
AcDbEntity
  8
0
100
AcDbLine
 62
7
  6
CONTINUOUS
 10
67.0547899595
 20
176.6417707557
 11
61.0725383101
 21
173.1879367721
  0
LINE
  5
38D
100
AcDbEntity
  8
0
100
AcDbLine
 62
7
  6
CONTINUOUS
 10
68.37597758
 20
176.4925383349
 11
68.0577808533
 21
176.3088284657
  0
LINE
  5
38E
100
AcDbEntity
  8
0
100
AcDbLine
 62
7
  6
CONTINUOUS
 10
68.1577804056
 20
176.2989236099
 11
68.4759771323
 21
176.4826334791
  0
LINE
  5
38F
100
AcDbEntity
  8
0
100
AcDbLine
 62
7
  6
CONTINUOUS
 10
69.9255520689
 20
175.6457399323
 11
69.6073553421
 21
175.4620300631
  0
LINE
  5
390
100
AcDbEntity
  8
0
100
AcDbLine
 62
7
  6
CONTINUOUS
 10
70.0174778051
 20
175.6579932048
 11
70.1942537644
 21
175.7600542433
  0
LINE
  5
391
100
AcDbEntity
  8
0
100
AcDbLine
 62
7
  6
CONTINUOUS
 10
69.7487772872
 20
175.2170814288
 11
70.0174778051
 21
175.3722148191
  0
LINE
  5
392
100
AcDbEntity
  8
0
100
AcDbLine
 62
7
  6
CONTINUOUS
 10
71.0074314204
 20
175.0864561485
 11
72.1175844448
 21
175.7273994701
  0
LINE
  5
393
100
AcDbEntity
  8
0
100
AcDbLine
 62
7
  6
CONTINUOUS
 10
69.9962618195
 20
174.2168624532
 11
69.7487772872
 21
174.0739780448
  0
LINE
  5
394
100
AcDbEntity
  8
0
100
AcDbLine
 62
7
  6
CONTINUOUS
 10
70.0255516212
 20
174.1661307257
 11
69.7073548945
 21
173.9824208565
  0
LINE
  5
395
100
AcDbEntity
  8
0
100
AcDbLine
 62
7
  6
CONTINUOUS
 10
69.4447174558
 20
169.9587934883
 11
69.7275613459
 21
170.1220925096
  0
LINE
  5
396
100
AcDbEntity
  8
0
100
AcDbLine
 62
7
  6
CONTINUOUS
 10
69.5225009975
 20
169.6281155365
 11
69.6992769568
 21
169.7301765749
  0
LINE
  5
397
100
AcDbEntity
  8
0
100
AcDbLine
 62
7
  6
CONTINUOUS
 10
76.1269058304
 20
172.1307930858
 11
77.2370588548
 21
172.7717364073
  0
LINE
  5
398
100
AcDbEntity
  8
0
100
AcDbLine
 62
7
  6
CONTINUOUS
 10
130.5389428349
 20
161.0799858108
 11
125.1649004286
 21
164.1826204849
  0
LINE
  5
399
100
AcDbEntity
  8
0
100
AcDbLine
 62
7
  6
CONTINUOUS
 10
113.5683094315
 20
170.8777640303
 11
108.1942671184
 21
173.9803986506
  0
LINE
  5
39A
100
AcDbEntity
  8
0
100
AcDbLine
 62
7
  6
CONTINUOUS
 10
110.2084745037
 20
172.9808245161
 11
112.9682839685
 21
171.3874838249
  0
LINE
  5
39B
100
AcDbEntity
  8
0
100
AcDbLine
 62
7
  6
CONTINUOUS
 10
127.1791079072
 20
163.1830464076
 11
129.938917372
 21
161.5897057164
  0
LINE
  5
39C
100
AcDbEntity
  8
0
100
AcDbLine
 62
7
  6
CONTINUOUS
 10
113.1439853038
 20
175.2051310604
 11
113.435404772
 21
175.0368837426
  0
LINE
  5
39D
100
AcDbEntity
  8
0
100
AcDbLine
 62
7
  6
CONTINUOUS
 10
116.795216657
 20
173.0971391495
 11
117.8109041773
 21
172.5107448979
  0
LINE
  5
39E
100
AcDbEntity
  8
0
100
AcDbLine
 62
7
  6
CONTINUOUS
 10
130.1146187073
 20
165.4073529519
 11
130.4060381829
 21
165.2391056455
  0
LINE
  5
39F
100
AcDbEntity
  8
0
100
AcDbLine
 62
7
  6
CONTINUOUS
 10
133.7658501457
 20
163.2993611872
 11
134.7815378933
 21
162.7129668587
  0
LINE
  5
3A0
100
AcDbEntity
  8
0
100
AcDbLine
 62
7
  6
CONTINUOUS
 10
113.7439936898
 20
175.0220452855
 11
116.5038031545
 21
173.4287045943
  0
LINE
  5
3A1
100
AcDbEntity
  8
0
100
AcDbLine
 62
7
  6
CONTINUOUS
 10
130.7146270933
 20
165.224267177
 11
133.4744365581
 21
163.6309264858
  0
LINE
  5
3A2
100
AcDbEntity
  8
0
100
AcDbLine
 62
7
  6
CONTINUOUS
 10
113.1439853038
 20
176.8381174216
 11
118.5180691288
 21
173.7354588349
  0
LINE
  5
3A3
100
AcDbEntity
  8
0
100
AcDbLine
 62
7
  6
CONTINUOUS
 10
130.1145976367
 20
167.0403513668
 11
135.4887037642
 21
163.9376799041
  0
LINE
  5
3A4
100
AcDbEntity
  8
0
100
AcDbLine
 62
7
  6
CONTINUOUS
 10
65.0270913917
 20
206.3754611293
 11
55.1209710988
 21
212.094633027
  0
LINE
  5
3A5
100
AcDbEntity
  8
0
100
AcDbLine
 62
7
  6
CONTINUOUS
 10
66.4168677641
 20
206.223911481
 11
63.2219795347
 21
208.0684393315
  0
LINE
  5
3A6
100
AcDbEntity
  8
0
100
AcDbLine
 62
7
  6
CONTINUOUS
 10
63.0280365728
 20
208.3436643053
 11
61.634374828
 21
209.1482770861
  0
LINE
  5
3A7
100
AcDbEntity
  8
0
100
AcDbLine
 62
7
  6
CONTINUOUS
 10
67.1267493259
 20
206.487667687
 11
63.5224963103
 21
208.5685370602
  0
LINE
  5
3A8
100
AcDbEntity
  8
0
100
AcDbLine
 62
7
  6
CONTINUOUS
 10
67.4626236476
 20
206.6815836606
 11
63.1159054216
 21
209.1911058255
  0
LINE
  5
3A9
100
AcDbEntity
  8
0
100
AcDbLine
 62
7
  6
CONTINUOUS
 10
158.8304079408
 20
115.7138489113
 11
158.3934004077
 21
116.3100530446
  0
LINE
  5
3AA
100
AcDbEntity
  8
0
100
AcDbLine
 62
7
  6
CONTINUOUS
 10
118.5180691288
 20
173.7354588349
 11
118.8109717355
 21
173.3272414418
  0
LINE
  5
3AB
100
AcDbEntity
  8
0
100
AcDbLine
 62
7
  6
CONTINUOUS
 10
125.1649004286
 20
164.1826204849
 11
124.8720158914
 21
164.5908734091
  0
LINE
  5
3AC
100
AcDbEntity
  8
0
100
AcDbLine
 62
7
  6
CONTINUOUS
 10
116.8038044035
 20
173.1120138981
 11
117.3159378555
 21
172.2249776631
  0
LINE
  5
3AD
100
AcDbEntity
  8
0
100
AcDbLine
 62
7
  6
CONTINUOUS
 10
118.3288795602
 20
145.893295388
 11
118.7107188118
 21
143.1825130083
  0
LINE
  5
3AE
100
AcDbEntity
  8
0
100
AcDbLine
 62
7
  6
CONTINUOUS
 10
119.0588592997
 20
143.0526921814
 11
118.6770200481
 21
145.7634745611
  0
LINE
  5
3AF
100
AcDbEntity
  8
0
100
AcDbLine
 62
7
  6
CONTINUOUS
 10
118.5180189741
 20
172.9190130358
 11
118.5180189758
 21
173.7354875026
  0
LINE
  5
3B0
100
AcDbEntity
  8
0
100
AcDbLine
 62
7
  6
CONTINUOUS
 10
125.1648859589
 20
164.1826204849
 11
125.1648859589
 21
164.9991150246
  0
LINE
  5
3B1
100
AcDbEntity
  8
0
100
AcDbLine
 62
7
  6
CONTINUOUS
 10
107.9013827369
 20
174.388651485
 11
108.1942528042
 21
174.7968931004
  0
LINE
  5
3B2
100
AcDbEntity
  8
0
100
AcDbLine
 62
7
  6
CONTINUOUS
 10
148.3874925596
 20
207.9281360148
 11
169.1996826348
 21
219.9996174825
  0
LINE
  5
3B3
100
AcDbEntity
  8
0
100
AcDbLine
 62
7
  6
CONTINUOUS
 10
158.6175937912
 20
210.6774556773
 11
169.1996826348
 21
216.8152762627
  0
LINE
  5
3B4
100
AcDbEntity
  8
0
100
AcDbLine
 62
7
  6
CONTINUOUS
 10
77.2936354049
 20
171.6613170679
 11
77.1168594456
 21
171.5592560294
  0
LINE
  5
3B5
100
AcDbEntity
  8
0
100
AcDbLine
 62
7
  6
CONTINUOUS
 10
77.1441408214
 20
171.0629347701
 11
77.4623375482
 21
171.2466446393
  0
LINE
  5
3B6
100
AcDbEntity
  8
0
100
AcDbLine
 62
7
  6
CONTINUOUS
 10
77.2441403737
 20
171.0530299143
 11
77.5623371005
 21
171.2367397835
  0
LINE
  5
3B7
100
AcDbEntity
  8
0
100
AcDbLine
 62
7
  6
CONTINUOUS
 10
77.1168594456
 20
169.5996502283
 11
77.2052516605
 21
169.6506831927
  0
LINE
  5
3B8
100
AcDbEntity
  8
0
100
AcDbLine
 62
7
  6
CONTINUOUS
 10
71.0074314204
 20
165.8599788349
 11
72.1175844448
 21
166.5009221565
  0
LINE
  5
3B9
100
AcDbEntity
  8
0
100
AcDbLine
 62
7
  6
CONTINUOUS
 10
79.011912037
 20
170.3998462368
 11
78.6937153103
 21
170.2161363675
  0
LINE
  5
3BA
100
AcDbEntity
  8
0
100
AcDbLine
 62
7
  6
CONTINUOUS
 10
77.6613384108
 20
169.3424616135
 11
77.6118362532
 21
169.3138817002
  0
LINE
  5
3BB
100
AcDbEntity
  8
0
100
AcDbLine
 62
7
  6
CONTINUOUS
 10
78.8351372553
 20
169.9711877332
 11
79.1533339821
 21
170.1548976024
  0
LINE
  5
3BC
100
AcDbEntity
  8
0
100
AcDbLine
 62
7
  6
CONTINUOUS
 10
79.1533339821
 20
169.0117942184
 11
78.8351372553
 21
168.8280843492
  0
LINE
  5
3BD
100
AcDbEntity
  8
0
100
AcDbLine
 62
7
  6
CONTINUOUS
 10
79.1119115893
 20
168.9202370301
 11
78.7937148626
 21
168.7365271609
  0
LINE
  5
3BE
100
AcDbEntity
  8
0
100
AcDbLine
 62
7
  6
CONTINUOUS
 10
81.7272056095
 20
170.1794076161
 11
80.7938285444
 21
169.640525333
  0
LINE
  5
3BF
100
AcDbEntity
  8
0
100
AcDbLine
 62
7
  6
CONTINUOUS
 10
77.6118362532
 20
167.4889987979
 11
77.7886122125
 21
167.5910598363
  0
LINE
  5
3C0
100
AcDbEntity
  8
0
100
AcDbLine
 62
7
  6
CONTINUOUS
 10
78.0431717136
 20
167.362442923
 11
79.3831677982
 21
168.1360854051
  0
LINE
  5
3C1
100
AcDbEntity
  8
0
100
AcDbLine
 62
7
  6
CONTINUOUS
 10
80.7938285444
 20
168.7097125775
 11
82.5333246261
 21
169.7140051137
  0
LINE
  5
3C2
100
AcDbEntity
  8
0
100
AcDbLine
 62
7
  6
CONTINUOUS
 10
82.9717534284
 20
169.4608838531
 11
80.0301500412
 21
167.7625584833
  0
LINE
  5
3C3
100
AcDbEntity
  8
0
100
AcDbLine
 62
7
  6
CONTINUOUS
 10
77.2724235852
 20
165.1537968669
 11
77.4491995445
 21
165.2558579054
  0
LINE
  5
3C4
100
AcDbEntity
  8
0
100
AcDbLine
 62
7
  6
CONTINUOUS
 10
77.7603278235
 20
165.1578822151
 11
84.092580934
 21
168.8137884302
  0
LINE
  5
3C5
100
AcDbEntity
  8
0
100
AcDbLine
 62
7
  6
CONTINUOUS
 10
77.6118362532
 20
164.9578413048
 11
77.7886122125
 21
165.0599023432
  0
LINE
  5
3C6
100
AcDbEntity
  8
0
100
AcDbLine
 62
7
  6
CONTINUOUS
 10
84.3754248241
 20
168.6504921284
 11
78.0431717136
 21
164.9945859133
  0
LINE
  5
3C7
100
AcDbEntity
  8
0
100
AcDbLine
 62
7
  6
CONTINUOUS
 10
83.6646940285
 20
167.9830678697
 11
84.5980710936
 21
168.5219501528
  0
LINE
  5
3C8
100
AcDbEntity
  8
0
100
AcDbLine
 62
7
  6
CONTINUOUS
 10
77.6118362532
 20
163.1901135717
 11
77.7886122125
 21
163.2921746101
  0
LINE
  5
3C9
100
AcDbEntity
  8
0
100
AcDbLine
 62
7
  6
CONTINUOUS
 10
84.0254233631
 20
166.8439926472
 11
78.0431717136
 21
163.3901586637
  0
LINE
  5
3CA
100
AcDbEntity
  8
0
100
AcDbLine
 62
7
  6
CONTINUOUS
 10
55.4818180142
 20
179.2174047425
 11
55.2318178131
 21
179.2421848786
  0
LINE
  5
3CB
100
AcDbEntity
  8
0
100
AcDbLine
 62
7
  6
CONTINUOUS
 10
63.32803304
 20
209.8034700167
 11
61.634374828
 21
210.7812819203
  0
LINE
  5
3CC
100
AcDbEntity
  8
0
100
AcDbLine
 62
7
  6
CONTINUOUS
 10
69.9355550923
 20
208.1093227812
 11
64.1039249198
 21
211.4761392457
  0
LINE
  5
3CD
100
AcDbEntity
  8
0
100
AcDbLine
 62
7
  6
CONTINUOUS
 10
41.2585284133
 20
225.7302167013
 11
55.4797281858
 21
217.5198870505
  0
LINE
  5
3CE
100
AcDbEntity
  8
0
100
AcDbLine
 62
7
  6
CONTINUOUS
 10
64.1039095377
 20
216.2118597099
 11
69.6843617056
 21
212.9900564426
  0
LINE
  5
3CF
100
AcDbEntity
  8
0
100
AcDbLine
 62
7
  6
CONTINUOUS
 10
62.345227332
 20
217.7656407094
 11
55.271709991
 21
221.8494455087
  0
LINE
  5
3D0
100
AcDbEntity
  8
0
100
AcDbLine
 62
7
  6
CONTINUOUS
 10
69.6843621505
 20
214.0514912412
 11
74.0081209883
 21
211.5552243572
  0
LINE
  5
3D1
100
AcDbEntity
  8
0
100
AcDbLine
 62
7
  6
CONTINUOUS
 10
135.4887037642
 20
163.9376799041
 11
135.7816053881
 21
163.529463366
  0
LINE
  5
3D2
100
AcDbEntity
  8
0
100
AcDbLine
 62
7
  6
CONTINUOUS
 10
151.1963597966
 20
140.0125599063
 11
150.9072683395
 21
140.4155224071
  0
LINE
  5
3D3
100
AcDbEntity
  8
0
100
AcDbLine
 62
7
  6
CONTINUOUS
 10
150.9072840077
 20
140.8237696228
 11
151.1963597428
 21
140.4208070539
  0
LINE
  5
3D4
100
AcDbEntity
  8
0
100
AcDbLine
 62
7
  6
CONTINUOUS
 10
152.881346971
 20
140.823769796
 11
152.5922712359
 21
141.2267323649
  0
LINE
  5
3D5
100
AcDbEntity
  8
0
100
AcDbLine
 62
7
  6
CONTINUOUS
 10
133.7744378071
 20
163.3142357896
 11
134.2865713072
 21
162.4271994713
  0
LINE
  5
3D6
100
AcDbEntity
  8
0
100
AcDbLine
 62
7
  6
CONTINUOUS
 10
138.6110563338
 20
130.4247000138
 11
138.6189562334
 21
130.3417026368
  0
LINE
  5
3D7
100
AcDbEntity
  8
0
100
AcDbLine
 62
7
  6
CONTINUOUS
 10
134.0402633428
 20
117.3881468427
 11
134.0233301742
 21
117.7345770346
  0
LINE
  5
3D8
100
AcDbEntity
  8
0
100
AcDbLine
 62
7
  6
CONTINUOUS
 10
128.700405145
 20
167.040335805
 11
128.700405145
 21
165.4073495525
  0
LINE
  5
3D9
100
AcDbEntity
  8
0
100
AcDbLine
 62
7
  6
CONTINUOUS
 10
130.1146187073
 20
165.4073529519
 11
130.1146187073
 21
167.040339202
  0
LINE
  5
3DA
100
AcDbEntity
  8
0
100
AcDbLine
 62
7
  6
CONTINUOUS
 10
131.7658600484
 20
138.2440145191
 11
131.7658600484
 21
136.1226790127
  0
LINE
  5
3DB
100
AcDbEntity
  8
0
100
AcDbLine
 62
7
  6
CONTINUOUS
 10
134.9478538115
 20
134.2855956173
 11
134.9478538115
 21
136.4069311238
  0
LINE
  5
3DC
100
AcDbEntity
  8
0
100
AcDbLine
 62
7
  6
CONTINUOUS
 10
118.8109717355
 20
173.3272414418
 11
118.5180495524
 21
172.9190130358
  0
LINE
  5
3DD
100
AcDbEntity
  8
0
100
AcDbLine
 62
7
  6
CONTINUOUS
 10
150.6723318337
 20
205.0075936975
 11
158.6175937912
 21
209.616002535
  0
LINE
  5
3DE
100
AcDbEntity
  8
0
100
AcDbLine
 62
7
  6
CONTINUOUS
 10
85.3466109836
 20
166.6947602264
 11
85.0284142568
 21
166.5110503572
  0
LINE
  5
3DF
100
AcDbEntity
  8
0
100
AcDbLine
 62
7
  6
CONTINUOUS
 10
85.1284138091
 20
166.5011455014
 11
85.4466105359
 21
166.6848553706
  0
LINE
  5
3E0
100
AcDbEntity
  8
0
100
AcDbLine
 62
7
  6
CONTINUOUS
 10
157.0904287297
 20
206.7010947628
 11
152.411647093
 21
203.9998150498
  0
LINE
  5
3E1
100
AcDbEntity
  8
0
100
AcDbLine
 62
7
  6
CONTINUOUS
 10
86.8961854724
 20
165.8479618239
 11
86.5779887457
 21
165.6642519546
  0
LINE
  5
3E2
100
AcDbEntity
  8
0
100
AcDbLine
 62
7
  6
CONTINUOUS
 10
86.9881112087
 20
165.8602150963
 11
87.164887168
 21
165.9622761348
  0
LINE
  5
3E3
100
AcDbEntity
  8
0
100
AcDbLine
 62
7
  6
CONTINUOUS
 10
86.7194106907
 20
165.4193033203
 11
86.9881112087
 21
165.5744367106
  0
LINE
  5
3E4
100
AcDbEntity
  8
0
100
AcDbLine
 62
7
  6
CONTINUOUS
 10
156.5134202178
 20
205.5106480085
 11
153.4955369668
 21
203.7682827017
  0
LINE
  5
3E5
100
AcDbEntity
  8
0
100
AcDbLine
 62
7
  6
CONTINUOUS
 10
157.4793429057
 20
205.9458471574
 11
157.0197254115
 21
205.6804884574
  0
LINE
  5
3E6
100
AcDbEntity
  8
0
100
AcDbLine
 62
7
  6
CONTINUOUS
 10
157.3379259654
 20
205.3334831361
 11
157.0791079979
 21
205.1840554049
  0
LINE
  5
3E7
100
AcDbEntity
  8
0
100
AcDbLine
 62
7
  6
CONTINUOUS
 10
87.9780648239
 20
165.28867804
 11
89.0882178483
 21
165.9296213616
  0
LINE
  5
3E8
100
AcDbEntity
  8
0
100
AcDbLine
 62
7
  6
CONTINUOUS
 10
86.966895223
 20
164.4190843448
 11
86.7194106907
 21
164.2761999363
  0
LINE
  5
3E9
100
AcDbEntity
  8
0
100
AcDbLine
 62
7
  6
CONTINUOUS
 10
86.9961850247
 20
164.3683526172
 11
86.677988298
 21
164.184642748
  0
LINE
  5
3EA
100
AcDbEntity
  8
0
100
AcDbLine
 62
7
  6
CONTINUOUS
 10
154.0350835925
 20
203.0591778471
 11
154.3794241232
 21
203.2579817585
  0
LINE
  5
3EB
100
AcDbEntity
  8
0
100
AcDbLine
 62
7
  6
CONTINUOUS
 10
157.5740848055
 20
204.8982868767
 11
157.832902773
 21
205.047714608
  0
LINE
  5
3EC
100
AcDbEntity
  8
0
100
AcDbLine
 62
7
  6
CONTINUOUS
 10
158.4339448618
 20
204.8640069483
 11
158.893562356
 21
205.1293656483
  0
LINE
  5
3ED
100
AcDbEntity
  8
0
100
AcDbLine
 62
7
  6
CONTINUOUS
 10
155.1926003071
 20
202.7885048908
 11
154.8468018423
 21
202.5888592458
  0
LINE
  5
3EE
100
AcDbEntity
  8
0
100
AcDbLine
 62
7
  6
CONTINUOUS
 10
159.2471172186
 20
204.9252452711
 11
158.7874997244
 21
204.6598865711
  0
LINE
  5
3EF
100
AcDbEntity
  8
0
100
AcDbLine
 62
7
  6
CONTINUOUS
 10
159.1057002783
 20
204.3128812498
 11
158.8468823107
 21
204.1634535186
  0
LINE
  5
3F0
100
AcDbEntity
  8
0
100
AcDbLine
 62
7
  6
CONTINUOUS
 10
108.1942528042
 20
174.7968931004
 11
111.7297732128
 21
176.8381145867
  0
LINE
  5
3F1
100
AcDbEntity
  8
0
100
AcDbLine
 62
7
  6
CONTINUOUS
 10
159.3418591184
 20
203.8776849904
 11
159.6006770859
 21
204.0271127217
  0
LINE
  5
3F2
100
AcDbEntity
  8
0
100
AcDbLine
 62
7
  6
CONTINUOUS
 10
160.2017191747
 20
203.843405062
 11
160.6613366689
 21
204.108763762
  0
LINE
  5
3F3
100
AcDbEntity
  8
0
100
AcDbLine
 62
7
  6
CONTINUOUS
 10
161.0148915314
 20
203.9046433848
 11
160.5552740373
 21
203.6392846848
  0
LINE
  5
3F4
100
AcDbEntity
  8
0
100
AcDbLine
 62
7
  6
CONTINUOUS
 10
108.901372746
 20
173.5721602571
 11
111.7297717165
 21
175.2051276466
  0
LINE
  5
3F5
100
AcDbEntity
  8
0
100
AcDbLine
 62
7
  6
CONTINUOUS
 10
160.8734745912
 20
203.2922793635
 11
160.6146566236
 21
203.1428516323
  0
LINE
  5
3F6
100
AcDbEntity
  8
0
100
AcDbLine
 62
7
  6
CONTINUOUS
 10
86.4153508593
 20
160.1610153798
 11
86.6981947494
 21
160.3243144011
  0
LINE
  5
3F7
100
AcDbEntity
  8
0
100
AcDbLine
 62
7
  6
CONTINUOUS
 10
86.4931344011
 20
159.830337428
 11
86.6699103604
 21
159.9323984665
  0
LINE
  5
3F8
100
AcDbEntity
  8
0
100
AcDbLine
 62
7
  6
CONTINUOUS
 10
161.1096334312
 20
202.8570831041
 11
161.3684513988
 21
203.0065108354
  0
LINE
  5
3F9
100
AcDbEntity
  8
0
100
AcDbLine
 62
7
  6
CONTINUOUS
 10
113.4439924407
 20
175.0517583563
 11
109.9084732547
 21
173.010537587
  0
LINE
  5
3FA
100
AcDbEntity
  8
0
100
AcDbLine
 62
7
  6
CONTINUOUS
 10
110.2084745037
 20
172.9808245161
 11
113.7439936898
 21
175.0220452855
  0
LINE
  5
3FB
100
AcDbEntity
  8
0
100
AcDbLine
 62
7
  6
CONTINUOUS
 10
161.9694934876
 20
202.8228031757
 11
162.4291109817
 21
203.0881618757
  0
LINE
  5
3FC
100
AcDbEntity
  8
0
100
AcDbLine
 62
7
  6
CONTINUOUS
 10
162.7826658443
 20
202.8840414985
 11
162.3230483501
 21
202.6186827985
  0
LINE
  5
3FD
100
AcDbEntity
  8
0
100
AcDbLine
 62
7
  6
CONTINUOUS
 10
48.2313969411
 20
189.5259158463
 11
47.9813947211
 21
189.550697127
  0
LINE
  5
3FE
100
AcDbEntity
  8
0
100
AcDbLine
 62
7
  6
CONTINUOUS
 10
65.4633186245
 20
223.5286233081
 11
72.5344158759
 21
219.4462157629
  0
LINE
  5
3FF
100
AcDbEntity
  8
0
100
AcDbLine
 62
7
  6
CONTINUOUS
 10
65.4633186245
 20
224.5900589144
 11
72.5344158759
 21
220.5076513692
  0
LINE
  5
400
100
AcDbEntity
  8
0
100
AcDbLine
 62
7
  6
CONTINUOUS
 10
65.4954182738
 20
224.6085962266
 11
72.5665194741
 21
220.5261864016
  0
LINE
  5
401
100
AcDbEntity
  8
0
100
AcDbLine
 62
7
  6
CONTINUOUS
 10
65.5583639597
 20
224.7176238193
 11
63.8181608609
 21
225.7223078178
  0
LINE
  5
402
100
AcDbEntity
  8
0
100
AcDbLine
 62
7
  6
CONTINUOUS
 10
76.1525242557
 20
218.6012213552
 11
73.6116579174
 21
220.068158033
  0
LINE
  5
403
100
AcDbEntity
  8
0
100
AcDbLine
 62
7
  6
CONTINUOUS
 10
72.2879037873
 20
221.0136386777
 11
65.7740322685
 21
224.7743390741
  0
LINE
  5
404
100
AcDbEntity
  8
0
100
AcDbLine
 62
7
  6
CONTINUOUS
 10
63.8181878324
 20
226.7837274184
 11
66.540559403
 21
225.2120009987
  0
LINE
  5
405
100
AcDbEntity
  8
0
100
AcDbLine
 62
7
  6
CONTINUOUS
 10
73.6116603071
 20
221.1295917615
 11
76.3339840199
 21
219.5578929718
  0
LINE
  5
406
100
AcDbEntity
  8
0
100
AcDbLine
 62
7
  6
CONTINUOUS
 10
73.6205962578
 20
223.0943299687
 11
69.377944926
 21
225.5437847419
  0
LINE
  5
407
100
AcDbEntity
  8
0
100
AcDbLine
 62
7
  6
CONTINUOUS
 10
138.5715028247
 20
130.7229799306
 11
138.6110563338
 21
130.4247000138
  0
LINE
  5
408
100
AcDbEntity
  8
0
100
AcDbLine
 62
7
  6
CONTINUOUS
 10
139.5061207085
 20
130.3679265404
 11
139.5102603731
 21
130.2927887027
  0
LINE
  5
409
100
AcDbEntity
  8
0
100
AcDbLine
 62
7
  6
CONTINUOUS
 10
135.2763091788
 20
143.2291009602
 11
135.2762716382
 21
144.0977412651
  0
LINE
  5
40A
100
AcDbEntity
  8
0
100
AcDbLine
 62
7
  6
CONTINUOUS
 10
135.4886526184
 20
163.9377094324
 11
135.4886526184
 21
163.1212348163
  0
LINE
  5
40B
100
AcDbEntity
  8
0
100
AcDbLine
 62
7
  6
CONTINUOUS
 10
136.6912370462
 20
144.9146240317
 11
136.6912147817
 21
144.0459922147
  0
LINE
  5
40C
100
AcDbEntity
  8
0
100
AcDbLine
 62
7
  6
CONTINUOUS
 10
138.1047300778
 20
143.9775434097
 11
138.104733012
 21
144.9146122483
  0
LINE
  5
40D
100
AcDbEntity
  8
0
100
AcDbLine
 62
7
  6
CONTINUOUS
 10
138.4586371107
 20
130.7881415068
 11
138.5124848301
 21
142.9904658151
  0
LINE
  5
40E
100
AcDbEntity
  8
0
100
AcDbLine
 62
7
  6
CONTINUOUS
 10
138.5627265088
 20
120.0313519787
 11
138.6189562334
 21
130.3417026368
  0
LINE
  5
40F
100
AcDbEntity
  8
0
100
AcDbLine
 62
7
  6
CONTINUOUS
 10
135.4509037173
 20
118.6832344348
 11
135.4152105274
 21
117.3365875729
  0
LINE
  5
410
100
AcDbEntity
  8
0
100
AcDbLine
 62
7
  6
CONTINUOUS
 10
136.8336096188
 20
119.4875847695
 11
136.7926813096
 21
117.9431123622
  0
LINE
  5
411
100
AcDbEntity
  8
0
100
AcDbLine
 62
7
  6
CONTINUOUS
 10
130.4932994112
 20
138.9414968237
 11
130.1114601596
 21
136.6716144589
  0
LINE
  5
412
100
AcDbEntity
  8
0
100
AcDbLine
 62
7
  6
CONTINUOUS
 10
130.4596006475
 20
136.3994463713
 11
130.8414398991
 21
138.6693287361
  0
LINE
  5
413
100
AcDbEntity
  8
0
100
AcDbLine
 62
7
  6
CONTINUOUS
 10
134.8860780557
 20
141.0044820067
 11
134.7073958891
 21
139.9423008912
  0
LINE
  5
414
100
AcDbEntity
  8
0
100
AcDbLine
 62
7
  6
CONTINUOUS
 10
124.8720158914
 20
164.5908734091
 11
125.1648859589
 21
164.9991150246
  0
LINE
  5
415
100
AcDbEntity
  8
0
100
AcDbLine
 62
7
  6
CONTINUOUS
 10
162.641248904
 20
202.2716774772
 11
162.3824309365
 21
202.122249746
  0
LINE
  5
416
100
AcDbEntity
  8
0
100
AcDbLine
 62
7
  6
CONTINUOUS
 10
162.8774077441
 20
201.8364812178
 11
163.1362257116
 21
201.9859089491
  0
LINE
  5
417
100
AcDbEntity
  8
0
100
AcDbLine
 62
7
  6
CONTINUOUS
 10
163.7372678004
 20
201.8022012894
 11
164.1968852946
 21
202.0675599894
  0
LINE
  5
418
100
AcDbEntity
  8
0
100
AcDbLine
 62
7
  6
CONTINUOUS
 10
164.5504401572
 20
201.8634396122
 11
164.090822663
 21
201.5980809122
  0
LINE
  5
419
100
AcDbEntity
  8
0
100
AcDbLine
 62
7
  6
CONTINUOUS
 10
164.4090232169
 20
201.2510755909
 11
164.1502052494
 21
201.1016478597
  0
LINE
  5
41A
100
AcDbEntity
  8
0
100
AcDbLine
 62
7
  6
CONTINUOUS
 10
116.5038031545
 20
173.4287045943
 11
112.9682839685
 21
171.3874838249
  0
LINE
  5
41B
100
AcDbEntity
  8
0
100
AcDbLine
 62
7
  6
CONTINUOUS
 10
164.645182057
 20
200.8158793315
 11
164.9040000245
 21
200.9653070628
  0
LINE
  5
41C
100
AcDbEntity
  8
0
100
AcDbLine
 62
7
  6
CONTINUOUS
 10
113.2682852175
 20
171.0707931287
 11
116.8038044035
 21
173.1120138981
  0
LINE
  5
41D
100
AcDbEntity
  8
0
100
AcDbLine
 62
7
  6
CONTINUOUS
 10
87.9780648239
 20
156.0622007264
 11
89.0882178483
 21
156.703144048
  0
LINE
  5
41E
100
AcDbEntity
  8
0
100
AcDbLine
 62
7
  6
CONTINUOUS
 10
165.5050421133
 20
200.7815994031
 11
165.9646596075
 21
201.0469581031
  0
LINE
  5
41F
100
AcDbEntity
  8
0
100
AcDbLine
 62
7
  6
CONTINUOUS
 10
166.31821447
 20
200.8428377259
 11
165.8585969759
 21
200.5774790259
  0
LINE
  5
420
100
AcDbEntity
  8
0
100
AcDbLine
 62
7
  6
CONTINUOUS
 10
118.5180495524
 20
172.9190130358
 11
114.982462002
 21
170.8777527855
  0
LINE
  5
421
100
AcDbEntity
  8
0
100
AcDbLine
 62
7
  6
CONTINUOUS
 10
166.1767975298
 20
200.2304737046
 11
165.9179795622
 21
200.0810459734
  0
LINE
  5
422
100
AcDbEntity
  8
0
100
AcDbLine
 62
7
  6
CONTINUOUS
 10
166.4129563698
 20
199.7952774452
 11
166.6717743374
 21
199.9447051765
  0
LINE
  5
423
100
AcDbEntity
  8
0
100
AcDbLine
 62
7
  6
CONTINUOUS
 10
167.2728164262
 20
199.7609975168
 11
167.7324339203
 21
200.0263562168
  0
LINE
  5
424
100
AcDbEntity
  8
0
100
AcDbLine
 62
7
  6
CONTINUOUS
 10
168.0859887829
 20
199.8222358396
 11
167.6263712887
 21
199.5568771396
  0
LINE
  5
425
100
AcDbEntity
  8
0
100
AcDbLine
 62
7
  6
CONTINUOUS
 10
167.9445718426
 20
199.2098718183
 11
167.6857538751
 21
199.0604440871
  0
LINE
  5
426
100
AcDbEntity
  8
0
100
AcDbLine
 62
7
  6
CONTINUOUS
 10
164.6227129372
 20
196.9245873947
 11
164.9860700004
 21
197.1343704407
  0
LINE
  5
427
100
AcDbEntity
  8
0
100
AcDbLine
 62
7
  6
CONTINUOUS
 10
168.1807306827
 20
198.7746755589
 11
168.4395486502
 21
198.9241032902
  0
LINE
  5
428
100
AcDbEntity
  8
0
100
AcDbLine
 62
7
  6
CONTINUOUS
 10
169.040590739
 20
198.7403956305
 11
169.5002082332
 21
199.0057543305
  0
LINE
  5
429
100
AcDbEntity
  8
0
100
AcDbLine
 62
7
  6
CONTINUOUS
 10
165.3638469913
 20
196.495166063
 11
168.7464184628
 21
198.4480829553
  0
LINE
  5
42A
100
AcDbEntity
  8
0
100
AcDbLine
 62
7
  6
CONTINUOUS
 10
166.1049810454
 20
196.0657447313
 11
170.8083573976
 21
198.7812241251
  0
LINE
  5
42B
100
AcDbEntity
  8
0
100
AcDbLine
 62
7
  6
CONTINUOUS
 10
170.8083573976
 20
198.3729729166
 11
166.4579081222
 21
195.8612548493
  0
LINE
  5
42C
100
AcDbEntity
  8
0
100
AcDbLine
 62
7
  6
CONTINUOUS
 10
104.5880795097
 20
159.936771797
 11
104.4113035504
 21
159.8347107585
  0
LINE
  5
42D
100
AcDbEntity
  8
0
100
AcDbLine
 62
7
  6
CONTINUOUS
 10
104.5880795097
 20
159.7326461927
 11
104.7648645226
 21
159.8347124582
  0
LINE
  5
42E
100
AcDbEntity
  8
0
100
AcDbLine
 62
7
  6
CONTINUOUS
 10
105.1537687618
 20
159.6101835705
 11
105.3215138045
 21
159.707030638
  0
LINE
  5
42F
100
AcDbEntity
  8
0
100
AcDbLine
 62
7
  6
CONTINUOUS
 10
176.2470930595
 20
200.4992211845
 11
167.3343131389
 21
195.3534560142
  0
LINE
  5
430
100
AcDbEntity
  8
0
100
AcDbLine
 62
7
  6
CONTINUOUS
 10
102.9970841001
 20
158.0792096536
 11
103.1738600594
 21
158.181270692
  0
LINE
  5
431
100
AcDbEntity
  8
0
100
AcDbLine
 62
7
  6
CONTINUOUS
 10
151.990535511
 20
123.0874543439
 11
151.984284938
 21
123.1638180422
  0
LINE
  5
432
100
AcDbEntity
  8
0
100
AcDbLine
 62
7
  6
CONTINUOUS
 10
148.6423167584
 20
124.6332801268
 11
148.6202819696
 21
125.033227114
  0
LINE
  5
433
100
AcDbEntity
  8
0
100
AcDbLine
 62
7
  6
CONTINUOUS
 10
151.984284938
 20
123.1638180422
 11
151.8955118556
 21
136.1616167154
  0
LINE
  5
434
100
AcDbEntity
  8
0
100
AcDbLine
 62
7
  6
CONTINUOUS
 10
150.9072529509
 20
140.4155223996
 11
150.9072528971
 21
140.8237695793
  0
LINE
  5
435
100
AcDbEntity
  8
0
100
AcDbLine
 62
7
  6
CONTINUOUS
 10
151.8699844011
 20
136.1475889271
 11
151.8699826611
 21
136.9399641375
  0
LINE
  5
436
100
AcDbEntity
  8
0
100
AcDbLine
 62
7
  6
CONTINUOUS
 10
148.3881835816
 20
207.9285368212
 11
148.3885787862
 21
206.3308256681
  0
LINE
  5
437
100
AcDbEntity
  8
0
100
AcDbLine
 62
7
  6
CONTINUOUS
 10
135.7816053881
 20
163.529463366
 11
135.4886829562
 21
163.1212348163
  0
LINE
  5
438
100
AcDbEntity
  8
0
100
AcDbLine
 62
7
  6
CONTINUOUS
 10
103.3506374907
 20
158.0792105034
 11
103.1738615314
 21
157.9771494649
  0
LINE
  5
439
100
AcDbEntity
  8
0
100
AcDbLine
 62
7
  6
CONTINUOUS
 10
103.3506374907
 20
156.4462056692
 11
103.1738615314
 21
156.3441446307
  0
LINE
  5
43A
100
AcDbEntity
  8
0
100
AcDbLine
 62
7
  6
CONTINUOUS
 10
102.9970841001
 20
154.7723748642
 11
103.1738600594
 21
154.8744359027
  0
LINE
  5
43B
100
AcDbEntity
  8
0
100
AcDbLine
 62
7
  6
CONTINUOUS
 10
108.4682398679
 20
157.8903076708
 11
104.1284517117
 21
155.3847447667
  0
LINE
  5
43C
100
AcDbEntity
  8
0
100
AcDbLine
 62
7
  6
CONTINUOUS
 10
103.3506374907
 20
154.772375714
 11
104.1284517117
 21
155.2214442833
  0
LINE
  5
43D
100
AcDbEntity
  8
0
100
AcDbLine
 62
7
  6
CONTINUOUS
 10
125.1648859589
 20
164.9991150246
 11
128.7004562388
 21
167.0403653039
  0
LINE
  5
43E
100
AcDbEntity
  8
0
100
AcDbLine
 62
7
  6
CONTINUOUS
 10
125.8720058541
 20
163.7743822081
 11
128.700405145
 21
165.4073495525
  0
LINE
  5
43F
100
AcDbEntity
  8
0
100
AcDbLine
 62
7
  6
CONTINUOUS
 10
130.4146258443
 20
165.2539802478
 11
126.8791066582
 21
163.2127594785
  0
LINE
  5
440
100
AcDbEntity
  8
0
100
AcDbLine
 62
7
  6
CONTINUOUS
 10
127.1791079072
 20
163.1830464076
 11
130.7146270933
 21
165.224267177
  0
LINE
  5
441
100
AcDbEntity
  8
0
100
AcDbLine
 62
7
  6
CONTINUOUS
 10
103.8095764006
 20
259.9562593729
 11
103.5166958282
 21
260.3645034944
  0
LINE
  5
442
100
AcDbEntity
  8
0
100
AcDbLine
 62
7
  6
CONTINUOUS
 10
103.5167117024
 20
260.7727637197
 11
103.8095763468
 21
260.3645195293
  0
LINE
  5
443
100
AcDbEntity
  8
0
100
AcDbLine
 62
7
  6
CONTINUOUS
 10
159.0841960466
 20
117.4285213918
 11
158.854423481
 21
127.0503058904
  0
LINE
  5
444
100
AcDbEntity
  8
0
100
AcDbLine
 62
7
  6
CONTINUOUS
 10
152.4452403685
 20
114.4314424672
 11
152.445234796
 21
115.5627838354
  0
LINE
  5
445
100
AcDbEntity
  8
0
100
AcDbLine
 62
7
  6
CONTINUOUS
 10
152.8813781354
 20
140.415522483
 11
152.8813780816
 21
140.8237698396
  0
LINE
  5
446
100
AcDbEntity
  8
0
100
AcDbLine
 62
7
  6
CONTINUOUS
 10
154.4741580743
 20
202.9044248956
 11
154.4741580743
 21
202.8047731984
  0
LINE
  5
447
100
AcDbEntity
  8
0
100
AcDbLine
 62
7
  6
CONTINUOUS
 10
155.5070199059
 20
113.7951013683
 11
155.5070254784
 21
112.6637600001
  0
LINE
  5
448
100
AcDbEntity
  8
0
100
AcDbLine
 62
7
  6
CONTINUOUS
 10
156.4186862667
 20
202.0806398461
 11
156.4186862667
 21
205.0477024543
  0
LINE
  5
449
100
AcDbEntity
  8
0
100
AcDbLine
 62
7
  6
CONTINUOUS
 10
156.9843740468
 20
201.7540472424
 11
156.9843740468
 21
204.7211098506
  0
LINE
  5
44A
100
AcDbEntity
  8
0
100
AcDbLine
 62
7
  6
CONTINUOUS
 10
157.3379259654
 20
205.3334831361
 11
157.3379259654
 21
201.5499285648
  0
LINE
  5
44B
100
AcDbEntity
  8
0
100
AcDbLine
 62
7
  6
CONTINUOUS
 10
157.3965040204
 20
205.415131287
 11
157.3965040204
 21
201.5161092741
  0
LINE
  5
44C
100
AcDbEntity
  8
0
100
AcDbLine
 62
7
  6
CONTINUOUS
 10
157.4793429057
 20
205.9458471574
 11
157.4793508544
 21
201.4682787143
  0
LINE
  5
44D
100
AcDbEntity
  8
0
100
AcDbLine
 62
7
  6
CONTINUOUS
 10
158.6175937912
 20
210.6774556773
 11
158.6175937912
 21
209.616002535
  0
LINE
  5
44E
100
AcDbEntity
  8
0
100
AcDbLine
 62
7
  6
CONTINUOUS
 10
158.7521483597
 20
200.7334453561
 11
158.7521483597
 21
203.7005079643
  0
LINE
  5
44F
100
AcDbEntity
  8
0
100
AcDbLine
 62
7
  6
CONTINUOUS
 10
158.8304079408
 20
114.5824706925
 11
158.8304079408
 21
115.7138489113
  0
LINE
  5
450
100
AcDbEntity
  8
0
100
AcDbLine
 62
7
  6
CONTINUOUS
 10
159.1057002783
 20
204.3128812498
 11
159.1057002783
 21
200.5293266785
  0
LINE
  5
451
100
AcDbEntity
  8
0
100
AcDbLine
 62
7
  6
CONTINUOUS
 10
159.1642783333
 20
204.3945294007
 11
159.1642783333
 21
200.4955073878
  0
LINE
  5
452
100
AcDbEntity
  8
0
100
AcDbLine
 62
7
  6
CONTINUOUS
 10
159.2471172186
 20
204.9252452711
 11
159.2471251673
 21
200.447676828
  0
LINE
  5
453
100
AcDbEntity
  8
0
100
AcDbLine
 62
7
  6
CONTINUOUS
 10
160.5199226726
 20
199.7128434698
 11
160.5199226726
 21
202.679906078
  0
LINE
  5
454
100
AcDbEntity
  8
0
100
AcDbLine
 62
7
  6
CONTINUOUS
 10
156.4186862667
 20
205.0477024543
 11
156.5134202178
 21
205.5106480085
  0
LINE
  5
455
100
AcDbEntity
  8
0
100
AcDbLine
 62
7
  6
CONTINUOUS
 10
157.0791079979
 20
205.1840554049
 11
156.9843740468
 21
204.7211098506
  0
LINE
  5
456
100
AcDbEntity
  8
0
100
AcDbLine
 62
7
  6
CONTINUOUS
 10
157.4793508544
 20
204.4353413225
 11
157.5740848055
 21
204.8982868767
  0
LINE
  5
457
100
AcDbEntity
  8
0
100
AcDbLine
 62
7
  6
CONTINUOUS
 10
158.8468823107
 20
204.1634535186
 11
158.7521483597
 21
203.7005079643
  0
LINE
  5
458
100
AcDbEntity
  8
0
100
AcDbLine
 62
7
  6
CONTINUOUS
 10
159.2471251673
 20
203.4147394362
 11
159.3418591184
 21
203.8776849904
  0
LINE
  5
459
100
AcDbEntity
  8
0
100
AcDbLine
 62
7
  6
CONTINUOUS
 10
160.6146566236
 20
203.1428516323
 11
160.5199226726
 21
202.679906078
  0
LINE
  5
45A
100
AcDbEntity
  8
0
100
AcDbLine
 62
7
  6
CONTINUOUS
 10
161.0148994801
 20
202.3941375499
 11
161.1096334312
 21
202.8570831041
  0
LINE
  5
45B
100
AcDbEntity
  8
0
100
AcDbLine
 62
7
  6
CONTINUOUS
 10
162.3824309365
 20
202.122249746
 11
162.2876969854
 21
201.6593041917
  0
LINE
  5
45C
100
AcDbEntity
  8
0
100
AcDbLine
 62
7
  6
CONTINUOUS
 10
162.782673793
 20
201.3735356636
 11
162.8774077441
 21
201.8364812178
  0
LINE
  5
45D
100
AcDbEntity
  8
0
100
AcDbLine
 62
7
  6
CONTINUOUS
 10
164.1502052494
 20
201.1016478597
 11
164.0554712983
 21
200.6387023054
  0
LINE
  5
45E
100
AcDbEntity
  8
0
100
AcDbLine
 62
7
  6
CONTINUOUS
 10
111.76524322
 20
153.2211455246
 11
111.5884672607
 21
153.1190844862
  0
LINE
  5
45F
100
AcDbEntity
  8
0
100
AcDbLine
 62
7
  6
CONTINUOUS
 10
198.9334095712
 20
202.8332303945
 11
178.0738463719
 21
190.7900277891
  0
LINE
  5
460
100
AcDbEntity
  8
0
100
AcDbLine
 62
7
  6
CONTINUOUS
 10
133.4744365581
 20
163.6309264858
 11
129.938917372
 21
161.5897057164
  0
LINE
  5
461
100
AcDbEntity
  8
0
100
AcDbLine
 62
7
  6
CONTINUOUS
 10
130.238918621
 20
161.2730150202
 11
133.7744378071
 21
163.3142357896
  0
LINE
  5
462
100
AcDbEntity
  8
0
100
AcDbLine
 62
7
  6
CONTINUOUS
 10
135.4886829562
 20
163.1212348163
 11
131.9530954057
 21
161.0799745659
  0
LINE
  5
463
100
AcDbEntity
  8
0
100
AcDbLine
 62
7
  6
CONTINUOUS
 10
114.8411540382
 20
149.15904245
 11
112.6844873347
 21
147.9138977807
  0
LINE
  5
464
100
AcDbEntity
  8
0
100
AcDbLine
 62
7
  6
CONTINUOUS
 10
113.9679082664
 20
148.5194343104
 11
118.139820906
 21
150.9280748182
  0
LINE
  5
465
100
AcDbEntity
  8
0
100
AcDbLine
 62
7
  6
CONTINUOUS
 10
115.558905148
 20
148.661560366
 11
119.7308177875
 21
151.0702008738
  0
LINE
  5
466
100
AcDbEntity
  8
0
100
AcDbLine
 62
7
  6
CONTINUOUS
 10
122.4690025534
 20
149.8071424409
 11
118.935394692
 21
147.7670251688
  0
LINE
  5
467
100
AcDbEntity
  8
0
100
AcDbLine
 62
7
  6
CONTINUOUS
 10
117.1499020296
 20
146.6823509151
 11
118.7089934212
 21
147.5824873766
  0
LINE
  5
468
100
AcDbEntity
  8
0
100
AcDbLine
 62
7
  6
CONTINUOUS
 10
153.4955369668
 20
203.7682827017
 11
154.3794241232
 21
203.2579817585
  0
LINE
  5
469
100
AcDbEntity
  8
0
100
AcDbLine
 62
7
  6
CONTINUOUS
 10
155.1926003071
 20
202.7885048908
 11
164.9860700004
 21
197.1343704407
  0
LINE
  5
46A
100
AcDbEntity
  8
0
100
AcDbLine
 62
7
  6
CONTINUOUS
 10
168.2981235395
 20
198.1892613056
 11
168.0859967316
 21
198.3117300047
  0
LINE
  5
46B
100
AcDbEntity
  8
0
100
AcDbLine
 62
7
  6
CONTINUOUS
 10
167.591019924
 20
198.5974985328
 11
166.3182224188
 21
199.332331891
  0
LINE
  5
46C
100
AcDbEntity
  8
0
100
AcDbLine
 62
7
  6
CONTINUOUS
 10
165.8232456112
 20
199.6181004191
 11
164.5504481059
 21
200.3529337773
  0
LINE
  5
46D
100
AcDbEntity
  8
0
100
AcDbLine
 62
7
  6
CONTINUOUS
 10
164.0554712983
 20
200.6387023054
 11
162.782673793
 21
201.3735356636
  0
LINE
  5
46E
100
AcDbEntity
  8
0
100
AcDbLine
 62
7
  6
CONTINUOUS
 10
162.2876969854
 20
201.6593041917
 11
161.0148994801
 21
202.3941375499
  0
LINE
  5
46F
100
AcDbEntity
  8
0
100
AcDbLine
 62
7
  6
CONTINUOUS
 10
160.5199226726
 20
202.679906078
 11
159.2471251673
 21
203.4147394362
  0
LINE
  5
470
100
AcDbEntity
  8
0
100
AcDbLine
 62
7
  6
CONTINUOUS
 10
158.7521483597
 20
203.7005079643
 11
157.4793508544
 21
204.4353413225
  0
LINE
  5
471
100
AcDbEntity
  8
0
100
AcDbLine
 62
7
  6
CONTINUOUS
 10
156.9843740468
 20
204.7211098506
 11
156.4186862667
 21
205.0477024543
  0
LINE
  5
472
100
AcDbEntity
  8
0
100
AcDbLine
 62
7
  6
CONTINUOUS
 10
175.2103009179
 20
190.7900209089
 11
148.3875007006
 21
206.3314503229
  0
LINE
  5
473
100
AcDbEntity
  8
0
100
AcDbLine
 62
7
  6
CONTINUOUS
 10
105.5166486656
 20
260.7727638952
 11
105.2237840212
 21
261.1810080856
  0
LINE
  5
474
100
AcDbEntity
  8
0
100
AcDbLine
 62
7
  6
CONTINUOUS
 10
154.4741580743
 20
202.9044248956
 11
154.3794241232
 21
203.2579817585
  0
LINE
  5
475
100
AcDbEntity
  8
0
100
AcDbLine
 62
7
  6
CONTINUOUS
 10
160.8734745912
 20
203.2922793635
 11
160.8734745912
 21
199.5087247922
  0
LINE
  5
476
100
AcDbEntity
  8
0
100
AcDbLine
 62
7
  6
CONTINUOUS
 10
160.9320526461
 20
203.3739275144
 11
160.9320526461
 21
199.4749055015
  0
LINE
  5
477
100
AcDbEntity
  8
0
100
AcDbLine
 62
7
  6
CONTINUOUS
 10
161.0148915314
 20
203.9046433848
 11
161.0148994802
 21
199.4270749417
  0
LINE
  5
478
100
AcDbEntity
  8
0
100
AcDbLine
 62
7
  6
CONTINUOUS
 10
161.3935774822
 20
209.5937411228
 11
161.3935774822
 21
210.6551942651
  0
LINE
  5
479
100
AcDbEntity
  8
0
100
AcDbLine
 62
7
  6
CONTINUOUS
 10
162.2876969854
 20
198.6922415835
 11
162.2876969854
 21
201.6593041917
  0
LINE
  5
47A
100
AcDbEntity
  8
0
100
AcDbLine
 62
7
  6
CONTINUOUS
 10
162.641248904
 20
202.2716774772
 11
162.641248904
 21
198.4881229059
  0
LINE
  5
47B
100
AcDbEntity
  8
0
100
AcDbLine
 62
7
  6
CONTINUOUS
 10
162.699826959
 20
202.3533256281
 11
162.699826959
 21
198.4543036152
  0
LINE
  5
47C
100
AcDbEntity
  8
0
100
AcDbLine
 62
7
  6
CONTINUOUS
 10
162.7826658443
 20
202.8840414985
 11
162.782673793
 21
198.4064730554
  0
LINE
  5
47D
100
AcDbEntity
  8
0
100
AcDbLine
 62
7
  6
CONTINUOUS
 10
164.0554712983
 20
197.6716396972
 11
164.0554712983
 21
200.6387023054
  0
LINE
  5
47E
100
AcDbEntity
  8
0
100
AcDbLine
 62
7
  6
CONTINUOUS
 10
164.4090232169
 20
201.2510755909
 11
164.4090232169
 21
197.4675210196
  0
LINE
  5
47F
100
AcDbEntity
  8
0
100
AcDbLine
 62
7
  6
CONTINUOUS
 10
164.4676012719
 20
201.3327237418
 11
164.4676012719
 21
197.4337017289
  0
LINE
  5
480
100
AcDbEntity
  8
0
100
AcDbLine
 62
7
  6
CONTINUOUS
 10
164.5504401572
 20
201.8634396122
 11
164.5504481059
 21
197.3858711691
  0
LINE
  5
481
100
AcDbEntity
  8
0
100
AcDbLine
 62
7
  6
CONTINUOUS
 10
165.0808039515
 20
196.7808135778
 11
165.0808039515
 21
196.6591643551
  0
LINE
  5
482
100
AcDbEntity
  8
0
100
AcDbLine
 62
7
  6
CONTINUOUS
 10
165.8232456112
 20
196.7603983966
 11
165.8232456112
 21
199.6181004191
  0
LINE
  5
483
100
AcDbEntity
  8
0
100
AcDbLine
 62
7
  6
CONTINUOUS
 10
166.1767975298
 20
200.2304737046
 11
166.1767975298
 21
196.9645204736
  0
LINE
  5
484
100
AcDbEntity
  8
0
100
AcDbLine
 62
7
  6
CONTINUOUS
 10
166.2353755847
 20
200.3121218555
 11
166.2353755847
 21
196.9983403275
  0
LINE
  5
485
100
AcDbEntity
  8
0
100
AcDbLine
 62
7
  6
CONTINUOUS
 10
166.31821447
 20
200.8428377259
 11
166.3182224188
 21
197.0461716839
  0
LINE
  5
486
100
AcDbEntity
  8
0
100
AcDbLine
 62
7
  6
CONTINUOUS
 10
167.591019924
 20
197.7810172797
 11
167.591019924
 21
198.5974985328
  0
LINE
  5
487
100
AcDbEntity
  8
0
100
AcDbLine
 62
7
  6
CONTINUOUS
 10
167.9445718426
 20
199.2098718183
 11
167.9445718426
 21
197.9851393567
  0
LINE
  5
488
100
AcDbEntity
  8
0
100
AcDbLine
 62
7
  6
CONTINUOUS
 10
168.0031498976
 20
199.2915199692
 11
168.0031498976
 21
198.0189592106
  0
LINE
  5
489
100
AcDbEntity
  8
0
100
AcDbLine
 62
7
  6
CONTINUOUS
 10
168.0859887829
 20
199.8222358396
 11
168.0859967316
 21
198.066790567
  0
LINE
  5
48A
100
AcDbEntity
  8
0
100
AcDbLine
 62
7
  6
CONTINUOUS
 10
169.1996826348
 20
219.9996174825
 11
169.1996826348
 21
216.8152762627
  0
LINE
  5
48B
100
AcDbEntity
  8
0
100
AcDbLine
 62
7
  6
CONTINUOUS
 10
162.0815538198
 20
116.0820148258
 11
162.1441401381
 21
127.8959896342
  0
LINE
  5
48C
100
AcDbEntity
  8
0
100
AcDbLine
 62
7
  6
CONTINUOUS
 10
162.1441401381
 20
127.8959896342
 11
162.1608696048
 21
128.4693708348
  0
LINE
  5
48D
100
AcDbEntity
  8
0
100
AcDbLine
 62
7
  6
CONTINUOUS
 10
164.5504481059
 20
200.3529337773
 11
164.645182057
 21
200.8158793315
  0
LINE
  5
48E
100
AcDbEntity
  8
0
100
AcDbLine
 62
7
  6
CONTINUOUS
 10
165.9179795622
 20
200.0810459734
 11
165.8232456112
 21
199.6181004191
  0
LINE
  5
48F
100
AcDbEntity
  8
0
100
AcDbLine
 62
7
  6
CONTINUOUS
 10
166.3182224188
 20
199.332331891
 11
166.4129563698
 21
199.7952774452
  0
LINE
  5
490
100
AcDbEntity
  8
0
100
AcDbLine
 62
7
  6
CONTINUOUS
 10
167.6857538751
 20
199.0604440871
 11
167.591019924
 21
198.5974985328
  0
LINE
  5
491
100
AcDbEntity
  8
0
100
AcDbLine
 62
7
  6
CONTINUOUS
 10
168.0859967316
 20
198.3117300047
 11
168.1807306827
 21
198.7746755589
  0
LINE
  5
492
100
AcDbEntity
  8
0
100
AcDbLine
 62
7
  6
CONTINUOUS
 10
120.4803877752
 20
147.6139951466
 11
123.3740350872
 21
149.2846332287
  0
LINE
  5
493
100
AcDbEntity
  8
0
100
AcDbLine
 62
7
  6
CONTINUOUS
 10
118.6770200481
 20
145.7634745611
 11
120.8277561794
 21
147.0051952334
  0
LINE
  5
494
100
AcDbEntity
  8
0
100
AcDbLine
 62
7
  6
CONTINUOUS
 10
117.1499020296
 20
144.5610154086
 11
118.4137607679
 21
145.2907002357
  0
LINE
  5
495
100
AcDbEntity
  8
0
100
AcDbLine
 62
7
  6
CONTINUOUS
 10
123.3863347834
 20
145.5511464031
 11
119.0588592997
 21
143.0526921814
  0
LINE
  5
496
100
AcDbEntity
  8
0
100
AcDbLine
 62
7
  6
CONTINUOUS
 10
120.8622270268
 20
140.2654790376
 11
125.1897025105
 21
142.7639332593
  0
LINE
  5
497
100
AcDbEntity
  8
0
100
AcDbLine
 62
7
  6
CONTINUOUS
 10
168.7464184628
 20
198.4480829553
 11
168.1807306827
 21
198.7746755589
  0
LINE
  5
498
100
AcDbEntity
  8
0
100
AcDbLine
 62
7
  6
CONTINUOUS
 10
167.6857538751
 20
199.0604440871
 11
166.4129563698
 21
199.7952774452
  0
LINE
  5
499
100
AcDbEntity
  8
0
100
AcDbLine
 62
7
  6
CONTINUOUS
 10
165.9179795622
 20
200.0810459734
 11
164.645182057
 21
200.8158793315
  0
LINE
  5
49A
100
AcDbEntity
  8
0
100
AcDbLine
 62
7
  6
CONTINUOUS
 10
164.1502052494
 20
201.1016478597
 11
162.8774077441
 21
201.8364812178
  0
LINE
  5
49B
100
AcDbEntity
  8
0
100
AcDbLine
 62
7
  6
CONTINUOUS
 10
162.3824309365
 20
202.122249746
 11
161.1096334312
 21
202.8570831041
  0
LINE
  5
49C
100
AcDbEntity
  8
0
100
AcDbLine
 62
7
  6
CONTINUOUS
 10
160.6146566236
 20
203.1428516323
 11
159.3418591184
 21
203.8776849904
  0
LINE
  5
49D
100
AcDbEntity
  8
0
100
AcDbLine
 62
7
  6
CONTINUOUS
 10
158.8468823108
 20
204.1634535186
 11
157.5740848055
 21
204.8982868767
  0
LINE
  5
49E
100
AcDbEntity
  8
0
100
AcDbLine
 62
7
  6
CONTINUOUS
 10
157.0791079979
 20
205.1840554049
 11
156.5134202178
 21
205.5106480085
  0
LINE
  5
49F
100
AcDbEntity
  8
0
100
AcDbLine
 62
7
  6
CONTINUOUS
 10
157.0197254115
 20
205.6804884574
 11
157.3379247878
 21
205.4967801178
  0
LINE
  5
4A0
100
AcDbEntity
  8
0
100
AcDbLine
 62
7
  6
CONTINUOUS
 10
158.1157454855
 20
205.0477152879
 11
158.4339448618
 21
204.8640069483
  0
LINE
  5
4A1
100
AcDbEntity
  8
0
100
AcDbLine
 62
7
  6
CONTINUOUS
 10
158.7874997244
 20
204.6598865711
 11
159.1056991007
 21
204.4761782315
  0
LINE
  5
4A2
100
AcDbEntity
  8
0
100
AcDbLine
 62
7
  6
CONTINUOUS
 10
159.8835197984
 20
204.0271134016
 11
160.2017191747
 21
203.843405062
  0
LINE
  5
4A3
100
AcDbEntity
  8
0
100
AcDbLine
 62
7
  6
CONTINUOUS
 10
160.5552740373
 20
203.6392846848
 11
160.8734734136
 21
203.4555763452
  0
LINE
  5
4A4
100
AcDbEntity
  8
0
100
AcDbLine
 62
7
  6
CONTINUOUS
 10
161.6512941112
 20
203.0065115153
 11
161.9694934876
 21
202.8228031757
  0
LINE
  5
4A5
100
AcDbEntity
  8
0
100
AcDbLine
 62
7
  6
CONTINUOUS
 10
162.3230483501
 20
202.6186827985
 11
162.6412477264
 21
202.4349744589
  0
LINE
  5
4A6
100
AcDbEntity
  8
0
100
AcDbLine
 62
7
  6
CONTINUOUS
 10
163.4190684241
 20
201.9859096289
 11
163.7372678004
 21
201.8022012894
  0
LINE
  5
4A7
100
AcDbEntity
  8
0
100
AcDbLine
 62
7
  6
CONTINUOUS
 10
164.090822663
 20
201.5980809122
 11
164.4090220393
 21
201.4143725726
  0
LINE
  5
4A8
100
AcDbEntity
  8
0
100
AcDbLine
 62
7
  6
CONTINUOUS
 10
165.186842737
 20
200.9653077426
 11
165.5050421133
 21
200.7815994031
  0
LINE
  5
4A9
100
AcDbEntity
  8
0
100
AcDbLine
 62
7
  6
CONTINUOUS
 10
165.8585969759
 20
200.5774790259
 11
166.1767963522
 21
200.3937706863
  0
LINE
  5
4AA
100
AcDbEntity
  8
0
100
AcDbLine
 62
7
  6
CONTINUOUS
 10
166.9546170498
 20
199.9447058563
 11
167.2728164262
 21
199.7609975168
  0
LINE
  5
4AB
100
AcDbEntity
  8
0
100
AcDbLine
 62
7
  6
CONTINUOUS
 10
167.6263712887
 20
199.5568771396
 11
167.944570665
 21
199.3731688
  0
LINE
  5
4AC
100
AcDbEntity
  8
0
100
AcDbLine
 62
7
  6
CONTINUOUS
 10
168.7223913627
 20
198.92410397
 11
169.040590739
 21
198.7403956305
  0
LINE
  5
4AD
100
AcDbEntity
  8
0
100
AcDbLine
 62
7
  6
CONTINUOUS
 10
169.5002082332
 20
199.0057543305
 11
168.0859887829
 21
199.8222358396
  0
LINE
  5
4AE
100
AcDbEntity
  8
0
100
AcDbLine
 62
7
  6
CONTINUOUS
 10
167.7324339203
 20
200.0263562168
 11
166.31821447
 21
200.8428377259
  0
LINE
  5
4AF
100
AcDbEntity
  8
0
100
AcDbLine
 62
7
  6
CONTINUOUS
 10
165.9646596075
 20
201.0469581031
 11
164.5504401572
 21
201.8634396122
  0
LINE
  5
4B0
100
AcDbEntity
  8
0
100
AcDbLine
 62
7
  6
CONTINUOUS
 10
164.1968852946
 20
202.0675599894
 11
162.7826658443
 21
202.8840414985
  0
LINE
  5
4B1
100
AcDbEntity
  8
0
100
AcDbLine
 62
7
  6
CONTINUOUS
 10
162.4291109817
 20
203.0881618757
 11
161.0148915314
 21
203.9046433848
  0
LINE
  5
4B2
100
AcDbEntity
  8
0
100
AcDbLine
 62
7
  6
CONTINUOUS
 10
160.6613366689
 20
204.108763762
 11
159.2471172186
 21
204.9252452711
  0
LINE
  5
4B3
100
AcDbEntity
  8
0
100
AcDbLine
 62
7
  6
CONTINUOUS
 10
158.893562356
 20
205.1293656483
 11
157.4793429057
 21
205.9458471574
  0
LINE
  5
4B4
100
AcDbEntity
  8
0
100
AcDbLine
 62
7
  6
CONTINUOUS
 10
157.0904287297
 20
206.7010947628
 11
170.8083573976
 21
198.7812241251
  0
LINE
  5
4B5
100
AcDbEntity
  8
0
100
AcDbLine
 62
7
  6
CONTINUOUS
 10
176.230024754
 20
201.0281080771
 11
161.3734417579
 21
209.6053662256
  0
LINE
  5
4B6
100
AcDbEntity
  8
0
100
AcDbLine
 62
7
  6
CONTINUOUS
 10
161.3734416532
 20
210.6668194283
 11
176.230024754
 21
202.0895612193
  0
LINE
  5
4B7
100
AcDbEntity
  8
0
100
AcDbLine
 62
7
  6
CONTINUOUS
 10
165.0808039515
 20
196.7808135778
 11
164.9860700004
 21
197.1343704407
  0
LINE
  5
4B8
100
AcDbEntity
  8
0
100
AcDbLine
 62
7
  6
CONTINUOUS
 10
170.8083573976
 20
198.7812241251
 11
170.8083573976
 21
198.3729729166
  0
LINE
  5
4B9
100
AcDbEntity
  8
0
100
AcDbLine
 62
7
  6
CONTINUOUS
 10
172.0632280893
 20
216.8152831474
 11
172.0632280893
 21
219.9996243623
  0
LINE
  5
4BA
100
AcDbEntity
  8
0
100
AcDbLine
 62
7
  6
CONTINUOUS
 10
176.230024754
 20
202.0895612193
 11
176.230024754
 21
201.0281080771
  0
LINE
  5
4BB
100
AcDbEntity
  8
0
100
AcDbLine
 62
7
  6
CONTINUOUS
 10
131.5835769858
 20
144.5449569081
 11
128.6899316841
 21
142.8743199866
  0
LINE
  5
4BC
100
AcDbEntity
  8
0
100
AcDbLine
 62
7
  6
CONTINUOUS
 10
222.5194327253
 20
194.4672617946
 11
226.4651917008
 21
196.745333203
  0
LINE
  5
4BD
100
AcDbEntity
  8
0
100
AcDbLine
 62
7
  6
CONTINUOUS
 10
136.6912370462
 20
144.9146240317
 11
135.2762716382
 21
144.0977412651
  0
LINE
  5
4BE
100
AcDbEntity
  8
0
100
AcDbLine
 62
7
  6
CONTINUOUS
 10
136.6912147817
 20
144.0459922147
 11
135.2763091788
 21
143.2291009602
  0
LINE
  5
4BF
100
AcDbEntity
  8
0
100
AcDbLine
 62
7
  6
CONTINUOUS
 10
139.8624943046
 20
145.5036379271
 11
139.1561779248
 21
145.0958484071
  0
LINE
  5
4C0
100
AcDbEntity
  8
0
100
AcDbLine
 62
7
  6
CONTINUOUS
 10
130.8414398991
 20
138.6693287361
 11
134.8860738479
 21
141.0044852963
  0
LINE
  5
4C1
100
AcDbEntity
  8
0
100
AcDbLine
 62
7
  6
CONTINUOUS
 10
131.7658600484
 20
138.2440145191
 11
135.9377726879
 21
140.652655027
  0
LINE
  5
4C2
100
AcDbEntity
  8
0
100
AcDbLine
 62
7
  6
CONTINUOUS
 10
130.1741100715
 20
137.0440432478
 11
128.3080924326
 21
135.9667038925
  0
LINE
  5
4C3
100
AcDbEntity
  8
0
100
AcDbLine
 62
7
  6
CONTINUOUS
 10
133.3568569299
 20
138.3861405747
 11
137.5287695695
 21
140.7947810825
  0
LINE
  5
4C4
100
AcDbEntity
  8
0
100
AcDbLine
 62
7
  6
CONTINUOUS
 10
131.7658600484
 20
137.1536110863
 11
130.4596006475
 21
136.3994463713
  0
LINE
  5
4C5
100
AcDbEntity
  8
0
100
AcDbLine
 62
7
  6
CONTINUOUS
 10
131.7658600484
 20
136.5097569611
 11
129.8530855158
 21
135.4054226618
  0
LINE
  5
4C6
100
AcDbEntity
  8
0
100
AcDbLine
 62
7
  6
CONTINUOUS
 10
237.0265786676
 20
172.1827476264
 11
237.4532053421
 21
171.9364401733
  0
LINE
  5
4C7
100
AcDbEntity
  8
0
100
AcDbLine
 62
7
  6
CONTINUOUS
 10
151.207818601
 20
138.1380231532
 11
235.3741874842
 21
186.752724698
  0
LINE
  5
4C8
100
AcDbEntity
  8
0
100
AcDbLine
 62
7
  6
CONTINUOUS
 10
134.9478538115
 20
136.4069311238
 11
138.492463182
 21
138.4534000822
  0
LINE
  5
4C9
100
AcDbEntity
  8
0
100
AcDbLine
 62
7
  6
CONTINUOUS
 10
134.9478538115
 20
134.2855956173
 11
138.4830780149
 21
136.3266460794
  0
LINE
  5
4CA
100
AcDbEntity
  8
0
100
AcDbLine
 62
7
  6
CONTINUOUS
 10
139.4134473652
 20
130.2368940202
 11
139.5102603731
 21
130.2927887027
  0
LINE
  5
4CB
100
AcDbEntity
  8
0
100
AcDbLine
 62
7
  6
CONTINUOUS
 10
172.0632280893
 20
216.8152831474
 11
197.6074166942
 21
202.0676726157
  0
LINE
  5
4CC
100
AcDbEntity
  8
0
100
AcDbLine
 62
7
  6
CONTINUOUS
 10
172.0632280893
 20
219.9996243623
 11
198.9333976474
 21
204.4864755131
  0
LINE
  5
4CD
100
AcDbEntity
  8
0
100
AcDbLine
 62
7
  6
CONTINUOUS
 10
235.3741874842
 20
186.752724698
 11
220.8790658257
 21
195.1211970685
  0
LINE
  5
4CE
100
AcDbEntity
  8
0
100
AcDbLine
 62
7
  6
CONTINUOUS
 10
119.0554349283
 20
253.9077534326
 11
104.5590480026
 21
262.2770570949
  0
LINE
  5
4CF
100
AcDbEntity
  8
0
100
AcDbLine
 62
7
  6
CONTINUOUS
 10
119.0334029738
 20
254.2135972863
 11
104.5361169607
 21
262.5834199178
  0
LINE
  5
4D0
100
AcDbEntity
  8
0
100
AcDbLine
 62
7
  6
CONTINUOUS
 10
221.8085483952
 20
194.877681769
 11
236.3042952168
 21
186.50874777
  0
LINE
  5
4D1
100
AcDbEntity
  8
0
100
AcDbLine
 62
7
  6
CONTINUOUS
 10
135.4509037172
 20
118.6832344359
 11
136.8336096188
 21
119.4875847695
  0
LINE
  5
4D2
100
AcDbEntity
  8
0
100
AcDbLine
 62
7
  6
CONTINUOUS
 10
236.7185179246
 20
185.9270463326
 11
151.8699826609
 21
136.9400429785
  0
LINE
  5
4D3
100
AcDbEntity
  8
0
100
AcDbLine
 62
7
  6
CONTINUOUS
 10
138.553598719
 20
120.0471618688
 11
137.7873874076
 21
119.6047922025
  0
LINE
  5
4D4
100
AcDbEntity
  8
0
100
AcDbLine
 62
7
  6
CONTINUOUS
 10
225.0578294716
 20
197.5337913197
 11
123.2331333337
 21
256.3197986072
  0
LINE
  5
4D5
100
AcDbEntity
  8
0
100
AcDbLine
 62
7
  6
CONTINUOUS
 10
123.2499867315
 20
256.6482703716
 11
226.0516738599
 21
197.2970313393
  0
LINE
  5
4D6
100
AcDbEntity
  8
0
100
AcDbLine
 62
7
  6
CONTINUOUS
 10
198.9333976474
 20
204.4864755131
 11
198.9333976474
 21
202.8332303945
  0
LINE
  5
4D7
100
AcDbEntity
  8
0
100
AcDbLine
 62
7
  6
CONTINUOUS
 10
151.990535469
 20
123.0874619443
 11
237.4532863988
 21
172.4291059793
  0
LINE
  5
4D8
100
AcDbEntity
  8
0
100
AcDbLine
 62
7
  6
CONTINUOUS
 10
237.4532053421
 20
171.9392550164
 11
162.1608696048
 21
128.4693708348
  0
LINE
  5
4D9
100
AcDbEntity
  8
0
100
AcDbLine
 62
7
  6
CONTINUOUS
 10
135.4152105274
 20
117.3365875729
 11
136.7926813096
 21
117.9431123622
  0
LINE
  5
4DA
100
AcDbEntity
  8
0
100
AcDbLine
 62
7
  6
CONTINUOUS
 10
161.9132382889
 20
115.6731147237
 11
161.989602905
 21
115.7511219079
  0
LINE
  5
4DB
100
AcDbEntity
  8
0
100
AcDbLine
 62
7
  6
CONTINUOUS
 10
158.1125655168
 20
116.4728653499
 11
159.2362422208
 21
117.1216165249
  0
LINE
  5
4DC
100
AcDbEntity
  8
0
100
AcDbLine
 62
7
  6
CONTINUOUS
 10
153.2125211245
 20
113.643845729
 11
152.5569063477
 21
113.2653291977
  0
LINE
  5
4DD
100
AcDbEntity
  8
0
100
AcDbLine
 62
7
  6
CONTINUOUS
 10
236.790589252
 20
159.216165561
 11
162.0815538198
 21
116.0820148295
  0
LINE
  5
4DE
100
AcDbEntity
  8
0
100
AcDbLine
 62
7
  6
CONTINUOUS
 10
161.9131718835
 20
115.6731797695
 11
236.3794159948
 21
158.6587803549
  0
LINE
  5
4DF
100
AcDbEntity
  8
0
100
AcDbLine
 62
7
  6
CONTINUOUS
 10
156.4932539313
 20
112.0025056634
 11
157.8441739155
 21
112.7824550243
  0
LINE
  5
4E0
100
AcDbEntity
  8
0
100
AcDbLine
 62
7
  6
CONTINUOUS
 10
148.8657230274
 20
111.6683497367
 11
152.5569037066
 21
113.2653276729
  0
LINE
  5
4E1
100
AcDbEntity
  8
0
100
AcDbLine
 62
7
  6
CONTINUOUS
 10
104.5355115611
 20
262.5835498298
 11
104.5359140814
 21
262.5835370356
  0
LINE
  5
4E2
100
AcDbEntity
  8
0
100
AcDbLine
 62
7
  6
CONTINUOUS
 10
231.3721708171
 20
186.309626422
 11
231.0792902447
 21
186.7178705435
  0
LINE
  5
4E3
100
AcDbEntity
  8
0
100
AcDbLine
 62
7
  6
CONTINUOUS
 10
231.0793061189
 20
187.1261316043
 11
231.3721707633
 21
186.7178874138
  0
LINE
  5
4E4
100
AcDbEntity
  8
0
100
AcDbLine
 62
7
  6
CONTINUOUS
 10
233.0792430822
 20
187.1261317797
 11
232.7863784377
 21
187.5343759702
  0
LINE
  5
4E5
100
AcDbEntity
  8
0
100
AcDbLine
 62
7
  6
CONTINUOUS
 10
226.4651917263
 20
196.7453327303
 11
226.7212534626
 21
192.0413943413
  0
LINE
  5
4E6
100
AcDbEntity
  8
0
100
AcDbLine
 62
7
  6
CONTINUOUS
 10
237.4532863988
 20
172.4291059793
 11
236.7185179246
 21
185.9270463326
  0
LINE
  5
4E7
100
AcDbEntity
  8
0
100
AcDbLine
 62
7
  6
CONTINUOUS
 10
231.0792746544
 20
186.7178705358
 11
231.0792746005
 21
187.1261315602
  0
LINE
  5
4E8
100
AcDbEntity
  8
0
100
AcDbLine
 62
7
  6
CONTINUOUS
 10
233.0792746544
 20
186.7178706203
 11
233.0792746005
 21
187.1261318239
  0
LINE
  5
4E9
100
AcDbEntity
  8
0
100
AcDbLine
 62
7
  6
CONTINUOUS
 10
237.4532053421
 20
171.9364401733
 11
237.4115756751
 21
170.5110982207
  0
LINE
  5
4EA
100
AcDbEntity
  8
0
100
AcDbLine
 62
7
  6
CONTINUOUS
 10
236.790589252
 20
159.216165561
 11
237.4115756751
 21
170.5110982207
  0
ARC
  5
4EB
100
AcDbEntity
  8
0
100
AcDbCircle
 62
7
  6
CONTINUOUS
 10
1138.6623147319
 20
1834.4996834196
 40
1985.4981980967
100
AcDbArc
 50
239.7382096692
 51
240.0526352018
  0
ARC
  5
4EC
100
AcDbEntity
  8
0
100
AcDbCircle
 62
7
  6
CONTINUOUS
 10
1024.7064285474
 20
1893.1342513172
 40
1972.2129924624
100
AcDbArc
 50
239.8529116328
 51
239.9765663487
  0
ARC
  5
4ED
100
AcDbEntity
  8
0
100
AcDbCircle
 62
7
  6
CONTINUOUS
 10
-420.9802197146
 20
1311.6867302476
 40
1287.9060261983
100
AcDbArc
 50
299.8925038033
 51
300.1071657998
  0
ARC
  5
4EE
100
AcDbEntity
  8
0
100
AcDbCircle
 62
7
  6
CONTINUOUS
 10
37.1901830682
 20
-30.2291890127
 40
203.5279586663
100
AcDbArc
 50
59.7042927675
 51
60.0463680267
  0
ARC
  5
4EF
100
AcDbEntity
  8
0
100
AcDbCircle
 62
7
  6
CONTINUOUS
 10
6.6580861419
 20
114.6541270794
 40
131.5400435053
100
AcDbArc
 50
1.3919724656
 51
2.1195188815
  0
ARC
  5
4F0
100
AcDbEntity
  8
0
100
AcDbCircle
 62
7
  6
CONTINUOUS
 10
31.546786339
 20
112.6778714643
 40
102.601229562
100
AcDbArc
 50
2.8249691478
 51
3.3342189794
  0
ARC
  5
4F1
100
AcDbEntity
  8
0
100
AcDbCircle
 62
7
  6
CONTINUOUS
 10
175.7359094824
 20
199.9859707368
 40
1.1407778455
100
AcDbArc
 50
41.9733763377
 51
44.4190374374
  0
ARC
  5
4F2
100
AcDbEntity
  8
0
100
AcDbCircle
 62
7
  6
CONTINUOUS
 10
103.1385016292
 20
162.8149126322
 40
0.5
100
AcDbArc
 50
171.7503392971
 51
180.0
  0
SPLINE
  5
4F3
100
AcDbEntity
  8
0
100
AcDbSpline
 62
7
  6
CONTINUOUS
 70
0
 71
3
 72
9
 73
5
 74
0
 42
0.0000001
 43
0.0000001
 44
0.0000000001
 40
0.0
 40
0.0
 40
0.0
 40
0.0
 40
0.2208522598
 40
1.0
 40
1.0
 40
1.0
 40
1.0
 10
168.003168356
 20
199.2915199737
 30
0.0
 10
168.0031683599
 20
199.2991341495
 30
0.0
 10
167.9969940709
 20
199.3338450183
 30
0.0
 10
167.9678341061
 20
199.3597379499
 30
0.0
 10
167.944570665
 20
199.3731688
 30
0.0
  0
SPLINE
  5
4F4
100
AcDbEntity
  8
0
100
AcDbSpline
 62
7
  6
CONTINUOUS
 70
0
 71
3
 72
9
 73
5
 74
0
 42
0.0000001
 43
0.0000001
 44
0.0000000001
 40
0.0
 40
0.0
 40
0.0
 40
0.0
 40
0.2208522598
 40
1.0
 40
1.0
 40
1.0
 40
1.0
 10
166.2353940432
 20
200.31212186
 30
0.0
 10
166.235394047
 20
200.3197360358
 30
0.0
 10
166.229219758
 20
200.3544469046
 30
0.0
 10
166.2000597932
 20
200.3803398362
 30
0.0
 10
166.1767963522
 20
200.3937706863
 30
0.0
  0
SPLINE
  5
4F5
100
AcDbEntity
  8
0
100
AcDbSpline
 62
7
  6
CONTINUOUS
 70
0
 71
3
 72
9
 73
5
 74
0
 42
0.0000001
 43
0.0000001
 44
0.0000000001
 40
0.0
 40
0.0
 40
0.0
 40
0.0
 40
0.2208522598
 40
1.0
 40
1.0
 40
1.0
 40
1.0
 10
164.4676197303
 20
201.3327237463
 30
0.0
 10
164.4676197342
 20
201.3403379221
 30
0.0
 10
164.4614454452
 20
201.3750487909
 30
0.0
 10
164.4322854804
 20
201.4009417225
 30
0.0
 10
164.4090220393
 20
201.4143725726
 30
0.0
  0
SPLINE
  5
4F6
100
AcDbEntity
  8
0
100
AcDbSpline
 62
7
  6
CONTINUOUS
 70
0
 71
3
 72
9
 73
5
 74
0
 42
0.0000001
 43
0.0000001
 44
0.0000000001
 40
0.0
 40
0.0
 40
0.0
 40
0.0
 40
0.2208522598
 40
1.0
 40
1.0
 40
1.0
 40
1.0
 10
162.6998454174
 20
202.3533256326
 30
0.0
 10
162.6998454213
 20
202.3609398084
 30
0.0
 10
162.6936711323
 20
202.3956506772
 30
0.0
 10
162.6645111675
 20
202.4215436088
 30
0.0
 10
162.6412477264
 20
202.4349744589
 30
0.0
  0
SPLINE
  5
4F7
100
AcDbEntity
  8
0
100
AcDbSpline
 62
7
  6
CONTINUOUS
 70
0
 71
3
 72
9
 73
5
 74
0
 42
0.0000001
 43
0.0000001
 44
0.0000000001
 40
0.0
 40
0.0
 40
0.0
 40
0.0
 40
0.2208522598
 40
1.0
 40
1.0
 40
1.0
 40
1.0
 10
160.9320711046
 20
203.3739275189
 30
0.0
 10
160.9320711084
 20
203.3815416947
 30
0.0
 10
160.9258968194
 20
203.4162525635
 30
0.0
 10
160.8967368546
 20
203.4421454951
 30
0.0
 10
160.8734734136
 20
203.4555763452
 30
0.0
  0
SPLINE
  5
4F8
100
AcDbEntity
  8
0
100
AcDbSpline
 62
7
  6
CONTINUOUS
 70
0
 71
3
 72
9
 73
5
 74
0
 42
0.0000001
 43
0.0000001
 44
0.0000000001
 40
0.0
 40
0.0
 40
0.0
 40
0.0
 40
0.2208522598
 40
1.0
 40
1.0
 40
1.0
 40
1.0
 10
159.1642967917
 20
204.3945294052
 30
0.0
 10
159.1642967956
 20
204.402143581
 30
0.0
 10
159.1581225066
 20
204.4368544498
 30
0.0
 10
159.1289625418
 20
204.4627473814
 30
0.0
 10
159.1056991007
 20
204.4761782315
 30
0.0
  0
SPLINE
  5
4F9
100
AcDbEntity
  8
0
100
AcDbSpline
 62
7
  6
CONTINUOUS
 70
0
 71
3
 72
9
 73
5
 74
0
 42
0.0000001
 43
0.0000001
 44
0.0000000001
 40
0.0
 40
0.0
 40
0.0
 40
0.0
 40
0.5000010899
 40
1.0
 40
1.0
 40
1.0
 40
1.0
 10
131.9530954057
 20
161.0799745659
 30
0.0
 10
131.7432224903
 20
160.958805131
 30
0.0
 10
131.2460152535
 20
160.8629243781
 30
0.0
 10
130.7488159223
 20
160.9588187871
 30
0.0
 10
130.5389428349
 20
161.0799858108
 30
0.0
  0
SPLINE
  5
4FA
100
AcDbEntity
  8
0
100
AcDbSpline
 62
7
  6
CONTINUOUS
 70
0
 71
3
 72
11
 73
7
 74
0
 42
0.0000001
 43
0.0000001
 44
0.0000000001
 40
0.0
 40
0.0
 40
0.0
 40
0.0
 40
0.237252417
 40
0.4999996432
 40
0.7627470644
 40
1.0
 40
1.0
 40
1.0
 40
1.0
 10
66.9324086007
 20
206.3754656862
 30
0.0
 10
66.7971513999
 20
206.2973753744
 30
0.0
 10
66.4826315758
 20
206.1834046864
 30
0.0
 10
65.979751212
 20
206.1289156739
 30
0.0
 10
65.4768702671
 20
206.1834025138
 30
0.0
 10
65.1623494496
 20
206.297371619
 30
0.0
 10
65.0270913917
 20
206.3754611293
 30
0.0
  0
SPLINE
  5
4FB
100
AcDbEntity
  8
0
100
AcDbSpline
 62
7
  6
CONTINUOUS
 70
0
 71
3
 72
9
 73
5
 74
0
 42
0.0000001
 43
0.0000001
 44
0.0000000001
 40
0.0
 40
0.0
 40
0.0
 40
0.0
 40
0.2208522598
 40
1.0
 40
1.0
 40
1.0
 40
1.0
 10
157.3965224788
 20
205.4151312915
 30
0.0
 10
157.3965224827
 20
205.4227454673
 30
0.0
 10
157.3903481937
 20
205.4574563361
 30
0.0
 10
157.3611882289
 20
205.4833492677
 30
0.0
 10
157.3379247878
 20
205.4967801178
 30
0.0
  0
SPLINE
  5
4FC
100
AcDbEntity
  8
0
100
AcDbSpline
 62
7
  6
CONTINUOUS
 70
0
 71
3
 72
9
 73
5
 74
0
 42
0.0000001
 43
0.0000001
 44
0.0000000001
 40
0.0
 40
0.0
 40
0.0
 40
0.0
 40
0.5508328375
 40
1.0
 40
1.0
 40
1.0
 40
1.0
 10
55.1209710988
 20
212.094633027
 30
0.0
 10
55.0103121871
 20
212.1585205349
 30
0.0
 10
54.820172494
 20
212.3040742287
 30
0.0
 10
54.7292125969
 20
212.5366501375
 30
0.0
 10
54.7292162345
 20
212.6408438431
 30
0.0
  0
SPLINE
  5
4FD
100
AcDbEntity
  8
0
100
AcDbSpline
 62
7
  6
CONTINUOUS
 70
0
 71
3
 72
9
 73
5
 74
0
 42
0.0000001
 43
0.0000001
 44
0.0000000001
 40
0.0
 40
0.0
 40
0.0
 40
0.0
 40
0.5000010899
 40
1.0
 40
1.0
 40
1.0
 40
1.0
 10
114.982462002
 20
170.8777527855
 30
0.0
 10
114.7725890867
 20
170.7565833506
 30
0.0
 10
114.27538185
 20
170.6607025978
 30
0.0
 10
113.778182519
 20
170.7565970066
 30
0.0
 10
113.5683094315
 20
170.8777640303
 30
0.0
  0
SPLINE
  5
4FE
100
AcDbEntity
  8
0
100
AcDbSpline
 62
7
  6
CONTINUOUS
 70
0
 71
3
 72
11
 73
7
 74
0
 42
0.0000001
 43
0.0000001
 44
0.0000000001
 40
0.0
 40
0.0
 40
0.0
 40
0.0
 40
0.2372524155
 40
0.499999641
 40
0.7627470633
 40
1.0
 40
1.0
 40
1.0
 40
1.0
 10
178.0738463719
 20
190.7900277891
 30
0.0
 10
177.870565189
 20
190.6726640434
 30
0.0
 10
177.3978660495
 20
190.501374845
 30
0.0
 10
176.642075481
 20
190.4194820297
 30
0.0
 10
175.8862840339
 20
190.5013715598
 30
0.0
 10
175.4135833937
 20
190.6726583712
 30
0.0
 10
175.2103009179
 20
190.7900209089
 30
0.0
  0
SPLINE
  5
4FF
100
AcDbEntity
  8
0
100
AcDbSpline
 62
7
  6
CONTINUOUS
 70
0
 71
3
 72
9
 73
5
 74
0
 42
0.0000001
 43
0.0000001
 44
0.0000000001
 40
0.0
 40
0.0
 40
0.0
 40
0.0
 40
0.5866718571
 40
1.0
 40
1.0
 40
1.0
 40
1.0
 10
148.3872836666
 20
206.3313440012
 30
0.0
 10
148.2259061293
 20
206.4272406965
 30
0.0
 10
147.9634902323
 20
206.6287597359
 30
0.0
 10
147.8308353881
 20
206.9394697974
 30
0.0
 10
147.8192651565
 20
207.0712173229
 30
0.0
  0
SPLINE
  5
500
100
AcDbEntity
  8
0
100
AcDbSpline
 62
7
  6
CONTINUOUS
 70
0
 71
3
 72
9
 73
5
 74
0
 42
0.0000001
 43
0.0000001
 44
0.0000000001
 40
0.0
 40
0.0
 40
0.0
 40
0.0
 40
0.2208447212
 40
1.0
 40
1.0
 40
1.0
 40
1.0
 10
63.4159472104
 20
209.6809967631
 30
0.0
 10
63.4159470455
 20
209.6695744377
 30
0.0
 10
63.4066796607
 20
209.6175012105
 30
0.0
 10
63.3629250604
 20
209.5786683215
 30
0.0
 10
63.3280252712
 20
209.5585190391
 30
0.0
  0
SPLINE
  5
501
100
AcDbEntity
  8
0
100
AcDbSpline
 62
7
  6
CONTINUOUS
 70
0
 71
3
 72
11
 73
7
 74
0
 42
0.0000001
 43
0.0000001
 44
0.0000000001
 40
0.0
 40
0.0
 40
0.0
 40
0.0
 40
0.2374153736
 40
0.5000481482
 40
0.7626274355
 40
1.0
 40
1.0
 40
1.0
 40
1.0
 10
135.2763091788
 20
143.2291009602
 30
0.0
 10
135.1759161493
 20
143.1711424235
 30
0.0
 10
134.9422361335
 20
143.087844091
 30
0.0
 10
134.5695026133
 20
143.0455320453
 30
0.0
 10
134.1967957066
 20
143.0878648252
 30
0.0
 10
133.9631593642
 20
143.1711431692
 30
0.0
 10
133.8627853438
 20
143.229092826
 30
0.0
  0
SPLINE
  5
502
100
AcDbEntity
  8
0
100
AcDbSpline
 62
7
  6
CONTINUOUS
 70
0
 71
3
 72
9
 73
5
 74
0
 42
0.0000001
 43
0.0000001
 44
0.0000000001
 40
0.0
 40
0.0
 40
0.0
 40
0.0
 40
0.5195237545
 40
1.0
 40
1.0
 40
1.0
 40
1.0
 10
137.7729047699
 20
144.1738263445
 30
0.0
 10
137.5863469532
 20
144.2174379293
 30
0.0
 10
137.2112648452
 20
144.2343018458
 30
0.0
 10
136.844665357
 20
144.1345836048
 30
0.0
 10
136.6912147817
 20
144.0459922147
 30
0.0
  0
SPLINE
  5
503
100
AcDbEntity
  8
0
100
AcDbSpline
 62
7
  6
CONTINUOUS
 70
0
 71
3
 72
9
 73
5
 74
0
 42
0.0000001
 43
0.0000001
 44
0.0000000001
 40
0.0
 40
0.0
 40
0.0
 40
0.0
 40
0.4487555179
 40
1.0
 40
1.0
 40
1.0
 40
1.0
 10
74.4006895255
 20
211.0079148549
 30
0.0
 10
74.4006868705
 20
210.9028169393
 30
0.0
 10
74.3081668377
 20
210.6680811259
 30
0.0
 10
74.1155240834
 20
210.5219881188
 30
0.0
 10
74.0034491503
 20
210.4579085042
 30
0.0
  0
SPLINE
  5
504
100
AcDbEntity
  8
0
100
AcDbSpline
 62
7
  6
CONTINUOUS
 70
0
 71
3
 72
9
 73
5
 74
0
 42
0.0000001
 43
0.0000001
 44
0.0000000001
 40
0.0
 40
0.0
 40
0.0
 40
0.0
 40
0.4978893536
 40
1.0
 40
1.0
 40
1.0
 40
1.0
 10
139.1417499671
 20
144.2972876442
 30
0.0
 10
139.1453005037
 20
144.4297969688
 30
0.0
 10
139.1431184558
 20
144.6961117179
 30
0.0
 10
139.1525972886
 20
144.9622161443
 30
0.0
 10
139.156177928
 20
145.0958489327
 30
0.0
  0
SPLINE
  5
505
100
AcDbEntity
  8
0
100
AcDbSpline
 62
7
  6
CONTINUOUS
 70
0
 71
3
 72
9
 73
5
 74
0
 42
0.0000001
 43
0.0000001
 44
0.0000000001
 40
0.0
 40
0.0
 40
0.0
 40
0.0
 40
0.4792945599
 40
1.0
 40
1.0
 40
1.0
 40
1.0
 10
236.7211873207
 20
185.929086103
 30
0.0
 10
236.7211952626
 20
186.0470018767
 30
0.0
 10
236.6146424511
 20
186.2918516244
 30
0.0
 10
236.4152682293
 20
186.4447619636
 30
0.0
 10
236.3043069778
 20
186.5087787357
 30
0.0
  0
SPLINE
  5
506
100
AcDbEntity
  8
0
100
AcDbSpline
 62
7
  6
CONTINUOUS
 70
0
 71
3
 72
9
 73
5
 74
0
 42
0.0000001
 43
0.0000001
 44
0.0000000001
 40
0.0
 40
0.0
 40
0.0
 40
0.0
 40
0.4781511869
 40
1.0
 40
1.0
 40
1.0
 40
1.0
 10
226.4651916724
 20
196.7453331866
 30
0.0
 10
226.4590125978
 20
196.8584666106
 30
0.0
 10
226.3523712678
 20
197.0900822275
 30
0.0
 10
226.1587621417
 20
197.235263337
 30
0.0
 10
226.0516905077
 20
197.2971229566
 30
0.0
  0
SPLINE
  5
507
100
AcDbEntity
  8
0
100
AcDbSpline
 62
7
  6
CONTINUOUS
 70
0
 71
3
 72
8
 73
4
 74
0
 42
0.0000001
 43
0.0000001
 44
0.0000000001
 40
0.0
 40
0.0
 40
0.0
 40
0.0
 40
1.0
 40
1.0
 40
1.0
 40
1.0
 10
119.1854805405
 20
147.3338611716
 30
0.0
 10
119.2534157168
 20
147.373071164
 30
0.0
 10
119.3273578034
 20
147.4031585979
 30
0.0
 10
119.4032199811
 20
147.4230970454
 30
0.0
  0
SPLINE
  5
508
100
AcDbEntity
  8
0
100
AcDbSpline
 62
7
  6
CONTINUOUS
 70
0
 71
3
 72
9
 73
5
 74
0
 42
0.0000001
 43
0.0000001
 44
0.0000000001
 40
0.0
 40
0.0
 40
0.0
 40
0.0
 40
0.4562732852
 40
1.0
 40
1.0
 40
1.0
 40
1.0
 10
119.4032199811
 20
147.4230970454
 30
0.0
 10
119.5678855653
 20
147.4663752137
 30
0.0
 10
119.9562890571
 20
147.4578627145
 30
0.0
 10
120.3045235521
 20
147.3072768976
 30
0.0
 10
120.4802333604
 20
147.2058330874
 30
0.0
  0
SPLINE
  5
509
100
AcDbEntity
  8
0
100
AcDbSpline
 62
7
  6
CONTINUOUS
 70
0
 71
3
 72
11
 73
7
 74
0
 42
0.0000001
 43
0.0000001
 44
0.0000000001
 40
0.0
 40
0.0
 40
0.0
 40
0.0
 40
0.217746217
 40
0.4508867322
 40
0.7104627481
 40
1.0
 40
1.0
 40
1.0
 40
1.0
 10
118.9354684081
 20
147.7668974866
 30
0.0
 10
118.8335585005
 20
147.7080602822
 30
0.0
 10
118.6426938894
 20
147.5479622929
 30
0.0
 10
118.43967649
 20
147.215831789
 30
0.0
 10
118.3193108465
 20
146.8066820991
 30
0.0
 10
118.2954167827
 20
146.5089404638
 30
0.0
 10
118.2954167827
 20
146.352467731
 30
0.0
  0
SPLINE
  5
50A
100
AcDbEntity
  8
0
100
AcDbSpline
 62
7
  6
CONTINUOUS
 70
0
 71
3
 72
9
 73
5
 74
0
 42
0.0000001
 43
0.0000001
 44
0.0000000001
 40
0.0
 40
0.0
 40
0.0
 40
0.0
 40
0.2208539297
 40
1.0
 40
1.0
 40
1.0
 40
1.0
 10
77.1441315885
 20
171.0629507534
 30
0.0
 10
77.1375373049
 20
171.0591435692
 30
0.0
 10
77.1105631985
 20
171.0364407325
 30
0.0
 10
77.1027184287
 20
170.9982403003
 30
0.0
 10
77.1027184287
 20
170.9713775818
 30
0.0
  0
SPLINE
  5
50B
100
AcDbEntity
  8
0
100
AcDbSpline
 62
7
  6
CONTINUOUS
 70
0
 71
3
 72
9
 73
5
 74
0
 42
0.0000001
 43
0.0000001
 44
0.0000000001
 40
0.0
 40
0.0
 40
0.0
 40
0.0
 40
0.2208539297
 40
1.0
 40
1.0
 40
1.0
 40
1.0
 10
85.0284050238
 20
166.5110663405
 30
0.0
 10
85.0218107403
 20
166.5072591563
 30
0.0
 10
84.9948366339
 20
166.4845563196
 30
0.0
 10
84.9869918641
 20
166.4463558874
 30
0.0
 10
84.9869918641
 20
166.4194931689
 30
0.0
  0
SPLINE
  5
50C
100
AcDbEntity
  8
0
100
AcDbSpline
 62
7
  6
CONTINUOUS
 70
0
 71
3
 72
8
 73
4
 74
0
 42
0.0000001
 43
0.0000001
 44
0.0000000001
 40
0.0
 40
0.0
 40
0.0
 40
0.0
 40
1.0
 40
1.0
 40
1.0
 40
1.0
 10
138.1047346454
 20
143.9775231014
 30
0.0
 10
138.0181390687
 20
144.0724645702
 30
0.0
 10
137.8980775216
 20
144.144497117
 30
0.0
 10
137.7729773842
 20
144.173867715
 30
0.0
  0
SPLINE
  5
50D
100
AcDbEntity
  8
0
100
AcDbSpline
 62
7
  6
CONTINUOUS
 70
0
 71
3
 72
9
 73
5
 74
0
 42
0.0000001
 43
0.0000001
 44
0.0000000001
 40
0.0
 40
0.0
 40
0.0
 40
0.0
 40
0.4840831563
 40
1.0
 40
1.0
 40
1.0
 40
1.0
 10
138.5124846958
 20
142.9904353807
 30
0.0
 10
138.5132571012
 20
143.165468631
 30
0.0
 10
138.4251208069
 20
143.5268774063
 30
0.0
 10
138.2304405349
 20
143.8397172018
 30
0.0
 10
138.1047300778
 20
143.9775434097
 30
0.0
  0
SPLINE
  5
50E
100
AcDbEntity
  8
0
100
AcDbSpline
 62
7
  6
CONTINUOUS
 70
0
 71
3
 72
9
 73
5
 74
0
 42
0.0000001
 43
0.0000001
 44
0.0000000001
 40
0.0
 40
0.0
 40
0.0
 40
0.0
 40
0.2208539297
 40
1.0
 40
1.0
 40
1.0
 40
1.0
 10
60.1734981849
 20
180.8607288619
 30
0.0
 10
60.1669039014
 20
180.8569216777
 30
0.0
 10
60.139929795
 20
180.8342188409
 30
0.0
 10
60.1320850252
 20
180.7960184088
 30
0.0
 10
60.1320850252
 20
180.7691556902
 30
0.0
  0
SPLINE
  5
50F
100
AcDbEntity
  8
0
100
AcDbSpline
 62
7
  6
CONTINUOUS
 70
0
 71
3
 72
9
 73
5
 74
0
 42
0.0000001
 43
0.0000001
 44
0.0000000001
 40
0.0
 40
0.0
 40
0.0
 40
0.0
 40
0.2208539297
 40
1.0
 40
1.0
 40
1.0
 40
1.0
 10
68.0577716203
 20
176.308844449
 30
0.0
 10
68.0511773368
 20
176.3050372648
 30
0.0
 10
68.0242032304
 20
176.282334428
 30
0.0
 10
68.0163584606
 20
176.2441339959
 30
0.0
 10
68.0163584606
 20
176.2172712773
 30
0.0
  0
SPLINE
  5
510
100
AcDbEntity
  8
0
100
AcDbSpline
 62
7
  6
CONTINUOUS
 70
0
 71
3
 72
9
 73
5
 74
0
 42
0.0000001
 43
0.0000001
 44
0.0000000001
 40
0.0
 40
0.0
 40
0.0
 40
0.0
 40
0.2253155629
 40
1.0
 40
1.0
 40
1.0
 40
1.0
 10
135.4152105311
 20
117.3365875745
 30
0.0
 10
135.3757372129
 20
117.3193589775
 30
0.0
 10
135.1955661434
 20
117.2543150931
 30
0.0
 10
135.0022986526
 20
117.2308249214
 30
0.0
 10
134.854236865
 20
117.2283884329
 30
0.0
  0
SPLINE
  5
511
100
AcDbEntity
  8
0
100
AcDbSpline
 62
7
  6
CONTINUOUS
 70
0
 71
3
 72
10
 73
6
 74
0
 42
0.0000001
 43
0.0000001
 44
0.0000000001
 40
0.0
 40
0.0
 40
0.0
 40
0.0
 40
0.5080005295
 40
0.7706876413
 40
1.0
 40
1.0
 40
1.0
 40
1.0
 10
138.1593123205
 20
117.8495161737
 30
0.0
 10
137.9527539431
 20
117.9671673697
 30
0.0
 10
137.5859781318
 20
118.053291234
 30
0.0
 10
137.1181697274
 20
118.0420163349
 30
0.0
 10
136.8908874459
 20
117.9863542639
 30
0.0
 10
136.7926813096
 20
117.9431123622
 30
0.0
  0
SPLINE
  5
512
100
AcDbEntity
  8
0
100
AcDbSpline
 62
7
  6
CONTINUOUS
 70
0
 71
3
 72
9
 73
5
 74
0
 42
0.0000001
 43
0.0000001
 44
0.0000000001
 40
0.0
 40
0.0
 40
0.0
 40
0.0
 40
0.4539947188
 40
1.0
 40
1.0
 40
1.0
 40
1.0
 10
39.7690922818
 20
197.0790478835
 30
0.0
 10
39.9064653686
 20
197.1542298263
 30
0.0
 10
40.2730085458
 20
197.2068567623
 30
0.0
 10
40.6009767981
 20
197.0701866232
 30
0.0
 10
40.7651886581
 20
196.9779595696
 30
0.0
  0
SPLINE
  5
513
100
AcDbEntity
  8
0
100
AcDbSpline
 62
7
  6
CONTINUOUS
 70
0
 71
3
 72
9
 73
5
 74
0
 42
0.0000001
 43
0.0000001
 44
0.0000000001
 40
0.0
 40
0.0
 40
0.0
 40
0.0
 40
0.7129097502
 40
1.0
 40
1.0
 40
1.0
 40
1.0
 10
161.8485968939
 20
115.6710434147
 30
0.0
 10
161.8623128242
 20
115.6631098771
 30
0.0
 10
161.8876597652
 20
115.6600117641
 30
0.0
 10
161.9077480836
 20
115.6698553613
 30
0.0
 10
161.9132673371
 20
115.6730574299
 30
0.0
  0
SPLINE
  5
514
100
AcDbEntity
  8
0
100
AcDbSpline
 62
7
  6
CONTINUOUS
 70
0
 71
3
 72
9
 73
5
 74
0
 42
0.0000001
 43
0.0000001
 44
0.0000000001
 40
0.0
 40
0.0
 40
0.0
 40
0.0
 40
0.4499873057
 40
1.0
 40
1.0
 40
1.0
 40
1.0
 10
138.3655764831
 20
119.6002443752
 30
0.0
 10
138.4294078913
 20
119.6368670731
 30
0.0
 10
138.539453493
 20
119.774280166
 30
0.0
 10
138.5622359579
 20
119.9414038536
 30
0.0
 10
138.5627265088
 20
120.0313519787
 30
0.0
  0
SPLINE
  5
515
100
AcDbEntity
  8
0
100
AcDbSpline
 62
7
  6
CONTINUOUS
 70
0
 71
3
 72
9
 73
5
 74
0
 42
0.0000001
 43
0.0000001
 44
0.0000000001
 40
0.0
 40
0.0
 40
0.0
 40
0.0
 40
0.5243236657
 40
1.0
 40
1.0
 40
1.0
 40
1.0
 10
41.6618818985
 20
226.2760576718
 30
0.0
 10
41.5558307294
 20
226.2148360516
 30
0.0
 10
41.364921237
 20
226.0714592879
 30
0.0
 10
41.2622403536
 20
225.841247096
 30
0.0
 10
41.2585284179
 20
225.730216711
 30
0.0
  0
SPLINE
  5
516
100
AcDbEntity
  8
0
100
AcDbSpline
 62
7
  6
CONTINUOUS
 70
0
 71
3
 72
9
 73
5
 74
0
 42
0.0000001
 43
0.0000001
 44
0.0000000001
 40
0.0
 40
0.0
 40
0.0
 40
0.0
 40
0.4491641745
 40
1.0
 40
1.0
 40
1.0
 40
1.0
 10
199.5263499956
 20
203.6598495115
 30
0.0
 10
199.5263499605
 20
203.5021609978
 30
0.0
 10
199.3886574291
 20
203.1501822126
 30
0.0
 10
199.1008839622
 20
202.9299212031
 30
0.0
 10
198.9334095712
 20
202.8332303945
 30
0.0
  0
SPLINE
  5
517
100
AcDbEntity
  8
0
100
AcDbSpline
 62
7
  6
CONTINUOUS
 70
0
 71
3
 72
9
 73
5
 74
0
 42
0.0000001
 43
0.0000001
 44
0.0000000001
 40
0.0
 40
0.0
 40
0.0
 40
0.0
 40
0.4502098136
 40
1.0
 40
1.0
 40
1.0
 40
1.0
 10
176.8039951436
 20
201.289402639
 30
0.0
 10
176.8040047735
 20
201.1393032346
 30
0.0
 10
176.6756521129
 20
200.8048055564
 30
0.0
 10
176.40483692
 20
200.5925782259
 30
0.0
 10
176.2470930595
 20
200.4992211845
 30
0.0
  0
SPLINE
  5
518
100
AcDbEntity
  8
0
100
AcDbSpline
 62
7
  6
CONTINUOUS
 70
0
 71
3
 72
9
 73
5
 74
0
 42
0.0000001
 43
0.0000001
 44
0.0000000001
 40
0.0
 40
0.0
 40
0.0
 40
0.0
 40
0.2250433779
 40
1.0
 40
1.0
 40
1.0
 40
1.0
 10
156.3200590615
 20
111.9548520542
 30
0.0
 10
156.3336166634
 20
111.9538826935
 30
0.0
 10
156.3943271567
 20
111.9557746847
 30
0.0
 10
156.4527187073
 20
111.9791027806
 30
0.0
 10
156.4932539313
 20
112.0025056634
 30
0.0
  0
SPLINE
  5
519
100
AcDbEntity
  8
0
100
AcDbSpline
 62
7
  6
CONTINUOUS
 70
0
 71
3
 72
9
 73
5
 74
0
 42
0.0000001
 43
0.0000001
 44
0.0000000001
 40
0.0
 40
0.0
 40
0.0
 40
0.0
 40
0.2530588044
 40
1.0
 40
1.0
 40
1.0
 40
1.0
 10
158.0173687852
 20
112.9347884306
 30
0.0
 10
158.1157954534
 20
113.0554682914
 30
0.0
 10
158.475803467
 20
113.5547350735
 30
0.0
 10
158.7305900295
 20
114.1337828553
 30
0.0
 10
158.8304079408
 20
114.5824706925
 30
0.0
  0
SPLINE
  5
51A
100
AcDbEntity
  8
0
100
AcDbSpline
 62
7
  6
CONTINUOUS
 70
0
 71
3
 72
9
 73
5
 74
0
 42
0.0000001
 43
0.0000001
 44
0.0000000001
 40
0.0
 40
0.0
 40
0.0
 40
0.0
 40
0.2304504889
 40
1.0
 40
1.0
 40
1.0
 40
1.0
 10
157.8441739155
 20
112.7824550243
 30
0.0
 10
157.8598433436
 20
112.7908782935
 30
0.0
 10
157.9252825686
 20
112.8321350608
 30
0.0
 10
157.9807880024
 20
112.8879805793
 30
0.0
 10
158.0173687852
 20
112.9347884306
 30
0.0
  0
SPLINE
  5
51B
100
AcDbEntity
  8
0
100
AcDbSpline
 62
7
  6
CONTINUOUS
 70
0
 71
3
 72
9
 73
5
 74
0
 42
0.0000001
 43
0.0000001
 44
0.0000000001
 40
0.0
 40
0.0
 40
0.0
 40
0.0
 40
0.4783357221
 40
1.0
 40
1.0
 40
1.0
 40
1.0
 10
236.7905165758
 20
159.2144736248
 30
0.0
 10
236.7860064357
 20
159.1008405857
 30
0.0
 10
236.6808568837
 20
158.8670448077
 30
0.0
 10
236.4868400709
 20
158.7207814304
 30
0.0
 10
236.3794019973
 20
158.6588222448
 30
0.0
  0
SPLINE
  5
51C
100
AcDbEntity
  8
0
100
AcDbSpline
 62
7
  6
CONTINUOUS
 70
0
 71
3
 72
9
 73
5
 74
0
 42
0.0000001
 43
0.0000001
 44
0.0000000001
 40
0.0
 40
0.0
 40
0.0
 40
0.0
 40
0.2405228131
 40
1.0
 40
1.0
 40
1.0
 40
1.0
 10
158.1157454855
 20
205.0477152879
 30
0.0
 10
158.0956854964
 20
205.0592966659
 30
0.0
 10
158.0046755897
 20
205.0919893254
 30
0.0
 10
157.896244127
 20
205.0842845375
 30
0.0
 10
157.832902773
 20
205.047714608
 30
0.0
  0
SPLINE
  5
51D
100
AcDbEntity
  8
0
100
AcDbSpline
 62
7
  6
CONTINUOUS
 70
0
 71
3
 72
9
 73
5
 74
0
 42
0.0000001
 43
0.0000001
 44
0.0000000001
 40
0.0
 40
0.0
 40
0.0
 40
0.0
 40
0.2405228131
 40
1.0
 40
1.0
 40
1.0
 40
1.0
 10
159.8835197984
 20
204.0271134016
 30
0.0
 10
159.8634598093
 20
204.0386947796
 30
0.0
 10
159.7724499026
 20
204.0713874391
 30
0.0
 10
159.6640184399
 20
204.0636826512
 30
0.0
 10
159.6006770859
 20
204.0271127217
 30
0.0
  0
SPLINE
  5
51E
100
AcDbEntity
  8
0
100
AcDbSpline
 62
7
  6
CONTINUOUS
 70
0
 71
3
 72
9
 73
5
 74
0
 42
0.0000001
 43
0.0000001
 44
0.0000000001
 40
0.0
 40
0.0
 40
0.0
 40
0.0
 40
0.2405228131
 40
1.0
 40
1.0
 40
1.0
 40
1.0
 10
161.6512941112
 20
203.0065115153
 30
0.0
 10
161.6312341222
 20
203.0180928933
 30
0.0
 10
161.5402242155
 20
203.0507855528
 30
0.0
 10
161.4317927527
 20
203.0430807649
 30
0.0
 10
161.3684513988
 20
203.0065108354
 30
0.0
  0
SPLINE
  5
51F
100
AcDbEntity
  8
0
100
AcDbSpline
 62
7
  6
CONTINUOUS
 70
0
 71
3
 72
9
 73
5
 74
0
 42
0.0000001
 43
0.0000001
 44
0.0000000001
 40
0.0
 40
0.0
 40
0.0
 40
0.0
 40
0.2405228131
 40
1.0
 40
1.0
 40
1.0
 40
1.0
 10
163.4190684241
 20
201.9859096289
 30
0.0
 10
163.399008435
 20
201.997491007
 30
0.0
 10
163.3079985283
 20
202.0301836665
 30
0.0
 10
163.1995670656
 20
202.0224788786
 30
0.0
 10
163.1362257116
 20
201.9859089491
 30
0.0
  0
SPLINE
  5
520
100
AcDbEntity
  8
0
100
AcDbSpline
 62
7
  6
CONTINUOUS
 70
0
 71
3
 72
9
 73
5
 74
0
 42
0.0000001
 43
0.0000001
 44
0.0000000001
 40
0.0
 40
0.0
 40
0.0
 40
0.0
 40
0.2405228131
 40
1.0
 40
1.0
 40
1.0
 40
1.0
 10
165.186842737
 20
200.9653077426
 30
0.0
 10
165.1667827479
 20
200.9768891207
 30
0.0
 10
165.0757728412
 20
201.0095817802
 30
0.0
 10
164.9673413785
 20
201.0018769923
 30
0.0
 10
164.9040000245
 20
200.9653070628
 30
0.0
  0
SPLINE
  5
521
100
AcDbEntity
  8
0
100
AcDbSpline
 62
7
  6
CONTINUOUS
 70
0
 71
3
 72
9
 73
5
 74
0
 42
0.0000001
 43
0.0000001
 44
0.0000000001
 40
0.0
 40
0.0
 40
0.0
 40
0.0
 40
0.2405228131
 40
1.0
 40
1.0
 40
1.0
 40
1.0
 10
166.9546170498
 20
199.9447058563
 30
0.0
 10
166.9345570608
 20
199.9562872344
 30
0.0
 10
166.8435471541
 20
199.9889798939
 30
0.0
 10
166.7351156913
 20
199.981275106
 30
0.0
 10
166.6717743374
 20
199.9447051765
 30
0.0
  0
SPLINE
  5
522
100
AcDbEntity
  8
0
100
AcDbSpline
 62
7
  6
CONTINUOUS
 70
0
 71
3
 72
9
 73
5
 74
0
 42
0.0000001
 43
0.0000001
 44
0.0000000001
 40
0.0
 40
0.0
 40
0.0
 40
0.0
 40
0.2405228131
 40
1.0
 40
1.0
 40
1.0
 40
1.0
 10
168.7223913627
 20
198.92410397
 30
0.0
 10
168.7023313736
 20
198.9356853481
 30
0.0
 10
168.6113214669
 20
198.9683780076
 30
0.0
 10
168.5028900042
 20
198.9606732197
 30
0.0
 10
168.4395486502
 20
198.9241032902
 30
0.0
  0
SPLINE
  5
523
100
AcDbEntity
  8
0
100
AcDbSpline
 62
7
  6
CONTINUOUS
 70
0
 71
3
 72
13
 73
9
 74
0
 42
0.0000001
 43
0.0000001
 44
0.0000000001
 40
0.0
 40
0.0
 40
0.0
 40
0.0
 40
0.2699341969
 40
0.5613262988
 40
0.6954701676
 40
0.8131404232
 40
0.9128521913
 40
1.0
 40
1.0
 40
1.0
 40
1.0
 10
152.5922712359
 20
141.2267323649
 30
0.0
 10
152.4395536038
 20
141.3149019363
 30
0.0
 10
152.0745353953
 20
141.4136775782
 30
0.0
 10
151.6130124359
 20
141.3903105553
 30
0.0
 10
151.2741482242
 20
141.2773929871
 30
0.0
 10
151.0759664157
 20
141.1565559628
 30
0.0
 10
150.941700115
 20
141.003874522
 30
0.0
 10
150.9072946723
 20
140.8807013856
 30
0.0
 10
150.9072689081
 20
140.8237696251
 30
0.0
  0
SPLINE
  5
524
100
AcDbEntity
  8
0
100
AcDbSpline
 62
7
  6
CONTINUOUS
 70
0
 71
3
 72
13
 73
9
 74
0
 42
0.0000001
 43
0.0000001
 44
0.0000000001
 40
0.0
 40
0.0
 40
0.0
 40
0.0
 40
0.2699341969
 40
0.5613262988
 40
0.6954701676
 40
0.8131404232
 40
0.9128521913
 40
1.0
 40
1.0
 40
1.0
 40
1.0
 10
232.7863784377
 20
187.5343759702
 30
0.0
 10
232.631659139
 20
187.6237011782
 30
0.0
 10
232.2618566449
 20
187.7237714702
 30
0.0
 10
231.7942845141
 20
187.7000981763
 30
0.0
 10
231.4509788166
 20
187.5857006001
 30
0.0
 10
231.2501994435
 20
187.4632797675
 30
0.0
 10
231.1141733174
 20
187.3085971344
 30
0.0
 10
231.0793169233
 20
187.1838095704
 30
0.0
 10
231.0792908215
 20
187.1261316066
 30
0.0
  0
SPLINE
  5
525
100
AcDbEntity
  8
0
100
AcDbSpline
 62
7
  6
CONTINUOUS
 70
0
 71
3
 72
13
 73
9
 74
0
 42
0.0000001
 43
0.0000001
 44
0.0000000001
 40
0.0
 40
0.0
 40
0.0
 40
0.0
 40
0.2699341969
 40
0.5613262988
 40
0.6954701676
 40
0.8131404232
 40
0.9128521913
 40
1.0
 40
1.0
 40
1.0
 40
1.0
 10
105.2237840212
 20
261.1810080856
 30
0.0
 10
105.0690647224
 20
261.2703332936
 30
0.0
 10
104.6992622283
 20
261.3704035857
 30
0.0
 10
104.2316900976
 20
261.3467302917
 30
0.0
 10
103.8883844001
 20
261.2323327155
 30
0.0
 10
103.687605027
 20
261.109911883
 30
0.0
 10
103.5515789009
 20
260.9552292499
 30
0.0
 10
103.5167225068
 20
260.8304416859
 30
0.0
 10
103.5166964049
 20
260.772763722
 30
0.0
  0
SPLINE
  5
526
100
AcDbEntity
  8
0
100
AcDbSpline
 62
7
  6
CONTINUOUS
 70
0
 71
3
 72
13
 73
9
 74
0
 42
0.0000001
 43
0.0000001
 44
0.0000000001
 40
0.0
 40
0.0
 40
0.0
 40
0.0
 40
0.2699341969
 40
0.5613262988
 40
0.6954701676
 40
0.8131404232
 40
0.9128521913
 40
1.0
 40
1.0
 40
1.0
 40
1.0
 10
36.4226948862
 20
205.6190301852
 30
0.0
 10
36.2679755874
 20
205.7083553932
 30
0.0
 10
35.8981730933
 20
205.8084256852
 30
0.0
 10
35.4306009626
 20
205.7847523913
 30
0.0
 10
35.0872952651
 20
205.670354815
 30
0.0
 10
34.886515892
 20
205.5479339825
 30
0.0
 10
34.7504897659
 20
205.3932513494
 30
0.0
 10
34.7156333718
 20
205.2684637854
 30
0.0
 10
34.7156072699
 20
205.2107858216
 30
0.0
  0
SPLINE
  5
527
100
AcDbEntity
  8
0
100
AcDbSpline
 62
7
  6
CONTINUOUS
 70
0
 71
3
 72
9
 73
5
 74
0
 42
0.0000001
 43
0.0000001
 44
0.0000000001
 40
0.0
 40
0.0
 40
0.0
 40
0.0
 40
0.4497961538
 40
1.0
 40
1.0
 40
1.0
 40
1.0
 10
113.4439924408
 20
175.0517583563
 30
0.0
 10
113.4844836229
 20
175.0751366196
 30
0.0
 10
113.5952428032
 20
175.0908837989
 30
0.0
 10
113.6944630541
 20
175.0506411644
 30
0.0
 10
113.7439936898
 20
175.0220452855
 30
0.0
  0
SPLINE
  5
528
100
AcDbEntity
  8
0
100
AcDbSpline
 62
7
  6
CONTINUOUS
 70
0
 71
3
 72
9
 73
5
 74
0
 42
0.0000001
 43
0.0000001
 44
0.0000000001
 40
0.0
 40
0.0
 40
0.0
 40
0.0
 40
0.229297
 40
1.0
 40
1.0
 40
1.0
 40
1.0
 10
116.5038031545
 20
173.4287045943
 30
0.0
 10
116.5328597243
 20
173.4119291554
 30
0.0
 10
116.6526548597
 20
173.3270527369
 30
0.0
 10
116.7474183442
 20
173.2096768756
 30
0.0
 10
116.8038044035
 20
173.1120138981
 30
0.0
  0
SPLINE
  5
529
100
AcDbEntity
  8
0
100
AcDbSpline
 62
7
  6
CONTINUOUS
 70
0
 71
3
 72
9
 73
5
 74
0
 42
0.0000001
 43
0.0000001
 44
0.0000000001
 40
0.0
 40
0.0
 40
0.0
 40
0.0
 40
0.2939121628
 40
1.0
 40
1.0
 40
1.0
 40
1.0
 10
63.1159036552
 20
209.4360512981
 30
0.0
 10
63.1028150735
 20
209.428494647
 30
0.0
 10
63.0606770378
 20
209.4000614702
 30
0.0
 10
63.0280089036
 20
209.3498870779
 30
0.0
 10
63.0280088851
 20
209.3135790651
 30
0.0
  0
SPLINE
  5
52A
100
AcDbEntity
  8
0
100
AcDbSpline
 62
7
  6
CONTINUOUS
 70
0
 71
3
 72
11
 73
7
 74
0
 42
0.0000001
 43
0.0000001
 44
0.0000000001
 40
0.0
 40
0.0
 40
0.0
 40
0.0
 40
0.2372531333
 40
0.500000595
 40
0.7627477344
 40
1.0
 40
1.0
 40
1.0
 40
1.0
 10
69.377944926
 20
225.5437847419
 30
0.0
 10
69.2167136826
 20
225.6368695378
 30
0.0
 10
68.8417965376
 20
225.7727237259
 30
0.0
 10
68.2423493087
 20
225.8376734459
 30
0.0
 10
67.6429030395
 20
225.7727212153
 30
0.0
 10
67.2679874122
 20
225.6368654495
 30
0.0
 10
67.1067573292
 20
225.5437800056
 30
0.0
  0
SPLINE
  5
52B
100
AcDbEntity
  8
0
100
AcDbSpline
 62
7
  6
CONTINUOUS
 70
0
 71
3
 72
9
 73
5
 74
0
 42
0.0000001
 43
0.0000001
 44
0.0000000001
 40
0.0
 40
0.0
 40
0.0
 40
0.0
 40
0.4497961538
 40
1.0
 40
1.0
 40
1.0
 40
1.0
 10
130.4146258443
 20
165.2539802478
 30
0.0
 10
130.4551170264
 20
165.2773585111
 30
0.0
 10
130.5658762067
 20
165.2931056904
 30
0.0
 10
130.6650964577
 20
165.2528630559
 30
0.0
 10
130.7146270933
 20
165.224267177
 30
0.0
  0
SPLINE
  5
52C
100
AcDbEntity
  8
0
100
AcDbSpline
 62
7
  6
CONTINUOUS
 70
0
 71
3
 72
9
 73
5
 74
0
 42
0.0000001
 43
0.0000001
 44
0.0000000001
 40
0.0
 40
0.0
 40
0.0
 40
0.0
 40
0.229297
 40
1.0
 40
1.0
 40
1.0
 40
1.0
 10
133.4744365581
 20
163.6309264858
 30
0.0
 10
133.5034931278
 20
163.6141510469
 30
0.0
 10
133.6232882632
 20
163.5292746284
 30
0.0
 10
133.7180517477
 20
163.4118987671
 30
0.0
 10
133.7744378071
 20
163.3142357896
 30
0.0
  0
SPLINE
  5
52D
100
AcDbEntity
  8
0
100
AcDbSpline
 62
7
  6
CONTINUOUS
 70
0
 71
3
 72
9
 73
5
 74
0
 42
0.0000001
 43
0.0000001
 44
0.0000000001
 40
0.0
 40
0.0
 40
0.0
 40
0.0
 40
0.277843942
 40
1.0
 40
1.0
 40
1.0
 40
1.0
 10
69.6073553421
 20
173.9923257123
 30
0.0
 10
69.6132904591
 20
173.9888991484
 30
0.0
 10
69.6352414958
 20
173.9778240616
 30
0.0
 10
69.6605498277
 20
173.9718311711
 30
0.0
 10
69.6782923392
 20
173.9734093207
 30
0.0
  0
SPLINE
  5
52E
100
AcDbEntity
  8
0
100
AcDbSpline
 62
7
  6
CONTINUOUS
 70
0
 71
3
 72
8
 73
4
 74
0
 42
0.0000001
 43
0.0000001
 44
0.0000000001
 40
0.0
 40
0.0
 40
0.0
 40
0.0
 40
1.0
 40
1.0
 40
1.0
 40
1.0
 10
69.6782923392
 20
173.9734093207
 30
0.0
 10
69.6883963509
 20
173.9743080459
 30
0.0
 10
69.6985792344
 20
173.9773329491
 30
0.0
 10
69.7073641274
 20
173.9824048732
 30
0.0
  0
SPLINE
  5
52F
100
AcDbEntity
  8
0
100
AcDbSpline
 62
7
  6
CONTINUOUS
 70
0
 71
3
 72
9
 73
5
 74
0
 42
0.0000001
 43
0.0000001
 44
0.0000000001
 40
0.0
 40
0.0
 40
0.0
 40
0.0
 40
0.24052378
 40
1.0
 40
1.0
 40
1.0
 40
1.0
 10
68.0163584606
 20
175.0741678934
 30
0.0
 10
68.0163584606
 20
175.0510046274
 30
0.0
 10
68.0335499089
 20
174.9558411493
 30
0.0
 10
68.0944388039
 20
174.8657887225
 30
0.0
 10
68.1577804056
 20
174.829219259
 30
0.0
  0
SPLINE
  5
530
100
AcDbEntity
  8
0
100
AcDbSpline
 62
7
  6
CONTINUOUS
 70
0
 71
3
 72
9
 73
5
 74
0
 42
0.0000001
 43
0.0000001
 44
0.0000000001
 40
0.0
 40
0.0
 40
0.0
 40
0.0
 40
0.2939094573
 40
1.0
 40
1.0
 40
1.0
 40
1.0
 10
61.7230819068
 20
178.5442101252
 30
0.0
 10
61.73180767
 20
178.5391724174
 30
0.0
 10
61.7622701423
 20
178.5243220002
 30
0.0
 10
61.8021279263
 20
178.5221865141
 30
0.0
 10
61.823090692
 20
178.5342892861
 30
0.0
  0
SPLINE
  5
531
100
AcDbEntity
  8
0
100
AcDbSpline
 62
7
  6
CONTINUOUS
 70
0
 71
3
 72
9
 73
5
 74
0
 42
0.0000001
 43
0.0000001
 44
0.0000000001
 40
0.0
 40
0.0
 40
0.0
 40
0.0
 40
0.24052378
 40
1.0
 40
1.0
 40
1.0
 40
1.0
 10
60.1320850252
 20
179.6260523063
 30
0.0
 10
60.1320850252
 20
179.6028890403
 30
0.0
 10
60.1492764735
 20
179.5077255622
 30
0.0
 10
60.2101653685
 20
179.4176731354
 30
0.0
 10
60.2735069702
 20
179.3811036719
 30
0.0
  0
SPLINE
  5
532
100
AcDbEntity
  8
0
100
AcDbSpline
 62
7
  6
CONTINUOUS
 70
0
 71
3
 72
9
 73
5
 74
0
 42
0.0000001
 43
0.0000001
 44
0.0000000001
 40
0.0
 40
0.0
 40
0.0
 40
0.0
 40
0.5355405907
 40
1.0
 40
1.0
 40
1.0
 40
1.0
 10
130.1114601596
 20
136.6716144589
 30
0.0
 10
130.0818268953
 20
136.4954564976
 30
0.0
 10
129.9798174808
 20
136.1684758735
 30
0.0
 10
129.7372697188
 20
135.9158710957
 30
0.0
 10
129.6030617344
 20
135.8384793101
 30
0.0
  0
SPLINE
  5
533
100
AcDbEntity
  8
0
100
AcDbSpline
 62
7
  6
CONTINUOUS
 70
0
 71
3
 72
11
 73
7
 74
0
 42
0.0000001
 43
0.0000001
 44
0.0000000001
 40
0.0
 40
0.0
 40
0.0
 40
0.0
 40
0.2372523758
 40
0.4999990758
 40
0.7627462798
 40
1.0
 40
1.0
 40
1.0
 40
1.0
 10
128.6899316841
 20
142.4660687781
 30
0.0
 10
128.9499538403
 20
142.3159483124
 30
0.0
 10
129.4420228149
 20
141.9018699914
 30
0.0
 10
130.0161150493
 20
141.1170198275
 30
0.0
 10
130.4087736084
 20
140.2274164005
 30
0.0
 10
130.5213458723
 20
139.5942316904
 30
0.0
 10
130.5213458723
 20
139.2939839635
 30
0.0
  0
SPLINE
  5
534
100
AcDbEntity
  8
0
100
AcDbSpline
 62
7
  6
CONTINUOUS
 70
0
 71
3
 72
9
 73
5
 74
0
 42
0.0000001
 43
0.0000001
 44
0.0000000001
 40
0.0
 40
0.0
 40
0.0
 40
0.0
 40
0.2589263497
 40
1.0
 40
1.0
 40
1.0
 40
1.0
 10
130.5213458723
 20
139.2939839635
 30
0.0
 10
130.5213458723
 20
139.2634457405
 30
0.0
 10
130.5191337504
 20
139.1455257266
 30
0.0
 10
130.5077986976
 20
139.0276893098
 30
0.0
 10
130.4932994112
 20
138.9414968237
 30
0.0
  0
SPLINE
  5
535
100
AcDbEntity
  8
0
100
AcDbSpline
 62
7
  6
CONTINUOUS
 70
0
 71
3
 72
11
 73
7
 74
0
 42
0.0000001
 43
0.0000001
 44
0.0000000001
 40
0.0
 40
0.0
 40
0.0
 40
0.0
 40
0.2896548218
 40
0.5490955015
 40
0.7822195491
 40
1.0
 40
1.0
 40
1.0
 40
1.0
 10
128.3080924326
 20
135.558452684
 30
0.0
 10
128.4436549617
 20
135.4801873919
 30
0.0
 10
128.7133993073
 20
135.3519146819
 30
0.0
 10
129.1279402237
 20
135.2517435997
 30
0.0
 10
129.5169869484
 20
135.2615497742
 30
0.0
 10
129.7511014027
 20
135.3466817776
 30
0.0
 10
129.853055793
 20
135.4054743485
 30
0.0
  0
SPLINE
  5
536
100
AcDbEntity
  8
0
100
AcDbSpline
 62
7
  6
CONTINUOUS
 70
0
 71
3
 72
9
 73
5
 74
0
 42
0.0000001
 43
0.0000001
 44
0.0000000001
 40
0.0
 40
0.0
 40
0.0
 40
0.0
 40
0.2425581592
 40
1.0
 40
1.0
 40
1.0
 40
1.0
 10
118.2954167827
 20
146.352467731
 30
0.0
 10
118.2954167827
 20
146.3152265981
 30
0.0
 10
118.2983729263
 20
146.1616981881
 30
0.0
 10
118.3126586251
 20
146.00845229
 30
0.0
 10
118.3288795602
 20
145.893295388
 30
0.0
  0
SPLINE
  5
537
100
AcDbEntity
  8
0
100
AcDbSpline
 62
7
  6
CONTINUOUS
 70
0
 71
3
 72
11
 73
7
 74
0
 42
0.0000001
 43
0.0000001
 44
0.0000000001
 40
0.0
 40
0.0
 40
0.0
 40
0.0
 40
0.2472530649
 40
0.5099197936
 40
0.7672917976
 40
1.0
 40
1.0
 40
1.0
 40
1.0
 10
118.7107188118
 20
143.1825130083
 30
0.0
 10
118.757539481
 20
142.8501201374
 30
0.0
 10
118.9454666492
 20
142.1763922987
 30
0.0
 10
119.4254526712
 20
141.2448152784
 30
0.0
 10
120.0644374479
 20
140.4392405696
 30
0.0
 10
120.5886238659
 20
140.0151891141
 30
0.0
 10
120.8622270268
 20
139.8572278291
 30
0.0
  0
SPLINE
  5
538
100
AcDbEntity
  8
0
100
AcDbSpline
 62
7
  6
CONTINUOUS
 70
0
 71
3
 72
9
 73
5
 74
0
 42
0.0000001
 43
0.0000001
 44
0.0000000001
 40
0.0
 40
0.0
 40
0.0
 40
0.0
 40
0.277843942
 40
1.0
 40
1.0
 40
1.0
 40
1.0
 10
86.5779887457
 20
164.1945476038
 30
0.0
 10
86.5839238627
 20
164.1911210399
 30
0.0
 10
86.6058748994
 20
164.1800459531
 30
0.0
 10
86.6311832313
 20
164.1740530626
 30
0.0
 10
86.6489257427
 20
164.1756312122
 30
0.0
  0
SPLINE
  5
539
100
AcDbEntity
  8
0
100
AcDbSpline
 62
7
  6
CONTINUOUS
 70
0
 71
3
 72
8
 73
4
 74
0
 42
0.0000001
 43
0.0000001
 44
0.0000000001
 40
0.0
 40
0.0
 40
0.0
 40
0.0
 40
1.0
 40
1.0
 40
1.0
 40
1.0
 10
86.6489257427
 20
164.1756312122
 30
0.0
 10
86.6590297544
 20
164.1765299374
 30
0.0
 10
86.6692126379
 20
164.1795548406
 30
0.0
 10
86.677997531
 20
164.1846267647
 30
0.0
  0
SPLINE
  5
53A
100
AcDbEntity
  8
0
100
AcDbSpline
 62
7
  6
CONTINUOUS
 70
0
 71
3
 72
9
 73
5
 74
0
 42
0.0000001
 43
0.0000001
 44
0.0000000001
 40
0.0
 40
0.0
 40
0.0
 40
0.0
 40
0.24052378
 40
1.0
 40
1.0
 40
1.0
 40
1.0
 10
84.9869918641
 20
165.2763897849
 30
0.0
 10
84.9869918641
 20
165.2532265189
 30
0.0
 10
85.0041833124
 20
165.1580630408
 30
0.0
 10
85.0650722075
 20
165.068010614
 30
0.0
 10
85.1284138091
 20
165.0314411505
 30
0.0
  0
SPLINE
  5
53B
100
AcDbEntity
  8
0
100
AcDbSpline
 62
7
  6
CONTINUOUS
 70
0
 71
3
 72
9
 73
5
 74
0
 42
0.0000001
 43
0.0000001
 44
0.0000000001
 40
0.0
 40
0.0
 40
0.0
 40
0.0
 40
0.2939094573
 40
1.0
 40
1.0
 40
1.0
 40
1.0
 10
78.6937153103
 20
168.7464320167
 30
0.0
 10
78.7024410736
 20
168.7413943089
 30
0.0
 10
78.7329035458
 20
168.7265438917
 30
0.0
 10
78.7727613299
 20
168.7244084056
 30
0.0
 10
78.7937240956
 20
168.7365111776
 30
0.0
  0
SPLINE
  5
53C
100
AcDbEntity
  8
0
100
AcDbSpline
 62
7
  6
CONTINUOUS
 70
0
 71
3
 72
9
 73
5
 74
0
 42
0.0000001
 43
0.0000001
 44
0.0000000001
 40
0.0
 40
0.0
 40
0.0
 40
0.0
 40
0.24052378
 40
1.0
 40
1.0
 40
1.0
 40
1.0
 10
77.1027184287
 20
169.8282741978
 30
0.0
 10
77.1027184287
 20
169.8051109318
 30
0.0
 10
77.119909877
 20
169.7099474537
 30
0.0
 10
77.1807987721
 20
169.6198950269
 30
0.0
 10
77.2441403737
 20
169.5833255634
 30
0.0
  0
SPLINE
  5
53D
100
AcDbEntity
  8
0
100
AcDbSpline
 62
7
  6
CONTINUOUS
 70
0
 71
3
 72
8
 73
4
 74
0
 42
0.0000001
 43
0.0000001
 44
0.0000000001
 40
0.0
 40
0.0
 40
0.0
 40
0.0
 40
1.0
 40
1.0
 40
1.0
 40
1.0
 10
85.3466017583
 20
166.6947762142
 30
0.0
 10
85.3553796907
 20
166.6998441315
 30
0.0
 10
85.3655532932
 20
166.7028684124
 30
0.0
 10
85.3756490333
 20
166.7037694759
 30
0.0
  0
SPLINE
  5
53E
100
AcDbEntity
  8
0
100
AcDbSpline
 62
7
  6
CONTINUOUS
 70
0
 71
3
 72
9
 73
5
 74
0
 42
0.0000001
 43
0.0000001
 44
0.0000000001
 40
0.0
 40
0.0
 40
0.0
 40
0.0
 40
0.2254928033
 40
1.0
 40
1.0
 40
1.0
 40
1.0
 10
85.3756490333
 20
166.7037694759
 30
0.0
 10
85.3811976495
 20
166.7042647002
 30
0.0
 10
85.4060455642
 20
166.7038296099
 30
0.0
 10
85.4300401177
 20
166.6944220896
 30
0.0
 10
85.4466105359
 20
166.6848553706
 30
0.0
  0
SPLINE
  5
53F
100
AcDbEntity
  8
0
100
AcDbSpline
 62
7
  6
CONTINUOUS
 70
0
 71
3
 72
11
 73
7
 74
0
 42
0.0000001
 43
0.0000001
 44
0.0000000001
 40
0.0
 40
0.0
 40
0.0
 40
0.0
 40
0.238857876
 40
0.5016342252
 40
0.7635234206
 40
1.0
 40
1.0
 40
1.0
 40
1.0
 10
44.0380264357
 20
177.5797502378
 30
0.0
 10
44.043173538
 20
177.3497912041
 30
0.0
 10
44.1361148924
 20
176.8682428674
 30
0.0
 10
44.441241675
 20
176.1934749595
 30
0.0
 10
44.8805115975
 20
175.6001315965
 30
0.0
 10
45.2545052273
 20
175.2873475762
 30
0.0
 10
45.4517206578
 20
175.1734877702
 30
0.0
  0
SPLINE
  5
540
100
AcDbEntity
  8
0
100
AcDbSpline
 62
7
  6
CONTINUOUS
 70
0
 71
3
 72
8
 73
4
 74
0
 42
0.0000001
 43
0.0000001
 44
0.0000000001
 40
0.0
 40
0.0
 40
0.0
 40
0.0
 40
1.0
 40
1.0
 40
1.0
 40
1.0
 10
86.677997531
 20
164.1846267647
 30
0.0
 10
86.6867760681
 20
164.1896950193
 30
0.0
 10
86.6944824587
 20
164.1969941036
 30
0.0
 10
86.7003108947
 20
164.2052874294
 30
0.0
  0
SPLINE
  5
541
100
AcDbEntity
  8
0
100
AcDbSpline
 62
7
  6
CONTINUOUS
 70
0
 71
3
 72
9
 73
5
 74
0
 42
0.0000001
 43
0.0000001
 44
0.0000000001
 40
0.0
 40
0.0
 40
0.0
 40
0.0
 40
0.2254926036
 40
1.0
 40
1.0
 40
1.0
 40
1.0
 10
86.7003108947
 20
164.2052874294
 30
0.0
 10
86.7035140109
 20
164.2098451676
 30
0.0
 10
86.715560854
 20
164.2315820796
 30
0.0
 10
86.7194106907
 20
164.2570659848
 30
0.0
 10
86.7194106907
 20
164.2761999363
 30
0.0
  0
SPLINE
  5
542
100
AcDbEntity
  8
0
100
AcDbSpline
 62
7
  6
CONTINUOUS
 70
0
 71
3
 72
8
 73
4
 74
0
 42
0.0000001
 43
0.0000001
 44
0.0000000001
 40
0.0
 40
0.0
 40
0.0
 40
0.0
 40
1.0
 40
1.0
 40
1.0
 40
1.0
 10
60.4916949194
 20
181.0444387356
 30
0.0
 10
60.5004728518
 20
181.0495066529
 30
0.0
 10
60.5106464543
 20
181.0525309338
 30
0.0
 10
60.5207421943
 20
181.0534319973
 30
0.0
  0
SPLINE
  5
543
100
AcDbEntity
  8
0
100
AcDbSpline
 62
7
  6
CONTINUOUS
 70
0
 71
3
 72
9
 73
5
 74
0
 42
0.0000001
 43
0.0000001
 44
0.0000000001
 40
0.0
 40
0.0
 40
0.0
 40
0.0
 40
0.2254928033
 40
1.0
 40
1.0
 40
1.0
 40
1.0
 10
60.5207421943
 20
181.0534319973
 30
0.0
 10
60.5262908106
 20
181.0539272216
 30
0.0
 10
60.5511387253
 20
181.0534921313
 30
0.0
 10
60.5751332788
 20
181.044084611
 30
0.0
 10
60.591703697
 20
181.034517892
 30
0.0
  0
SPLINE
  5
544
100
AcDbEntity
  8
0
100
AcDbSpline
 62
7
  6
CONTINUOUS
 70
0
 71
3
 72
11
 73
7
 74
0
 42
0.0000001
 43
0.0000001
 44
0.0000000001
 40
0.0
 40
0.0
 40
0.0
 40
0.0
 40
0.2369237006
 40
0.4991236452
 40
0.7619033767
 40
1.0
 40
1.0
 40
1.0
 40
1.0
 10
161.3734417579
 20
209.6053662256
 30
0.0
 10
161.1795971426
 20
209.7204336503
 30
0.0
 10
160.7238733036
 20
209.8814270914
 30
0.0
 10
159.9991595248
 20
209.9642048698
 30
0.0
 10
159.2714570992
 20
209.888144211
 30
0.0
 10
158.8151234205
 20
209.7269199975
 30
0.0
 10
158.6175937912
 20
209.616002535
 30
0.0
  0
SPLINE
  5
545
100
AcDbEntity
  8
0
100
AcDbSpline
 62
7
  6
CONTINUOUS
 70
0
 71
3
 72
9
 73
5
 74
0
 42
0.0000001
 43
0.0000001
 44
0.0000000001
 40
0.0
 40
0.0
 40
0.0
 40
0.0
 40
0.4999986376
 40
1.0
 40
1.0
 40
1.0
 40
1.0
 10
46.0393659574
 20
184.5493293684
 30
0.0
 10
45.9344284821
 20
184.6099136774
 30
0.0
 10
45.7685984389
 20
184.8012343997
 30
0.0
 10
45.6858229188
 20
185.0405070684
 30
0.0
 10
45.6858229188
 20
185.1616784026
 30
0.0
  0
SPLINE
  5
546
100
AcDbEntity
  8
0
100
AcDbSpline
 62
7
  6
CONTINUOUS
 70
0
 71
3
 72
9
 73
5
 74
0
 42
0.0000001
 43
0.0000001
 44
0.0000000001
 40
0.0
 40
0.0
 40
0.0
 40
0.0
 40
0.2589279351
 40
1.0
 40
1.0
 40
1.0
 40
1.0
 10
134.919544995
 20
141.4250141932
 30
0.0
 10
134.919544995
 20
141.3885805167
 30
0.0
 10
134.916905653
 20
141.2478966345
 30
0.0
 10
134.9033763099
 20
141.1073132426
 30
0.0
 10
134.8860780557
 20
141.0044820067
 30
0.0
  0
SPLINE
  5
547
100
AcDbEntity
  8
0
100
AcDbSpline
 62
7
  6
CONTINUOUS
 70
0
 71
3
 72
9
 73
5
 74
0
 42
0.0000001
 43
0.0000001
 44
0.0000000001
 40
0.0
 40
0.0
 40
0.0
 40
0.0
 40
0.2669737784
 40
1.0
 40
1.0
 40
1.0
 40
1.0
 10
134.5460404074
 20
143.0514380013
 30
0.0
 10
134.6057041479
 20
142.914851905
 30
0.0
 10
134.8065337903
 20
142.3944352593
 30
0.0
 10
134.919544995
 20
141.8342552332
 30
0.0
 10
134.919544995
 20
141.4250141932
 30
0.0
  0
SPLINE
  5
548
100
AcDbEntity
  8
0
100
AcDbSpline
 62
7
  6
CONTINUOUS
 70
0
 71
3
 72
9
 73
5
 74
0
 42
0.0000001
 43
0.0000001
 44
0.0000000001
 40
0.0
 40
0.0
 40
0.0
 40
0.0
 40
0.2208539297
 40
1.0
 40
1.0
 40
1.0
 40
1.0
 10
61.823090692
 20
178.5342892861
 30
0.0
 10
61.8296849756
 20
178.5380964702
 30
0.0
 10
61.856659082
 20
178.560799307
 30
0.0
 10
61.8645038518
 20
178.5989997391
 30
0.0
 10
61.8645038518
 20
178.6258624577
 30
0.0
  0
SPLINE
  5
549
100
AcDbEntity
  8
0
100
AcDbSpline
 62
7
  6
CONTINUOUS
 70
0
 71
3
 72
13
 73
9
 74
0
 42
0.0000001
 43
0.0000001
 44
0.0000000001
 40
0.0
 40
0.0
 40
0.0
 40
0.0
 40
0.0871382061
 40
0.1868459424
 40
0.3045096803
 40
0.4386438322
 40
0.7300488722
 40
1.0
 40
1.0
 40
1.0
 40
1.0
 10
152.8813629485
 20
140.4155224754
 30
0.0
 10
152.8813304175
 20
140.3585969609
 30
0.0
 10
152.8469544154
 20
140.2354285209
 30
0.0
 10
152.7126840353
 20
140.0827599713
 30
0.0
 10
152.5145242337
 20
139.9619200218
 30
0.0
 10
152.1756641859
 20
139.8489895572
 30
0.0
 10
151.7141286738
 20
139.8256124016
 30
0.0
 10
151.3490870892
 20
139.9243847566
 30
0.0
 10
151.1963597966
 20
140.0125599063
 30
0.0
  0
SPLINE
  5
54A
100
AcDbEntity
  8
0
100
AcDbSpline
 62
7
  6
CONTINUOUS
 70
0
 71
3
 72
8
 73
4
 74
0
 42
0.0000001
 43
0.0000001
 44
0.0000000001
 40
0.0
 40
0.0
 40
0.0
 40
0.0
 40
1.0
 40
1.0
 40
1.0
 40
1.0
 10
68.3759683548
 20
176.4925543227
 30
0.0
 10
68.3847462872
 20
176.49762224
 30
0.0
 10
68.3949198897
 20
176.5006465209
 30
0.0
 10
68.4050156297
 20
176.5015475844
 30
0.0
  0
SPLINE
  5
54B
100
AcDbEntity
  8
0
100
AcDbSpline
 62
7
  6
CONTINUOUS
 70
0
 71
3
 72
9
 73
5
 74
0
 42
0.0000001
 43
0.0000001
 44
0.0000000001
 40
0.0
 40
0.0
 40
0.0
 40
0.0
 40
0.2254928033
 40
1.0
 40
1.0
 40
1.0
 40
1.0
 10
68.4050156297
 20
176.5015475844
 30
0.0
 10
68.410564246
 20
176.5020428087
 30
0.0
 10
68.4354121607
 20
176.5016077184
 30
0.0
 10
68.4594067142
 20
176.4922001981
 30
0.0
 10
68.4759771323
 20
176.4826334791
 30
0.0
  0
SPLINE
  5
54C
100
AcDbEntity
  8
0
100
AcDbSpline
 62
7
  6
CONTINUOUS
 70
0
 71
3
 72
9
 73
5
 74
0
 42
0.0000001
 43
0.0000001
 44
0.0000000001
 40
0.0
 40
0.0
 40
0.0
 40
0.0
 40
0.2939121628
 40
1.0
 40
1.0
 40
1.0
 40
1.0
 10
157.3379259654
 20
205.3334831361
 30
0.0
 10
157.3466516865
 20
205.3385209035
 30
0.0
 10
157.3747437104
 20
205.3574763547
 30
0.0
 10
157.3965224665
 20
205.3909259496
 30
0.0
 10
157.3965224788
 20
205.4151312915
 30
0.0
  0
SPLINE
  5
54D
100
AcDbEntity
  8
0
100
AcDbSpline
 62
7
  6
CONTINUOUS
 70
0
 71
3
 72
8
 73
4
 74
0
 42
0.0000001
 43
0.0000001
 44
0.0000000001
 40
0.0
 40
0.0
 40
0.0
 40
0.0
 40
1.0
 40
1.0
 40
1.0
 40
1.0
 10
69.7073641274
 20
173.9824048732
 30
0.0
 10
69.7161426646
 20
173.9874731277
 30
0.0
 10
69.7238490552
 20
173.9947722121
 30
0.0
 10
69.7296774912
 20
174.0030655378
 30
0.0
  0
SPLINE
  5
54E
100
AcDbEntity
  8
0
100
AcDbSpline
 62
7
  6
CONTINUOUS
 70
0
 71
3
 72
9
 73
5
 74
0
 42
0.0000001
 43
0.0000001
 44
0.0000000001
 40
0.0
 40
0.0
 40
0.0
 40
0.0
 40
0.2254926036
 40
1.0
 40
1.0
 40
1.0
 40
1.0
 10
69.7296774912
 20
174.0030655378
 30
0.0
 10
69.7328806074
 20
174.0076232761
 30
0.0
 10
69.7449274505
 20
174.0293601881
 30
0.0
 10
69.7487772872
 20
174.0548440933
 30
0.0
 10
69.7487772872
 20
174.0739780448
 30
0.0
  0
SPLINE
  5
54F
100
AcDbEntity
  8
0
100
AcDbSpline
 62
7
  6
CONTINUOUS
 70
0
 71
3
 72
9
 73
5
 74
0
 42
0.0000001
 43
0.0000001
 44
0.0000000001
 40
0.0
 40
0.0
 40
0.0
 40
0.0
 40
0.2939121628
 40
1.0
 40
1.0
 40
1.0
 40
1.0
 10
159.1057002783
 20
204.3128812498
 30
0.0
 10
159.1144259994
 20
204.3179190172
 30
0.0
 10
159.1425180233
 20
204.3368744684
 30
0.0
 10
159.1642967794
 20
204.3703240633
 30
0.0
 10
159.1642967917
 20
204.3945294052
 30
0.0
  0
SPLINE
  5
550
100
AcDbEntity
  8
0
100
AcDbSpline
 62
7
  6
CONTINUOUS
 70
0
 71
3
 72
9
 73
5
 74
0
 42
0.0000001
 43
0.0000001
 44
0.0000000001
 40
0.0
 40
0.0
 40
0.0
 40
0.0
 40
0.255704815
 40
1.0
 40
1.0
 40
1.0
 40
1.0
 10
42.6508680094
 20
226.5116502271
 30
0.0
 10
42.5637397171
 20
226.5118484749
 30
0.0
 10
42.2241882025
 20
226.4919031982
 30
0.0
 10
41.8815210534
 20
226.402851794
 30
0.0
 10
41.6618818985
 20
226.2760576718
 30
0.0
  0
SPLINE
  5
551
100
AcDbEntity
  8
0
100
AcDbSpline
 62
7
  6
CONTINUOUS
 70
0
 71
3
 72
9
 73
5
 74
0
 42
0.0000001
 43
0.0000001
 44
0.0000000001
 40
0.0
 40
0.0
 40
0.0
 40
0.0
 40
0.2939121628
 40
1.0
 40
1.0
 40
1.0
 40
1.0
 10
160.8734745912
 20
203.2922793635
 30
0.0
 10
160.8822003123
 20
203.2973171309
 30
0.0
 10
160.9102923361
 20
203.3162725821
 30
0.0
 10
160.9320710923
 20
203.349722177
 30
0.0
 10
160.9320711046
 20
203.3739275189
 30
0.0
  0
SPLINE
  5
552
100
AcDbEntity
  8
0
100
AcDbSpline
 62
7
  6
CONTINUOUS
 70
0
 71
3
 72
9
 73
5
 74
0
 42
0.0000001
 43
0.0000001
 44
0.0000000001
 40
0.0
 40
0.0
 40
0.0
 40
0.0
 40
0.2939121628
 40
1.0
 40
1.0
 40
1.0
 40
1.0
 10
162.641248904
 20
202.2716774772
 30
0.0
 10
162.6499746252
 20
202.2767152446
 30
0.0
 10
162.678066649
 20
202.2956706958
 30
0.0
 10
162.6998454051
 20
202.3291202907
 30
0.0
 10
162.6998454174
 20
202.3533256326
 30
0.0
  0
SPLINE
  5
553
100
AcDbEntity
  8
0
100
AcDbSpline
 62
7
  6
CONTINUOUS
 70
0
 71
3
 72
9
 73
5
 74
0
 42
0.0000001
 43
0.0000001
 44
0.0000000001
 40
0.0
 40
0.0
 40
0.0
 40
0.0
 40
0.2939121628
 40
1.0
 40
1.0
 40
1.0
 40
1.0
 10
164.4090232169
 20
201.2510755909
 30
0.0
 10
164.417748938
 20
201.2561133583
 30
0.0
 10
164.4458409619
 20
201.2750688095
 30
0.0
 10
164.467619718
 20
201.3085184044
 30
0.0
 10
164.4676197303
 20
201.3327237463
 30
0.0
  0
SPLINE
  5
554
100
AcDbEntity
  8
0
100
AcDbSpline
 62
7
  6
CONTINUOUS
 70
0
 71
3
 72
9
 73
5
 74
0
 42
0.0000001
 43
0.0000001
 44
0.0000000001
 40
0.0
 40
0.0
 40
0.0
 40
0.0
 40
0.2693567273
 40
1.0
 40
1.0
 40
1.0
 40
1.0
 10
138.0670697814
 20
119.5617106556
 30
0.0
 10
138.0940520698
 20
119.5578008746
 30
0.0
 10
138.1942180917
 20
119.5478219583
 30
0.0
 10
138.3014294201
 20
119.5634405733
 30
0.0
 10
138.3655764831
 20
119.6002443752
 30
0.0
  0
SPLINE
  5
555
100
AcDbEntity
  8
0
100
AcDbSpline
 62
7
  6
CONTINUOUS
 70
0
 71
3
 72
9
 73
5
 74
0
 42
0.0000001
 43
0.0000001
 44
0.0000000001
 40
0.0
 40
0.0
 40
0.0
 40
0.0
 40
0.2939121628
 40
1.0
 40
1.0
 40
1.0
 40
1.0
 10
166.1767975298
 20
200.2304737046
 30
0.0
 10
166.1855232509
 20
200.235511472
 30
0.0
 10
166.2136152747
 20
200.2544669232
 30
0.0
 10
166.2353940309
 20
200.2879165181
 30
0.0
 10
166.2353940432
 20
200.31212186
 30
0.0
  0
SPLINE
  5
556
100
AcDbEntity
  8
0
100
AcDbSpline
 62
7
  6
CONTINUOUS
 70
0
 71
3
 72
9
 73
5
 74
0
 42
0.0000001
 43
0.0000001
 44
0.0000000001
 40
0.0
 40
0.0
 40
0.0
 40
0.0
 40
0.5055255115
 40
1.0
 40
1.0
 40
1.0
 40
1.0
 10
133.9743386414
 20
118.6451856706
 30
0.0
 10
134.2037926753
 20
118.5335645484
 30
0.0
 10
134.7203161441
 20
118.4491586164
 30
0.0
 10
135.2347559771
 20
118.5584422249
 30
0.0
 10
135.4509037172
 20
118.6832344359
 30
0.0
  0
SPLINE
  5
557
100
AcDbEntity
  8
0
100
AcDbSpline
 62
7
  6
CONTINUOUS
 70
0
 71
3
 72
9
 73
5
 74
0
 42
0.0000001
 43
0.0000001
 44
0.0000000001
 40
0.0
 40
0.0
 40
0.0
 40
0.0
 40
0.2939121628
 40
1.0
 40
1.0
 40
1.0
 40
1.0
 10
167.9445718426
 20
199.2098718183
 30
0.0
 10
167.9532975638
 20
199.2149095857
 30
0.0
 10
167.9813895876
 20
199.2338650369
 30
0.0
 10
168.0031683437
 20
199.2673146318
 30
0.0
 10
168.003168356
 20
199.2915199737
 30
0.0
  0
SPLINE
  5
558
100
AcDbEntity
  8
0
100
AcDbSpline
 62
7
  6
CONTINUOUS
 70
0
 71
3
 72
14
 73
10
 74
0
 42
0.0000001
 43
0.0000001
 44
0.0000000001
 40
0.0
 40
0.0
 40
0.0
 40
0.0
 40
0.0467351172
 40
0.1390275716
 40
0.2164730751
 40
0.2810876484
 40
0.3933705069
 40
0.5144895105
 40
1.0
 40
1.0
 40
1.0
 40
1.0
 10
137.7873874076
 20
119.6047922025
 30
0.0
 10
137.7959619489
 20
119.6174432735
 30
0.0
 10
137.7124166765
 20
119.629666765
 30
0.0
 10
137.6655170915
 20
119.6280299727
 30
0.0
 10
137.5827711003
 20
119.6343614518
 30
0.0
 10
137.5013191578
 20
119.6395858773
 30
0.0
 10
137.4030601068
 20
119.6430377351
 30
0.0
 10
137.1694539037
 20
119.6216222381
 30
0.0
 10
136.9708471741
 20
119.567418864
 30
0.0
 10
136.8336096188
 20
119.4875847695
 30
0.0
  0
SPLINE
  5
559
100
AcDbEntity
  8
0
100
AcDbSpline
 62
7
  6
CONTINUOUS
 70
0
 71
3
 72
14
 73
10
 74
0
 42
0.0000001
 43
0.0000001
 44
0.0000000001
 40
0.0
 40
0.0
 40
0.0
 40
0.0
 40
0.0640961421
 40
0.1278814557
 40
0.2550611383
 40
0.381996214
 40
0.5082595317
 40
0.7574414881
 40
1.0
 40
1.0
 40
1.0
 40
1.0
 10
57.1215116427
 20
218.1511448437
 30
0.0
 10
57.0997629414
 20
218.1452217527
 30
0.0
 10
57.0537761068
 20
218.1492589212
 30
0.0
 10
56.9647442022
 20
218.1410558198
 30
0.0
 10
56.8531639531
 20
218.1317082271
 30
0.0
 10
56.7208920521
 20
218.1113341654
 30
0.0
 10
56.5479866846
 20
218.0745847225
 30
0.0
 10
56.3402392833
 20
218.0084970179
 30
0.0
 10
56.1844434091
 20
217.9309496297
 30
0.0
 10
56.1124210825
 20
217.885243407
 30
0.0
  0
SPLINE
  5
55A
100
AcDbEntity
  8
0
100
AcDbSpline
 62
7
  6
CONTINUOUS
 70
0
 71
3
 72
9
 73
5
 74
0
 42
0.0000001
 43
0.0000001
 44
0.0000000001
 40
0.0
 40
0.0
 40
0.0
 40
0.0
 40
0.2498995633
 40
1.0
 40
1.0
 40
1.0
 40
1.0
 10
42.6508680301
 20
226.5116185789
 30
0.0
 10
43.8553220912
 20
225.8135531612
 30
0.0
 10
48.6774258333
 20
223.0242269924
 30
0.0
 10
53.5029810787
 20
220.2408777477
 30
0.0
 10
57.1215113181
 20
218.1511452909
 30
0.0
  0
SPLINE
  5
55B
100
AcDbEntity
  8
0
100
AcDbSpline
 62
7
  6
CONTINUOUS
 70
0
 71
3
 72
13
 73
9
 74
0
 42
0.0000001
 43
0.0000001
 44
0.0000000001
 40
0.0
 40
0.0
 40
0.0
 40
0.0
 40
0.2699341969
 40
0.5613262988
 40
0.6954701676
 40
0.8131404232
 40
0.9128521913
 40
1.0
 40
1.0
 40
1.0
 40
1.0
 10
151.1963597428
 20
140.4208070539
 30
0.0
 10
151.3490773749
 20
140.3326374826
 30
0.0
 10
151.7140955834
 20
140.2338618407
 30
0.0
 10
152.1756185428
 20
140.2572288636
 30
0.0
 10
152.5144827545
 20
140.3701464317
 30
0.0
 10
152.712664563
 20
140.490983456
 30
0.0
 10
152.8469308637
 20
140.6436648968
 30
0.0
 10
152.8813363064
 20
140.7668380333
 30
0.0
 10
152.8813620706
 20
140.8237697938
 30
0.0
  0
SPLINE
  5
55C
100
AcDbEntity
  8
0
100
AcDbSpline
 62
7
  6
CONTINUOUS
 70
0
 71
3
 72
13
 73
9
 74
0
 42
0.0000001
 43
0.0000001
 44
0.0000000001
 40
0.0
 40
0.0
 40
0.0
 40
0.0
 40
0.2699341969
 40
0.5613262988
 40
0.6954701676
 40
0.8131404232
 40
0.9128521913
 40
1.0
 40
1.0
 40
1.0
 40
1.0
 10
231.3721707633
 20
186.7178874138
 30
0.0
 10
231.5268900621
 20
186.6285622058
 30
0.0
 10
231.8966925562
 20
186.5284919138
 30
0.0
 10
232.3642646869
 20
186.5521652078
 30
0.0
 10
232.7075703845
 20
186.666562784
 30
0.0
 10
232.9083497576
 20
186.7889836165
 30
0.0
 10
233.0443758837
 20
186.9436662496
 30
0.0
 10
233.0792322778
 20
187.0684538136
 30
0.0
 10
233.0792583796
 20
187.1261317774
 30
0.0
  0
SPLINE
  5
55D
100
AcDbEntity
  8
0
100
AcDbSpline
 62
7
  6
CONTINUOUS
 70
0
 71
3
 72
13
 73
9
 74
0
 42
0.0000001
 43
0.0000001
 44
0.0000000001
 40
0.0
 40
0.0
 40
0.0
 40
0.0
 40
0.2699341969
 40
0.5613262988
 40
0.6954701676
 40
0.8131404232
 40
0.9128521913
 40
1.0
 40
1.0
 40
1.0
 40
1.0
 10
103.8095763468
 20
260.3645195293
 30
0.0
 10
103.9642956456
 20
260.2751943213
 30
0.0
 10
104.3340981397
 20
260.1751240293
 30
0.0
 10
104.8016702704
 20
260.1987973232
 30
0.0
 10
105.1449759679
 20
260.3131948994
 30
0.0
 10
105.345755341
 20
260.435615732
 30
0.0
 10
105.4817814672
 20
260.5902983651
 30
0.0
 10
105.5166378613
 20
260.7150859291
 30
0.0
 10
105.5166639631
 20
260.7727638929
 30
0.0
  0
LINE
  5
55E
100
AcDbEntity
  8
0
100
AcDbLine
 62
7
  6
CONTINUOUS
 10
147.4932586065
 20
114.0965339152
 11
148.8379547483
 21
113.3199711592
  0
SPLINE
  5
55F
100
AcDbEntity
  8
0
100
AcDbSpline
 62
7
  6
CONTINUOUS
 70
0
 71
3
 72
13
 73
9
 74
0
 42
0.0000001
 43
0.0000001
 44
0.0000000001
 40
0.0
 40
0.0
 40
0.0
 40
0.0
 40
0.2699341969
 40
0.5613262988
 40
0.6954701676
 40
0.8131404232
 40
0.9128521913
 40
1.0
 40
1.0
 40
1.0
 40
1.0
 10
35.0084872118
 20
204.8025416288
 30
0.0
 10
35.1632065106
 20
204.7132164208
 30
0.0
 10
35.5330090047
 20
204.6131461288
 30
0.0
 10
36.0005811354
 20
204.6368194227
 30
0.0
 10
36.3438868329
 20
204.751216999
 30
0.0
 10
36.544666206
 20
204.8736378315
 30
0.0
 10
36.6806923322
 20
205.0283204646
 30
0.0
 10
36.7155487263
 20
205.1531080286
 30
0.0
 10
36.7155748281
 20
205.2107859924
 30
0.0
  0
SPLINE
  5
560
100
AcDbEntity
  8
0
100
AcDbSpline
 62
7
  6
CONTINUOUS
 70
0
 71
3
 72
12
 73
8
 74
0
 42
0.0000001
 43
0.0000001
 44
0.0000000001
 40
0.0
 40
0.0
 40
0.0
 40
0.0
 40
0.2498998741
 40
0.4999576879
 40
0.7500034033
 40
0.8750181537
 40
1.0
 40
1.0
 40
1.0
 40
1.0
 10
62.4538293148
 20
237.9538416702
 30
0.0
 10
60.8100626573
 20
236.9907036096
 30
0.0
 10
57.5045592035
 20
235.0928816086
 30
0.0
 10
52.5545324946
 20
232.2310801442
 30
0.0
 10
48.4265832438
 20
229.8495046492
 30
0.0
 10
45.126146503
 20
227.9417310418
 30
0.0
 10
43.4744444372
 20
226.9907702829
 30
0.0
 10
42.6508680301
 20
226.5116185789
 30
0.0
  0
SPLINE
  5
561
100
AcDbEntity
  8
0
100
AcDbSpline
 62
7
  6
CONTINUOUS
 70
0
 71
3
 72
9
 73
5
 74
0
 42
0.0000001
 43
0.0000001
 44
0.0000000001
 40
0.0
 40
0.0
 40
0.0
 40
0.0
 40
0.4998365885
 40
1.0
 40
1.0
 40
1.0
 40
1.0
 10
148.6395299492
 20
124.6371165533
 30
0.0
 10
148.672588373
 20
122.7508095655
 30
0.0
 10
148.7413780221
 20
118.9770065696
 30
0.0
 10
148.7973402634
 20
115.2029872933
 30
0.0
 10
148.8304203028
 20
113.3154469256
 30
0.0
  0
SPLINE
  5
562
100
AcDbEntity
  8
0
100
AcDbSpline
 62
7
  6
CONTINUOUS
 70
0
 71
3
 72
9
 73
5
 74
0
 42
0.0000001
 43
0.0000001
 44
0.0000000001
 40
0.0
 40
0.0
 40
0.0
 40
0.0
 40
0.2573258215
 40
1.0
 40
1.0
 40
1.0
 40
1.0
 10
113.2682852175
 20
171.0707931287
 30
0.0
 10
113.2552419025
 20
171.0933846874
 30
0.0
 10
113.2010871538
 20
171.179091738
 30
0.0
 10
113.1342135039
 20
171.2570671717
 30
0.0
 10
113.0779675461
 20
171.3071153005
 30
0.0
  0
SPLINE
  5
563
100
AcDbEntity
  8
0
100
AcDbSpline
 62
7
  6
CONTINUOUS
 70
0
 71
3
 72
8
 73
4
 74
0
 42
0.0000001
 43
0.0000001
 44
0.0000000001
 40
0.0
 40
0.0
 40
0.0
 40
0.0
 40
1.0
 40
1.0
 40
1.0
 40
1.0
 10
113.0779675461
 20
171.3071153005
 30
0.0
 10
113.0441063307
 20
171.3372452962
 30
0.0
 10
113.0075372019
 20
171.3648214727
 30
0.0
 10
112.9682839685
 20
171.3874838249
 30
0.0
  0
SPLINE
  5
564
100
AcDbEntity
  8
0
100
AcDbSpline
 62
7
  6
CONTINUOUS
 70
0
 71
3
 72
9
 73
5
 74
0
 42
0.0000001
 43
0.0000001
 44
0.0000000001
 40
0.0
 40
0.0
 40
0.0
 40
0.0
 40
0.5502038462
 40
1.0
 40
1.0
 40
1.0
 40
1.0
 10
110.2084745037
 20
172.9808245161
 30
0.0
 10
110.1589438681
 20
173.009420395
 30
0.0
 10
110.0597236171
 20
173.0496630295
 30
0.0
 10
109.9489644368
 20
173.0339158503
 30
0.0
 10
109.9084732547
 20
173.010537587
 30
0.0
  0
SPLINE
  5
565
100
AcDbEntity
  8
0
100
AcDbSpline
 62
7
  6
CONTINUOUS
 70
0
 71
3
 72
13
 73
9
 74
0
 42
0.0000001
 43
0.0000001
 44
0.0000000001
 40
0.0
 40
0.0
 40
0.0
 40
0.0
 40
0.0871382061
 40
0.1868459424
 40
0.3045096803
 40
0.4386438322
 40
0.7300488722
 40
1.0
 40
1.0
 40
1.0
 40
1.0
 10
233.0792592684
 20
186.7178706126
 30
0.0
 10
233.079226311
 20
186.6601989767
 30
0.0
 10
233.0443997433
 20
186.5354161706
 30
0.0
 10
232.9083694844
 20
186.3807465977
 30
0.0
 10
232.7076124066
 20
186.2583228017
 30
0.0
 10
232.3643109276
 20
186.1439121599
 30
0.0
 10
231.8967260796
 20
186.1202286005
 30
0.0
 10
231.5268999031
 20
186.2202955625
 30
0.0
 10
231.3721708171
 20
186.309626422
 30
0.0
  0
SPLINE
  5
566
100
AcDbEntity
  8
0
100
AcDbSpline
 62
7
  6
CONTINUOUS
 70
0
 71
3
 72
13
 73
9
 74
0
 42
0.0000001
 43
0.0000001
 44
0.0000000001
 40
0.0
 40
0.0
 40
0.0
 40
0.0
 40
0.2885985617
 40
0.5752744686
 40
0.7033651281
 40
0.8158640449
 40
0.9129765196
 40
1.0
 40
1.0
 40
1.0
 40
1.0
 10
152.445234796
 20
115.5627838354
 30
0.0
 10
152.534274772
 20
115.9629346397
 30
0.0
 10
152.8544486087
 20
116.7302957449
 30
0.0
 10
153.4868621911
 20
117.5252743128
 30
0.0
 10
154.0940577885
 20
117.9713990377
 30
0.0
 10
154.5381257223
 20
118.165832566
 30
0.0
 10
154.9645484267
 20
118.216938189
 30
0.0
 10
155.2248444167
 20
118.1400265785
 30
0.0
 10
155.3318993798
 20
118.0782275902
 30
0.0
  0
SPLINE
  5
567
100
AcDbEntity
  8
0
100
AcDbSpline
 62
7
  6
CONTINUOUS
 70
0
 71
3
 72
13
 73
9
 74
0
 42
0.0000001
 43
0.0000001
 44
0.0000000001
 40
0.0
 40
0.0
 40
0.0
 40
0.0
 40
0.0871382061
 40
0.1868459424
 40
0.3045096803
 40
0.4386438322
 40
0.7300488722
 40
1.0
 40
1.0
 40
1.0
 40
1.0
 10
105.5166648519
 20
260.3645035635
 30
0.0
 10
105.5166318944
 20
260.3068319276
 30
0.0
 10
105.4818053268
 20
260.1820491215
 30
0.0
 10
105.3457750679
 20
260.0273795486
 30
0.0
 10
105.1450179901
 20
259.9049557526
 30
0.0
 10
104.8017165111
 20
259.7905451108
 30
0.0
 10
104.3341316631
 20
259.7668615514
 30
0.0
 10
103.9643054866
 20
259.8669285134
 30
0.0
 10
103.8095764006
 20
259.9562593729
 30
0.0
  0
SPLINE
  5
568
100
AcDbEntity
  8
0
100
AcDbSpline
 62
7
  6
CONTINUOUS
 70
0
 71
3
 72
9
 73
5
 74
0
 42
0.0000001
 43
0.0000001
 44
0.0000000001
 40
0.0
 40
0.0
 40
0.0
 40
0.0
 40
0.5010420664
 40
1.0
 40
1.0
 40
1.0
 40
1.0
 10
148.8304203028
 20
113.3154469256
 30
0.0
 10
148.8376823657
 20
113.040389469
 30
0.0
 10
148.8421268183
 20
112.4911984808
 30
0.0
 10
148.8584911717
 20
111.9422630652
 30
0.0
 10
148.8657230274
 20
111.6683497367
 30
0.0
  0
SPLINE
  5
569
100
AcDbEntity
  8
0
100
AcDbSpline
 62
7
  6
CONTINUOUS
 70
0
 71
3
 72
13
 73
9
 74
0
 42
0.0000001
 43
0.0000001
 44
0.0000000001
 40
0.0
 40
0.0
 40
0.0
 40
0.0
 40
0.0871382061
 40
0.1868459424
 40
0.3045096803
 40
0.4386438322
 40
0.7300488722
 40
1.0
 40
1.0
 40
1.0
 40
1.0
 10
36.7155757169
 20
204.8025398209
 30
0.0
 10
36.7155427594
 20
204.7448681849
 30
0.0
 10
36.6807161918
 20
204.6200853789
 30
0.0
 10
36.5446859329
 20
204.4654158059
 30
0.0
 10
36.3439288551
 20
204.3429920099
 30
0.0
 10
36.0006273761
 20
204.2285813681
 30
0.0
 10
35.5330425281
 20
204.2048978087
 30
0.0
 10
35.1632163515
 20
204.3049647708
 30
0.0
 10
35.0084872656
 20
204.3942956302
 30
0.0
  0
SPLINE
  5
56A
100
AcDbEntity
  8
0
100
AcDbSpline
 62
7
  6
CONTINUOUS
 70
0
 71
3
 72
10
 73
6
 74
0
 42
0.0000001
 43
0.0000001
 44
0.0000000001
 40
0.0
 40
0.0
 40
0.0
 40
0.0
 40
0.1993421429
 40
0.4147259466
 40
1.0
 40
1.0
 40
1.0
 40
1.0
 10
147.8192651565
 20
207.0712173229
 30
0.0
 10
147.8130000438
 20
207.1425566974
 30
0.0
 10
147.8242231906
 20
207.2943424387
 30
0.0
 10
147.9693269122
 20
207.629059692
 30
0.0
 10
148.2065302446
 20
207.8208446379
 30
0.0
 10
148.3872749678
 20
207.9282729464
 30
0.0
  0
SPLINE
  5
56B
100
AcDbEntity
  8
0
100
AcDbSpline
 62
7
  6
CONTINUOUS
 70
0
 71
3
 72
9
 73
5
 74
0
 42
0.0000001
 43
0.0000001
 44
0.0000000001
 40
0.0
 40
0.0
 40
0.0
 40
0.0
 40
0.5000005449
 40
1.0
 40
1.0
 40
1.0
 40
1.0
 10
113.1439853038
 20
175.2051310604
 30
0.0
 10
112.9341048682
 20
175.3263028451
 30
0.0
 10
112.4368778237
 20
175.4221310257
 30
0.0
 10
111.9396508297
 20
175.3263006943
 30
0.0
 10
111.729771729
 20
175.2051276538
 30
0.0
  0
SPLINE
  5
56C
100
AcDbEntity
  8
0
100
AcDbSpline
 62
7
  6
CONTINUOUS
 70
0
 71
3
 72
9
 73
5
 74
0
 42
0.0000001
 43
0.0000001
 44
0.0000000001
 40
0.0
 40
0.0
 40
0.0
 40
0.0
 40
0.4507728503
 40
1.0
 40
1.0
 40
1.0
 40
1.0
 10
159.1863077523
 20
117.2080470711
 30
0.0
 10
159.1536050206
 20
117.2269251434
 30
0.0
 10
159.0971669949
 20
117.2970413512
 30
0.0
 10
159.0847318531
 20
117.3825167394
 30
0.0
 10
159.0841960466
 20
117.4285213918
 30
0.0
  0
SPLINE
  5
56D
100
AcDbEntity
  8
0
100
AcDbSpline
 62
7
  6
CONTINUOUS
 70
0
 71
3
 72
9
 73
5
 74
0
 42
0.0000001
 43
0.0000001
 44
0.0000000001
 40
0.0
 40
0.0
 40
0.0
 40
0.0
 40
0.2208522598
 40
1.0
 40
1.0
 40
1.0
 40
1.0
 10
63.0280088851
 20
209.3135790651
 30
0.0
 10
63.0280088793
 20
209.3021578014
 30
0.0
 10
63.0372703128
 20
209.2500914981
 30
0.0
 10
63.08101026
 20
209.2112521007
 30
0.0
 10
63.1159054216
 20
209.1911058255
 30
0.0
  0
SPLINE
  5
56E
100
AcDbEntity
  8
0
100
AcDbSpline
 62
7
  6
CONTINUOUS
 70
0
 71
3
 72
11
 73
7
 74
0
 42
0.0000001
 43
0.0000001
 44
0.0000000001
 40
0.0
 40
0.0
 40
0.0
 40
0.0
 40
0.2511746078
 40
0.5004108175
 40
0.7496621804
 40
1.0
 40
1.0
 40
1.0
 40
1.0
 10
133.8711607634
 20
144.9085806379
 30
0.0
 10
134.0515496791
 20
145.0031539574
 30
0.0
 10
134.4031462208
 20
145.2060591186
 30
0.0
 10
134.9295541092
 20
145.5099713252
 30
0.0
 10
135.4554078411
 20
145.8136081792
 30
0.0
 10
135.8064898493
 20
146.0158262911
 30
0.0
 10
135.9844538298
 20
146.1134846037
 30
0.0
  0
SPLINE
  5
56F
100
AcDbEntity
  8
0
100
AcDbSpline
 62
7
  6
CONTINUOUS
 70
0
 71
3
 72
13
 73
9
 74
0
 42
0.0000001
 43
0.0000001
 44
0.0000000001
 40
0.0
 40
0.0
 40
0.0
 40
0.0
 40
0.0870235327
 40
0.1841360663
 40
0.2966350428
 40
0.4247257339
 40
0.7114016163
 40
1.0
 40
1.0
 40
1.0
 40
1.0
 10
158.3936844807
 20
116.3105451053
 30
0.0
 10
158.2866294406
 20
116.3723441085
 30
0.0
 10
158.0263332941
 20
116.449255756
 30
0.0
 10
157.5999103392
 20
116.3981500102
 30
0.0
 10
157.1558422924
 20
116.2037162002
 30
0.0
 10
156.5486467533
 20
115.7575912525
 30
0.0
 10
155.9162334386
 20
114.962612791
 30
0.0
 10
155.5960598269
 20
114.1952519257
 30
0.0
 10
155.5070199059
 20
113.7951013683
 30
0.0
  0
SPLINE
  5
570
100
AcDbEntity
  8
0
100
AcDbSpline
 62
7
  6
CONTINUOUS
 70
0
 71
3
 72
9
 73
5
 74
0
 42
0.0000001
 43
0.0000001
 44
0.0000000001
 40
0.0
 40
0.0
 40
0.0
 40
0.0
 40
0.4742531644
 40
1.0
 40
1.0
 40
1.0
 40
1.0
 10
152.8819592639
 20
113.8346889856
 30
0.0
 10
152.7788175758
 20
113.8941923078
 30
0.0
 10
152.588770841
 20
114.0712406434
 30
0.0
 10
152.4831033359
 20
114.3049851899
 30
0.0
 10
152.4452403685
 20
114.4314424672
 30
0.0
  0
LINE
  5
571
100
AcDbEntity
  8
0
100
AcDbLine
 62
7
  6
CONTINUOUS
 10
39.1838069153
 20
184.932023444
 11
39.1811360445
 21
185.3043967057
  0
LINE
  5
572
100
AcDbEntity
  8
0
100
AcDbLine
 62
7
  6
CONTINUOUS
 10
39.1848445215
 20
184.8523586502
 11
39.1838069153
 21
184.932023444
  0
SPLINE
  5
573
100
AcDbEntity
  8
0
100
AcDbSpline
 62
7
  6
CONTINUOUS
 70
0
 71
3
 72
8
 73
4
 74
0
 42
0.0000001
 43
0.0000001
 44
0.0000000001
 40
0.0
 40
0.0
 40
0.0
 40
0.0
 40
1.0
 40
1.0
 40
1.0
 40
1.0
 10
57.1215113181
 20
218.1511452909
 30
0.0
 10
56.8314095115
 20
217.9823843714
 30
0.0
 10
56.5401675488
 20
217.8155910076
 30
0.0
 10
56.2495716526
 20
217.6476823085
 30
0.0
  0
SPLINE
  5
574
100
AcDbEntity
  8
0
100
AcDbSpline
 62
7
  6
CONTINUOUS
 70
0
 71
3
 72
8
 73
4
 74
0
 42
0.0000001
 43
0.0000001
 44
0.0000000001
 40
0.0
 40
0.0
 40
0.0
 40
0.0
 40
1.0
 40
1.0
 40
1.0
 40
1.0
 10
133.8627776247
 20
143.2290889302
 30
0.0
 10
133.8626959293
 20
143.7889034972
 30
0.0
 10
133.8635471081
 20
144.3487487306
 30
0.0
 10
133.8711375944
 20
144.9085118418
 30
0.0
  0
SPLINE
  5
575
100
AcDbEntity
  8
0
100
AcDbSpline
 62
7
  6
CONTINUOUS
 70
0
 71
3
 72
15
 73
11
 74
0
 42
0.0000001
 43
0.0000001
 44
0.0000000001
 40
0.0
 40
0.0
 40
0.0
 40
0.0
 40
0.0231079649
 40
0.0800119323
 40
0.1681739388
 40
0.2849718031
 40
0.4280668323
 40
0.5957462256
 40
0.7863262546
 40
1.0
 40
1.0
 40
1.0
 40
1.0
 10
104.5360773528
 20
262.5834495053
 30
0.0
 10
104.5381310647
 20
262.5822688014
 30
0.0
 10
104.5376590129
 20
262.5720612049
 30
0.0
 10
104.5406953216
 20
262.5566579203
 30
0.0
 10
104.541492131
 20
262.5289420899
 30
0.0
 10
104.5435568385
 20
262.4936689027
 30
0.0
 10
104.5452732041
 20
262.449792712
 30
0.0
 10
104.545734767
 20
262.3981550992
 30
0.0
 10
104.5540892683
 20
262.3409941123
 30
0.0
 10
104.5481923347
 20
262.296092145
 30
0.0
 10
104.5590481371
 20
262.2770665277
 30
0.0
  0
SPLINE
  5
576
100
AcDbEntity
  8
0
100
AcDbSpline
 62
7
  6
CONTINUOUS
 70
0
 71
3
 72
15
 73
11
 74
0
 42
0.0000001
 43
0.0000001
 44
0.0000000001
 40
0.0
 40
0.0
 40
0.0
 40
0.0
 40
0.0233665063
 40
0.0804992918
 40
0.1687545404
 40
0.2855482179
 40
0.4287543847
 40
0.596187913
 40
0.7866304843
 40
1.0
 40
1.0
 40
1.0
 40
1.0
 10
119.033400564
 20
254.2135992709
 30
0.0
 10
119.0354638775
 20
254.2123922118
 30
0.0
 10
119.0352203311
 20
254.2022416328
 30
0.0
 10
119.0383361363
 20
254.1867612937
 30
0.0
 10
119.0393431763
 20
254.1591161645
 30
0.0
 10
119.0414955612
 20
254.1238886593
 30
0.0
 10
119.0427527269
 20
254.0800836688
 30
0.0
 10
119.0447796719
 20
254.0287451749
 30
0.0
 10
119.0497967642
 20
253.9711731508
 30
0.0
 10
119.0464335303
 20
253.9276817891
 30
0.0
 10
119.0554306545
 20
253.9077940278
 30
0.0
  0
SPLINE
  5
577
100
AcDbEntity
  8
0
100
AcDbSpline
 62
7
  6
CONTINUOUS
 70
0
 71
3
 72
9
 73
5
 74
0
 42
0.0000001
 43
0.0000001
 44
0.0000000001
 40
0.0
 40
0.0
 40
0.0
 40
0.0
 40
0.5000014124
 40
1.0
 40
1.0
 40
1.0
 40
1.0
 10
128.7004562388
 20
167.0403653039
 30
0.0
 10
128.910327615
 20
167.1615338768
 30
0.0
 10
129.4075315291
 20
167.2574120847
 30
0.0
 10
129.9047265727
 20
167.1615177423
 30
0.0
 10
130.1145976367
 20
167.0403513668
 30
0.0
  0
SPLINE
  5
578
100
AcDbEntity
  8
0
100
AcDbSpline
 62
7
  6
CONTINUOUS
 70
0
 71
3
 72
9
 73
5
 74
0
 42
0.0000001
 43
0.0000001
 44
0.0000000001
 40
0.0
 40
0.0
 40
0.0
 40
0.0
 40
0.2448146025
 40
1.0
 40
1.0
 40
1.0
 40
1.0
 10
226.0516905077
 20
197.2971229566
 30
0.0
 10
225.9790142917
 20
197.3391109501
 30
0.0
 10
225.6660792319
 20
197.4826352879
 30
0.0
 10
225.316740301
 20
197.5332024959
 30
0.0
 10
225.0578294892
 20
197.5337987668
 30
0.0
  0
SPLINE
  5
579
100
AcDbEntity
  8
0
100
AcDbSpline
 62
7
  6
CONTINUOUS
 70
0
 71
3
 72
9
 73
5
 74
0
 42
0.0000001
 43
0.0000001
 44
0.0000000001
 40
0.0
 40
0.0
 40
0.0
 40
0.0
 40
0.5384451508
 40
1.0
 40
1.0
 40
1.0
 40
1.0
 10
39.3082070244
 20
196.1789249076
 30
0.0
 10
39.316733822
 20
196.3234274845
 30
0.0
 10
39.3559770044
 20
196.5933714183
 30
0.0
 10
39.4924110792
 20
196.8350989902
 30
0.0
 10
39.5761669562
 20
196.9266497374
 30
0.0
  0
SPLINE
  5
57A
100
AcDbEntity
  8
0
100
AcDbSpline
 62
7
  6
CONTINUOUS
 70
0
 71
3
 72
14
 73
10
 74
0
 42
0.0000001
 43
0.0000001
 44
0.0000000001
 40
0.0
 40
0.0
 40
0.0
 40
0.0
 40
0.2446711161
 40
0.4942671687
 40
0.6203123088
 40
0.7468486866
 40
0.8737753979
 40
0.9369421421
 40
1.0
 40
1.0
 40
1.0
 40
1.0
 10
236.3043069778
 20
186.5087787357
 30
0.0
 10
236.2358326316
 20
186.5482835768
 30
0.0
 10
236.0903081314
 20
186.615904992
 30
0.0
 10
235.8981769196
 20
186.6747361865
 30
0.0
 10
235.739298592
 20
186.7080909974
 30
0.0
 10
235.6181221243
 20
186.7268778544
 30
0.0
 10
235.5159350441
 20
186.7359580653
 30
0.0
 10
235.4352746412
 20
186.7459474308
 30
0.0
 10
235.3931218222
 20
186.745204882
 30
0.0
 10
235.3741874987
 20
186.75272738
 30
0.0
  0
SPLINE
  5
57B
100
AcDbEntity
  8
0
100
AcDbSpline
 62
7
  6
CONTINUOUS
 70
0
 71
3
 72
14
 73
10
 74
0
 42
0.0000001
 43
0.0000001
 44
0.0000000001
 40
0.0
 40
0.0
 40
0.0
 40
0.0
 40
0.2446058969
 40
0.4942280634
 40
0.6202856765
 40
0.7468760623
 40
0.8738321179
 40
0.9370957729
 40
1.0
 40
1.0
 40
1.0
 40
1.0
 10
221.8085213664
 20
194.8776987512
 30
0.0
 10
221.7401302964
 20
194.9171790655
 30
0.0
 10
221.594713781
 20
194.9847074175
 30
0.0
 10
221.4027574644
 20
195.0435004661
 30
0.0
 10
221.2440250375
 20
195.0770315136
 30
0.0
 10
221.1229643992
 20
195.0961559805
 30
0.0
 10
221.0208672339
 20
195.1056392121
 30
0.0
 10
220.9400158694
 20
195.1136650673
 30
0.0
 10
220.8982082053
 20
195.1140899002
 30
0.0
 10
220.8791814023
 20
195.1211888853
 30
0.0
  0
SPLINE
  5
57C
100
AcDbEntity
  8
0
100
AcDbSpline
 62
7
  6
CONTINUOUS
 70
0
 71
3
 72
9
 73
5
 74
0
 42
0.0000001
 43
0.0000001
 44
0.0000000001
 40
0.0
 40
0.0
 40
0.0
 40
0.0
 40
0.5460062237
 40
1.0
 40
1.0
 40
1.0
 40
1.0
 10
32.0652110623
 20
203.6850467536
 30
0.0
 10
31.9751719946
 20
203.7328856014
 30
0.0
 10
31.7923890225
 20
203.8042278231
 30
0.0
 10
31.5966449602
 20
203.7426310741
 30
0.0
 10
31.5310301964
 20
203.6889486444
 30
0.0
  0
SPLINE
  5
57D
100
AcDbEntity
  8
0
100
AcDbSpline
 62
7
  6
CONTINUOUS
 70
0
 71
3
 72
9
 73
5
 74
0
 42
0.0000001
 43
0.0000001
 44
0.0000000001
 40
0.0
 40
0.0
 40
0.0
 40
0.0
 40
0.4454979001
 40
1.0
 40
1.0
 40
1.0
 40
1.0
 10
135.2762903128
 20
144.0977302071
 30
0.0
 10
135.0708450472
 20
144.223561381
 30
0.0
 10
134.6046450305
 20
144.4976877025
 30
0.0
 10
134.1348399939
 20
144.7656689523
 30
0.0
 10
133.8712023559
 20
144.9085474196
 30
0.0
  0
SPLINE
  5
57E
100
AcDbEntity
  8
0
100
AcDbSpline
 62
7
  6
CONTINUOUS
 70
0
 71
3
 72
9
 73
5
 74
0
 42
0.0000001
 43
0.0000001
 44
0.0000000001
 40
0.0
 40
0.0
 40
0.0
 40
0.0
 40
0.2366617372
 40
1.0
 40
1.0
 40
1.0
 40
1.0
 10
176.55069884
 20
200.7844019458
 30
0.0
 10
176.5284264994
 20
200.8071416982
 30
0.0
 10
176.4304345376
 20
200.899411777
 30
0.0
 10
176.318936614
 20
200.9767759521
 30
0.0
 10
176.230024754
 20
201.0281080771
 30
0.0
  0
SPLINE
  5
57F
100
AcDbEntity
  8
0
100
AcDbSpline
 62
7
  6
CONTINUOUS
 70
0
 71
3
 72
9
 73
5
 74
0
 42
0.0000001
 43
0.0000001
 44
0.0000000001
 40
0.0
 40
0.0
 40
0.0
 40
0.0
 40
0.5508350065
 40
1.0
 40
1.0
 40
1.0
 40
1.0
 10
74.0081209883
 20
211.5552243572
 30
0.0
 10
74.1190052733
 20
211.4912067329
 30
0.0
 10
74.3095353955
 20
211.3453659848
 30
0.0
 10
74.400692163
 20
211.1123198512
 30
0.0
 10
74.4006895255
 20
211.0079148549
 30
0.0
  0
SPLINE
  5
580
100
AcDbEntity
  8
0
100
AcDbSpline
 62
7
  6
CONTINUOUS
 70
0
 71
3
 72
9
 73
5
 74
0
 42
0.0000001
 43
0.0000001
 44
0.0000000001
 40
0.0
 40
0.0
 40
0.0
 40
0.0
 40
0.2939149125
 40
1.0
 40
1.0
 40
1.0
 40
1.0
 10
63.3280323892
 20
209.8034703925
 30
0.0
 10
63.3411221951
 20
209.7959131605
 30
0.0
 10
63.3832647073
 20
209.7674814805
 30
0.0
 10
63.4159477346
 20
209.7173075396
 30
0.0
 10
63.4159472104
 20
209.6809967631
 30
0.0
  0
SPLINE
  5
581
100
AcDbEntity
  8
0
100
AcDbSpline
 62
7
  6
CONTINUOUS
 70
0
 71
3
 72
9
 73
5
 74
0
 42
0.0000001
 43
0.0000001
 44
0.0000000001
 40
0.0
 40
0.0
 40
0.0
 40
0.0
 40
0.5508347999
 40
1.0
 40
1.0
 40
1.0
 40
1.0
 10
176.230024754
 20
202.0895612193
 30
0.0
 10
176.3921394305
 20
201.9959663847
 30
0.0
 10
176.6707075128
 20
201.7827558612
 30
0.0
 10
176.8039853506
 20
201.4420446139
 30
0.0
 10
176.8039951436
 20
201.289402639
 30
0.0
  0
SPLINE
  5
582
100
AcDbEntity
  8
0
100
AcDbSpline
 62
7
  6
CONTINUOUS
 70
0
 71
3
 72
9
 73
5
 74
0
 42
0.0000001
 43
0.0000001
 44
0.0000000001
 40
0.0
 40
0.0
 40
0.0
 40
0.0
 40
0.5257468356
 40
1.0
 40
1.0
 40
1.0
 40
1.0
 10
155.5070254784
 20
112.6637600001
 30
0.0
 10
155.5448884458
 20
112.5373027229
 30
0.0
 10
155.6505559509
 20
112.3035581763
 30
0.0
 10
155.8406026857
 20
112.1265098407
 30
0.0
 10
155.9437443738
 20
112.0670065186
 30
0.0
  0
SPLINE
  5
583
100
AcDbEntity
  8
0
100
AcDbSpline
 62
7
  6
CONTINUOUS
 70
0
 71
3
 72
11
 73
7
 74
0
 42
0.0000001
 43
0.0000001
 44
0.0000000001
 40
0.0
 40
0.0
 40
0.0
 40
0.0
 40
0.2372526482
 40
0.4999998564
 40
0.7627474417
 40
1.0
 40
1.0
 40
1.0
 40
1.0
 10
64.1039249198
 20
211.4761392457
 30
0.0
 10
63.9686653907
 20
211.5542296046
 30
0.0
 10
63.6541426043
 20
211.6682031699
 30
0.0
 10
63.1512557711
 20
211.7226945131
 30
0.0
 10
62.6483688911
 20
211.6682067308
 30
0.0
 10
62.3338446029
 20
211.5542351989
 30
0.0
 10
62.1985856882
 20
211.4761438942
 30
0.0
  0
SPLINE
  5
584
100
AcDbEntity
  8
0
100
AcDbSpline
 62
7
  6
CONTINUOUS
 70
0
 71
3
 72
9
 73
5
 74
0
 42
0.0000001
 43
0.0000001
 44
0.0000000001
 40
0.0
 40
0.0
 40
0.0
 40
0.0
 40
0.5020171575
 40
1.0
 40
1.0
 40
1.0
 40
1.0
 10
136.6912223295
 20
144.9146399344
 30
0.0
 10
136.6848107963
 20
145.15372402
 30
0.0
 10
136.5177140948
 20
145.6208585912
 30
0.0
 10
136.1899379059
 20
145.9949005821
 30
0.0
 10
135.9844762093
 20
146.1135265224
 30
0.0
  0
SPLINE
  5
585
100
AcDbEntity
  8
0
100
AcDbSpline
 62
7
  6
CONTINUOUS
 70
0
 71
3
 72
11
 73
7
 74
0
 42
0.0000001
 43
0.0000001
 44
0.0000000001
 40
0.0
 40
0.0
 40
0.0
 40
0.0
 40
0.2372274575
 40
0.5000033862
 40
0.7627771513
 40
1.0
 40
1.0
 40
1.0
 40
1.0
 10
138.811486019
 20
146.1134908622
 30
0.0
 10
138.6108075594
 20
146.2293511872
 30
0.0
 10
138.1442049382
 20
146.3986990526
 30
0.0
 10
137.3979583026
 20
146.4795542417
 30
0.0
 10
136.651730101
 20
146.3986847242
 30
0.0
 10
136.185109285
 20
146.2293757639
 30
0.0
 10
135.9844538298
 20
146.1134846037
 30
0.0
  0
SPLINE
  5
586
100
AcDbEntity
  8
0
100
AcDbSpline
 62
7
  6
CONTINUOUS
 70
0
 71
3
 72
11
 73
7
 74
0
 42
0.0000001
 43
0.0000001
 44
0.0000000001
 40
0.0
 40
0.0
 40
0.0
 40
0.0
 40
0.2754177463
 40
0.4999994009
 40
0.7245815143
 40
1.0
 40
1.0
 40
1.0
 40
1.0
 10
73.6206035007
 20
221.7830738936
 30
0.0
 10
73.7534350078
 20
221.8597637682
 30
0.0
 10
73.9816813189
 20
222.0345774566
 30
0.0
 10
74.1399432783
 20
222.4387036845
 30
0.0
 10
73.9816762185
 20
222.842828025
 30
0.0
 10
73.7534286858
 20
223.0176408656
 30
0.0
 10
73.6205962578
 20
223.0943299687
 30
0.0
  0
SPLINE
  5
587
100
AcDbEntity
  8
0
100
AcDbSpline
 62
7
  6
CONTINUOUS
 70
0
 71
3
 72
9
 73
5
 74
0
 42
0.0000001
 43
0.0000001
 44
0.0000000001
 40
0.0
 40
0.0
 40
0.0
 40
0.0
 40
0.5020149603
 40
1.0
 40
1.0
 40
1.0
 40
1.0
 10
138.1047354203
 20
144.9146153679
 30
0.0
 10
138.1111408943
 20
145.1537038637
 30
0.0
 10
138.2782352723
 20
145.6208522594
 30
0.0
 10
138.6060177686
 20
145.9949048922
 30
0.0
 10
138.8114855124
 20
146.113532953
 30
0.0
  0
LINE
  5
588
100
AcDbEntity
  8
0
100
AcDbLine
 62
7
  6
CONTINUOUS
 10
139.7361873856
 20
143.1530899078
 11
148.315312217
 21
138.2000718957
  0
SPLINE
  5
589
100
AcDbEntity
  8
0
100
AcDbSpline
 62
7
  6
CONTINUOUS
 70
0
 71
3
 72
9
 73
5
 74
0
 42
0.0000001
 43
0.0000001
 44
0.0000000001
 40
0.0
 40
0.0
 40
0.0
 40
0.0
 40
0.4998070049
 40
1.0
 40
1.0
 40
1.0
 40
1.0
 10
139.7493555121
 20
143.1601176977
 30
0.0
 10
139.6916626946
 20
141.0071236303
 30
0.0
 10
139.5900797288
 20
136.6991122246
 30
0.0
 10
139.4711847376
 20
132.391550799
 30
0.0
 10
139.4134473652
 20
130.2368940202
 30
0.0
  0
SPLINE
  5
58A
100
AcDbEntity
  8
0
100
AcDbSpline
 62
7
  6
CONTINUOUS
 70
0
 71
3
 72
9
 73
5
 74
0
 42
0.0000001
 43
0.0000001
 44
0.0000000001
 40
0.0
 40
0.0
 40
0.0
 40
0.0
 40
0.5002297178
 40
1.0
 40
1.0
 40
1.0
 40
1.0
 10
139.5061207085
 20
130.3679265405
 30
0.0
 10
139.5487162263
 20
132.5008988881
 30
0.0
 10
139.6379473807
 20
136.764807886
 30
0.0
 10
139.706799116
 20
141.0291043772
 30
0.0
 10
139.7493555121
 20
143.1601176977
 30
0.0
  0
SPLINE
  5
58B
100
AcDbEntity
  8
0
100
AcDbSpline
 62
7
  6
CONTINUOUS
 70
0
 71
3
 72
9
 73
5
 74
0
 42
0.0000001
 43
0.0000001
 44
0.0000000001
 40
0.0
 40
0.0
 40
0.0
 40
0.0
 40
0.2378482089
 40
1.0
 40
1.0
 40
1.0
 40
1.0
 10
62.1985856882
 20
216.2118579135
 30
0.0
 10
62.2222621522
 20
216.2255274449
 30
0.0
 10
62.3236877523
 20
216.2797223582
 30
0.0
 10
62.4314791556
 20
216.3216110728
 30
0.0
 10
62.5151650906
 20
216.3475193493
 30
0.0
  0
SPLINE
  5
58C
100
AcDbEntity
  8
0
100
AcDbSpline
 62
7
  6
CONTINUOUS
 70
0
 71
3
 72
9
 73
5
 74
0
 42
0.0000001
 43
0.0000001
 44
0.0000000001
 40
0.0
 40
0.0
 40
0.0
 40
0.0
 40
0.5155984336
 40
1.0
 40
1.0
 40
1.0
 40
1.0
 10
62.5151650906
 20
216.3475193493
 30
0.0
 10
62.7818183225
 20
216.4300723572
 30
0.0
 10
63.3333033215
 20
216.4788808397
 30
0.0
 10
63.8767930989
 20
216.3429824806
 30
0.0
 10
64.1039095377
 20
216.2118597099
 30
0.0
  0
SPLINE
  5
58D
100
AcDbEntity
  8
0
100
AcDbSpline
 62
7
  6
CONTINUOUS
 70
0
 71
3
 72
9
 73
5
 74
0
 42
0.0000001
 43
0.0000001
 44
0.0000000001
 40
0.0
 40
0.0
 40
0.0
 40
0.0
 40
0.5000013031
 40
1.0
 40
1.0
 40
1.0
 40
1.0
 10
63.8181608609
 20
225.7223078178
 30
0.0
 10
63.5991968078
 20
225.8487239129
 30
0.0
 10
63.0804560783
 20
225.948756776
 30
0.0
 10
62.561719023
 20
225.8487142632
 30
0.0
 10
62.3427570215
 20
225.7222972504
 30
0.0
  0
SPLINE
  5
58E
100
AcDbEntity
  8
0
100
AcDbSpline
 62
7
  6
CONTINUOUS
 70
0
 71
3
 72
9
 73
5
 74
0
 42
0.0000001
 43
0.0000001
 44
0.0000000001
 40
0.0
 40
0.0
 40
0.0
 40
0.0
 40
0.5507517348
 40
1.0
 40
1.0
 40
1.0
 40
1.0
 10
127.1791079072
 20
163.1830464076
 30
0.0
 10
127.1294863697
 20
163.2116947675
 30
0.0
 10
127.0303262882
 20
163.2528947196
 30
0.0
 10
126.9195824349
 20
163.2361288472
 30
0.0
 10
126.8791066582
 20
163.2127594785
 30
0.0
  0
SPLINE
  5
58F
100
AcDbEntity
  8
0
100
AcDbSpline
 62
7
  6
CONTINUOUS
 70
0
 71
3
 72
9
 73
5
 74
0
 42
0.0000001
 43
0.0000001
 44
0.0000000001
 40
0.0
 40
0.0
 40
0.0
 40
0.0
 40
0.5018572022
 40
1.0
 40
1.0
 40
1.0
 40
1.0
 10
151.8699826611
 20
136.9399641375
 30
0.0
 10
151.87299718
 20
137.1754764947
 30
0.0
 10
151.7247094419
 20
137.6422308644
 30
0.0
 10
151.4085289522
 20
138.0180426661
 30
0.0
 10
151.2078610978
 20
138.1379986177
 30
0.0
  0
SPLINE
  5
590
100
AcDbEntity
  8
0
100
AcDbSpline
 62
7
  6
CONTINUOUS
 70
0
 71
3
 72
9
 73
5
 74
0
 42
0.0000001
 43
0.0000001
 44
0.0000000001
 40
0.0
 40
0.0
 40
0.0
 40
0.0
 40
0.2573477209
 40
1.0
 40
1.0
 40
1.0
 40
1.0
 10
130.238918621
 20
161.2730150202
 30
0.0
 10
130.2258676391
 20
161.2956198584
 30
0.0
 10
130.1718519734
 20
161.3814611495
 30
0.0
 10
130.1050861711
 20
161.4596570306
 30
0.0
 10
130.0487177623
 20
161.5096209258
 30
0.0
  0
SPLINE
  5
591
100
AcDbEntity
  8
0
100
AcDbSpline
 62
7
  6
CONTINUOUS
 70
0
 71
3
 72
8
 73
4
 74
0
 42
0.0000001
 43
0.0000001
 44
0.0000000001
 40
0.0
 40
0.0
 40
0.0
 40
0.0
 40
1.0
 40
1.0
 40
1.0
 40
1.0
 10
130.0487177623
 20
161.5096209258
 30
0.0
 10
130.0148171244
 20
161.5396698122
 30
0.0
 10
129.9781494893
 20
161.5670555554
 30
0.0
 10
129.938917372
 20
161.5897057164
 30
0.0
  0
SPLINE
  5
592
100
AcDbEntity
  8
0
100
AcDbSpline
 62
7
  6
CONTINUOUS
 70
0
 71
3
 72
9
 73
5
 74
0
 42
0.0000001
 43
0.0000001
 44
0.0000000001
 40
0.0
 40
0.0
 40
0.0
 40
0.0
 40
0.2405221456
 40
1.0
 40
1.0
 40
1.0
 40
1.0
 10
62.0412786335
 20
180.1976243452
 30
0.0
 10
62.0613385895
 20
180.1860429863
 30
0.0
 10
62.1351573322
 20
180.1235734333
 30
0.0
 10
62.1827005785
 20
180.0258160438
 30
0.0
 10
62.1827005785
 20
179.9526757109
 30
0.0
  0
SPLINE
  5
593
100
AcDbEntity
  8
0
100
AcDbSpline
 62
7
  6
CONTINUOUS
 70
0
 71
3
 72
9
 73
5
 74
0
 42
0.0000001
 43
0.0000001
 44
0.0000000001
 40
0.0
 40
0.0
 40
0.0
 40
0.0
 40
0.5000005437
 40
1.0
 40
1.0
 40
1.0
 40
1.0
 10
130.1146187073
 20
165.4073529519
 30
0.0
 10
129.9047382742
 20
165.5285247352
 30
0.0
 10
129.407511234
 20
165.6243529179
 30
0.0
 10
128.9102842479
 20
165.5285225858
 30
0.0
 10
128.700405145
 20
165.4073495525
 30
0.0
  0
SPLINE
  5
594
100
AcDbEntity
  8
0
100
AcDbSpline
 62
7
  6
CONTINUOUS
 70
0
 71
3
 72
9
 73
5
 74
0
 42
0.0000001
 43
0.0000001
 44
0.0000000001
 40
0.0
 40
0.0
 40
0.0
 40
0.0
 40
0.2939106815
 40
1.0
 40
1.0
 40
1.0
 40
1.0
 10
62.1827005785
 20
178.8095723269
 30
0.0
 10
62.1827005785
 20
178.7994964351
 30
0.0
 10
62.1803304625
 20
178.7656890707
 30
0.0
 10
62.1622506759
 20
178.7301022393
 30
0.0
 10
62.141287411
 20
178.7179991508
 30
0.0
  0
SPLINE
  5
595
100
AcDbEntity
  8
0
100
AcDbSpline
 62
7
  6
CONTINUOUS
 70
0
 71
3
 72
8
 73
4
 74
0
 42
0.0000001
 43
0.0000001
 44
0.0000000001
 40
0.0
 40
0.0
 40
0.0
 40
0.0
 40
1.0
 40
1.0
 40
1.0
 40
1.0
 10
148.315312217
 20
138.2000718957
 30
0.0
 10
149.5002725638
 20
137.5160314922
 30
0.0
 10
150.6851632967
 20
136.8318704827
 30
0.0
 10
151.8699844011
 20
136.1475889271
 30
0.0
  0
SPLINE
  5
596
100
AcDbEntity
  8
0
100
AcDbSpline
 62
7
  6
CONTINUOUS
 70
0
 71
3
 72
11
 73
7
 74
0
 42
0.0000001
 43
0.0000001
 44
0.0000000001
 40
0.0
 40
0.0
 40
0.0
 40
0.0
 40
0.2754195254
 40
0.5000025647
 40
0.7245836103
 40
1.0
 40
1.0
 40
1.0
 40
1.0
 10
73.8992178009
 20
222.9285893183
 30
0.0
 10
74.0646395685
 20
222.8330851768
 30
0.0
 10
74.348885513
 20
222.6153836422
 30
0.0
 10
74.5459864135
 20
222.1121150319
 30
0.0
 10
74.3489088384
 20
221.6088384092
 30
0.0
 10
74.064667748
 20
221.3911332229
 30
0.0
 10
73.8992485419
 20
221.2956289942
 30
0.0
  0
SPLINE
  5
597
100
AcDbEntity
  8
0
100
AcDbSpline
 62
7
  6
CONTINUOUS
 70
0
 71
3
 72
9
 73
5
 74
0
 42
0.0000001
 43
0.0000001
 44
0.0000000001
 40
0.0
 40
0.0
 40
0.0
 40
0.0
 40
0.2330776141
 40
1.0
 40
1.0
 40
1.0
 40
1.0
 10
161.989602905
 20
115.7511219079
 30
0.0
 10
161.9996702689
 20
115.7649411845
 30
0.0
 10
162.038656335
 20
115.8273094005
 30
0.0
 10
162.0608167143
 20
115.8991459891
 30
0.0
 10
162.0705670791
 20
115.9545524674
 30
0.0
  0
SPLINE
  5
598
100
AcDbEntity
  8
0
100
AcDbSpline
 62
7
  6
CONTINUOUS
 70
0
 71
3
 72
8
 73
4
 74
0
 42
0.0000001
 43
0.0000001
 44
0.0000000001
 40
0.0
 40
0.0
 40
0.0
 40
0.0
 40
1.0
 40
1.0
 40
1.0
 40
1.0
 10
162.0705670791
 20
115.9545524674
 30
0.0
 10
162.0779581215
 20
115.9965520887
 30
0.0
 10
162.0813353926
 20
116.039370389
 30
0.0
 10
162.0815538198
 20
116.0820148258
 30
0.0
  0
SPLINE
  5
599
100
AcDbEntity
  8
0
100
AcDbSpline
 62
7
  6
CONTINUOUS
 70
0
 71
3
 72
9
 73
5
 74
0
 42
0.0000001
 43
0.0000001
 44
0.0000000001
 40
0.0
 40
0.0
 40
0.0
 40
0.0
 40
0.4485920765
 40
1.0
 40
1.0
 40
1.0
 40
1.0
 10
54.7292162345
 20
212.6408438431
 30
0.0
 10
54.7292199061
 20
212.7460132687
 30
0.0
 10
54.8221036632
 20
212.9809665572
 30
0.0
 10
55.0152145107
 20
213.1268741944
 30
0.0
 10
55.1275473071
 20
213.1908514428
 30
0.0
  0
SPLINE
  5
59A
100
AcDbEntity
  8
0
100
AcDbSpline
 62
7
  6
CONTINUOUS
 70
0
 71
3
 72
11
 73
7
 74
0
 42
0.0000001
 43
0.0000001
 44
0.0000000001
 40
0.0
 40
0.0
 40
0.0
 40
0.0
 40
0.2385499386
 40
0.4999938121
 40
0.7614412538
 40
1.0
 40
1.0
 40
1.0
 40
1.0
 10
138.1047357719
 20
144.9146162761
 30
0.0
 10
138.0050573716
 20
144.9758852202
 30
0.0
 10
137.7718988651
 20
145.0647990247
 30
0.0
 10
137.3979857023
 20
145.1101791542
 30
0.0
 10
137.0240649363
 20
145.0648243357
 30
0.0
 10
136.7908972948
 20
144.9759038345
 30
0.0
 10
136.6912231276
 20
144.914619756
 30
0.0
  0
SPLINE
  5
59B
100
AcDbEntity
  8
0
100
AcDbSpline
 62
7
  6
CONTINUOUS
 70
0
 71
3
 72
11
 73
7
 74
0
 42
0.0000001
 43
0.0000001
 44
0.0000000001
 40
0.0
 40
0.0
 40
0.0
 40
0.0
 40
0.2380968608
 40
0.5008766715
 40
0.7630765176
 40
1.0
 40
1.0
 40
1.0
 40
1.0
 10
158.6175937912
 20
210.6774556773
 30
0.0
 10
158.8151236085
 20
210.7883732453
 30
0.0
 10
159.2714575885
 20
210.9495974879
 30
0.0
 10
159.9991602112
 20
211.0256580179
 30
0.0
 10
160.7238736926
 20
210.9428800301
 30
0.0
 10
161.1795972253
 20
210.7818867417
 30
0.0
 10
161.3734416532
 20
210.6668194283
 30
0.0
  0
SPLINE
  5
59C
100
AcDbEntity
  8
0
100
AcDbSpline
 62
7
  6
CONTINUOUS
 70
0
 71
3
 72
9
 73
5
 74
0
 42
0.0000001
 43
0.0000001
 44
0.0000000001
 40
0.0
 40
0.0
 40
0.0
 40
0.0
 40
0.2939094573
 40
1.0
 40
1.0
 40
1.0
 40
1.0
 10
68.1577804056
 20
176.2989236099
 30
0.0
 10
68.1490546423
 20
176.3039613177
 30
0.0
 10
68.11859217
 20
176.3188117348
 30
0.0
 10
68.078734386
 20
176.3209472209
 30
0.0
 10
68.0577716203
 20
176.308844449
 30
0.0
  0
SPLINE
  5
59D
100
AcDbEntity
  8
0
100
AcDbSpline
 62
7
  6
CONTINUOUS
 70
0
 71
3
 72
9
 73
5
 74
0
 42
0.0000001
 43
0.0000001
 44
0.0000000001
 40
0.0
 40
0.0
 40
0.0
 40
0.0
 40
0.2287558289
 40
1.0
 40
1.0
 40
1.0
 40
1.0
 10
69.7487772872
 20
175.2170814288
 30
0.0
 10
69.7487772872
 20
175.2321091871
 30
0.0
 10
69.7408006397
 20
175.2976538704
 30
0.0
 10
69.7100614112
 20
175.3595188366
 30
0.0
 10
69.6783168448
 20
175.3990067368
 30
0.0
  0
SPLINE
  5
59E
100
AcDbEntity
  8
0
100
AcDbSpline
 62
7
  6
CONTINUOUS
 70
0
 71
3
 72
9
 73
5
 74
0
 42
0.0000001
 43
0.0000001
 44
0.0000000001
 40
0.0
 40
0.0
 40
0.0
 40
0.0
 40
0.7689825597
 40
1.0
 40
1.0
 40
1.0
 40
1.0
 10
69.6783168448
 20
175.3990067368
 30
0.0
 10
69.6630254944
 20
175.4180280493
 30
0.0
 10
69.6402102666
 20
175.4408155101
 30
0.0
 10
69.6137050206
 20
175.4583641575
 30
0.0
 10
69.6073553421
 20
175.4620300631
 30
0.0
  0
SPLINE
  5
59F
100
AcDbEntity
  8
0
100
AcDbSpline
 62
7
  6
CONTINUOUS
 70
0
 71
3
 72
16
 73
12
 74
0
 42
0.0000001
 43
0.0000001
 44
0.0000000001
 40
0.0
 40
0.0
 40
0.0
 40
0.0
 40
0.1121954757
 40
0.2165883324
 40
0.4084881328
 40
0.577000605
 40
0.7205486411
 40
0.8372019262
 40
0.9246218236
 40
0.9799957141
 40
1.0
 40
1.0
 40
1.0
 40
1.0
 10
123.2330994664
 20
256.3197578435
 30
0.0
 10
123.2435931181
 20
256.3262795752
 30
0.0
 10
123.2443189701
 20
256.355903827
 30
0.0
 10
123.2463239195
 20
256.3982538052
 30
0.0
 10
123.2466563027
 20
256.4505967015
 30
0.0
 10
123.2474363592
 20
256.5057146048
 30
0.0
 10
123.2476631376
 20
256.5531738532
 30
0.0
 10
123.2488723488
 20
256.5909330733
 30
0.0
 10
123.2475851211
 20
256.6207211472
 30
0.0
 10
123.2512903695
 20
256.6363617427
 30
0.0
 10
123.2480517875
 20
256.6471690048
 30
0.0
 10
123.2499593934
 20
256.6482707438
 30
0.0
  0
SPLINE
  5
5A0
100
AcDbEntity
  8
0
100
AcDbSpline
 62
7
  6
CONTINUOUS
 70
0
 71
3
 72
9
 73
5
 74
0
 42
0.0000001
 43
0.0000001
 44
0.0000000001
 40
0.0
 40
0.0
 40
0.0
 40
0.0
 40
0.2939094573
 40
1.0
 40
1.0
 40
1.0
 40
1.0
 10
60.2735069702
 20
180.8508080228
 30
0.0
 10
60.2647812069
 20
180.8558457306
 30
0.0
 10
60.2343187346
 20
180.8706961477
 30
0.0
 10
60.1944609506
 20
180.8728316338
 30
0.0
 10
60.1734981849
 20
180.8607288619
 30
0.0
  0
SPLINE
  5
5A1
100
AcDbEntity
  8
0
100
AcDbSpline
 62
7
  6
CONTINUOUS
 70
0
 71
3
 72
9
 73
5
 74
0
 42
0.0000001
 43
0.0000001
 44
0.0000000001
 40
0.0
 40
0.0
 40
0.0
 40
0.0
 40
0.24052378
 40
1.0
 40
1.0
 40
1.0
 40
1.0
 10
61.8645038518
 20
179.7689658417
 30
0.0
 10
61.8645038518
 20
179.7921291076
 30
0.0
 10
61.8473124035
 20
179.8872925857
 30
0.0
 10
61.7864235084
 20
179.9773450125
 30
0.0
 10
61.7230819068
 20
180.013914476
 30
0.0
  0
SPLINE
  5
5A2
100
AcDbEntity
  8
0
100
AcDbSpline
 62
7
  6
CONTINUOUS
 70
0
 71
3
 72
11
 73
7
 74
0
 42
0.0000001
 43
0.0000001
 44
0.0000000001
 40
0.0
 40
0.0
 40
0.0
 40
0.0
 40
0.2372531816
 40
0.5000006936
 40
0.7627478298
 40
1.0
 40
1.0
 40
1.0
 40
1.0
 10
172.0632280893
 20
216.8152831474
 30
0.0
 10
171.8599454034
 20
216.9326458057
 30
0.0
 10
171.3872444042
 20
217.1039326563
 30
0.0
 10
170.6314526956
 20
217.1858220225
 30
0.0
 10
169.8756623885
 20
217.1039290442
 30
0.0
 10
169.4029636075
 20
216.9326398869
 30
0.0
 10
169.1996826348
 20
216.8152762627
 30
0.0
  0
SPLINE
  5
5A3
100
AcDbEntity
  8
0
100
AcDbSpline
 62
7
  6
CONTINUOUS
 70
0
 71
3
 72
9
 73
5
 74
0
 42
0.0000001
 43
0.0000001
 44
0.0000000001
 40
0.0
 40
0.0
 40
0.0
 40
0.0
 40
0.4999994561
 40
1.0
 40
1.0
 40
1.0
 40
1.0
 10
62.342742211
 20
226.7837238744
 30
0.0
 10
62.5617085773
 20
226.9101434079
 30
0.0
 10
63.0804642992
 20
227.0101229677
 30
0.0
 10
63.5992200797
 20
226.9101456509
 30
0.0
 10
63.8181878324
 20
226.7837274184
 30
0.0
  0
SPLINE
  5
5A4
100
AcDbEntity
  8
0
100
AcDbSpline
 62
7
  6
CONTINUOUS
 70
0
 71
3
 72
10
 73
6
 74
0
 42
0.0000001
 43
0.0000001
 44
0.0000000001
 40
0.0
 40
0.0
 40
0.0
 40
0.0
 40
0.218442309
 40
0.4522747944
 40
1.0
 40
1.0
 40
1.0
 40
1.0
 10
129.6030617344
 20
135.8384793101
 30
0.0
 10
129.5176047856
 20
135.7892000821
 30
0.0
 10
129.321307154
 20
135.7178165435
 30
0.0
 10
128.8640897153
 20
135.7064681174
 30
0.0
 10
128.5223051301
 20
135.8430309318
 30
0.0
 10
128.3080924326
 20
135.9667038925
 30
0.0
  0
SPLINE
  5
5A5
100
AcDbEntity
  8
0
100
AcDbSpline
 62
7
  6
CONTINUOUS
 70
0
 71
3
 72
9
 73
5
 74
0
 42
0.0000001
 43
0.0000001
 44
0.0000000001
 40
0.0
 40
0.0
 40
0.0
 40
0.0
 40
0.4644594689
 40
1.0
 40
1.0
 40
1.0
 40
1.0
 10
129.853055793
 20
135.4054743485
 30
0.0
 10
130.0131726742
 20
135.4978066459
 30
0.0
 10
130.3025443727
 20
135.7991767881
 30
0.0
 10
130.4242466798
 20
136.1892811055
 30
0.0
 10
130.4596006475
 20
136.3994463713
 30
0.0
  0
SPLINE
  5
5A6
100
AcDbEntity
  8
0
100
AcDbSpline
 62
7
  6
CONTINUOUS
 70
0
 71
3
 72
9
 73
5
 74
0
 42
0.0000001
 43
0.0000001
 44
0.0000000001
 40
0.0
 40
0.0
 40
0.0
 40
0.0
 40
0.2405221456
 40
1.0
 40
1.0
 40
1.0
 40
1.0
 10
79.011912037
 20
170.3998462368
 30
0.0
 10
79.031971993
 20
170.3882648778
 30
0.0
 10
79.1057907357
 20
170.3257953248
 30
0.0
 10
79.1533339821
 20
170.2280379353
 30
0.0
 10
79.1533339821
 20
170.1548976024
 30
0.0
  0
SPLINE
  5
5A7
100
AcDbEntity
  8
0
100
AcDbSpline
 62
7
  6
CONTINUOUS
 70
0
 71
3
 72
9
 73
5
 74
0
 42
0.0000001
 43
0.0000001
 44
0.0000000001
 40
0.0
 40
0.0
 40
0.0
 40
0.0
 40
0.2939106815
 40
1.0
 40
1.0
 40
1.0
 40
1.0
 10
79.1533339821
 20
169.0117942184
 30
0.0
 10
79.1533339821
 20
169.0017183266
 30
0.0
 10
79.150963866
 20
168.9679109622
 30
0.0
 10
79.1328840794
 20
168.9323241308
 30
0.0
 10
79.1119208146
 20
168.9202210423
 30
0.0
  0
SPLINE
  5
5A8
100
AcDbEntity
  8
0
100
AcDbSpline
 62
7
  6
CONTINUOUS
 70
0
 71
3
 72
11
 73
7
 74
0
 42
0.0000001
 43
0.0000001
 44
0.0000000001
 40
0.0
 40
0.0
 40
0.0
 40
0.0
 40
0.2472532754
 40
0.5099240742
 40
0.7672971752
 40
1.0
 40
1.0
 40
1.0
 40
1.0
 10
123.3863639718
 20
145.5509391865
 30
0.0
 10
123.4256061642
 20
145.2723480169
 30
0.0
 10
123.5830890532
 20
144.7076576714
 30
0.0
 10
123.9854236726
 20
143.9268810253
 30
0.0
 10
124.5209843937
 20
143.2516960214
 30
0.0
 10
124.9603619931
 20
142.8963400733
 30
0.0
 10
125.1896737653
 20
142.763949855
 30
0.0
  0
SPLINE
  5
5A9
100
AcDbEntity
  8
0
100
AcDbSpline
 62
7
  6
CONTINUOUS
 70
0
 71
3
 72
11
 73
7
 74
0
 42
0.0000001
 43
0.0000001
 44
0.0000000001
 40
0.0
 40
0.0
 40
0.0
 40
0.0
 40
0.2327083517
 40
0.4900804116
 40
0.7527470908
 40
1.0
 40
1.0
 40
1.0
 40
1.0
 10
120.8622270268
 20
140.2654790376
 30
0.0
 10
120.6328960749
 20
140.3978803291
 30
0.0
 10
120.1935293085
 20
140.7533152394
 30
0.0
 10
119.6579401126
 20
141.4285382684
 30
0.0
 10
119.2556219157
 20
142.2093745728
 30
0.0
 10
119.0981037841
 20
142.7740847402
 30
0.0
 10
119.0588592997
 20
143.0526921814
 30
0.0
  0
SPLINE
  5
5AA
100
AcDbEntity
  8
0
100
AcDbSpline
 62
7
  6
CONTINUOUS
 70
0
 71
3
 72
9
 73
5
 74
0
 42
0.0000001
 43
0.0000001
 44
0.0000000001
 40
0.0
 40
0.0
 40
0.0
 40
0.0
 40
0.2573115046
 40
1.0
 40
1.0
 40
1.0
 40
1.0
 10
118.6770200481
 20
145.7634745611
 30
0.0
 10
118.6724018681
 20
145.7962602971
 30
0.0
 10
118.6565563259
 20
145.9239531653
 30
0.0
 10
118.6487272696
 20
146.0527257551
 30
0.0
 10
118.6487272696
 20
146.1482907285
 30
0.0
  0
SPLINE
  5
5AB
100
AcDbEntity
  8
0
100
AcDbSpline
 62
7
  6
CONTINUOUS
 70
0
 71
3
 72
11
 73
7
 74
0
 42
0.0000001
 43
0.0000001
 44
0.0000000001
 40
0.0
 40
0.0
 40
0.0
 40
0.0
 40
0.2895343069
 40
0.5491031023
 40
0.7822448885
 40
1.0
 40
1.0
 40
1.0
 40
1.0
 10
118.6487272696
 20
146.1482907285
 30
0.0
 10
118.6487272696
 20
146.279455106
 30
0.0
 10
118.6688034634
 20
146.529038524
 30
0.0
 10
118.7697990851
 20
146.8719792843
 30
0.0
 10
118.9400235326
 20
147.1503659975
 30
0.0
 10
119.1000429123
 20
147.2845493286
 30
0.0
 10
119.1854805405
 20
147.3338611716
 30
0.0
  0
SPLINE
  5
5AC
100
AcDbEntity
  8
0
100
AcDbSpline
 62
7
  6
CONTINUOUS
 70
0
 71
3
 72
9
 73
5
 74
0
 42
0.0000001
 43
0.0000001
 44
0.0000000001
 40
0.0
 40
0.0
 40
0.0
 40
0.0
 40
0.2412358607
 40
1.0
 40
1.0
 40
1.0
 40
1.0
 10
130.8414398991
 20
138.6693287361
 30
0.0
 10
130.8470710757
 20
138.7028038396
 30
0.0
 10
130.8671949504
 20
138.8421036719
 30
0.0
 10
130.8749007348
 20
138.9830943012
 30
0.0
 10
130.8749007348
 20
139.0898635862
 30
0.0
  0
SPLINE
  5
5AD
100
AcDbEntity
  8
0
100
AcDbSpline
 62
7
  6
CONTINUOUS
 70
0
 71
3
 72
11
 73
7
 74
0
 42
0.0000001
 43
0.0000001
 44
0.0000000001
 40
0.0
 40
0.0
 40
0.0
 40
0.0
 40
0.2372529753
 40
0.5000009943
 40
0.7627484729
 40
1.0
 40
1.0
 40
1.0
 40
1.0
 10
130.8749007348
 20
139.0898635862
 30
0.0
 10
130.8749007348
 20
139.4480734059
 30
0.0
 10
130.7405939504
 20
140.2034932452
 30
0.0
 10
130.2721558414
 20
141.2648492149
 30
0.0
 10
129.5872108687
 20
142.2012017384
 30
0.0
 10
129.0001503487
 20
142.6952192089
 30
0.0
 10
128.6899316841
 20
142.8743199866
 30
0.0
  0
SPLINE
  5
5AE
100
AcDbEntity
  8
0
100
AcDbSpline
 62
7
  6
CONTINUOUS
 70
0
 71
3
 72
11
 73
7
 74
0
 42
0.0000001
 43
0.0000001
 44
0.0000000001
 40
0.0
 40
0.0
 40
0.0
 40
0.0
 40
0.2895362519
 40
0.5491118457
 40
0.7822528009
 40
1.0
 40
1.0
 40
1.0
 40
1.0
 10
120.4803877752
 20
147.6139951466
 30
0.0
 10
120.3448817365
 20
147.6922278247
 30
0.0
 10
120.0750897603
 20
147.8203997443
 30
0.0
 10
119.6605838924
 20
147.9207292337
 30
0.0
 10
119.2714517974
 20
147.9109751821
 30
0.0
 10
119.0373760519
 20
147.8257333841
 30
0.0
 10
118.9354684081
 20
147.7668974866
 30
0.0
  0
SPLINE
  5
5AF
100
AcDbEntity
  8
0
100
AcDbSpline
 62
7
  6
CONTINUOUS
 70
0
 71
3
 72
9
 73
5
 74
0
 42
0.0000001
 43
0.0000001
 44
0.0000000001
 40
0.0
 40
0.0
 40
0.0
 40
0.0
 40
0.4999995122
 40
1.0
 40
1.0
 40
1.0
 40
1.0
 10
111.7297732128
 20
176.8381145867
 30
0.0
 10
111.9396521099
 20
176.9592875103
 30
0.0
 10
112.4368787354
 20
177.0551172368
 30
0.0
 10
112.93410512
 20
176.9592890623
 30
0.0
 10
113.1439853038
 20
176.8381174216
 30
0.0
  0
SPLINE
  5
5B0
100
AcDbEntity
  8
0
100
AcDbSpline
 62
7
  6
CONTINUOUS
 70
0
 71
3
 72
9
 73
5
 74
0
 42
0.0000001
 43
0.0000001
 44
0.0000000001
 40
0.0
 40
0.0
 40
0.0
 40
0.0
 40
0.2939094573
 40
1.0
 40
1.0
 40
1.0
 40
1.0
 10
85.1284138091
 20
166.5011455014
 30
0.0
 10
85.1196880458
 20
166.5061832092
 30
0.0
 10
85.0892255736
 20
166.5210336264
 30
0.0
 10
85.0493677895
 20
166.5231691124
 30
0.0
 10
85.0284050238
 20
166.5110663405
 30
0.0
  0
SPLINE
  5
5B1
100
AcDbEntity
  8
0
100
AcDbSpline
 62
7
  6
CONTINUOUS
 70
0
 71
3
 72
9
 73
5
 74
0
 42
0.0000001
 43
0.0000001
 44
0.0000000001
 40
0.0
 40
0.0
 40
0.0
 40
0.0
 40
0.2287558289
 40
1.0
 40
1.0
 40
1.0
 40
1.0
 10
86.7194106907
 20
165.4193033203
 30
0.0
 10
86.7194106907
 20
165.4343310787
 30
0.0
 10
86.7114340432
 20
165.4998757619
 30
0.0
 10
86.6806948147
 20
165.5617407281
 30
0.0
 10
86.6489502483
 20
165.6012286283
 30
0.0
  0
SPLINE
  5
5B2
100
AcDbEntity
  8
0
100
AcDbSpline
 62
7
  6
CONTINUOUS
 70
0
 71
3
 72
9
 73
5
 74
0
 42
0.0000001
 43
0.0000001
 44
0.0000000001
 40
0.0
 40
0.0
 40
0.0
 40
0.0
 40
0.7689825597
 40
1.0
 40
1.0
 40
1.0
 40
1.0
 10
86.6489502483
 20
165.6012286283
 30
0.0
 10
86.6336588979
 20
165.6202499408
 30
0.0
 10
86.6108436701
 20
165.6430374016
 30
0.0
 10
86.5843384241
 20
165.660586049
 30
0.0
 10
86.5779887457
 20
165.6642519546
 30
0.0
  0
SPLINE
  5
5B3
100
AcDbEntity
  8
0
100
AcDbSpline
 62
7
  6
CONTINUOUS
 70
0
 71
3
 72
9
 73
5
 74
0
 42
0.0000001
 43
0.0000001
 44
0.0000000001
 40
0.0
 40
0.0
 40
0.0
 40
0.0
 40
0.2939094573
 40
1.0
 40
1.0
 40
1.0
 40
1.0
 10
77.2441403737
 20
171.0530299143
 30
0.0
 10
77.2354146104
 20
171.0580676221
 30
0.0
 10
77.2049521382
 20
171.0729180393
 30
0.0
 10
77.1650943542
 20
171.0750535253
 30
0.0
 10
77.1441315885
 20
171.0629507534
 30
0.0
  0
SPLINE
  5
5B4
100
AcDbEntity
  8
0
100
AcDbSpline
 62
7
  6
CONTINUOUS
 70
0
 71
3
 72
9
 73
5
 74
0
 42
0.0000001
 43
0.0000001
 44
0.0000000001
 40
0.0
 40
0.0
 40
0.0
 40
0.0
 40
0.24052378
 40
1.0
 40
1.0
 40
1.0
 40
1.0
 10
78.8351372553
 20
169.9711877332
 30
0.0
 10
78.8351372553
 20
169.9943509991
 30
0.0
 10
78.817945807
 20
170.0895144773
 30
0.0
 10
78.757056912
 20
170.1795669041
 30
0.0
 10
78.6937153103
 20
170.2161363675
 30
0.0
  0
SPLINE
  5
5B5
100
AcDbEntity
  8
0
100
AcDbSpline
 62
7
  6
CONTINUOUS
 70
0
 71
3
 72
9
 73
5
 74
0
 42
0.0000001
 43
0.0000001
 44
0.0000000001
 40
0.0
 40
0.0
 40
0.0
 40
0.0
 40
0.2670515893
 40
1.0
 40
1.0
 40
1.0
 40
1.0
 10
55.5525216772
 20
185.1796014086
 30
0.0
 10
55.5362488029
 20
185.2077867188
 30
0.0
 10
55.469530564
 20
185.3095474044
 30
0.0
 10
55.3798771489
 20
185.3988322411
 30
0.0
 10
55.3025193623
 20
185.4434937697
 30
0.0
  0
SPLINE
  5
5B6
100
AcDbEntity
  8
0
100
AcDbSpline
 62
7
  6
CONTINUOUS
 70
0
 71
3
 72
9
 73
5
 74
0
 42
0.0000001
 43
0.0000001
 44
0.0000000001
 40
0.0
 40
0.0
 40
0.0
 40
0.0
 40
0.2287547983
 40
1.0
 40
1.0
 40
1.0
 40
1.0
 10
47.3475225298
 20
186.3537877116
 30
0.0
 10
47.3345081316
 20
186.3613014079
 30
0.0
 10
47.2817329296
 20
186.4009812265
 30
0.0
 10
47.2435258432
 20
186.4585344113
 30
0.0
 10
47.2252003807
 20
186.5057697932
 30
0.0
  0
SPLINE
  5
5B7
100
AcDbEntity
  8
0
100
AcDbSpline
 62
7
  6
CONTINUOUS
 70
0
 71
3
 72
9
 73
5
 74
0
 42
0.0000001
 43
0.0000001
 44
0.0000000001
 40
0.0
 40
0.0
 40
0.0
 40
0.0
 40
0.7689820672
 40
1.0
 40
1.0
 40
1.0
 40
1.0
 10
47.2252003807
 20
186.5057697932
 30
0.0
 10
47.2163729497
 20
186.5285232203
 30
0.0
 10
47.2080458237
 20
186.5596756436
 30
0.0
 10
47.2061005847
 20
186.5914043514
 30
0.0
 10
47.2061005847
 20
186.5987363459
 30
0.0
  0
LINE
  5
5B8
100
AcDbEntity
  8
0
100
AcDbLine
 62
7
  6
CONTINUOUS
 10
40.723173939
 20
196.9949194566
 11
40.0437642918
 21
196.6029994178
  0
SPLINE
  5
5B9
100
AcDbEntity
  8
0
100
AcDbSpline
 62
7
  6
CONTINUOUS
 70
0
 71
3
 72
8
 73
4
 74
0
 42
0.0000001
 43
0.0000001
 44
0.0000000001
 40
0.0
 40
0.0
 40
0.0
 40
0.0
 40
1.0
 40
1.0
 40
1.0
 40
1.0
 10
40.0437642918
 20
196.6029994178
 30
0.0
 10
39.7986521265
 20
196.4617146899
 30
0.0
 10
39.5534650242
 20
196.3205596041
 30
0.0
 10
39.3081090447
 20
196.1796987109
 30
0.0
  0
SPLINE
  5
5BA
100
AcDbEntity
  8
0
100
AcDbSpline
 62
7
  6
CONTINUOUS
 70
0
 71
3
 72
10
 73
6
 74
0
 42
0.0000001
 43
0.0000001
 44
0.0000000001
 40
0.0
 40
0.0
 40
0.0
 40
0.0
 40
0.2377452445
 40
0.5013520769
 40
1.0
 40
1.0
 40
1.0
 40
1.0
 10
39.2976707969
 20
174.8434336892
 30
0.0
 10
39.3093907153
 20
174.6160748839
 30
0.0
 10
39.4157719998
 20
174.1397643895
 30
0.0
 10
39.8300386035
 20
173.2755072683
 30
0.0
 10
40.3446786909
 20
172.7054316405
 30
0.0
 10
40.7563045045
 20
172.4634252373
 30
0.0
  0
SPLINE
  5
5BB
100
AcDbEntity
  8
0
100
AcDbSpline
 62
7
  6
CONTINUOUS
 70
0
 71
3
 72
8
 73
4
 74
0
 42
0.0000001
 43
0.0000001
 44
0.0000000001
 40
0.0
 40
0.0
 40
0.0
 40
0.0
 40
1.0
 40
1.0
 40
1.0
 40
1.0
 10
77.462328323
 20
171.2466606271
 30
0.0
 10
77.4711062553
 20
171.2517285444
 30
0.0
 10
77.4812798579
 20
171.2547528253
 30
0.0
 10
77.4913755979
 20
171.2556538888
 30
0.0
  0
SPLINE
  5
5BC
100
AcDbEntity
  8
0
100
AcDbSpline
 62
7
  6
CONTINUOUS
 70
0
 71
3
 72
9
 73
5
 74
0
 42
0.0000001
 43
0.0000001
 44
0.0000000001
 40
0.0
 40
0.0
 40
0.0
 40
0.0
 40
0.2254928033
 40
1.0
 40
1.0
 40
1.0
 40
1.0
 10
77.4913755979
 20
171.2556538888
 30
0.0
 10
77.4969242141
 20
171.2561491131
 30
0.0
 10
77.5217721288
 20
171.2557140228
 30
0.0
 10
77.5457666823
 20
171.2463065025
 30
0.0
 10
77.5623371005
 20
171.2367397835
 30
0.0
  0
SPLINE
  5
5BD
100
AcDbEntity
  8
0
100
AcDbSpline
 62
7
  6
CONTINUOUS
 70
0
 71
3
 72
9
 73
5
 74
0
 42
0.0000001
 43
0.0000001
 44
0.0000000001
 40
0.0
 40
0.0
 40
0.0
 40
0.0
 40
0.5508366888
 40
1.0
 40
1.0
 40
1.0
 40
1.0
 10
198.9333976474
 20
204.4864755131
 30
0.0
 10
199.1008751363
 20
204.3897845261
 30
0.0
 10
199.3886539592
 20
204.1695228426
 30
0.0
 10
199.5263500307
 20
203.8175397353
 30
0.0
 10
199.5263499956
 20
203.6598495115
 30
0.0
  0
SPLINE
  5
5BE
100
AcDbEntity
  8
0
100
AcDbSpline
 62
7
  6
CONTINUOUS
 70
0
 71
3
 72
9
 73
5
 74
0
 42
0.0000001
 43
0.0000001
 44
0.0000000001
 40
0.0
 40
0.0
 40
0.0
 40
0.0
 40
0.2208539297
 40
1.0
 40
1.0
 40
1.0
 40
1.0
 10
78.7937240956
 20
168.7365111776
 30
0.0
 10
78.8003183791
 20
168.7403183618
 30
0.0
 10
78.8272924855
 20
168.7630211985
 30
0.0
 10
78.8351372553
 20
168.8012216306
 30
0.0
 10
78.8351372553
 20
168.8280843492
 30
0.0
  0
SPLINE
  5
5BF
100
AcDbEntity
  8
0
100
AcDbSpline
 62
7
  6
CONTINUOUS
 70
0
 71
3
 72
11
 73
7
 74
0
 42
0.0000001
 43
0.0000001
 44
0.0000000001
 40
0.0
 40
0.0
 40
0.0
 40
0.0
 40
0.2372524154
 40
0.4999996411
 40
0.7627470634
 40
1.0
 40
1.0
 40
1.0
 40
1.0
 10
169.1996826348
 20
219.9996174825
 30
0.0
 10
169.4029638175
 20
220.1169812286
 30
0.0
 10
169.8756629571
 20
220.2882704275
 30
0.0
 10
170.6314535261
 20
220.3701632429
 30
0.0
 10
171.3872449735
 20
220.2882737125
 30
0.0
 10
171.8599456138
 20
220.1169869005
 30
0.0
 10
172.0632280893
 20
219.9996243623
 30
0.0
  0
SPLINE
  5
5C0
100
AcDbEntity
  8
0
100
AcDbSpline
 62
7
  6
CONTINUOUS
 70
0
 71
3
 72
11
 73
7
 74
0
 42
0.0000001
 43
0.0000001
 44
0.0000000001
 40
0.0
 40
0.0
 40
0.0
 40
0.0
 40
0.2773276196
 40
0.5000009874
 40
0.7226737002
 40
1.0
 40
1.0
 40
1.0
 40
1.0
 10
102.7849497106
 20
162.6586201595
 30
0.0
 10
102.7433037535
 20
162.6826639201
 30
0.0
 10
102.6722319918
 20
162.7372386844
 30
0.0
 10
102.6234803748
 20
162.8627407978
 30
0.0
 10
102.6722300592
 20
162.9882434803
 30
0.0
 10
102.7433011811
 20
163.0428186672
 30
0.0
 10
102.7849467666
 20
163.0668626137
 30
0.0
  0
SPLINE
  5
5C1
100
AcDbEntity
  8
0
100
AcDbSpline
 62
7
  6
CONTINUOUS
 70
0
 71
3
 72
11
 73
7
 74
0
 42
0.0000001
 43
0.0000001
 44
0.0000000001
 40
0.0
 40
0.0
 40
0.0
 40
0.0
 40
0.2713937816
 40
0.4914892923
 40
0.7171991347
 40
1.0
 40
1.0
 40
1.0
 40
1.0
 10
102.7849497106
 20
162.6107905552
 30
0.0
 10
102.7441958378
 20
162.6343192824
 30
0.0
 10
102.674479829
 20
162.6877033107
 30
0.0
 10
102.6235034634
 20
162.8108075809
 30
0.0
 10
102.6700398274
 20
162.938763201
 30
0.0
 10
102.7424801248
 20
162.9945150287
 30
0.0
 10
102.7849467666
 20
163.0190330094
 30
0.0
  0
ELLIPSE
  5
5C2
100
AcDbEntity
  8
0
100
AcDbEllipse
 62
7
  6
CONTINUOUS
 10
134.6741103969
 20
117.7586996278
 30
0.0
 11
1.0388241295
 21
-0.1006410945
 31
0.0
 40
0.501477285
 41
-2.1776047612
 42
-1.3481834607
  0
ENDSEC
  0
SECTION
  2
OBJECTS
  0
DICTIONARY
  5
C
100
AcDbDictionary
280
0
281
1
  3
ACAD_GROUP
350
D
  3
ACAD_MLINESTYLE
350
17
  3
ACAD_LAYOUT
350
1A
  3
ACAD_PLOTSETTINGS
350
19
  3
ACAD_PLOTSTYLENAME
350
E
  0
DICTIONARY
  5
D
102
{ACAD_REACTORS
330
C
102
}
100
AcDbDictionary
280
0
281
1
  0
ACDBDICTIONARYWDFLT
  5
E
102
{ACAD_REACTORS
330
C
102
}
100
AcDbDictionary
281
1
  3
Normal
350
F
100
AcDbDictionaryWithDefault
340
F
  0
DICTIONARY
  5
17
102
{ACAD_REACTORS
330
C
102
}
100
AcDbDictionary
280
0
281
1
  3
Standard
350
18
  0
DICTIONARY
  5
19
102
{ACAD_REACTORS
330
C
102
}
100
AcDbDictionary
281
1
  0
DICTIONARY
  5
1A
102
{ACAD_REACTORS
330
C
102
}
100
AcDbDictionary
281
1
  3
Model
350
5C3
  3
Layout1
350
5C4
  0
ACDBPLACEHOLDER
  5
F
102
{ACAD_REACTORS
330
E
102
}
  0
MLINESTYLE
  5
18
102
{ACAD_REACTORS
330
17
102
}
100
AcDbMlineStyle
  2
STANDARD
 70
0
  3

 62
256
 51
90.0
 52
90.0
 71
2
 49
0.5
 62
256
  6
BYLAYER
 49
-0.5
 62
256
  6
BYLAYER
  0
LAYOUT
  5
5C3
102
{ACAD_REACTORS
330
1A
102
}
100
AcDbPlotSettings
  1

  2
none_device
  4

  6

 40
0.0
 41
0.0
 42
0.0
 43
0.0
 44
210.0
 45
297.0
 46
0.0
 47
0.0
 48
0.0
 49
0.0
140
0.0
141
0.0
142
1.0
143
1.0
 70
1024
 72
1
 73
0
 74
0
  7

 75
0
147
1.0
148
0.0
149
0.0
100
AcDbLayout
  1
Model
 70
0
 71
0
 10
0.0
 20
0.0
 11
210.0
 21
297.0
 12
0.0
 22
0.0
 32
0.0
 14
0.0
 24
0.0
 34
0.0
 15
0.0
 25
0.0
 35
0.0
146
0.0
 13
0.0
 23
0.0
 33
0.0
 16
1.0
 26
0.0
 36
0.0
 17
0.0
 27
1.0
 37
0.0
 76
0
330
210
345
0
346
0
  0
LAYOUT
  5
5C4
102
{ACAD_REACTORS
330
1A
102
}
100
AcDbPlotSettings
  1

  2
none_device
  4

  6

 40
0.0
 41
0.0
 42
0.0
 43
0.0
 44
210.0
 45
297.0
 46
0.0
 47
0.0
 48
0.0
 49
0.0
140
0.0
141
0.0
142
1.0
143
1.0
 70
0
 72
1
 73
0
 74
0
  7

 75
0
147
1.0
148
0.0
149
0.0
100
AcDbLayout
  1
Layout1
 70
0
 71
1
 10
0.0
 20
0.0
 11
210.0
 21
297.0
 12
0.0
 22
0.0
 32
0.0
 14
0.0
 24
0.0
 34
0.0
 15
0.0
 25
0.0
 35
0.0
146
0.0
 13
0.0
 23
0.0
 33
0.0
 16
1.0
 26
0.0
 36
0.0
 17
0.0
 27
1.0
 37
0.0
 76
0
330
211
345
0
346
0
  0
ENDSEC
  0
EOF
