999
DXF file: C:\Users\sesa63760\Dev\_Creo\CAD\MCADID0000367_3D-CAD\drw0001_1.dxf
999
Pro/ENGINEER 2019471 by Parametric Technology Corporation
  0
SECTION
  2
HEADER
  9
$ACADVER
  1
AC1024
  9
$DWGCODEPAGE
  3
ANSI_1252
  9
$EXTMAX
 10
302.5260661668
 20
427.8582935787
 30
0.0
  9
$EXTMIN
 10
0.0
 20
0.0
 30
0.0
  9
$LIMMIN
 10
0.0
 20
0.0
  9
$LIMMAX
 10
302.5260661668
 20
427.8582935787
  9
$VIEWCTR
 10
151.2630330834
 20
213.9291467894
  9
$VIEWSIZE
 40
427.8582935787
  9
$CLAYER
  8
0
  9
$LTSCALE
 40
27.8900220999
  9
$CELTYPE
  6
BYLAYER
  9
$DIMSCALE
 40
1.0
  9
$DIMASZ
 40
3.6015007877
  9
$DIMEXO
 40
1.0
  9
$DIMDLI
 40
19.2694698145
  9
$DIMEXE
 40
1.0
  9
$DIMCEN
 40
4.5638217982
  9
$DIMLFAC
 40
1.0
  9
$DIMBLK
  1
_FILLED
  9
$DIMALT
 70
0
  9
$DIMALTF
 40
0.0393700787
  9
$DIMTXT
 40
5.0421011028
  9
$DIMTOL
 70
1
  9
$DIMLIM
 70
0
  9
$DIMTFAC
 40
1.0
  9
$DIMTP
 40
0.01
  9
$DIMTM
 40
0.01
  9
$DIMGAP
 40
0.625
  9
$DIMDSEP
 70
46
  9
$AUNITS
 70
0
  9
$PDMODE
 70
3
  9
$PDSIZE
 40
0.3125
  9
$HANDSEED
  5
3D4
  9
$TILEMODE
 70
1
  9
$MEASUREMENT
 70
1
  9
$INSUNITS
 70
4
  0
ENDSEC
  0
SECTION
  2
CLASSES
  0
CLASS
  1
ACDBDICTIONARYWDFLT
  2
AcDbDictionaryWithDefault
  3
AutoCAD 2000
 90
0
 91
1
280
0
281
0
  0
CLASS
  1
ACDBPLACEHOLDER
  2
AcDbPlaceHolder
  3
AutoCAD 2000
 90
0
 91
1
280
0
281
0
  0
CLASS
  1
LAYOUT
  2
AcDbLayout
  3
AutoCAD 2000
 90
0
 91
0
280
0
281
0
  0
ENDSEC
  0
SECTION
  2
TABLES
  0
TABLE
  2
VPORT
  5
8
100
AcDbSymbolTable
 70
2
  0
VPORT
  5
1F4
100
AcDbSymbolTableRecord
100
AcDbViewportTableRecord
  2
*ACTIVE
 70
0
 10
0.0
 20
0.0
 11
1.0
 21
1.0
 12
151.2630330834
 22
213.9291467894
 13
0.0
 23
0.0
 14
1.0
 24
1.0
 15
0.0
 25
0.0
 16
0.0
 26
0.0
 36
1.0
 17
0.0
 27
0.0
 37
0.0
 40
427.8582935787
 41
0.7070707071
 42
50.0
 43
0.0
 44
0.0
 50
0.0
 51
0.0
 71
0
 72
100
 73
1
 74
1
 75
0
 76
0
 77
0
 78
0
  0
ENDTAB
  0
TABLE
  2
LTYPE
  5
5
100
AcDbSymbolTable
 70
6
  0
LTYPE
  5
14
100
AcDbSymbolTableRecord
100
AcDbLinetypeTableRecord
  2
BYBLOCK
 70
0
  3

 72
65
 73
0
 40
0.0
  0
LTYPE
  5
15
100
AcDbSymbolTableRecord
100
AcDbLinetypeTableRecord
  2
BYLAYER
 70
0
  3

 72
65
 73
0
 40
0.0
  0
LTYPE
  5
16
100
AcDbSymbolTableRecord
100
AcDbLinetypeTableRecord
  2
CONTINUOUS
 70
64
  3
Solid line
 72
65
 73
0
 40
0.0
  0
LTYPE
  5
1F5
100
AcDbSymbolTableRecord
100
AcDbLinetypeTableRecord
  2
CENTER
 70
64
  3
____ _ ____ _ ____ _ ____ _ ____ _ ____ _ ____
 72
65
 73
4
 40
0.6
 49
0.375
 74
0
 49
-0.075
 74
0
 49
0.075
 74
0
 49
-0.075
 74
0
  0
LTYPE
  5
1F6
100
AcDbSymbolTableRecord
100
AcDbLinetypeTableRecord
  2
HIDDEN
 70
64
  3
- - - - - - - - - - - - - - - - - - - -
 72
65
 73
2
 40
0.2
 49
0.1
 74
0
 49
-0.1
 74
0
  0
LTYPE
  5
1F7
100
AcDbSymbolTableRecord
100
AcDbLinetypeTableRecord
  2
PHANTOM
 70
64
  3
_____ _ _ _____ _ _ _____ _ _ _____
 72
65
 73
6
 40
0.8
 49
0.45
 74
0
 49
-0.05
 74
0
 49
0.1
 74
0
 49
-0.05
 74
0
 49
0.1
 74
0
 49
-0.05
 74
0
  0
LTYPE
  5
1F8
100
AcDbSymbolTableRecord
100
AcDbLinetypeTableRecord
  2
DOT
 70
64
  3
. . . . . . . . . . . . . . . . . . . .
 72
65
 73
2
 40
0.2
 49
0.1
 74
0
 49
-0.1
 74
0
  0
LTYPE
  5
1F9
100
AcDbSymbolTableRecord
100
AcDbLinetypeTableRecord
  2
DASHED
 70
64
  3
- - - - - - - - - - - - - - - - - - - -
 72
65
 73
2
 40
0.2
 49
0.1
 74
0
 49
-0.1
 74
0
  0
ENDTAB
  0
TABLE
  2
LAYER
  5
2
100
AcDbSymbolTable
 70
36
  0
LAYER
  5
10
100
AcDbSymbolTableRecord
100
AcDbLayerTableRecord
  2
0
 70
0
 62
7
  6
CONTINUOUS
370
-3
390
F
  0
LAYER
  5
1FA
100
AcDbSymbolTableRecord
100
AcDbLayerTableRecord
  2
DEFAULT_1
 70
0
 62
7
  6
CENTER
370
-3
390
F
  0
LAYER
  5
1FB
100
AcDbSymbolTableRecord
100
AcDbLayerTableRecord
  2
DEFAULT_2
 70
0
 62
8
  6
HIDDEN
370
-3
390
F
  0
LAYER
  5
1FC
100
AcDbSymbolTableRecord
100
AcDbLayerTableRecord
  2
DEFAULT_3
 70
0
 62
7
  6
PHANTOM
370
-3
390
F
  0
LAYER
  5
1FD
100
AcDbSymbolTableRecord
100
AcDbLayerTableRecord
  2
00_COMPONENTS
 70
0
 62
7
  6
CONTINUOUS
370
-3
390
F
  0
LAYER
  5
1FE
100
AcDbSymbolTableRecord
100
AcDbLayerTableRecord
  2
01_1_DEFAULT_DATUMS
 70
0
 62
7
  6
CONTINUOUS
370
-3
390
F
  0
LAYER
  5
1FF
100
AcDbSymbolTableRecord
100
AcDbLayerTableRecord
  2
01_PLANES
 70
0
 62
7
  6
CONTINUOUS
370
-3
390
F
  0
LAYER
  5
200
100
AcDbSymbolTableRecord
100
AcDbLayerTableRecord
  2
02_COORD_SYS
 70
0
 62
7
  6
CONTINUOUS
370
-3
390
F
  0
LAYER
  5
201
100
AcDbSymbolTableRecord
100
AcDbLayerTableRecord
  2
03_AXES
 70
0
 62
7
  6
CONTINUOUS
370
-3
390
F
  0
LAYER
  5
202
100
AcDbSymbolTableRecord
100
AcDbLayerTableRecord
  2
04_POINTS
 70
0
 62
7
  6
CONTINUOUS
370
-3
390
F
  0
LAYER
  5
203
100
AcDbSymbolTableRecord
100
AcDbLayerTableRecord
  2
05_CURVES
 70
0
 62
7
  6
CONTINUOUS
370
-3
390
F
  0
LAYER
  5
204
100
AcDbSymbolTableRecord
100
AcDbLayerTableRecord
  2
06_SURFS
 70
0
 62
7
  6
CONTINUOUS
370
-3
390
F
  0
LAYER
  5
205
100
AcDbSymbolTableRecord
100
AcDbLayerTableRecord
  2
07_COSMETICS
 70
0
 62
7
  6
CONTINUOUS
370
-3
390
F
  0
LAYER
  5
206
100
AcDbSymbolTableRecord
100
AcDbLayerTableRecord
  2
10_NOTES
 70
0
 62
7
  6
CONTINUOUS
370
-3
390
F
  0
LAYER
  5
207
100
AcDbSymbolTableRecord
100
AcDbLayerTableRecord
  2
11_NOTES_PUB
 70
0
 62
7
  6
CONTINUOUS
370
-3
390
F
  0
LAYER
  5
208
100
AcDbSymbolTableRecord
100
AcDbLayerTableRecord
  2
13_REF_GTOL
 70
0
 62
7
  6
CONTINUOUS
370
-3
390
F
  0
LAYER
  5
209
100
AcDbSymbolTableRecord
100
AcDbLayerTableRecord
  2
16_MISC
 70
0
 62
7
  6
CONTINUOUS
370
-3
390
F
  0
LAYER
  5
20A
100
AcDbSymbolTableRecord
100
AcDbLayerTableRecord
  2
17_NO_PRINT
 70
0
 62
7
  6
CONTINUOUS
370
-3
390
F
  0
LAYER
  5
20B
100
AcDbSymbolTableRecord
100
AcDbLayerTableRecord
  2
18_DATUM_CAMS_JOINTS
 70
0
 62
7
  6
CONTINUOUS
370
-3
390
F
  0
LAYER
  5
20C
100
AcDbSymbolTableRecord
100
AcDbLayerTableRecord
  2
19_DATUM_FUNCTIONAL
 70
0
 62
7
  6
CONTINUOUS
370
-3
390
F
  0
LAYER
  5
20D
100
AcDbSymbolTableRecord
100
AcDbLayerTableRecord
  2
20_DATUM_KINEMATIC_SCHEME
 70
0
 62
7
  6
CONTINUOUS
370
-3
390
F
  0
ENDTAB
  0
TABLE
  2
STYLE
  5
3
100
AcDbSymbolTable
 70
1
  0
STYLE
  5
11
100
AcDbSymbolTableRecord
100
AcDbTextStyleTableRecord
  2
STANDARD
 70
0
 40
0.0
 41
0.8
 50
0.0
 71
0
 42
0.2
  3
txt
  4

  0
STYLE
  5
20E
100
AcDbSymbolTableRecord
100
AcDbTextStyleTableRecord
  2
TEXTSTYLE_1
 70
0
 40
0.0
 41
0.8
 50
0.0
 71
0
 42
0.2
  3
gdt
  4

  0
ENDTAB
  0
TABLE
  2
VIEW
  5
6
100
AcDbSymbolTable
 70
0
  0
ENDTAB
  0
TABLE
  2
UCS
  5
7
100
AcDbSymbolTable
 70
0
  0
ENDTAB
  0
TABLE
  2
APPID
  5
9
100
AcDbSymbolTable
 70
1
  0
APPID
  5
20F
100
AcDbSymbolTableRecord
100
AcDbRegAppTableRecord
  2
ACAD
 70
0
  0
ENDTAB
  0
TABLE
  2
BLOCK_RECORD
  5
1
100
AcDbSymbolTable
 70
0
  0
BLOCK_RECORD
  5
210
100
AcDbSymbolTableRecord
100
AcDbBlockTableRecord
  2
*Model_Space
  0
BLOCK_RECORD
  5
211
100
AcDbSymbolTableRecord
100
AcDbBlockTableRecord
  2
*Paper_Space
  0
BLOCK_RECORD
  5
212
100
AcDbSymbolTableRecord
100
AcDbBlockTableRecord
  2
_FILLED
  0
ENDTAB
  0
TABLE
  2
DIMSTYLE
  5
A
100
AcDbSymbolTable
 70
1
100
AcDbDimStyleTable
 71
0
  0
DIMSTYLE
105
213
100
AcDbSymbolTableRecord
100
AcDbDimStyleTableRecord
  2
STANDARD
 70
0
  3

  4

 40
1.0
 41
3.6015007877
 42
1.0
 43
0.38
 44
1.0
 45
0.0
 46
0.0
 47
0.01
 48
0.01
140
5.0421011028
141
0.09
142
0.0
143
25.4
144
1.0
145
0.0
146
1.0
147
0.625
 71
1
 72
0
 73
0
 74
0
 75
0
 76
0
 77
1
 78
8
 79
2
170
0
171
1
172
0
173
0
174
0
175
0
176
0
177
0
178
0
270
2
179
2
271
2
272
2
273
2
274
2
275
0
280
0
281
0
282
0
283
1
284
8
285
0
286
0
287
3
288
0
340
11
278
46
341
212
342
212
343
212
344
212
  0
ENDTAB
  0
ENDSEC
  0
SECTION
  2
BLOCKS
  0
BLOCK
  5
20
100
AcDbEntity
  8
0
100
AcDbBlockBegin
  2
*Model_Space
 70
0
 10
0.0
 20
0.0
 30
0.0
  3
*Model_Space
  1

  0
ENDBLK
  5
21
100
AcDbEntity
  8
0
100
AcDbBlockEnd
  0
BLOCK
  5
1C
100
AcDbEntity
  8
0
100
AcDbBlockBegin
  2
*Paper_Space
 70
0
 10
0.0
 20
0.0
 30
0.0
  3
*Paper_Space
  1

  0
ENDBLK
  5
1D
100
AcDbEntity
  8
0
100
AcDbBlockEnd
  0
BLOCK
  5
214
100
AcDbEntity
  8
0
100
AcDbBlockBegin
  2
_FILLED
 70
64
 10
0.0
 20
0.0
  3
_FILLED
  1

  0
SOLID
  5
215
100
AcDbEntity
  8
0
  6
BYBLOCK
 62
0
100
AcDbTrace
 10
0.0
 20
0.0
 11
-1.0
 21
0.25
 12
-1.0
 22
-0.25
 13
-1.0
 23
-0.25
  0
ENDBLK
  5
216
100
AcDbEntity
  8
0
  6
BYBLOCK
 62
0
100
AcDbBlockEnd
  0
ENDSEC
  0
SECTION
  2
ENTITIES
  0
LINE
  5
217
100
AcDbEntity
  8
0
100
AcDbLine
 62
7
  6
CONTINUOUS
 10
44.4393455246
 20
217.8638389024
 11
44.4393455246
 21
229.5785007122
  0
LINE
  5
218
100
AcDbEntity
  8
0
100
AcDbLine
 62
7
  6
CONTINUOUS
 10
45.2087117428
 20
292.5517035814
 11
45.2087117428
 21
280.3150096499
  0
LINE
  5
219
100
AcDbEntity
  8
0
100
AcDbLine
 62
7
  6
CONTINUOUS
 10
46.7374153318
 20
256.7146574748
 11
46.7374153318
 21
264.296037049
  0
LINE
  5
21A
100
AcDbEntity
  8
0
100
AcDbLine
 62
7
  6
CONTINUOUS
 10
44.4492825091
 20
239.2773375938
 11
46.385906524
 21
253.2989933526
  0
LINE
  5
21B
100
AcDbEntity
  8
0
100
AcDbLine
 62
7
  6
CONTINUOUS
 10
49.9214551497
 20
251.25778958
 11
47.9848311349
 21
237.2361338212
  0
LINE
  5
21C
100
AcDbEntity
  8
0
100
AcDbLine
 62
7
  6
CONTINUOUS
 10
47.9748941504
 20
227.5372969396
 11
47.9748941504
 21
215.8226351298
  0
LINE
  5
21D
100
AcDbEntity
  8
0
100
AcDbLine
 62
7
  6
CONTINUOUS
 10
52.3942931329
 20
265.1126230984
 11
52.3942931329
 21
254.1237861381
  0
LINE
  5
21E
100
AcDbEntity
  8
0
100
AcDbLine
 62
7
  6
CONTINUOUS
 10
54.3440406012
 20
265.1126349962
 11
54.3440406012
 21
268.868546115
  0
LINE
  5
21F
100
AcDbEntity
  8
0
100
AcDbLine
 62
7
  6
CONTINUOUS
 10
55.2227290896
 20
263.8879025346
 11
55.2227290896
 21
267.6438136533
  0
LINE
  5
220
100
AcDbEntity
  8
0
100
AcDbLine
 62
7
  6
CONTINUOUS
 10
55.4440406012
 20
268.868546115
 11
55.4440406012
 21
269.8956177062
  0
LINE
  5
221
100
AcDbEntity
  8
0
100
AcDbLine
 62
7
  6
CONTINUOUS
 10
50.2729345178
 20
270.419769904
 11
52.5106715726
 21
271.711720283
  0
LINE
  5
222
100
AcDbEntity
  8
0
100
AcDbLine
 62
7
  6
CONTINUOUS
 10
61.5867225038
 20
280.2156324579
 11
61.5867225038
 21
266.0925706559
  0
LINE
  5
223
100
AcDbEntity
  8
0
100
AcDbLine
 62
7
  6
CONTINUOUS
 10
67.4331091707
 20
303.7311075548
 11
67.4331091707
 21
303.3685948777
  0
LINE
  5
224
100
AcDbEntity
  8
0
100
AcDbLine
 62
7
  6
CONTINUOUS
 10
54.3440406012
 20
266.2383036047
 11
52.3942931329
 21
265.1126230984
  0
LINE
  5
225
100
AcDbEntity
  8
0
100
AcDbLine
 62
7
  6
CONTINUOUS
 10
69.3649235925
 20
259.4789985629
 11
69.3649235925
 21
255.7230874441
  0
LINE
  5
226
100
AcDbEntity
  8
0
100
AcDbLine
 62
7
  6
CONTINUOUS
 10
69.5862351041
 20
260.7037310246
 11
69.5862351041
 21
261.9284846502
  0
LINE
  5
227
100
AcDbEntity
  8
0
100
AcDbLine
 62
7
  6
CONTINUOUS
 10
70.0720362616
 20
254.4983530269
 11
70.0720362616
 21
248.1961634095
  0
LINE
  5
228
100
AcDbEntity
  8
0
100
AcDbLine
 62
7
  6
CONTINUOUS
 10
70.0926413651
 20
254.6475844189
 11
70.0926413651
 21
248.379441329
  0
LINE
  5
229
100
AcDbEntity
  8
0
100
AcDbLine
 62
7
  6
CONTINUOUS
 10
73.3862351041
 20
260.7037310246
 11
73.3862351041
 21
261.9284846502
  0
LINE
  5
22A
100
AcDbEntity
  8
0
100
AcDbLine
 62
7
  6
CONTINUOUS
 10
73.6075642796
 20
255.7230976422
 11
73.6075642796
 21
259.479008761
  0
LINE
  5
22B
100
AcDbEntity
  8
0
100
AcDbLine
 62
7
  6
CONTINUOUS
 10
78.2058441556
 20
234.9281593992
 11
76.2692201407
 21
220.9065036404
  0
LINE
  5
22C
100
AcDbEntity
  8
0
100
AcDbLine
 62
7
  6
CONTINUOUS
 10
84.1001035049
 20
245.5033318327
 11
84.0435219946
 21
245.4204835583
  0
LINE
  5
22D
100
AcDbEntity
  8
0
100
AcDbLine
 62
7
  6
CONTINUOUS
 10
84.1027698499
 20
245.5008516582
 11
84.0435219946
 21
245.4204835583
  0
LINE
  5
22E
100
AcDbEntity
  8
0
100
AcDbLine
 62
7
  6
CONTINUOUS
 10
73.6075642796
 20
259.479008761
 11
87.7496410239
 21
267.6438918384
  0
LINE
  5
22F
100
AcDbEntity
  8
0
100
AcDbLine
 62
7
  6
CONTINUOUS
 10
94.4671274774
 20
271.5222113002
 11
108.6092042217
 21
279.6870943776
  0
LINE
  5
230
100
AcDbEntity
  8
0
100
AcDbLine
 62
7
  6
CONTINUOUS
 10
108.6092042217
 20
275.9311832588
 11
94.4671274774
 21
267.7663001814
  0
LINE
  5
231
100
AcDbEntity
  8
0
100
AcDbLine
 62
7
  6
CONTINUOUS
 10
87.7496410239
 20
263.8879807196
 11
73.6075642796
 21
255.7230976422
  0
LINE
  5
232
100
AcDbEntity
  8
0
100
AcDbLine
 62
7
  6
CONTINUOUS
 10
78.2058441556
 20
199.3612772622
 11
76.2692201407
 21
211.1467255767
  0
LINE
  5
233
100
AcDbEntity
  8
0
100
AcDbLine
 62
7
  6
CONTINUOUS
 10
84.0435219946
 20
245.3979002302
 11
84.0435219946
 21
245.4204835583
  0
LINE
  5
234
100
AcDbEntity
  8
0
100
AcDbLine
 62
7
  6
CONTINUOUS
 10
85.4861762248
 20
271.8079888101
 11
85.4861762248
 21
294.7520919843
  0
LINE
  5
235
100
AcDbEntity
  8
0
100
AcDbLine
 62
7
  6
CONTINUOUS
 10
87.5283118484
 20
268.868614102
 11
87.5283118484
 21
270.0933677277
  0
LINE
  5
236
100
AcDbEntity
  8
0
100
AcDbLine
 62
7
  6
CONTINUOUS
 10
87.7496410239
 20
267.6438918384
 11
87.7496410239
 21
263.8879807196
  0
LINE
  5
237
100
AcDbEntity
  8
0
100
AcDbLine
 62
7
  6
CONTINUOUS
 10
88.6283118484
 20
265.1127029832
 11
88.6283118484
 21
268.868614102
  0
LINE
  5
238
100
AcDbEntity
  8
0
100
AcDbLine
 62
7
  6
CONTINUOUS
 10
90.2244867903
 20
271.5222011021
 11
90.2244867903
 21
267.7662899834
  0
LINE
  5
239
100
AcDbEntity
  8
0
100
AcDbLine
 62
7
  6
CONTINUOUS
 10
90.445798302
 20
272.7469335638
 11
90.445798302
 21
273.9716871895
  0
LINE
  5
23A
100
AcDbEntity
  8
0
100
AcDbLine
 62
7
  6
CONTINUOUS
 10
108.1792926823
 20
264.6603830425
 11
93.1294383979
 21
255.9713974864
  0
LINE
  5
23B
100
AcDbEntity
  8
0
100
AcDbLine
 62
7
  6
CONTINUOUS
 10
87.8823789409
 20
250.492517128
 11
113.4263521394
 21
265.2402488982
  0
LINE
  5
23C
100
AcDbEntity
  8
0
100
AcDbLine
 62
7
  6
CONTINUOUS
 10
45.8728394094
 20
216.1582020064
 11
45.8352902889
 21
216.1875132352
  0
LINE
  5
23D
100
AcDbEntity
  8
0
100
AcDbLine
 62
7
  6
CONTINUOUS
 10
49.3708389146
 20
214.1463094625
 11
49.4083880352
 21
214.1169982338
  0
LINE
  5
23E
100
AcDbEntity
  8
0
100
AcDbLine
 62
7
  6
CONTINUOUS
 10
94.245798302
 20
272.7469335638
 11
94.245798302
 21
273.9716871895
  0
LINE
  5
23F
100
AcDbEntity
  8
0
100
AcDbLine
 62
7
  6
CONTINUOUS
 10
94.4671274774
 20
267.7663001814
 11
94.4671274774
 21
271.5222113002
  0
LINE
  5
240
100
AcDbEntity
  8
0
100
AcDbLine
 62
7
  6
CONTINUOUS
 10
79.4302369279
 20
237.0323845498
 11
80.1544508899
 21
237.4505071799
  0
LINE
  5
241
100
AcDbEntity
  8
0
100
AcDbLine
 62
7
  6
CONTINUOUS
 10
223.105887738
 20
104.9846846456
 11
217.0954550743
 21
108.454731059
  0
LINE
  5
242
100
AcDbEntity
  8
0
100
AcDbLine
 62
7
  6
CONTINUOUS
 10
222.2774384551
 20
106.8158292369
 11
216.2670057914
 21
110.2858756503
  0
LINE
  5
243
100
AcDbEntity
  8
0
100
AcDbLine
 62
7
  6
CONTINUOUS
 10
227.1940485455
 20
109.7067385577
 11
224.4440247856
 21
111.2944295974
  0
LINE
  5
244
100
AcDbEntity
  8
0
100
AcDbLine
 62
7
  6
CONTINUOUS
 10
49.3674783364
 20
214.1404886386
 11
45.8727837509
 21
216.1581058537
  0
LINE
  5
245
100
AcDbEntity
  8
0
100
AcDbLine
 62
7
  6
CONTINUOUS
 10
49.4083323766
 20
214.1169020811
 11
69.0925283028
 21
202.7524833618
  0
LINE
  5
246
100
AcDbEntity
  8
0
100
AcDbLine
 62
7
  6
CONTINUOUS
 10
45.8352902889
 20
216.1875132352
 11
69.0168080742
 21
202.803960478
  0
LINE
  5
247
100
AcDbEntity
  8
0
100
AcDbLine
 62
7
  6
CONTINUOUS
 10
69.0925027219
 20
202.7524984272
 11
69.0168080742
 21
202.803960478
  0
LINE
  5
248
100
AcDbEntity
  8
0
100
AcDbLine
 62
7
  6
CONTINUOUS
 10
79.0734782091
 20
198.489725359
 11
79.0426213994
 21
198.5121271331
  0
LINE
  5
249
100
AcDbEntity
  8
0
100
AcDbLine
 62
7
  6
CONTINUOUS
 10
106.3457394226
 20
283.8511913493
 11
106.3457394226
 21
306.7952945235
  0
LINE
  5
24A
100
AcDbEntity
  8
0
100
AcDbLine
 62
7
  6
CONTINUOUS
 10
108.3878750462
 20
280.9118166412
 11
108.3878750462
 21
282.1365702669
  0
LINE
  5
24B
100
AcDbEntity
  8
0
100
AcDbLine
 62
7
  6
CONTINUOUS
 10
108.6092042217
 20
279.6870943776
 11
108.6092042217
 21
275.9311832588
  0
LINE
  5
24C
100
AcDbEntity
  8
0
100
AcDbLine
 62
7
  6
CONTINUOUS
 10
109.4878750462
 20
277.1559055224
 11
109.4878750462
 21
280.9118166412
  0
LINE
  5
24D
100
AcDbEntity
  8
0
100
AcDbLine
 62
7
  6
CONTINUOUS
 10
78.2143829858
 20
198.8402952546
 11
79.0426213994
 21
198.5121271331
  0
LINE
  5
24E
100
AcDbEntity
  8
0
100
AcDbLine
 62
7
  6
CONTINUOUS
 10
78.0200205262
 20
198.9224595689
 11
78.2143829858
 21
198.8402952546
  0
LINE
  5
24F
100
AcDbEntity
  8
0
100
AcDbLine
 62
7
  6
CONTINUOUS
 10
62.1507335942
 20
207.6383955632
 11
44.4393455246
 21
217.8638389024
  0
LINE
  5
250
100
AcDbEntity
  8
0
100
AcDbLine
 62
7
  6
CONTINUOUS
 10
216.2670057914
 20
119.2832254909
 11
79.073297643
 21
198.4894129394
  0
LINE
  5
251
100
AcDbEntity
  8
0
100
AcDbLine
 62
7
  6
CONTINUOUS
 10
79.0426213994
 20
198.5121271331
 11
216.2670057914
 21
119.288240266
  0
LINE
  5
252
100
AcDbEntity
  8
0
100
AcDbLine
 62
7
  6
CONTINUOUS
 10
216.2670057914
 20
119.6546244946
 11
78.2058441556
 21
199.3612772622
  0
LINE
  5
253
100
AcDbEntity
  8
0
100
AcDbLine
 62
7
  6
CONTINUOUS
 10
226.1940174997
 20
114.3255227169
 11
228.9440412596
 21
112.7378316772
  0
LINE
  5
254
100
AcDbEntity
  8
0
100
AcDbLine
 62
7
  6
CONTINUOUS
 10
222.2774384551
 20
124.9560425882
 11
216.2670057914
 21
128.4260890016
  0
LINE
  5
255
100
AcDbEntity
  8
0
100
AcDbLine
 62
7
  6
CONTINUOUS
 10
231.3192234258
 20
120.0267963489
 11
233.0869977387
 21
119.0061944626
  0
LINE
  5
256
100
AcDbEntity
  8
0
100
AcDbLine
 62
7
  6
CONTINUOUS
 10
76.1771458688
 20
211.1864208401
 11
76.2692201407
 21
211.1467255767
  0
LINE
  5
257
100
AcDbEntity
  8
0
100
AcDbLine
 62
7
  6
CONTINUOUS
 10
76.2692201407
 20
211.1467255767
 11
207.0845192929
 21
135.6221859904
  0
LINE
  5
258
100
AcDbEntity
  8
0
100
AcDbLine
 62
7
  6
CONTINUOUS
 10
207.0839004072
 20
135.6259540552
 11
221.9332046352
 21
127.0528982103
  0
LINE
  5
259
100
AcDbEntity
  8
0
100
AcDbLine
 62
7
  6
CONTINUOUS
 10
44.4393455246
 20
229.5785007122
 11
76.2592831562
 21
211.2076667588
  0
LINE
  5
25A
100
AcDbEntity
  8
0
100
AcDbLine
 62
7
  6
CONTINUOUS
 10
221.9332046352
 20
136.804425521
 11
207.0839004072
 21
145.3774813659
  0
LINE
  5
25B
100
AcDbEntity
  8
0
100
AcDbLine
 62
7
  6
CONTINUOUS
 10
207.0845192929
 20
145.3819640542
 11
44.4492825091
 21
239.2773375938
  0
LINE
  5
25C
100
AcDbEntity
  8
0
100
AcDbLine
 62
7
  6
CONTINUOUS
 10
209.8887760515
 20
122.9651835017
 11
209.8554954335
 21
122.9898437555
  0
LINE
  5
25D
100
AcDbEntity
  8
0
100
AcDbLine
 62
7
  6
CONTINUOUS
 10
80.6035043329
 20
237.8652037395
 11
80.6786821388
 21
237.7941559573
  0
LINE
  5
25E
100
AcDbEntity
  8
0
100
AcDbLine
 62
7
  6
CONTINUOUS
 10
80.603499156
 20
237.8651879443
 11
80.6786821388
 21
237.7941559573
  0
LINE
  5
25F
100
AcDbEntity
  8
0
100
AcDbLine
 62
7
  6
CONTINUOUS
 10
216.2670057914
 20
142.768812161
 11
222.2774384551
 21
139.2987657476
  0
LINE
  5
260
100
AcDbEntity
  8
0
100
AcDbLine
 62
7
  6
CONTINUOUS
 10
242.0690410303
 20
138.6464478352
 11
241.3619313051
 21
139.0546885897
  0
LINE
  5
261
100
AcDbEntity
  8
0
100
AcDbLine
 62
7
  6
CONTINUOUS
 10
209.0188872324
 20
159.3985193857
 11
216.2670057914
 21
155.2139108531
  0
LINE
  5
262
100
AcDbEntity
  8
0
100
AcDbLine
 62
7
  6
CONTINUOUS
 10
46.385906524
 20
253.2989933526
 11
209.0211433078
 21
159.4036198129
  0
LINE
  5
263
100
AcDbEntity
  8
0
100
AcDbLine
 62
7
  6
CONTINUOUS
 10
263.6787651968
 20
127.9023910294
 11
242.819028305
 21
139.9454932877
  0
LINE
  5
264
100
AcDbEntity
  8
0
100
AcDbLine
 62
7
  6
CONTINUOUS
 10
209.8554954335
 20
161.2139348313
 11
216.2670057914
 21
157.5123313417
  0
LINE
  5
265
100
AcDbEntity
  8
0
100
AcDbLine
 62
7
  6
CONTINUOUS
 10
47.2226837678
 20
255.114364848
 11
209.8579205516
 21
161.2189913084
  0
LINE
  5
266
100
AcDbEntity
  8
0
100
AcDbLine
 62
7
  6
CONTINUOUS
 10
210.2078556775
 20
161.5731097249
 11
79.3925565253
 21
237.0976493112
  0
LINE
  5
267
100
AcDbEntity
  8
0
100
AcDbLine
 62
7
  6
CONTINUOUS
 10
47.5726188937
 20
255.4684832646
 11
79.1535425871
 21
237.235640951
  0
LINE
  5
268
100
AcDbEntity
  8
0
100
AcDbLine
 62
7
  6
CONTINUOUS
 10
216.2670057914
 20
158.1655938073
 11
210.3861946887
 21
161.5608048706
  0
LINE
  5
269
100
AcDbEntity
  8
0
100
AcDbLine
 62
7
  6
CONTINUOUS
 10
46.7374153318
 20
256.7146574748
 11
48.3045870909
 21
255.8098709069
  0
LINE
  5
26A
100
AcDbEntity
  8
0
100
AcDbLine
 62
7
  6
CONTINUOUS
 10
80.6786821388
 20
237.7941559573
 11
48.8587445072
 21
256.1649899107
  0
LINE
  5
26B
100
AcDbEntity
  8
0
100
AcDbLine
 62
7
  6
CONTINUOUS
 10
216.2670057914
 20
160.0925230952
 11
222.2774384551
 21
156.6224766818
  0
LINE
  5
26C
100
AcDbEntity
  8
0
100
AcDbLine
 62
7
  6
CONTINUOUS
 10
226.1940527089
 20
154.4517142251
 11
224.4440599949
 21
155.4621018776
  0
LINE
  5
26D
100
AcDbEntity
  8
0
100
AcDbLine
 62
7
  6
CONTINUOUS
 10
227.1940485455
 20
160.2252482083
 11
228.9440412596
 21
159.2148605558
  0
LINE
  5
26E
100
AcDbEntity
  8
0
100
AcDbLine
 62
7
  6
CONTINUOUS
 10
225.105853804
 20
161.5214629658
 11
219.0954211402
 21
164.9915093792
  0
LINE
  5
26F
100
AcDbEntity
  8
0
100
AcDbLine
 62
7
  6
CONTINUOUS
 10
260.4611781432
 20
141.1402553233
 11
249.854532266
 21
147.2638666411
  0
LINE
  5
270
100
AcDbEntity
  8
0
100
AcDbLine
 62
7
  6
CONTINUOUS
 10
85.4684710084
 20
294.7781048981
 11
85.4852692135
 21
294.752556719
  0
LINE
  5
271
100
AcDbEntity
  8
0
100
AcDbLine
 62
7
  6
CONTINUOUS
 10
220.7640204837
 20
165.9548699088
 11
214.8832915315
 21
169.3500335436
  0
LINE
  5
272
100
AcDbEntity
  8
0
100
AcDbLine
 62
7
  6
CONTINUOUS
 10
214.7834609635
 20
169.4983345882
 11
83.9681618113
 21
245.0228741745
  0
LINE
  5
273
100
AcDbEntity
  8
0
100
AcDbLine
 62
7
  6
CONTINUOUS
 10
249.854532266
 20
149.2738111101
 11
260.4611781432
 21
143.1501997923
  0
LINE
  5
274
100
AcDbEntity
  8
0
100
AcDbLine
 62
7
  6
CONTINUOUS
 10
214.9151685055
 20
169.9784503358
 11
84.0998693533
 21
245.5029899221
  0
LINE
  5
275
100
AcDbEntity
  8
0
100
AcDbLine
 62
7
  6
CONTINUOUS
 10
214.9183349555
 20
169.9830787924
 11
221.3297831546
 21
166.2815111894
  0
LINE
  5
276
100
AcDbEntity
  8
0
100
AcDbLine
 62
7
  6
CONTINUOUS
 10
52.3942931329
 20
264.7043718899
 11
70.0720362616
 21
254.4983530269
  0
LINE
  5
277
100
AcDbEntity
  8
0
100
AcDbLine
 62
7
  6
CONTINUOUS
 10
52.2028999556
 20
265.2231215011
 11
52.3942931329
 21
265.1126230984
  0
LINE
  5
278
100
AcDbEntity
  8
0
100
AcDbLine
 62
7
  6
CONTINUOUS
 10
70.9391447436
 20
254.8142309999
 11
52.7478450516
 21
265.3167451754
  0
LINE
  5
279
100
AcDbEntity
  8
0
100
AcDbLine
 62
7
  6
CONTINUOUS
 10
270.6786464276
 20
140.026815253
 11
264.7289377362
 21
143.4618034578
  0
LINE
  5
27A
100
AcDbEntity
  8
0
100
AcDbLine
 62
7
  6
CONTINUOUS
 10
250.6467926119
 20
151.5919498076
 11
249.8189095358
 21
152.0699175113
  0
LINE
  5
27B
100
AcDbEntity
  8
0
100
AcDbLine
 62
7
  6
CONTINUOUS
 10
263.9966973292
 20
145.1914205617
 11
253.390051452
 21
151.3150318795
  0
LINE
  5
27C
100
AcDbEntity
  8
0
100
AcDbLine
 62
7
  6
CONTINUOUS
 10
250.5688968105
 20
153.3689629639
 11
249.8617870854
 21
153.7772037184
  0
LINE
  5
27D
100
AcDbEntity
  8
0
100
AcDbLine
 62
7
  6
CONTINUOUS
 10
55.2227290896
 20
267.6438136533
 11
69.3649235925
 21
259.4789985629
  0
LINE
  5
27E
100
AcDbEntity
  8
0
100
AcDbLine
 62
7
  6
CONTINUOUS
 10
227.5365496574
 20
169.8649681102
 11
87.8823789409
 21
250.492517128
  0
LINE
  5
27F
100
AcDbEntity
  8
0
100
AcDbLine
 62
7
  6
CONTINUOUS
 10
61.5867225038
 20
266.0925706559
 11
48.620797318
 21
274.1200127917
  0
LINE
  5
280
100
AcDbEntity
  8
0
100
AcDbLine
 62
7
  6
CONTINUOUS
 10
117.2652090856
 20
264.6009190515
 11
117.2452382891
 21
264.6379703642
  0
LINE
  5
281
100
AcDbEntity
  8
0
100
AcDbLine
 62
7
  6
CONTINUOUS
 10
84.0435219946
 20
244.1866133204
 11
70.0926413651
 21
248.379441329
  0
LINE
  5
282
100
AcDbEntity
  8
0
100
AcDbLine
 62
7
  6
CONTINUOUS
 10
37.4518847793
 20
292.2221120962
 11
45.2087117428
 21
287.7438072735
  0
LINE
  5
283
100
AcDbEntity
  8
0
100
AcDbLine
 62
7
  6
CONTINUOUS
 10
106.3280342062
 20
306.8213074373
 11
106.3448324113
 21
306.7957592582
  0
LINE
  5
284
100
AcDbEntity
  8
0
100
AcDbLine
 62
7
  6
CONTINUOUS
 10
76.2045712505
 20
211.1934098185
 11
62.1507335942
 21
207.6383955632
  0
LINE
  5
285
100
AcDbEntity
  8
0
100
AcDbLine
 62
7
  6
CONTINUOUS
 10
248.0589829009
 20
189.0783028792
 11
248.0209944291
 21
189.0947940689
  0
LINE
  5
286
100
AcDbEntity
  8
0
100
AcDbLine
 62
7
  6
CONTINUOUS
 10
90.2244867903
 20
267.7662899834
 11
88.6283118484
 21
268.6878211679
  0
LINE
  5
287
100
AcDbEntity
  8
0
100
AcDbLine
 62
7
  6
CONTINUOUS
 10
87.7496233601
 20
270.0933465636
 11
87.4830075066
 21
270.247273816
  0
LINE
  5
288
100
AcDbEntity
  8
0
100
AcDbLine
 62
7
  6
CONTINUOUS
 10
85.5532781792
 20
271.3613783583
 11
85.4342670524
 21
271.43008791
  0
LINE
  5
289
100
AcDbEntity
  8
0
100
AcDbLine
 62
7
  6
CONTINUOUS
 10
261.318714415
 20
171.9886144502
 11
263.0864887279
 21
170.9680125639
  0
LINE
  5
28A
100
AcDbEntity
  8
0
100
AcDbLine
 62
7
  6
CONTINUOUS
 10
85.4861762248
 20
274.257804095
 11
90.2244867903
 21
271.5222011021
  0
LINE
  5
28B
100
AcDbEntity
  8
0
100
AcDbLine
 62
7
  6
CONTINUOUS
 10
117.208861727
 20
264.6183614782
 11
117.2436850606
 21
264.6028447352
  0
LINE
  5
28C
100
AcDbEntity
  8
0
100
AcDbLine
 62
7
  6
CONTINUOUS
 10
113.4263521394
 20
265.2402488982
 11
253.0805228559
 21
184.6126998805
  0
LINE
  5
28D
100
AcDbEntity
  8
0
100
AcDbLine
 62
7
  6
CONTINUOUS
 10
266.4438851318
 20
177.6898270965
 11
263.6938613719
 21
179.2775181362
  0
LINE
  5
28E
100
AcDbEntity
  8
0
100
AcDbLine
 62
7
  6
CONTINUOUS
 10
254.4324426283
 20
185.3932264659
 11
117.208861727
 21
264.6183614782
  0
LINE
  5
28F
100
AcDbEntity
  8
0
100
AcDbLine
 62
7
  6
CONTINUOUS
 10
117.2438640282
 20
264.6031550622
 11
254.4367839293
 21
185.3957329022
  0
LINE
  5
290
100
AcDbEntity
  8
0
100
AcDbLine
 62
7
  6
CONTINUOUS
 10
265.443854086
 20
182.3086112557
 11
268.1938778459
 21
180.720920216
  0
LINE
  5
291
100
AcDbEntity
  8
0
100
AcDbLine
 62
7
  6
CONTINUOUS
 10
48.9516896585
 20
312.140809035
 11
58.4073948026
 21
306.6816786267
  0
LINE
  5
292
100
AcDbEntity
  8
0
100
AcDbLine
 62
7
  6
CONTINUOUS
 10
261.5216513731
 20
189.4861586115
 11
267.5320840368
 21
186.0161121981
  0
LINE
  5
293
100
AcDbEntity
  8
0
100
AcDbLine
 62
7
  6
CONTINUOUS
 10
109.4878750462
 20
277.8733384254
 11
110.183407709
 21
277.4717815397
  0
LINE
  5
294
100
AcDbEntity
  8
0
100
AcDbLine
 62
7
  6
CONTINUOUS
 10
109.4878750462
 20
278.0424342207
 11
110.1829362353
 21
277.6411495344
  0
LINE
  5
295
100
AcDbEntity
  8
0
100
AcDbLine
 62
7
  6
CONTINUOUS
 10
269.5320501028
 20
186.2142237363
 11
263.521617439
 21
189.6842701497
  0
LINE
  5
296
100
AcDbEntity
  8
0
100
AcDbLine
 62
7
  6
CONTINUOUS
 10
110.1829233097
 20
277.6412394623
 11
110.2643917783
 21
277.5884228491
  0
LINE
  5
297
100
AcDbEntity
  8
0
100
AcDbLine
 62
7
  6
CONTINUOUS
 10
117.2652090856
 20
264.6009190515
 11
117.2076843193
 21
264.612526346
  0
LINE
  5
298
100
AcDbEntity
  8
0
100
AcDbLine
 62
7
  6
CONTINUOUS
 10
117.2652090856
 20
264.6009190515
 11
117.2102749877
 21
264.6179269379
  0
LINE
  5
299
100
AcDbEntity
  8
0
100
AcDbLine
 62
7
  6
CONTINUOUS
 10
61.17432824
 20
306.3497379785
 11
85.4703049363
 21
294.7772314304
  0
LINE
  5
29A
100
AcDbEntity
  8
0
100
AcDbLine
 62
7
  6
CONTINUOUS
 10
108.6091865579
 20
282.1365491028
 11
108.3425707045
 21
282.2904763553
  0
LINE
  5
29B
100
AcDbEntity
  8
0
100
AcDbLine
 62
7
  6
CONTINUOUS
 10
106.412841377
 20
283.4045808975
 11
106.2938158607
 21
283.4732987568
  0
LINE
  5
29C
100
AcDbEntity
  8
0
100
AcDbLine
 62
7
  6
CONTINUOUS
 10
207.0845192929
 20
135.6221859904
 11
209.0211433078
 21
123.8367376759
  0
LINE
  5
29D
100
AcDbEntity
  8
0
100
AcDbLine
 62
7
  6
CONTINUOUS
 10
209.0188872324
 20
123.8392330273
 11
207.0839004072
 21
135.6259540552
  0
LINE
  5
29E
100
AcDbEntity
  8
0
100
AcDbLine
 62
7
  6
CONTINUOUS
 10
70.8719174441
 20
323.5716504424
 11
80.432657815
 21
318.0518792895
  0
LINE
  5
29F
100
AcDbEntity
  8
0
100
AcDbLine
 62
7
  6
CONTINUOUS
 10
221.9332046352
 20
127.0528982103
 11
222.2774384551
 21
124.9560425882
  0
LINE
  5
2A0
100
AcDbEntity
  8
0
100
AcDbLine
 62
7
  6
CONTINUOUS
 10
216.2670057914
 20
110.2858756503
 11
216.2670057914
 21
128.4260890016
  0
LINE
  5
2A1
100
AcDbEntity
  8
0
100
AcDbLine
 62
7
  6
CONTINUOUS
 10
216.2670057914
 20
142.768812161
 11
216.2670057914
 21
160.0925230952
  0
LINE
  5
2A2
100
AcDbEntity
  8
0
100
AcDbLine
 62
7
  6
CONTINUOUS
 10
207.0839004072
 20
145.3774813659
 11
209.0188872324
 21
159.3985193857
  0
LINE
  5
2A3
100
AcDbEntity
  8
0
100
AcDbLine
 62
7
  6
CONTINUOUS
 10
209.0211433078
 20
159.4036198129
 11
207.0845192929
 21
145.3819640542
  0
LINE
  5
2A4
100
AcDbEntity
  8
0
100
AcDbLine
 62
7
  6
CONTINUOUS
 10
83.4481108881
 20
317.7193284191
 11
106.3298681341
 21
306.8204339696
  0
LINE
  5
2A5
100
AcDbEntity
  8
0
100
AcDbLine
 62
7
  6
CONTINUOUS
 10
222.2774384551
 20
156.6224766818
 11
222.2774384551
 21
139.2987657476
  0
LINE
  5
2A6
100
AcDbEntity
  8
0
100
AcDbLine
 62
7
  6
CONTINUOUS
 10
222.2774384551
 20
124.9560425882
 11
222.2774384551
 21
106.8158292369
  0
LINE
  5
2A7
100
AcDbEntity
  8
0
100
AcDbLine
 62
7
  6
CONTINUOUS
 10
244.2416512916
 20
189.715709312
 11
218.6976780931
 21
174.9679775417
  0
LINE
  5
2A8
100
AcDbEntity
  8
0
100
AcDbLine
 62
7
  6
CONTINUOUS
 10
219.0954211402
 20
164.9915093792
 11
227.5365496574
 21
169.8649681102
  0
LINE
  5
2A9
100
AcDbEntity
  8
0
100
AcDbLine
 62
7
  6
CONTINUOUS
 10
253.0805228559
 20
184.6126998805
 11
261.5216513731
 21
189.4861586115
  0
LINE
  5
2AA
100
AcDbEntity
  8
0
100
AcDbLine
 62
7
  6
CONTINUOUS
 10
222.2774384551
 20
139.2987657476
 11
221.9332046352
 21
136.804425521
  0
LINE
  5
2AB
100
AcDbEntity
  8
0
100
AcDbLine
 62
7
  6
CONTINUOUS
 10
267.5320840368
 20
186.0161121981
 11
225.105853804
 21
161.5214629658
  0
LINE
  5
2AC
100
AcDbEntity
  8
0
100
AcDbLine
 62
7
  6
CONTINUOUS
 10
249.122291859
 20
148.476160846
 11
249.122291859
 21
150.2944214948
  0
LINE
  5
2AD
100
AcDbEntity
  8
0
100
AcDbLine
 62
7
  6
CONTINUOUS
 10
249.854532266
 20
147.2638666411
 11
249.854532266
 21
149.2738111101
  0
LINE
  5
2AE
100
AcDbEntity
  8
0
100
AcDbLine
 62
7
  6
CONTINUOUS
 10
260.4611781432
 20
143.1501997923
 11
260.4611781432
 21
141.1402553233
  0
LINE
  5
2AF
100
AcDbEntity
  8
0
100
AcDbLine
 62
7
  6
CONTINUOUS
 10
270.7047332056
 20
164.9625125887
 11
270.3604993857
 21
167.0593682109
  0
LINE
  5
2B0
100
AcDbEntity
  8
0
100
AcDbLine
 62
7
  6
CONTINUOUS
 10
264.7289377362
 20
142.3525495282
 11
264.7289377362
 21
144.170810177
  0
LINE
  5
2B1
100
AcDbEntity
  8
0
100
AcDbLine
 62
7
  6
CONTINUOUS
 10
270.3604993857
 20
140.210493378
 11
270.3604993857
 21
152.7166450514
  0
LINE
  5
2B2
100
AcDbEntity
  8
0
100
AcDbLine
 62
7
  6
CONTINUOUS
 10
270.3604993857
 20
167.0593682109
 11
270.3604993857
 21
184.383079145
  0
LINE
  5
2B3
100
AcDbEntity
  8
0
100
AcDbLine
 62
7
  6
CONTINUOUS
 10
272.1284356165
 20
136.4141139573
 11
272.1284326726
 21
136.8223598109
  0
LINE
  5
2B4
100
AcDbEntity
  8
0
100
AcDbLine
 62
7
  6
CONTINUOUS
 10
224.4440599949
 20
111.294490583
 11
226.1940527089
 21
114.3255837026
  0
LINE
  5
2B5
100
AcDbEntity
  8
0
100
AcDbLine
 62
7
  6
CONTINUOUS
 10
263.6938965812
 20
179.2775791218
 11
265.4438892953
 21
182.3086722414
  0
LINE
  5
2B6
100
AcDbEntity
  8
0
100
AcDbLine
 62
7
  6
CONTINUOUS
 10
268.1938778459
 20
180.720920216
 11
266.4438851318
 21
177.6898270965
  0
LINE
  5
2B7
100
AcDbEntity
  8
0
100
AcDbLine
 62
7
  6
CONTINUOUS
 10
228.9440412596
 20
112.7378316772
 11
227.1940485455
 21
109.7067385577
  0
LINE
  5
2B8
100
AcDbEntity
  8
0
100
AcDbLine
 62
7
  6
CONTINUOUS
 10
267.5322606748
 20
137.0673175533
 11
268.5540766888
 21
137.4395931961
  0
LINE
  5
2B9
100
AcDbEntity
  8
0
100
AcDbLine
 62
7
  6
CONTINUOUS
 10
270.3604993857
 20
152.7166450514
 11
270.7047332056
 21
155.2109852781
  0
LINE
  5
2BA
100
AcDbEntity
  8
0
100
AcDbLine
 62
7
  6
CONTINUOUS
 10
225.105853804
 20
105.1827961838
 11
264.134701477
 21
127.7159773891
  0
LINE
  5
2BB
100
AcDbEntity
  8
0
100
AcDbLine
 62
7
  6
CONTINUOUS
 10
267.5322606748
 20
128.4532170526
 11
267.1787058122
 21
128.2490862213
  0
ARC
  5
2BC
100
AcDbEntity
  8
0
100
AcDbCircle
 62
7
  6
CONTINUOUS
 10
137.7590047835
 20
208.5782663774
 40
65.122160614
100
AcDbArc
 50
154.3737468961
 51
156.1325252575
  0
ARC
  5
2BD
100
AcDbEntity
  8
0
100
AcDbCircle
 62
7
  6
CONTINUOUS
 10
137.6756496832
 20
208.6166880731
 40
65.0303874572
100
AcDbArc
 50
154.3725057737
 51
156.1337663799
  0
ARC
  5
2BE
100
AcDbEntity
  8
0
100
AcDbCircle
 62
7
  6
CONTINUOUS
 10
136.9771965708
 20
209.3590188263
 40
64.0499674769
100
AcDbArc
 50
141.5865786331
 51
145.6453109003
  0
ARC
  5
2BF
100
AcDbEntity
  8
0
100
AcDbCircle
 62
7
  6
CONTINUOUS
 10
135.6736100585
 20
210.3801248645
 40
62.3941005558
100
AcDbArc
 50
141.2651362317
 51
141.5775117935
  0
ARC
  5
2C0
100
AcDbEntity
  8
0
100
AcDbCircle
 62
7
  6
CONTINUOUS
 10
135.0225391237
 20
210.906615804
 40
61.5567983313
100
AcDbArc
 50
139.9664351172
 51
141.2682103438
  0
ARC
  5
2C1
100
AcDbEntity
  8
0
100
AcDbCircle
 62
7
  6
CONTINUOUS
 10
79.5814127933
 20
212.9980648054
 40
14.6809937773
100
AcDbArc
 50
221.3553501603
 51
223.1061247899
  0
ARC
  5
2C2
100
AcDbEntity
  8
0
100
AcDbCircle
 62
7
  6
CONTINUOUS
 10
79.4338255702
 20
212.8606763568
 40
14.4793572986
100
AcDbArc
 50
223.1082939385
 51
223.9917993495
  0
ARC
  5
2C3
100
AcDbEntity
  8
0
100
AcDbCircle
 62
7
  6
CONTINUOUS
 10
88.6083439806
 20
208.767796771
 40
14.0247856269
100
AcDbArc
 50
222.1216417409
 51
223.7541279602
  0
ARC
  5
2C4
100
AcDbEntity
  8
0
100
AcDbCircle
 62
7
  6
CONTINUOUS
 10
88.4450706072
 20
208.6115592177
 40
13.7988025221
100
AcDbArc
 50
223.7543836241
 51
225.404653248
  0
ARC
  5
2C5
100
AcDbEntity
  8
0
100
AcDbCircle
 62
7
  6
CONTINUOUS
 10
88.3952266167
 20
208.5631326204
 40
13.7293093656
100
AcDbArc
 50
223.7522613545
 51
227.0613751573
  0
ARC
  5
2C6
100
AcDbEntity
  8
0
100
AcDbCircle
 62
7
  6
CONTINUOUS
 10
88.3034557227
 20
208.4680222566
 40
13.5971651484
100
AcDbArc
 50
225.4049269203
 51
227.0714605803
  0
ARC
  5
2C7
100
AcDbEntity
  8
0
100
AcDbCircle
 62
7
  6
CONTINUOUS
 10
109.4746157777
 20
224.9078965582
 40
65.122160614
100
AcDbArc
 50
154.3737468961
 51
156.1325252575
  0
ARC
  5
2C8
100
AcDbEntity
  8
0
100
AcDbCircle
 62
7
  6
CONTINUOUS
 10
105.7762898049
 20
227.0241309128
 40
64.9429443626
100
AcDbArc
 50
154.3713199464
 51
156.1349522072
  0
ARC
  5
2C9
100
AcDbEntity
  8
0
100
AcDbCircle
 62
7
  6
CONTINUOUS
 10
109.3118384308
 20
224.9829271401
 40
64.9429443628
100
AcDbArc
 50
154.3713199464
 51
156.1349522072
  0
ARC
  5
2CA
100
AcDbEntity
  8
0
100
AcDbCircle
 62
7
  6
CONTINUOUS
 10
96.1315705544
 20
241.1179826216
 40
45.9176268928
100
AcDbArc
 50
247.0328798681
 51
247.8507077679
  0
ARC
  5
2CB
100
AcDbEntity
  8
0
100
AcDbCircle
 62
7
  6
CONTINUOUS
 10
110.9683602806
 20
215.7826073725
 40
35.0629648146
100
AcDbArc
 50
177.2163081056
 51
179.023717139
  0
ARC
  5
2CC
100
AcDbEntity
  8
0
100
AcDbCircle
 62
7
  6
CONTINUOUS
 10
108.2959491424
 20
215.824852641
 40
32.3902219907
100
AcDbArc
 50
179.0178888761
 51
182.8256145499
  0
ARC
  5
2CD
100
AcDbEntity
  8
0
100
AcDbCircle
 62
7
  6
CONTINUOUS
 10
105.2650086402
 20
215.7008046314
 40
29.3568624925
100
AcDbArc
 50
182.8754159373
 51
185.3155627668
  0
ARC
  5
2CE
100
AcDbEntity
  8
0
100
AcDbCircle
 62
7
  6
CONTINUOUS
 10
102.7751289701
 20
215.471053619
 40
26.8564060653
100
AcDbArc
 50
185.3196206621
 51
189.1342031275
  0
ARC
  5
2CF
100
AcDbEntity
  8
0
100
AcDbCircle
 62
7
  6
CONTINUOUS
 10
88.4321639676
 20
222.248550879
 40
25.5378380467
100
AcDbArc
 50
247.8889596926
 51
248.4170065696
  0
ARC
  5
2D0
100
AcDbEntity
  8
0
100
AcDbCircle
 62
7
  6
CONTINUOUS
 10
101.0193159201
 20
215.2137225607
 40
25.0820195669
100
AcDbArc
 50
189.1905417409
 51
189.3315904867
  0
ARC
  5
2D1
100
AcDbEntity
  8
0
100
AcDbCircle
 62
7
  6
CONTINUOUS
 10
71.4561731215
 20
282.2305223394
 40
20.288999555
100
AcDbArc
 50
264.7080697439
 51
264.8226151372
  0
ARC
  5
2D2
100
AcDbEntity
  8
0
100
AcDbCircle
 62
7
  6
CONTINUOUS
 10
92.3157364967
 20
294.2737217061
 40
20.2889964212
100
AcDbArc
 50
264.708075638
 51
264.8226120741
  0
ARC
  5
2D3
100
AcDbEntity
  8
0
100
AcDbCircle
 62
7
  6
CONTINUOUS
 10
112.8385403937
 20
248.9551411436
 40
16.2957275062
100
AcDbArc
 50
87.8557281877
 51
88.2252448575
  0
ARC
  5
2D4
100
AcDbEntity
  8
0
100
AcDbCircle
 62
7
  6
CONTINUOUS
 10
112.8636356988
 20
249.4822818647
 40
15.7680178454
100
AcDbArc
 50
84.7529466064
 51
87.8751839693
  0
ARC
  5
2D5
100
AcDbEntity
  8
0
100
AcDbCircle
 62
7
  6
CONTINUOUS
 10
112.9000510065
 20
249.895593088
 40
15.3531084302
100
AcDbArc
 50
83.9517178539
 51
84.7472190648
  0
ARC
  5
2D6
100
AcDbEntity
  8
0
100
AcDbCircle
 62
7
  6
CONTINUOUS
 10
74.6596023851
 20
245.1133498265
 40
9.5201457833
100
AcDbArc
 50
329.6955131265
 51
330.5372930933
  0
ARC
  5
2D7
100
AcDbEntity
  8
0
100
AcDbCircle
 62
7
  6
CONTINUOUS
 10
74.2577960363
 20
218.7763908763
 40
7.8288910746
100
AcDbArc
 50
284.3985581616
 51
284.8123396638
  0
ARC
  5
2D8
100
AcDbEntity
  8
0
100
AcDbCircle
 62
7
  6
CONTINUOUS
 10
76.1980006754
 20
243.779136858
 40
7.4785867301
100
AcDbArc
 50
312.1202516292
 51
313.3290768449
  0
ARC
  5
2D9
100
AcDbEntity
  8
0
100
AcDbCircle
 62
7
  6
CONTINUOUS
 10
79.8206737224
 20
236.3701727766
 40
0.8629957715
100
AcDbArc
 50
147.0326301469
 51
154.3653983411
  0
ARC
  5
2DA
100
AcDbEntity
  8
0
100
AcDbCircle
 62
7
  6
CONTINUOUS
 10
51.5318055362
 20
252.7022644096
 40
0.8578926178
100
AcDbArc
 50
142.0165098764
 51
154.3841884889
  0
ARC
  5
2DB
100
AcDbEntity
  8
0
100
AcDbCircle
 62
7
  6
CONTINUOUS
 10
51.4629269529
 20
252.7562805099
 40
0.7703599932
100
AcDbArc
 50
135.4052457855
 51
142.0302395907
  0
ARC
  5
2DC
100
AcDbEntity
  8
0
100
AcDbCircle
 62
7
  6
CONTINUOUS
 10
268.8785338492
 20
132.9091581269
 40
65.4589905879
100
AcDbArc
 50
154.3748244016
 51
154.6695435921
  0
ARC
  5
2DD
100
AcDbEntity
  8
0
100
AcDbCircle
 62
7
  6
CONTINUOUS
 10
268.7339117867
 20
132.9776074846
 40
65.2989879145
100
AcDbArc
 50
154.6695378382
 51
154.9622792216
  0
ARC
  5
2DE
100
AcDbEntity
  8
0
100
AcDbCircle
 62
7
  6
CONTINUOUS
 10
268.7540915287
 20
133.150325948
 40
65.2299040182
100
AcDbArc
 50
144.5142069653
 51
145.6262038416
  0
ARC
  5
2DF
100
AcDbEntity
  8
0
100
AcDbCircle
 62
7
  6
CONTINUOUS
 10
268.5787092347
 20
133.0501021882
 40
65.1276890114
100
AcDbArc
 50
154.9622777319
 51
155.2555347219
  0
ARC
  5
2E0
100
AcDbEntity
  8
0
100
AcDbCircle
 62
7
  6
CONTINUOUS
 10
268.4158318023
 20
133.1251650391
 40
64.9483471882
100
AcDbArc
 50
155.2555302377
 51
155.5493268662
  0
ARC
  5
2E1
100
AcDbEntity
  8
0
100
AcDbCircle
 62
7
  6
CONTINUOUS
 10
268.4087181046
 20
133.1300438005
 40
64.9398554094
100
AcDbArc
 50
154.3762193419
 51
156.1399082845
  0
ARC
  5
2E2
100
AcDbEntity
  8
0
100
AcDbCircle
 62
7
  6
CONTINUOUS
 10
268.2454361305
 20
133.2026398043
 40
64.7611653937
100
AcDbArc
 50
155.5493253178
 51
155.8436851374
  0
ARC
  5
2E3
100
AcDbEntity
  8
0
100
AcDbCircle
 62
7
  6
CONTINUOUS
 10
268.2865730293
 20
133.4831633221
 40
64.6560101953
100
AcDbArc
 50
143.7699054639
 51
144.5138711083
  0
ARC
  5
2E4
100
AcDbEntity
  8
0
100
AcDbCircle
 62
7
  6
CONTINUOUS
 10
268.0646099816
 20
133.2837339367
 40
64.5629878108
100
AcDbArc
 50
155.8436797118
 51
156.1361674472
  0
ARC
  5
2E5
100
AcDbEntity
  8
0
100
AcDbCircle
 62
7
  6
CONTINUOUS
 10
267.695050043
 20
133.9179712974
 40
63.9218738821
100
AcDbArc
 50
142.5212545633
 51
143.7709186402
  0
ARC
  5
2E6
100
AcDbEntity
  8
0
100
AcDbCircle
 62
7
  6
CONTINUOUS
 10
267.0866293324
 20
134.3829275196
 40
63.1561333697
100
AcDbArc
 50
141.8903863908
 51
142.5201437513
  0
ARC
  5
2E7
100
AcDbEntity
  8
0
100
AcDbCircle
 62
7
  6
CONTINUOUS
 10
266.0675519647
 20
135.1912208173
 40
61.8554389373
100
AcDbArc
 50
139.9796259327
 51
141.8969155588
  0
ARC
  5
2E8
100
AcDbEntity
  8
0
100
AcDbCircle
 62
7
  6
CONTINUOUS
 10
246.5622454321
 20
139.9182661783
 40
39.8540193155
100
AcDbArc
 50
172.1203479388
 51
175.8651038073
  0
ARC
  5
2E9
100
AcDbEntity
  8
0
100
AcDbCircle
 62
7
  6
CONTINUOUS
 10
243.303553074
 20
140.1840064224
 40
36.5846603495
100
AcDbArc
 50
175.9122137457
 51
177.2352749168
  0
ARC
  5
2EA
100
AcDbEntity
  8
0
100
AcDbCircle
 62
7
  6
CONTINUOUS
 10
236.366260513
 20
140.1924582406
 40
29.6432672951
100
AcDbArc
 50
182.9198276776
 51
184.4402467412
  0
ARC
  5
2EB
100
AcDbEntity
  8
0
100
AcDbCircle
 62
7
  6
CONTINUOUS
 10
243.6921867064
 20
174.1579386041
 40
15.5674705951
100
AcDbArc
 50
83.1610911757
 51
87.9772859157
  0
ARC
  5
2EC
100
AcDbEntity
  8
0
100
AcDbCircle
 62
7
  6
CONTINUOUS
 10
243.7644151948
 20
174.7858095408
 40
14.9354665097
100
AcDbArc
 50
81.5026157885
 51
83.1493860942
  0
ARC
  5
2ED
100
AcDbEntity
  8
0
100
AcDbCircle
 62
7
  6
CONTINUOUS
 10
243.8271112064
 20
175.2007594157
 40
14.5158074882
100
AcDbArc
 50
78.1516497645
 51
81.5053511989
  0
ARC
  5
2EE
100
AcDbEntity
  8
0
100
AcDbCircle
 62
7
  6
CONTINUOUS
 10
219.4674794032
 20
133.2834579508
 40
14.0842629118
100
AcDbArc
 50
222.1233362104
 51
222.9304585122
  0
ARC
  5
2EF
100
AcDbEntity
  8
0
100
AcDbCircle
 62
7
  6
CONTINUOUS
 10
243.9229165721
 20
175.6735871613
 40
14.0333830287
100
AcDbArc
 50
76.0782241584
 51
78.1381039292
  0
ARC
  5
2F0
100
AcDbEntity
  8
0
100
AcDbCircle
 62
7
  6
CONTINUOUS
 10
219.3809289492
 20
133.2029485649
 40
13.9660565571
100
AcDbArc
 50
222.9304706554
 51
223.7490065686
  0
ARC
  5
2F1
100
AcDbEntity
  8
0
100
AcDbCircle
 62
7
  6
CONTINUOUS
 10
219.3133574601
 20
133.1399605698
 40
13.8737035462
100
AcDbArc
 50
222.0968129061
 51
225.3885887704
  0
ARC
  5
2F2
100
AcDbEntity
  8
0
100
AcDbCircle
 62
7
  6
CONTINUOUS
 10
219.2990945119
 20
133.1246244321
 40
13.8527801481
100
AcDbArc
 50
223.7490441523
 51
224.5720435269
  0
ARC
  5
2F3
100
AcDbEntity
  8
0
100
AcDbCircle
 62
7
  6
CONTINUOUS
 10
219.2225906273
 20
133.0492623262
 40
13.7453916417
100
AcDbArc
 50
224.5720654338
 51
225.4062899832
  0
ARC
  5
2F4
100
AcDbEntity
  8
0
100
AcDbCircle
 62
7
  6
CONTINUOUS
 10
244.0066415452
 20
176.0078286501
 40
13.6888158993
100
AcDbArc
 50
72.9330360007
 51
76.0817738596
  0
ARC
  5
2F5
100
AcDbEntity
  8
0
100
AcDbCircle
 62
7
  6
CONTINUOUS
 10
219.1519076527
 20
132.9775891052
 40
13.644728176
100
AcDbArc
 50
225.4063470867
 51
226.2307054146
  0
ARC
  5
2F6
100
AcDbEntity
  8
0
100
AcDbCircle
 62
7
  6
CONTINUOUS
 10
219.119858302
 20
132.9446343172
 40
13.5987600349
100
AcDbArc
 50
225.3910019735
 51
227.0574053385
  0
ARC
  5
2F7
100
AcDbEntity
  8
0
100
AcDbCircle
 62
7
  6
CONTINUOUS
 10
219.0860625124
 20
132.9088561373
 40
13.5495451766
100
AcDbArc
 50
226.2307153878
 51
227.0729568098
  0
ARC
  5
2F8
100
AcDbEntity
  8
0
100
AcDbCircle
 62
7
  6
CONTINUOUS
 10
266.2962855312
 20
136.41612661
 40
5.8321370163
100
AcDbArc
 50
359.9801512262
 51
3.9955196119
  0
ARC
  5
2F9
100
AcDbEntity
  8
0
100
AcDbCircle
 62
7
  6
CONTINUOUS
 10
264.67447259
 20
133.3910830361
 40
5.7052145629
100
AcDbArc
 50
295.8735678615
 51
300.0600964363
  0
ARC
  5
2FA
100
AcDbEntity
  8
0
100
AcDbCircle
 62
7
  6
CONTINUOUS
 10
266.7409567978
 20
136.4411484653
 40
5.386806405
100
AcDbArc
 50
4.059581866
 51
4.3766735974
  0
ARC
  5
2FB
100
AcDbEntity
  8
0
100
AcDbCircle
 62
7
  6
CONTINUOUS
 10
208.8973305503
 20
165.3386839289
 40
3.9871644258
100
AcDbArc
 50
290.9782616078
 51
291.5286938904
  0
ARC
  5
2FC
100
AcDbEntity
  8
0
100
AcDbCircle
 62
7
  6
CONTINUOUS
 10
211.0130767508
 20
168.774253962
 40
3.8392824674
100
AcDbArc
 50
9.0130726379
 51
10.8709707796
  0
ARC
  5
2FD
100
AcDbEntity
  8
0
100
AcDbCircle
 62
7
  6
CONTINUOUS
 10
208.9498185435
 20
165.2002519428
 40
3.8391168384
100
AcDbArc
 50
289.1285793441
 51
290.9864946041
  0
ARC
  5
2FE
100
AcDbEntity
  8
0
100
AcDbCircle
 62
7
  6
CONTINUOUS
 10
210.4553277432
 20
161.0149233712
 40
0.6145556792
100
AcDbArc
 50
127.9894325562
 51
130.6232474284
  0
ARC
  5
2FF
100
AcDbEntity
  8
0
100
AcDbCircle
 62
7
  6
CONTINUOUS
 10
215.3858032667
 20
169.5638534376
 40
0.6097015577
100
AcDbArc
 50
169.9097653986
 51
172.0138085841
  0
ARC
  5
300
100
AcDbEntity
  8
0
100
AcDbCircle
 62
7
  6
CONTINUOUS
 10
215.1372574612
 20
169.5659768766
 40
0.3602047209
100
AcDbArc
 50
186.3822087901
 51
190.8237490707
  0
SPLINE
  5
301
100
AcDbEntity
  8
0
100
AcDbSpline
 62
7
  6
CONTINUOUS
 70
0
 71
3
 72
15
 73
11
 74
0
 42
0.0000001
 43
0.0000001
 44
0.0000000001
 40
0.0
 40
0.0
 40
0.0
 40
0.0
 40
0.1141570308
 40
0.2373234948
 40
0.3669733493
 40
0.499997873
 40
0.633024052
 40
0.7626747981
 40
0.8858462081
 40
1.0
 40
1.0
 40
1.0
 40
1.0
 10
267.5322606748
 20
128.4532170526
 30
0.0
 10
267.8469143771
 20
128.6348813679
 30
0.0
 10
268.4683971591
 20
129.0705262404
 30
0.0
 10
269.3235027346
 20
129.8705817296
 30
0.0
 10
270.1115546447
 20
130.8162689429
 30
0.0
 10
270.8028388348
 20
131.8721805975
 30
0.0
 10
271.3716365667
 20
132.9988115944
 30
0.0
 10
271.7966115054
 20
134.1541507259
 30
0.0
 10
272.0618867283
 20
135.2947397118
 30
0.0
 10
272.1284254928
 20
136.0507862547
 30
0.0
 10
272.1284221975
 20
136.4141062034
 30
0.0
  0
SPLINE
  5
302
100
AcDbEntity
  8
0
100
AcDbSpline
 62
7
  6
CONTINUOUS
 70
0
 71
3
 72
17
 73
13
 74
0
 42
0.0000001
 43
0.0000001
 44
0.0000000001
 40
0.0
 40
0.0
 40
0.0
 40
0.0
 40
0.1286890167
 40
0.2702764127
 40
0.4174313733
 40
0.5617800349
 40
0.695451499
 40
0.8127141218
 40
0.8646787142
 40
0.9125122476
 40
0.9571409188
 40
1.0
 40
1.0
 40
1.0
 40
1.0
 10
253.390051452
 20
151.3150318795
 30
0.0
 10
253.2049910818
 20
151.421874117
 30
0.0
 10
252.7859873674
 20
151.5947469783
 30
0.0
 10
252.1031019145
 20
151.7313828073
 30
0.0
 10
251.3808114236
 20
151.7513720972
 30
0.0
 10
250.6780806051
 20
151.6526229086
 30
0.0
 10
250.0518659491
 20
151.4434755707
 30
0.0
 10
249.6163715064
 20
151.178342511
 30
0.0
 10
249.360761683
 20
150.9218564638
 30
0.0
 10
249.2249949538
 20
150.7221362477
 30
0.0
 10
249.141346723
 20
150.5114795222
 30
0.0
 10
249.1222947407
 20
150.3655889952
 30
0.0
 10
249.1223018353
 20
150.2944214951
 30
0.0
  0
SPLINE
  5
303
100
AcDbEntity
  8
0
100
AcDbSpline
 62
7
  6
CONTINUOUS
 70
0
 71
3
 72
11
 73
7
 74
0
 42
0.0000001
 43
0.0000001
 44
0.0000000001
 40
0.0
 40
0.0
 40
0.0
 40
0.0
 40
0.2662299508
 40
0.5190218853
 40
0.7620774572
 40
1.0
 40
1.0
 40
1.0
 40
1.0
 10
251.9341265162
 20
151.7247445527
 30
0.0
 10
251.8611396846
 20
151.9033921991
 30
0.0
 10
251.6954412175
 20
152.242857312
 30
0.0
 10
251.3789378878
 20
152.6984502246
 30
0.0
 10
251.0047916557
 20
153.0801417143
 30
0.0
 10
250.7182462504
 20
153.2827181223
 30
0.0
 10
250.5688921994
 20
153.3689549893
 30
0.0
  0
SPLINE
  5
304
100
AcDbEntity
  8
0
100
AcDbSpline
 62
7
  6
CONTINUOUS
 70
0
 71
3
 72
23
 73
19
 74
0
 42
0.0000001
 43
0.0000001
 44
0.0000000001
 40
0.0
 40
0.0
 40
0.0
 40
0.0
 40
0.0428143019
 40
0.0873961152
 40
0.135178868
 40
0.1870881092
 40
0.2435348785
 40
0.3044926302
 40
0.3695909219
 40
0.4381992925
 40
0.5094972386
 40
0.5825332086
 40
0.6562765409
 40
0.7296653287
 40
0.8016532595
 40
0.8712570838
 40
0.9376068536
 40
1.0
 40
1.0
 40
1.0
 40
1.0
 10
241.361935949
 20
139.0546966095
 30
0.0
 10
241.1523808996
 20
139.1756934621
 30
0.0
 10
240.755125092
 20
139.4797276602
 30
0.0
 10
240.2770751667
 20
140.0842271647
 30
0.0
 10
239.9198516281
 20
140.823497828
 30
0.0
 10
239.6885485476
 20
141.6795000844
 30
0.0
 10
239.585562441
 20
142.6341842318
 30
0.0
 10
239.6118704631
 20
143.6679268773
 30
0.0
 10
239.7663649758
 20
144.7593981544
 30
0.0
 10
240.045586962
 20
145.8857894229
 30
0.0
 10
240.4435537241
 20
147.0233340604
 30
0.0
 10
240.951787939
 20
148.1478789954
 30
0.0
 10
241.559455141
 20
149.2354637349
 30
0.0
 10
242.2535955184
 20
150.2628916472
 30
0.0
 10
243.019397921
 20
151.208243432
 30
0.0
 10
243.8406495237
 20
152.0514484709
 30
0.0
 10
244.6997873897
 20
152.7744690785
 30
0.0
 10
245.3064684013
 20
153.179900295
 30
0.0
 10
245.6118591952
 20
153.3562166996
 30
0.0
  0
SPLINE
  5
305
100
AcDbEntity
  8
0
100
AcDbSpline
 62
7
  6
CONTINUOUS
 70
0
 71
3
 72
14
 73
10
 74
0
 42
0.0000001
 43
0.0000001
 44
0.0000000001
 40
0.0
 40
0.0
 40
0.0
 40
0.0
 40
0.2892795933
 40
0.4225374294
 40
0.548494845
 40
0.6678935757
 40
0.7818676656
 40
0.891951877
 40
1.0
 40
1.0
 40
1.0
 40
1.0
 10
245.6118591952
 20
153.3562166996
 30
0.0
 10
245.9849650988
 20
153.5716282076
 30
0.0
 10
246.5577720822
 20
153.8442556922
 30
0.0
 10
247.343328338
 20
154.0733143775
 30
0.0
 10
247.9009123145
 20
154.1668332601
 30
0.0
 10
248.437429695
 20
154.1855112264
 30
0.0
 10
248.9477963445
 20
154.1286003121
 30
0.0
 10
249.4265365056
 20
153.9961930955
 30
0.0
 10
249.7224276975
 20
153.8576589729
 30
0.0
 10
249.8617824415
 20
153.7771956986
 30
0.0
  0
SPLINE
  5
306
100
AcDbEntity
  8
0
100
AcDbSpline
 62
7
  6
CONTINUOUS
 70
0
 71
3
 72
11
 73
7
 74
0
 42
0.0000001
 43
0.0000001
 44
0.0000000001
 40
0.0
 40
0.0
 40
0.0
 40
0.0
 40
0.2288984565
 40
0.4672179204
 40
0.722612601
 40
1.0
 40
1.0
 40
1.0
 40
1.0
 10
242.0690456414
 20
138.6464558098
 30
0.0
 10
242.2782775206
 20
138.5256455499
 30
0.0
 10
242.7394215654
 20
138.333886662
 30
0.0
 10
243.50063622
 20
138.2219014684
 30
0.0
 10
244.3178462784
 20
138.2813903546
 30
0.0
 10
244.8645173944
 20
138.4261127011
 30
0.0
 10
245.1411596264
 20
138.5219912153
 30
0.0
  0
SPLINE
  5
307
100
AcDbEntity
  8
0
100
AcDbSpline
 62
7
  6
CONTINUOUS
 70
0
 71
3
 72
11
 73
7
 74
0
 42
0.0000001
 43
0.0000001
 44
0.0000000001
 40
0.0
 40
0.0
 40
0.0
 40
0.0
 40
0.2177679687
 40
0.4509386846
 40
0.7102092654
 40
1.0
 40
1.0
 40
1.0
 40
1.0
 10
264.7289277599
 20
144.1708101766
 30
0.0
 10
264.7289182678
 20
144.2660265167
 30
0.0
 10
264.6937832505
 20
144.4645239858
 30
0.0
 10
264.5432754956
 20
144.7409999801
 30
0.0
 10
264.3054832395
 20
144.991042391
 30
0.0
 10
264.1064297778
 20
145.1280679362
 30
0.0
 10
263.9966973292
 20
145.1914205617
 30
0.0
  0
SPLINE
  5
308
100
AcDbEntity
  8
0
100
AcDbSpline
 62
7
  6
CONTINUOUS
 70
0
 71
3
 72
16
 73
12
 74
0
 42
0.0000001
 43
0.0000001
 44
0.0000000001
 40
0.0
 40
0.0
 40
0.0
 40
0.0
 40
0.0992134392
 40
0.1542130389
 40
0.2126434384
 40
0.3384381239
 40
0.4731073354
 40
0.6117978283
 40
0.7491622952
 40
0.8800101443
 40
1.0
 40
1.0
 40
1.0
 40
1.0
 10
264.8570284438
 20
131.035966162
 30
0.0
 10
264.7689163933
 20
131.2514518302
 30
0.0
 10
264.6875550784
 20
131.6101029093
 30
0.0
 10
264.6615661431
 20
132.1086654861
 30
0.0
 10
264.6908438695
 20
132.670290218
 30
0.0
 10
264.8359515734
 20
133.408384453
 30
0.0
 10
265.1567087181
 20
134.2917248596
 30
0.0
 10
265.6106570275
 20
135.1453844523
 30
0.0
 10
266.1724366322
 20
135.9214208283
 30
0.0
 10
266.8102231146
 20
136.5763364169
 30
0.0
 10
267.2884256086
 20
136.9265401525
 30
0.0
 10
267.5322606748
 20
137.0673175533
 30
0.0
  0
SPLINE
  5
309
100
AcDbEntity
  8
0
100
AcDbSpline
 62
7
  6
CONTINUOUS
 70
0
 71
3
 72
13
 73
9
 74
0
 42
0.0000001
 43
0.0000001
 44
0.0000000001
 40
0.0
 40
0.0
 40
0.0
 40
0.0
 40
0.2894007433
 40
0.5482937703
 40
0.6677446985
 40
0.78177026
 40
0.8919037916
 40
1.0
 40
1.0
 40
1.0
 40
1.0
 10
272.1284326726
 20
136.8223598109
 30
0.0
 10
272.1284301087
 20
137.1771554771
 30
0.0
 10
272.0750020218
 20
137.8513712123
 30
0.0
 10
271.8406826359
 20
138.6445051997
 30
0.0
 10
271.5563958855
 20
139.1790833444
 30
0.0
 10
271.3056250546
 20
139.5196460399
 30
0.0
 10
271.0140646271
 20
139.8065719783
 30
0.0
 10
270.7934149152
 20
139.9605554069
 30
0.0
 10
270.6786464276
 20
140.0268152529
 30
0.0
  0
SPLINE
  5
30A
100
AcDbEntity
  8
0
100
AcDbSpline
 62
7
  6
CONTINUOUS
 70
0
 71
3
 72
13
 73
9
 74
0
 42
0.0000001
 43
0.0000001
 44
0.0000000001
 40
0.0
 40
0.0
 40
0.0
 40
0.0
 40
0.1080967946
 40
0.2182303048
 40
0.3322560657
 40
0.4517099988
 40
0.7105900821
 40
1.0
 40
1.0
 40
1.0
 40
1.0
 10
263.6787651969
 20
127.9023910294
 30
0.0
 10
263.7935312627
 20
127.8361325817
 30
0.0
 10
264.0372061462
 20
127.7220440772
 30
0.0
 10
264.4314624404
 20
127.6130138607
 30
0.0
 10
264.8517774256
 20
127.5661250615
 30
0.0
 10
265.4568497967
 20
127.5872331694
 30
0.0
 10
266.2608657563
 20
127.7808423014
 30
0.0
 10
266.8714417031
 20
128.0716882641
 30
0.0
 10
267.1787058122
 20
128.2490862213
 30
0.0
  0
SPLINE
  5
30B
100
AcDbEntity
  8
0
100
AcDbSpline
 62
7
  6
CONTINUOUS
 70
0
 71
3
 72
14
 73
10
 74
0
 42
0.0000001
 43
0.0000001
 44
0.0000000001
 40
0.0
 40
0.0
 40
0.0
 40
0.0
 40
0.1080475558
 40
0.2181313655
 40
0.332105354
 40
0.4515042826
 40
0.5774618133
 40
0.7107200407
 40
1.0
 40
1.0
 40
1.0
 40
1.0
 10
250.5688921994
 20
153.3689549893
 30
0.0
 10
250.4295381957
 20
153.4494178397
 30
0.0
 10
250.1336481005
 20
153.5879508436
 30
0.0
 10
249.6549097781
 20
153.7203581928
 30
0.0
 10
249.1445437119
 20
153.7772705706
 30
0.0
 10
248.6080260549
 20
153.7585920844
 30
0.0
 10
248.0504408582
 20
153.6650745206
 30
0.0
 10
247.2648833366
 20
153.43601542
 30
0.0
 10
246.6920752766
 20
153.1633877145
 30
0.0
 10
246.3189689204
 20
152.9479759451
 30
0.0
  0
SPLINE
  5
30C
100
AcDbEntity
  8
0
100
AcDbSpline
 62
7
  6
CONTINUOUS
 70
0
 71
3
 72
17
 73
13
 74
0
 42
0.0000001
 43
0.0000001
 44
0.0000000001
 40
0.0
 40
0.0
 40
0.0
 40
0.0
 40
0.1286890167
 40
0.2702764127
 40
0.4174313733
 40
0.5617800349
 40
0.695451499
 40
0.8127141218
 40
0.8646787142
 40
0.9125122476
 40
0.9571409188
 40
1.0
 40
1.0
 40
1.0
 40
1.0
 10
260.4611781432
 20
143.1501997923
 30
0.0
 10
260.6462385134
 20
143.0433575548
 30
0.0
 10
261.0652422278
 20
142.8704846934
 30
0.0
 10
261.7481276807
 20
142.7338488645
 30
0.0
 10
262.4704181716
 20
142.7138595745
 30
0.0
 10
263.1731489901
 20
142.8126087631
 30
0.0
 10
263.7993636461
 20
143.0217561011
 30
0.0
 10
264.2348580888
 20
143.2868891608
 30
0.0
 10
264.4904679122
 20
143.543375208
 30
0.0
 10
264.6262346414
 20
143.7430954241
 30
0.0
 10
264.7098828722
 20
143.9537521496
 30
0.0
 10
264.7289348545
 20
144.0996426765
 30
0.0
 10
264.7289277599
 20
144.1708101766
 30
0.0
  0
SPLINE
  5
30D
100
AcDbEntity
  8
0
100
AcDbSpline
 62
7
  6
CONTINUOUS
 70
0
 71
3
 72
15
 73
11
 74
0
 42
0.0000001
 43
0.0000001
 44
0.0000000001
 40
0.0
 40
0.0
 40
0.0
 40
0.0
 40
0.1514586206
 40
0.290722028
 40
0.4184570247
 40
0.5368510465
 40
0.6494869958
 40
0.7610740778
 40
0.8765317853
 40
1.0
 40
1.0
 40
1.0
 40
1.0
 10
267.5322606748
 20
130.4536479745
 30
0.0
 10
267.39402033
 20
130.3738353507
 30
0.0
 10
267.1186204517
 20
130.2369107857
 30
0.0
 10
266.6966967042
 20
130.1019852499
 30
0.0
 10
266.2912202065
 20
130.0497377857
 30
0.0
 10
265.9111556671
 20
130.0829797543
 30
0.0
 10
265.566349233
 20
130.2031423928
 30
0.0
 10
265.2676028412
 20
130.4079614698
 30
0.0
 10
265.0239422185
 20
130.690402938
 30
0.0
 10
264.9062787747
 20
130.9155202026
 30
0.0
 10
264.8570284438
 20
131.035966162
 30
0.0
  0
SPLINE
  5
30E
100
AcDbEntity
  8
0
100
AcDbSpline
 62
7
  6
CONTINUOUS
 70
0
 71
3
 72
23
 73
19
 74
0
 42
0.0000001
 43
0.0000001
 44
0.0000000001
 40
0.0
 40
0.0
 40
0.0
 40
0.0
 40
0.0623929899
 40
0.1287423661
 40
0.198345887
 40
0.2703336247
 40
0.3437225368
 40
0.4174661558
 40
0.490502321
 40
0.5618003338
 40
0.6304087604
 40
0.6955071367
 40
0.756464968
 40
0.8129118028
 40
0.8648211189
 40
0.9126039454
 40
0.9571857674
 40
1.0
 40
1.0
 40
1.0
 40
1.0
 10
246.3189689204
 20
152.9479759451
 30
0.0
 10
246.0135788876
 20
152.7716599799
 30
0.0
 10
245.4069002829
 20
152.3662307535
 30
0.0
 10
244.5477658971
 20
151.6432135259
 30
0.0
 10
243.7265166204
 20
150.8000132507
 30
0.0
 10
242.9607145595
 20
149.8546638642
 30
0.0
 10
242.266572204
 20
148.8272357742
 30
0.0
 10
241.6589024582
 20
147.7396484841
 30
0.0
 10
241.1506662409
 20
146.6151010223
 30
0.0
 10
240.7526982834
 20
145.4775548739
 30
0.0
 10
240.4734754619
 20
144.3511625828
 30
0.0
 10
240.3189802957
 20
143.2596901176
 30
0.0
 10
240.2926718534
 20
142.2259461608
 30
0.0
 10
240.3956578164
 20
141.2712607231
 30
0.0
 10
240.6269611028
 20
140.4152572357
 30
0.0
 10
240.9841851625
 20
139.6759857934
 30
0.0
 10
241.4622353586
 20
139.0714863865
 30
0.0
 10
241.8594909301
 20
138.7674524726
 30
0.0
 10
242.0690456414
 20
138.6464558098
 30
0.0
  0
SPLINE
  5
30F
100
AcDbEntity
  8
0
100
AcDbSpline
 62
7
  6
CONTINUOUS
 70
0
 71
3
 72
11
 73
7
 74
0
 42
0.0000001
 43
0.0000001
 44
0.0000000001
 40
0.0
 40
0.0
 40
0.0
 40
0.0
 40
0.2850359784
 40
0.5447133711
 40
0.7810780081
 40
1.0
 40
1.0
 40
1.0
 40
1.0
 10
265.8176107161
 20
132.5866825785
 30
0.0
 10
265.7183350476
 20
132.5293660866
 30
0.0
 10
265.5206962821
 20
132.432545218
 30
0.0
 10
265.2175202105
 20
132.3436288602
 30
0.0
 10
264.9285364736
 20
132.3208776741
 30
0.0
 10
264.7455645044
 20
132.3526012388
 30
0.0
 10
264.6618930857
 20
132.3800036587
 30
0.0
  0
SPLINE
  5
310
100
AcDbEntity
  8
0
100
AcDbSpline
 62
7
  6
CONTINUOUS
 70
0
 71
3
 72
13
 73
9
 74
0
 42
0.0000001
 43
0.0000001
 44
0.0000000001
 40
0.0
 40
0.0
 40
0.0
 40
0.0
 40
0.2894089967
 40
0.5482896271
 40
0.6677432319
 40
0.7817678491
 40
0.89190156
 40
1.0
 40
1.0
 40
1.0
 40
1.0
 10
246.3189689204
 20
151.7232223194
 30
0.0
 10
246.6262319313
 20
151.9006196426
 30
0.0
 10
247.236807137
 20
152.1914654792
 30
0.0
 10
248.0408221661
 20
152.3850737575
 30
0.0
 10
248.6458929933
 20
152.4061820748
 30
0.0
 10
249.0662066169
 20
152.3592953564
 30
0.0
 10
249.4604628443
 20
152.2502623975
 30
0.0
 10
249.7041402665
 20
152.1361743414
 30
0.0
 10
249.8189079637
 20
152.0699147887
 30
0.0
  0
SPLINE
  5
311
100
AcDbEntity
  8
0
100
AcDbSpline
 62
7
  6
CONTINUOUS
 70
0
 71
3
 72
22
 73
18
 74
0
 42
0.0000001
 43
0.0000001
 44
0.0000000001
 40
0.0
 40
0.0
 40
0.0
 40
0.0
 40
0.0624002863
 40
0.1287598616
 40
0.198371778
 40
0.2703697238
 40
0.4173878314
 40
0.4904336723
 40
0.5617412658
 40
0.6303588829
 40
0.6954659213
 40
0.756431874
 40
0.8128862891
 40
0.8648026495
 40
0.9125920112
 40
0.957179933
 40
1.0
 40
1.0
 40
1.0
 40
1.0
 10
267.1787058122
 20
139.6801200611
 30
0.0
 10
266.9272123061
 20
139.5349210843
 30
0.0
 10
266.4275921731
 20
139.2010320865
 30
0.0
 10
265.7200829019
 20
138.6056262974
 30
0.0
 10
265.0436981388
 20
137.9111683183
 30
0.0
 10
264.1974312223
 20
136.8663383512
 30
0.0
 10
263.4815202397
 20
135.7016147187
 30
0.0
 10
262.922476775
 20
134.4648842754
 30
0.0
 10
262.5947186546
 20
133.5279936121
 30
0.0
 10
262.3647744776
 20
132.6003986902
 30
0.0
 10
262.237540712
 20
131.7015337368
 30
0.0
 10
262.2158735249
 20
130.8502166562
 30
0.0
 10
262.3006832576
 20
130.0640038141
 30
0.0
 10
262.4911665187
 20
129.359058227
 30
0.0
 10
262.7853489453
 20
128.7502421902
 30
0.0
 10
263.1790398259
 20
128.2524212789
 30
0.0
 10
263.5061854649
 20
128.0020273207
 30
0.0
 10
263.6787651969
 20
127.9023910294
 30
0.0
  0
SPLINE
  5
312
100
AcDbEntity
  8
0
100
AcDbSpline
 62
7
  6
CONTINUOUS
 70
0
 71
3
 72
11
 73
7
 74
0
 42
0.0000001
 43
0.0000001
 44
0.0000000001
 40
0.0
 40
0.0
 40
0.0
 40
0.0
 40
0.240758434
 40
0.5010693093
 40
0.7608157854
 40
1.0
 40
1.0
 40
1.0
 40
1.0
 10
264.889996353
 20
133.3479269359
 30
0.0
 10
265.1201842103
 20
133.5073698609
 30
0.0
 10
265.5526964132
 20
133.907775808
 30
0.0
 10
266.0663627939
 20
134.6347994827
 30
0.0
 10
266.4298380368
 20
135.4453853478
 30
0.0
 10
266.5527908335
 20
136.0194282785
 30
0.0
 10
266.5715172837
 20
136.2969815294
 30
0.0
  0
SPLINE
  5
313
100
AcDbEntity
  8
0
100
AcDbSpline
 62
7
  6
CONTINUOUS
 70
0
 71
3
 72
11
 73
7
 74
0
 42
0.0000001
 43
0.0000001
 44
0.0000000001
 40
0.0
 40
0.0
 40
0.0
 40
0.0
 40
0.2177679687
 40
0.4509386846
 40
0.7102092654
 40
1.0
 40
1.0
 40
1.0
 40
1.0
 10
249.1223018353
 20
150.2944214951
 30
0.0
 10
249.1223113274
 20
150.199205155
 30
0.0
 10
249.1574463447
 20
150.000707686
 30
0.0
 10
249.3079540996
 20
149.7242316916
 30
0.0
 10
249.5457463557
 20
149.4741892807
 30
0.0
 10
249.7447998174
 20
149.3371637356
 30
0.0
 10
249.854532266
 20
149.2738111101
 30
0.0
  0
SPLINE
  5
314
100
AcDbEntity
  8
0
100
AcDbSpline
 62
7
  6
CONTINUOUS
 70
0
 71
3
 72
11
 73
7
 74
0
 42
0.0000001
 43
0.0000001
 44
0.0000000001
 40
0.0
 40
0.0
 40
0.0
 40
0.0
 40
0.2395745514
 40
0.4833497281
 40
0.7353113905
 40
1.0
 40
1.0
 40
1.0
 40
1.0
 10
249.1222918592
 20
148.4761606497
 30
0.0
 10
249.1222913918
 20
148.3579391418
 30
0.0
 10
249.1546004675
 20
148.1182339275
 30
0.0
 10
249.298396453
 20
147.7805041429
 30
0.0
 10
249.5342663102
 20
147.4830962093
 30
0.0
 10
249.7414162369
 20
147.3291727335
 30
0.0
 10
249.854532266
 20
147.2638666411
 30
0.0
  0
SPLINE
  5
315
100
AcDbEntity
  8
0
100
AcDbSpline
 62
7
  6
CONTINUOUS
 70
0
 71
3
 72
22
 73
18
 74
0
 42
0.0000001
 43
0.0000001
 44
0.0000000001
 40
0.0
 40
0.0
 40
0.0
 40
0.0
 40
0.049040107
 40
0.0946549202
 40
0.1391599899
 40
0.1851678263
 40
0.2348924806
 40
0.2897172127
 40
0.3501552085
 40
0.416006426
 40
0.4865409756
 40
0.5606543279
 40
0.7138683677
 40
0.7901287271
 40
0.8640897366
 40
0.9344129218
 40
1.0
 40
1.0
 40
1.0
 40
1.0
 10
268.5540775497
 20
137.4395962955
 30
0.0
 10
268.701604238
 20
137.4596994252
 30
0.0
 10
268.9922831481
 20
137.4680379431
 30
0.0
 10
269.4080197811
 20
137.3650290217
 30
0.0
 10
269.7665467117
 20
137.1465105676
 30
0.0
 10
270.0517118824
 20
136.8225881475
 30
0.0
 10
270.2555396635
 20
136.4085339411
 30
0.0
 10
270.375306784
 20
135.9188655759
 30
0.0
 10
270.409889002
 20
135.3677090022
 30
0.0
 10
270.3593468333
 20
134.77046353
 30
0.0
 10
270.2255110974
 20
134.1439436961
 30
0.0
 10
269.9382653066
 20
133.2850060837
 30
0.0
 10
269.5108861353
 20
132.4598415274
 30
0.0
 10
268.9705164417
 20
131.7123301548
 30
0.0
 10
268.5229932397
 20
131.2123469081
 30
0.0
 10
268.0463355056
 20
130.7874555123
 30
0.0
 10
267.7047109747
 20
130.5532116073
 30
0.0
 10
267.5322606748
 20
130.4536479745
 30
0.0
  0
SPLINE
  5
316
100
AcDbEntity
  8
0
100
AcDbSpline
 62
7
  6
CONTINUOUS
 70
0
 71
3
 72
26
 73
22
 74
0
 42
0.0000001
 43
0.0000001
 44
0.0000000001
 40
0.0
 40
0.0
 40
0.0
 40
0.0
 40
0.0664781131
 40
0.1381068683
 40
0.2135025701
 40
0.2909579129
 40
0.368612936
 40
0.4445895738
 40
0.5171384488
 40
0.5847890855
 40
0.6465275235
 40
0.7020168277
 40
0.7518650249
 40
0.7752518692
 40
0.7979969163
 40
0.8204856744
 40
0.8431260234
 40
0.8663127079
 40
0.8903952729
 40
0.9421928748
 40
1.0
 40
1.0
 40
1.0
 40
1.0
 10
267.5322606748
 20
139.0677484752
 30
0.0
 10
267.2259608261
 20
138.8909072307
 30
0.0
 10
266.6205683335
 20
138.4685943868
 30
0.0
 10
265.7849601998
 20
137.6949602771
 30
0.0
 10
265.0115713735
 20
136.7812535868
 30
0.0
 10
264.3281199813
 20
135.7600115992
 30
0.0
 10
263.7587809789
 20
134.6675294339
 30
0.0
 10
263.3238627322
 20
133.5426973101
 30
0.0
 10
263.0388283818
 20
132.4253360938
 30
0.0
 10
262.9138359268
 20
131.3545569914
 30
0.0
 10
262.9541865285
 20
130.3668273509
 30
0.0
 10
263.1602780446
 20
129.4955553309
 30
0.0
 10
263.4772809426
 20
128.877961089
 30
0.0
 10
263.8079028923
 20
128.4863217352
 30
0.0
 10
264.0857739779
 20
128.2470049958
 30
0.0
 10
264.3959930549
 20
128.0589163788
 30
0.0
 10
264.7352229706
 20
127.9239326845
 30
0.0
 10
265.0999163528
 20
127.843408026
 30
0.0
 10
265.6275709099
 20
127.8083339254
 30
0.0
 10
266.339396931
 20
127.9125594396
 30
0.0
 10
266.8873802116
 20
128.1236552577
 30
0.0
 10
267.1641526361
 20
128.2577637905
 30
0.0
  0
SPLINE
  5
317
100
AcDbEntity
  8
0
100
AcDbSpline
 62
7
  6
CONTINUOUS
 70
0
 71
3
 72
18
 73
14
 74
0
 42
0.0000001
 43
0.0000001
 44
0.0000000001
 40
0.0
 40
0.0
 40
0.0
 40
0.0
 40
0.1400474479
 40
0.2659591118
 40
0.3245824612
 40
0.38102147
 40
0.4360597185
 40
0.4905885465
 40
0.5455413977
 40
0.6018174796
 40
0.7211022604
 40
0.8532220929
 40
1.0
 40
1.0
 40
1.0
 40
1.0
 10
272.1120547562
 20
136.8522323565
 30
0.0
 10
272.0892847186
 20
137.149720876
 30
0.0
 10
271.9994483844
 20
137.7129894661
 30
0.0
 10
271.74435745
 20
138.3636629499
 30
0.0
 10
271.4631512601
 20
138.7950612194
 30
0.0
 10
271.222418273
 20
139.0677830314
 30
0.0
 10
270.949028651
 20
139.2944752096
 30
0.0
 10
270.6454620635
 20
139.4727166315
 30
0.0
 10
270.3147564905
 20
139.6008169092
 30
0.0
 10
269.8330991394
 20
139.7052497689
 30
0.0
 10
269.1687358161
 20
139.6979240977
 30
0.0
 10
268.3418142658
 20
139.483035049
 30
0.0
 10
267.8030648955
 20
139.2240964317
 30
0.0
 10
267.5322606748
 20
139.0677484752
 30
0.0
  0
SPLINE
  5
318
100
AcDbEntity
  8
0
100
AcDbSpline
 62
7
  6
CONTINUOUS
 70
0
 71
3
 72
17
 73
13
 74
0
 42
0.0000001
 43
0.0000001
 44
0.0000000001
 40
0.0
 40
0.0
 40
0.0
 40
0.0
 40
0.0435786036
 40
0.0900039961
 40
0.1401365979
 40
0.1944096642
 40
0.3151228324
 40
0.4496806076
 40
0.5924477987
 40
0.7364002249
 40
0.874319848
 40
1.0
 40
1.0
 40
1.0
 40
1.0
 10
267.3170875727
 20
136.9137197696
 30
0.0
 10
267.3700604973
 20
136.8626919269
 30
0.0
 10
267.4671562807
 20
136.7439471989
 30
0.0
 10
267.5762528831
 20
136.5325258853
 30
0.0
 10
267.6510896046
 20
136.287946706
 30
0.0
 10
267.7057188339
 20
135.9107362514
 30
0.0
 10
267.6761726353
 20
135.3839470334
 30
0.0
 10
267.5073750018
 20
134.730328114
 30
0.0
 10
267.2163965635
 20
134.0781445701
 30
0.0
 10
266.8240944727
 20
133.4746891403
 30
0.0
 10
266.3592412142
 20
132.9636319935
 30
0.0
 10
266.0013162145
 20
132.6927443643
 30
0.0
 10
265.8176107161
 20
132.5866825785
 30
0.0
  0
SPLINE
  5
319
100
AcDbEntity
  8
0
100
AcDbSpline
 62
7
  6
CONTINUOUS
 70
0
 71
3
 72
13
 73
9
 74
0
 42
0.0000001
 43
0.0000001
 44
0.0000000001
 40
0.0
 40
0.0
 40
0.0
 40
0.0
 40
0.1080967946
 40
0.2182303048
 40
0.3322560657
 40
0.4517099988
 40
0.7105900821
 40
1.0
 40
1.0
 40
1.0
 40
1.0
 10
270.6786464276
 20
140.0268152529
 30
0.0
 10
270.5638803618
 20
140.0930737007
 30
0.0
 10
270.3202054782
 20
140.2071622051
 30
0.0
 10
269.9259491841
 20
140.3161924217
 30
0.0
 10
269.5056341988
 20
140.3630812208
 30
0.0
 10
268.9005618277
 20
140.3419731129
 30
0.0
 10
268.0965458682
 20
140.148363981
 30
0.0
 10
267.4859699213
 20
139.8575180182
 30
0.0
 10
267.1787058122
 20
139.6801200611
 30
0.0
  0
SPLINE
  5
31A
100
AcDbEntity
  8
0
100
AcDbSpline
 62
7
  6
CONTINUOUS
 70
0
 71
3
 72
13
 73
9
 74
0
 42
0.0000001
 43
0.0000001
 44
0.0000000001
 40
0.0
 40
0.0
 40
0.0
 40
0.0
 40
0.3242789748
 40
0.5946150031
 40
0.7100475348
 40
0.8141101805
 40
0.9094744455
 40
1.0
 40
1.0
 40
1.0
 40
1.0
 10
263.9967120491
 20
141.5172034564
 30
0.0
 10
264.1049281647
 20
141.5796816869
 30
0.0
 10
264.2979006392
 20
141.7041202874
 30
0.0
 10
264.5052535935
 20
141.8855387787
 30
0.0
 10
264.6228353928
 20
142.0338784977
 30
0.0
 10
264.6834831728
 20
142.1396194856
 30
0.0
 10
264.7205097052
 20
142.2458034521
 30
0.0
 10
264.7289375007
 20
142.317666338
 30
0.0
 10
264.728937736
 20
142.3525492766
 30
0.0
  0
SPLINE
  5
31B
100
AcDbEntity
  8
0
100
AcDbSpline
 62
7
  6
CONTINUOUS
 70
0
 71
3
 72
15
 73
11
 74
0
 42
0.0000001
 43
0.0000001
 44
0.0000000001
 40
0.0
 40
0.0
 40
0.0
 40
0.0
 40
0.1127416547
 40
0.2327855647
 40
0.3594985961
 40
0.4911064907
 40
0.6248947564
 40
0.7572758333
 40
0.8838758619
 40
1.0
 40
1.0
 40
1.0
 40
1.0
 10
260.4611781432
 20
141.1402553233
 30
0.0
 10
260.5813624744
 20
141.070868437
 30
0.0
 10
260.8477465134
 20
140.957884823
 30
0.0
 10
261.2838212428
 20
140.8702635133
 30
0.0
 10
261.7509913384
 20
140.8542342755
 30
0.0
 10
262.23247946
 20
140.9009169221
 30
0.0
 10
262.7128039909
 20
140.9998501993
 30
0.0
 10
263.1760947571
 20
141.1402095735
 30
0.0
 10
263.6055975955
 20
141.3110218502
 30
0.0
 10
263.8729224541
 20
141.445733927
 30
0.0
 10
263.9967120491
 20
141.5172034564
 30
0.0
  0
SPLINE
  5
31C
100
AcDbEntity
  8
0
100
AcDbSpline
 62
7
  6
CONTINUOUS
 70
0
 71
3
 72
22
 73
18
 74
0
 42
0.0000001
 43
0.0000001
 44
0.0000000001
 40
0.0
 40
0.0
 40
0.0
 40
0.0
 40
0.0428206627
 40
0.0874091124
 40
0.1351989135
 40
0.1871155609
 40
0.243570073
 40
0.3045359312
 40
0.3696427071
 40
0.4382599438
 40
0.5095671443
 40
0.582612712
 40
0.7296304001
 40
0.8016271821
 40
0.8712391129
 40
0.9375992464
 40
1.0
 40
1.0
 40
1.0
 40
1.0
 10
242.8190298771
 20
139.9454960103
 30
0.0
 10
242.6464479325
 20
140.0451338241
 30
0.0
 10
242.3192991413
 20
140.2955323358
 30
0.0
 10
241.9256069461
 20
140.793361216
 30
0.0
 10
241.6314261008
 20
141.402184185
 30
0.0
 10
241.4409460713
 20
142.107134229
 30
0.0
 10
241.3561399636
 20
142.8933484001
 30
0.0
 10
241.3778101809
 20
143.7446637481
 30
0.0
 10
241.5050457598
 20
144.6435245059
 30
0.0
 10
241.7349902712
 20
145.5711138767
 30
0.0
 10
242.0627477048
 20
146.5079991069
 30
0.0
 10
242.6217896107
 20
147.744723926
 30
0.0
 10
243.3376948292
 20
148.909440265
 30
0.0
 10
244.1839574996
 20
149.9542633274
 30
0.0
 10
244.8603379523
 20
150.6487209956
 30
0.0
 10
245.5678502784
 20
151.2441300572
 30
0.0
 10
246.0674736502
 20
151.5780223242
 30
0.0
 10
246.3189689204
 20
151.7232223194
 30
0.0
  0
SPLINE
  5
31D
100
AcDbEntity
  8
0
100
AcDbSpline
 62
7
  6
CONTINUOUS
 70
0
 71
3
 72
13
 73
9
 74
0
 42
0.0000001
 43
0.0000001
 44
0.0000000001
 40
0.0
 40
0.0
 40
0.0
 40
0.0
 40
0.2894093789
 40
0.5482893175
 40
0.6677436567
 40
0.7817682692
 40
0.8919016979
 40
1.0
 40
1.0
 40
1.0
 40
1.0
 10
65.1220150045
 20
323.00207977
 30
0.0
 10
65.6268047663
 20
323.2935185352
 30
0.0
 10
66.6298908457
 20
323.7713433926
 30
0.0
 10
67.9507737834
 20
324.0893956361
 30
0.0
 10
68.944820753
 20
324.1240928971
 30
0.0
 10
69.6353293738
 20
324.0470315493
 30
0.0
 10
70.2830550747
 20
323.8679639474
 30
0.0
 10
70.6833534262
 20
323.6804749172
 30
0.0
 10
70.8719071148
 20
323.5716323167
 30
0.0
  0
SPLINE
  5
31E
100
AcDbEntity
  8
0
100
AcDbSpline
 62
7
  6
CONTINUOUS
 70
0
 71
3
 72
11
 73
7
 74
0
 42
0.0000001
 43
0.0000001
 44
0.0000000001
 40
0.0
 40
0.0
 40
0.0
 40
0.0
 40
0.2451117305
 40
0.4911314743
 40
0.741116646
 40
1.0
 40
1.0
 40
1.0
 40
1.0
 10
94.245798302
 20
273.9716871895
 30
0.0
 10
94.245798302
 20
274.0743556769
 30
0.0
 10
94.212122603
 20
274.2814648762
 30
0.0
 10
94.0699661249
 20
274.5621121201
 30
0.0
 10
93.8554032566
 20
274.798579182
 30
0.0
 10
93.6796490953
 20
274.9220266131
 30
0.0
 10
93.5857394323
 20
274.9762441557
 30
0.0
  0
SPLINE
  5
31F
100
AcDbEntity
  8
0
100
AcDbSpline
 62
7
  6
CONTINUOUS
 70
0
 71
3
 72
16
 73
12
 74
0
 42
0.0000001
 43
0.0000001
 44
0.0000000001
 40
0.0
 40
0.0
 40
0.0
 40
0.0
 40
0.1255556452
 40
0.2585414488
 40
0.3947881623
 40
0.5285480428
 40
0.6552674168
 40
0.7738681319
 40
0.8873393665
 40
0.9435556912
 40
1.0
 40
1.0
 40
1.0
 40
1.0
 10
93.5857394323
 20
274.9762441557
 30
0.0
 10
93.4468216746
 20
275.0564465461
 30
0.0
 10
93.1385619154
 20
275.1843424592
 30
0.0
 10
92.6407226646
 20
275.2804625002
 30
0.0
 10
92.1231853903
 20
275.2868686041
 30
0.0
 10
91.6203984011
 20
275.2031386439
 30
0.0
 10
91.1640517305
 20
275.0300822403
 30
0.0
 10
90.7822486824
 20
274.7663127721
 30
0.0
 10
90.5569556904
 20
274.4631985178
 30
0.0
 10
90.4620721993
 20
274.1882676855
 30
0.0
 10
90.445798302
 20
274.0437993639
 30
0.0
 10
90.445798302
 20
273.9716871895
 30
0.0
  0
SPLINE
  5
320
100
AcDbEntity
  8
0
100
AcDbSpline
 62
7
  6
CONTINUOUS
 70
0
 71
3
 72
11
 73
7
 74
0
 42
0.0000001
 43
0.0000001
 44
0.0000000001
 40
0.0
 40
0.0
 40
0.0
 40
0.0
 40
0.2451117305
 40
0.4911314743
 40
0.741116646
 40
1.0
 40
1.0
 40
1.0
 40
1.0
 10
108.3878750462
 20
282.1365702669
 30
0.0
 10
108.3878750462
 20
282.2392387543
 30
0.0
 10
108.3541993473
 20
282.4463479537
 30
0.0
 10
108.2120428692
 20
282.7269951975
 30
0.0
 10
107.9974800008
 20
282.9634622594
 30
0.0
 10
107.8217258396
 20
283.0869096905
 30
0.0
 10
107.7278161766
 20
283.1411272332
 30
0.0
  0
SPLINE
  5
321
100
AcDbEntity
  8
0
100
AcDbSpline
 62
7
  6
CONTINUOUS
 70
0
 71
3
 72
11
 73
7
 74
0
 42
0.0000001
 43
0.0000001
 44
0.0000000001
 40
0.0
 40
0.0
 40
0.0
 40
0.0
 40
0.2372279391
 40
0.4999994739
 40
0.762771295
 40
1.0
 40
1.0
 40
1.0
 40
1.0
 10
94.4671274774
 20
267.7663001814
 30
0.0
 10
94.1659751922
 20
267.5924308663
 30
0.0
 10
93.4656199874
 20
267.3386862538
 30
0.0
 10
92.345810469
 20
267.2171366903
 30
0.0
 10
91.2259992611
 20
267.3386811436
 30
0.0
 10
90.5256413017
 20
267.5924222786
 30
0.0
 10
90.2244867903
 20
267.7662899834
 30
0.0
  0
SPLINE
  5
322
100
AcDbEntity
  8
0
100
AcDbSpline
 62
7
  6
CONTINUOUS
 70
0
 71
3
 72
9
 73
5
 74
0
 42
0.0000001
 43
0.0000001
 44
0.0000000001
 40
0.0
 40
0.0
 40
0.0
 40
0.0
 40
0.4844455551
 40
1.0
 40
1.0
 40
1.0
 40
1.0
 10
107.7278161766
 20
283.1411272332
 30
0.0
 10
107.5185663907
 20
283.2619349203
 30
0.0
 10
107.0374029458
 20
283.4273372405
 30
0.0
 10
106.5335424035
 20
283.455846983
 30
0.0
 10
106.2770822367
 20
283.4372275748
 30
0.0
  0
SPLINE
  5
323
100
AcDbEntity
  8
0
100
AcDbSpline
 62
7
  6
CONTINUOUS
 70
0
 71
3
 72
11
 73
7
 74
0
 42
0.0000001
 43
0.0000001
 44
0.0000000001
 40
0.0
 40
0.0
 40
0.0
 40
0.0
 40
0.2177723091
 40
0.4509273687
 40
0.7102218233
 40
1.0
 40
1.0
 40
1.0
 40
1.0
 10
109.4878529939
 20
280.9118166412
 30
0.0
 10
109.4878529924
 20
281.0260777713
 30
0.0
 10
109.4456553076
 20
281.264261878
 30
0.0
 10
109.2650857937
 20
281.5960530709
 30
0.0
 10
108.9797144356
 20
281.8960846497
 30
0.0
 10
108.7408589188
 20
282.0605297496
 30
0.0
 10
108.6091865579
 20
282.1365491028
 30
0.0
  0
SPLINE
  5
324
100
AcDbEntity
  8
0
100
AcDbSpline
 62
7
  6
CONTINUOUS
 70
0
 71
3
 72
11
 73
7
 74
0
 42
0.0000001
 43
0.0000001
 44
0.0000000001
 40
0.0
 40
0.0
 40
0.0
 40
0.0
 40
0.2177727701
 40
0.4509280213
 40
0.7102223029
 40
1.0
 40
1.0
 40
1.0
 40
1.0
 10
109.4878529939
 20
277.1559055224
 30
0.0
 10
109.4878529953
 20
277.0416456223
 30
0.0
 10
109.4456562741
 20
276.8034642638
 30
0.0
 10
109.2650906664
 20
276.4716762834
 30
0.0
 10
108.9797251041
 20
276.1716469286
 30
0.0
 10
108.7408741203
 20
276.0072024565
 30
0.0
 10
108.6092042217
 20
275.9311832588
 30
0.0
  0
SPLINE
  5
325
100
AcDbEntity
  8
0
100
AcDbSpline
 62
7
  6
CONTINUOUS
 70
0
 71
3
 72
19
 73
15
 74
0
 42
0.0000001
 43
0.0000001
 44
0.0000000001
 40
0.0
 40
0.0
 40
0.0
 40
0.0
 40
0.0429243128
 40
0.0872526201
 40
0.134175073
 40
0.1845401061
 40
0.2388275144
 40
0.2971835654
 40
0.3594775705
 40
0.4253585087
 40
0.5655446176
 40
0.7123822201
 40
0.8593736143
 40
1.0
 40
1.0
 40
1.0
 40
1.0
 10
106.3457329793
 20
283.8511913492
 30
0.0
 10
106.3457338965
 20
283.498626928
 30
0.0
 10
106.2630870201
 20
282.7795119167
 30
0.0
 10
105.8974062914
 20
281.7315908318
 30
0.0
 10
105.2998772607
 20
280.7255562608
 30
0.0
 10
104.4840369692
 20
279.7779984012
 30
0.0
 10
103.4652260388
 20
278.9026534
 30
0.0
 10
102.2609172954
 20
278.1126326435
 30
0.0
 10
100.8910732254
 20
277.4199989603
 30
0.0
 10
98.8319845985
 20
276.6251246993
 30
0.0
 10
95.9963887707
 20
275.9555209626
 30
0.0
 10
92.4293264788
 20
275.6792109285
 30
0.0
 10
88.8572727682
 20
275.9310084179
 30
0.0
 10
86.5415681446
 20
276.459772199
 30
0.0
 10
85.4437698149
 20
276.8189190702
 30
0.0
  0
SPLINE
  5
326
100
AcDbEntity
  8
0
100
AcDbSpline
 62
7
  6
CONTINUOUS
 70
0
 71
3
 72
15
 73
11
 74
0
 42
0.0000001
 43
0.0000001
 44
0.0000000001
 40
0.0
 40
0.0
 40
0.0
 40
0.0
 40
0.1068035957
 40
0.2254288029
 40
0.3534964247
 40
0.4874913189
 40
0.6232803346
 40
0.7565511683
 40
0.883240787
 40
1.0
 40
1.0
 40
1.0
 40
1.0
 10
57.1247281033
 20
307.2950784525
 30
0.0
 10
57.0107335574
 20
307.9443741969
 30
0.0
 10
56.9356775042
 20
309.3454810355
 30
0.0
 10
57.2113378085
 20
311.5184853239
 30
0.0
 10
57.8531406464
 20
313.7871468059
 30
0.0
 10
58.8315933088
 20
316.0467389657
 30
0.0
 10
60.1013171495
 20
318.1936065204
 30
0.0
 10
61.6039527709
 20
320.1283795518
 30
0.0
 10
63.2692591338
 20
321.7614080558
 30
0.0
 10
64.497890416
 20
322.6417434218
 30
0.0
 10
65.1220150045
 20
323.00207977
 30
0.0
  0
SPLINE
  5
327
100
AcDbEntity
  8
0
100
AcDbSpline
 62
7
  6
CONTINUOUS
 70
0
 71
3
 72
14
 73
10
 74
0
 42
0.0000001
 43
0.0000001
 44
0.0000000001
 40
0.0
 40
0.0
 40
0.0
 40
0.0
 40
0.4198448
 40
0.5840360543
 40
0.7191594594
 40
0.8265418279
 40
0.9076863151
 40
0.9644659903
 40
1.0
 40
1.0
 40
1.0
 40
1.0
 10
105.378457226
 20
306.4554569086
 30
0.0
 10
105.5072964548
 20
306.5193212738
 30
0.0
 10
105.6875093421
 20
306.6062972854
 30
0.0
 10
105.912941003
 20
306.7055725572
 30
0.0
 10
106.0421283632
 20
306.7578442399
 30
0.0
 10
106.146513777
 20
306.7949989244
 30
0.0
 10
106.2277084721
 20
306.8179018178
 30
0.0
 10
106.2859573908
 20
306.8275740956
 30
0.0
 10
106.3189173399
 20
306.8256699838
 30
0.0
 10
106.3299044476
 20
306.8204348266
 30
0.0
  0
SPLINE
  5
328
100
AcDbEntity
  8
0
100
AcDbSpline
 62
7
  6
CONTINUOUS
 70
0
 71
3
 72
16
 73
12
 74
0
 42
0.0000001
 43
0.0000001
 44
0.0000000001
 40
0.0
 40
0.0
 40
0.0
 40
0.0
 40
0.1367485098
 40
0.2821369949
 40
0.4293129016
 40
0.5710691651
 40
0.7010693443
 40
0.8151037172
 40
0.9127696571
 40
0.9571482174
 40
1.0
 40
1.0
 40
1.0
 40
1.0
 10
105.3953993533
 20
281.2391203585
 30
0.0
 10
105.5435063338
 20
281.1790009848
 30
0.0
 10
105.8624190882
 20
281.0867050644
 30
0.0
 10
106.3628101688
 20
281.0287424234
 30
0.0
 10
106.8721810849
 20
281.0487722479
 30
0.0
 10
107.3545062705
 20
281.1454680546
 30
0.0
 10
107.7765395911
 20
281.3126044667
 30
0.0
 10
108.1100342433
 20
281.5393948332
 30
0.0
 10
108.3007157295
 20
281.7796285045
 30
0.0
 10
108.3755047096
 20
281.9841444153
 30
0.0
 10
108.3878783794
 20
282.0864813219
 30
0.0
 10
108.3878750465
 20
282.1365702669
 30
0.0
  0
SPLINE
  5
329
100
AcDbEntity
  8
0
100
AcDbSpline
 62
7
  6
CONTINUOUS
 70
0
 71
3
 72
19
 73
15
 74
0
 42
0.0000001
 43
0.0000001
 44
0.0000000001
 40
0.0
 40
0.0
 40
0.0
 40
0.0
 40
0.1485941008
 40
0.3045047848
 40
0.4557154086
 40
0.5913796618
 40
0.6513301392
 40
0.7056852917
 40
0.755159505
 40
0.8013332785
 40
0.8465567119
 40
0.8934209384
 40
0.9441025552
 40
1.0
 40
1.0
 40
1.0
 40
1.0
 10
105.7514542624
 20
281.857408764
 30
0.0
 10
105.8946263927
 20
281.8062475279
 30
0.0
 10
106.2016521848
 20
281.738037335
 30
0.0
 10
106.6705506967
 20
281.728117209
 30
0.0
 10
107.1196707101
 20
281.8064873739
 30
0.0
 10
107.4516048462
 20
281.9444892077
 30
0.0
 10
107.6596208413
 20
282.0952546116
 30
0.0
 10
107.7756875135
 20
282.2177380889
 30
0.0
 10
107.8544475913
 20
282.3513063038
 30
0.0
 10
107.89213354
 20
282.4925383477
 30
0.0
 10
107.8860920653
 20
282.636060833
 30
0.0
 10
107.8369225615
 20
282.7756607355
 30
0.0
 10
107.7476407684
 20
282.9065327936
 30
0.0
 10
107.6678440548
 20
282.9820084694
 30
0.0
 10
107.6231837838
 20
283.0177368813
 30
0.0
  0
SPLINE
  5
32A
100
AcDbEntity
  8
0
100
AcDbSpline
 62
7
  6
CONTINUOUS
 70
0
 71
3
 72
9
 73
5
 74
0
 42
0.0000001
 43
0.0000001
 44
0.0000000001
 40
0.0
 40
0.0
 40
0.0
 40
0.0
 40
0.2423406373
 40
1.0
 40
1.0
 40
1.0
 40
1.0
 10
107.6231837838
 20
283.0177368813
 30
0.0
 10
107.6120971447
 20
283.026606241
 30
0.0
 10
107.5655914617
 20
283.0622536154
 30
0.0
 10
107.5162622079
 20
283.0941694154
 30
0.0
 10
107.4778204183
 20
283.1163632909
 30
0.0
  0
SPLINE
  5
32B
100
AcDbEntity
  8
0
100
AcDbSpline
 62
7
  6
CONTINUOUS
 70
0
 71
3
 72
9
 73
5
 74
0
 42
0.0000001
 43
0.0000001
 44
0.0000000001
 40
0.0
 40
0.0
 40
0.0
 40
0.0
 40
0.475444801
 40
1.0
 40
1.0
 40
1.0
 40
1.0
 10
107.4778204183
 20
283.1163632909
 30
0.0
 10
107.3071464463
 20
283.2148997254
 30
0.0
 10
106.9043018418
 20
283.3455909601
 30
0.0
 10
106.4853459495
 20
283.3629314031
 30
0.0
 10
106.2688162164
 20
283.3431336768
 30
0.0
  0
SPLINE
  5
32C
100
AcDbEntity
  8
0
100
AcDbSpline
 62
7
  6
CONTINUOUS
 70
0
 71
3
 72
9
 73
5
 74
0
 42
0.0000001
 43
0.0000001
 44
0.0000000001
 40
0.0
 40
0.0
 40
0.0
 40
0.0
 40
0.5434719554
 40
1.0
 40
1.0
 40
1.0
 40
1.0
 10
97.4593855306
 20
301.883406025
 30
0.0
 10
95.2524908734
 20
300.5385558009
 30
0.0
 10
91.2178567608
 20
298.0211015094
 30
0.0
 10
87.2224994603
 20
295.4418969399
 30
0.0
 10
85.4107050076
 20
294.2459257249
 30
0.0
  0
SPLINE
  5
32D
100
AcDbEntity
  8
0
100
AcDbSpline
 62
7
  6
CONTINUOUS
 70
0
 71
3
 72
17
 73
13
 74
0
 42
0.0000001
 43
0.0000001
 44
0.0000000001
 40
0.0
 40
0.0
 40
0.0
 40
0.0
 40
0.1286888688
 40
0.2702719422
 40
0.4174318501
 40
0.5617773054
 40
0.6954483126
 40
0.8127138313
 40
0.8646770028
 40
0.9125122438
 40
0.9571395731
 40
1.0
 40
1.0
 40
1.0
 40
1.0
 10
91.0023010113
 20
273.1960232971
 30
0.0
 10
91.1429464558
 20
273.1148234488
 30
0.0
 10
91.4613800282
 20
272.9834322713
 30
0.0
 10
91.9803775706
 20
272.8796120974
 30
0.0
 10
92.529311778
 20
272.8644067757
 30
0.0
 10
93.0633908444
 20
272.9394576356
 30
0.0
 10
93.5393022142
 20
273.0984202197
 30
0.0
 10
93.8703034557
 20
273.2998925173
 30
0.0
 10
94.0645448467
 20
273.4948457021
 30
0.0
 10
94.167750928
 20
273.6466165454
 30
0.0
 10
94.2313016249
 20
273.8067257982
 30
0.0
 10
94.2458019013
 20
273.9175982968
 30
0.0
 10
94.2457983023
 20
273.9716871895
 30
0.0
  0
SPLINE
  5
32E
100
AcDbEntity
  8
0
100
AcDbSpline
 62
7
  6
CONTINUOUS
 70
0
 71
3
 72
19
 73
15
 74
0
 42
0.0000001
 43
0.0000001
 44
0.0000000001
 40
0.0
 40
0.0
 40
0.0
 40
0.0
 40
0.1375836963
 40
0.2899167886
 40
0.4437805641
 40
0.5854786553
 40
0.6486058176
 40
0.7056520357
 40
0.7569416396
 40
0.8038449932
 40
0.8488099759
 40
0.8948553567
 40
0.9446657068
 40
1.0
 40
1.0
 40
1.0
 40
1.0
 10
91.3558529299
 20
273.8083965826
 30
0.0
 10
91.4887836161
 20
273.7316507513
 30
0.0
 10
91.7964372034
 20
273.6171134425
 30
0.0
 10
92.2909479507
 20
273.5545380291
 30
0.0
 10
92.7924712186
 20
273.5951794804
 30
0.0
 10
93.1792377462
 20
273.7157597215
 30
0.0
 10
93.4328193421
 20
273.8632405594
 30
0.0
 10
93.5794658685
 20
273.9880049361
 30
0.0
 10
93.6846461209
 20
274.1277907584
 30
0.0
 10
93.7433365819
 20
274.2789208628
 30
0.0
 10
93.7509928276
 20
274.4354076976
 30
0.0
 10
93.7068473909
 20
274.5888805625
 30
0.0
 10
93.6147452051
 20
274.7324414
 30
0.0
 10
93.5293125519
 20
274.8142891833
 30
0.0
 10
93.4811070395
 20
274.8528538038
 30
0.0
  0
SPLINE
  5
32F
100
AcDbEntity
  8
0
100
AcDbSpline
 62
7
  6
CONTINUOUS
 70
0
 71
3
 72
9
 73
5
 74
0
 42
0.0000001
 43
0.0000001
 44
0.0000000001
 40
0.0
 40
0.0
 40
0.0
 40
0.0
 40
0.2423406373
 40
1.0
 40
1.0
 40
1.0
 40
1.0
 10
93.4811070395
 20
274.8528538038
 30
0.0
 10
93.4700204004
 20
274.8617231636
 30
0.0
 10
93.4235147175
 20
274.897370538
 30
0.0
 10
93.3741854636
 20
274.929286338
 30
0.0
 10
93.3357436741
 20
274.9514802134
 30
0.0
  0
SPLINE
  5
330
100
AcDbEntity
  8
0
100
AcDbSpline
 62
7
  6
CONTINUOUS
 70
0
 71
3
 72
19
 73
15
 74
0
 42
0.0000001
 43
0.0000001
 44
0.0000000001
 40
0.0
 40
0.0
 40
0.0
 40
0.0
 40
0.1382631925
 40
0.2913998958
 40
0.4445402274
 40
0.5827877966
 40
0.6432393188
 40
0.6973178778
 40
0.7459598308
 40
0.7913887291
 40
0.8368205906
 40
0.8854544311
 40
0.9395663131
 40
1.0
 40
1.0
 40
1.0
 40
1.0
 10
93.3357436741
 20
274.9514802134
 30
0.0
 10
93.1951978444
 20
275.0326225503
 30
0.0
 10
92.8683560822
 20
275.1510206281
 30
0.0
 10
92.3458056913
 20
275.2077970689
 30
0.0
 10
91.8231542963
 20
275.1508842475
 30
0.0
 10
91.4287957006
 20
275.0083629931
 30
0.0
 10
91.1829854263
 20
274.8393124861
 30
0.0
 10
91.0498069451
 20
274.6992746936
 30
0.0
 10
90.9655091931
 20
274.5443478329
 30
0.0
 10
90.9362903857
 20
274.3799606101
 30
0.0
 10
90.9655011559
 20
274.2155925479
 30
0.0
 10
91.0497605555
 20
274.0605869391
 30
0.0
 10
91.1829669606
 20
273.9206396468
 30
0.0
 10
91.2944215213
 20
273.8438632205
 30
0.0
 10
91.3558529299
 20
273.8083965826
 30
0.0
  0
SPLINE
  5
331
100
AcDbEntity
  8
0
100
AcDbSpline
 62
7
  6
CONTINUOUS
 70
0
 71
3
 72
12
 73
8
 74
0
 42
0.0000001
 43
0.0000001
 44
0.0000000001
 40
0.0
 40
0.0
 40
0.0
 40
0.0
 40
0.2855240763
 40
0.5494915843
 40
0.6721061525
 40
0.7880352494
 40
1.0
 40
1.0
 40
1.0
 40
1.0
 10
97.4593855306
 20
301.883406025
 30
0.0
 10
98.3260625701
 20
302.0797364251
 30
0.0
 10
99.9727209427
 20
302.5627671932
 30
0.0
 10
101.8816903376
 20
303.4414953181
 30
0.0
 10
103.2032978962
 20
304.2826214871
 30
0.0
 10
104.3069663325
 20
305.1488315829
 30
0.0
 10
105.0076518474
 20
305.9098338347
 30
0.0
 10
105.378457226
 20
306.4554569086
 30
0.0
  0
SPLINE
  5
332
100
AcDbEntity
  8
0
100
AcDbSpline
 62
7
  6
CONTINUOUS
 70
0
 71
3
 72
17
 73
13
 74
0
 42
0.0000001
 43
0.0000001
 44
0.0000000001
 40
0.0
 40
0.0
 40
0.0
 40
0.0
 40
0.0428584554
 40
0.0874839031
 40
0.1353177481
 40
0.1872794187
 40
0.3045395902
 40
0.4382053041
 40
0.582547581
 40
0.729712444
 40
0.8713059798
 40
1.0
 40
1.0
 40
1.0
 40
1.0
 10
108.3878685697
 20
280.9118166375
 30
0.0
 10
108.3878726593
 20
280.857730403
 30
0.0
 10
108.3733748273
 20
280.7468626459
 30
0.0
 10
108.3098240968
 20
280.5867613238
 30
0.0
 10
108.2066266203
 20
280.4349930329
 30
0.0
 10
108.0123948904
 20
280.2400458051
 30
0.0
 10
107.6814134717
 20
280.0385743116
 30
0.0
 10
107.2055233692
 20
279.8796078305
 30
0.0
 10
106.6714526503
 20
279.804543061
 30
0.0
 10
106.122504055
 20
279.8197373505
 30
0.0
 10
105.603480739
 20
279.9235541204
 30
0.0
 10
105.2850283876
 20
280.0549499056
 30
0.0
 10
105.1443777555
 20
280.1361527488
 30
0.0
  0
SPLINE
  5
333
100
AcDbEntity
  8
0
100
AcDbSpline
 62
7
  6
CONTINUOUS
 70
0
 71
3
 72
11
 73
7
 74
0
 42
0.0000001
 43
0.0000001
 44
0.0000000001
 40
0.0
 40
0.0
 40
0.0
 40
0.0
 40
0.237228705
 40
0.5000005261
 40
0.7627720609
 40
1.0
 40
1.0
 40
1.0
 40
1.0
 10
90.2244867903
 20
271.5222011021
 30
0.0
 10
90.5256413017
 20
271.3483333974
 30
0.0
 10
91.2259992611
 20
271.0945922624
 30
0.0
 10
92.345810469
 20
270.9730478091
 30
0.0
 10
93.4656199874
 20
271.0945973726
 30
0.0
 10
94.1659751922
 20
271.3483419851
 30
0.0
 10
94.4671274774
 20
271.5222113002
 30
0.0
  0
SPLINE
  5
334
100
AcDbEntity
  8
0
100
AcDbSpline
 62
7
  6
CONTINUOUS
 70
0
 71
3
 72
11
 73
7
 74
0
 42
0.0000001
 43
0.0000001
 44
0.0000000001
 40
0.0
 40
0.0
 40
0.0
 40
0.0
 40
0.2897776971
 40
0.5490719787
 40
0.7822272299
 40
1.0
 40
1.0
 40
1.0
 40
1.0
 10
108.6092042217
 20
279.6870943776
 30
0.0
 10
108.7408741203
 20
279.7631135753
 30
0.0
 10
108.9797251041
 20
279.9275580474
 30
0.0
 10
109.2650906664
 20
280.2275874022
 30
0.0
 10
109.4456562741
 20
280.5593753826
 30
0.0
 10
109.4878529953
 20
280.7975567411
 30
0.0
 10
109.4878529939
 20
280.9118166412
 30
0.0
  0
SPLINE
  5
335
100
AcDbEntity
  8
0
100
AcDbSpline
 62
7
  6
CONTINUOUS
 70
0
 71
3
 72
9
 73
5
 74
0
 42
0.0000001
 43
0.0000001
 44
0.0000000001
 40
0.0
 40
0.0
 40
0.0
 40
0.0
 40
0.2621744969
 40
1.0
 40
1.0
 40
1.0
 40
1.0
 10
105.1443777555
 20
280.1361527488
 30
0.0
 10
105.1177933952
 20
280.1515008892
 30
0.0
 10
105.0179622531
 20
280.2126541476
 30
0.0
 10
104.9244647992
 20
280.2846234745
 30
0.0
 10
104.8619661744
 20
280.3442633022
 30
0.0
  0
SPLINE
  5
336
100
AcDbEntity
  8
0
100
AcDbSpline
 62
7
  6
CONTINUOUS
 70
0
 71
3
 72
11
 73
7
 74
0
 42
0.0000001
 43
0.0000001
 44
0.0000000001
 40
0.0
 40
0.0
 40
0.0
 40
0.0
 40
0.2211971357
 40
0.4596522008
 40
0.7188871808
 40
1.0
 40
1.0
 40
1.0
 40
1.0
 10
104.0990621587
 20
279.5143198478
 30
0.0
 10
103.9781296004
 20
279.1752974798
 30
0.0
 10
103.640737679
 20
278.4996610599
 30
0.0
 10
102.911923848
 20
277.576382572
 30
0.0
 10
101.9634648014
 20
276.7279179749
 30
0.0
 10
101.2272149404
 20
276.2416146272
 30
0.0
 10
100.8310561244
 20
276.0128935934
 30
0.0
  0
SPLINE
  5
337
100
AcDbEntity
  8
0
100
AcDbSpline
 62
7
  6
CONTINUOUS
 70
0
 71
3
 72
11
 73
7
 74
0
 42
0.0000001
 43
0.0000001
 44
0.0000000001
 40
0.0
 40
0.0
 40
0.0
 40
0.0
 40
0.2897036169
 40
0.5490920547
 40
0.7822205729
 40
1.0
 40
1.0
 40
1.0
 40
1.0
 10
91.0023010113
 20
271.9712696714
 30
0.0
 10
90.9189303818
 20
272.0194026379
 30
0.0
 10
90.7676741371
 20
272.1235814772
 30
0.0
 10
90.5868981705
 20
272.3135601719
 30
0.0
 10
90.4725474553
 20
272.5237286902
 30
0.0
 10
90.4458102503
 20
272.6745661748
 30
0.0
 10
90.4458047785
 20
272.7469335674
 30
0.0
  0
SPLINE
  5
338
100
AcDbEntity
  8
0
100
AcDbSpline
 62
7
  6
CONTINUOUS
 70
0
 71
3
 72
10
 73
6
 74
0
 42
0.0000001
 43
0.0000001
 44
0.0000000001
 40
0.0
 40
0.0
 40
0.0
 40
0.0
 40
0.2302746728
 40
0.4759469638
 40
1.0
 40
1.0
 40
1.0
 40
1.0
 10
100.8310561244
 20
276.0128935934
 30
0.0
 10
100.3697202303
 20
275.7465427807
 30
0.0
 10
99.3767246295
 20
275.2625008948
 30
0.0
 10
97.1901259422
 20
274.4972725766
 30
0.0
 10
95.422777124
 20
274.178265915
 30
0.0
 10
94.215461244
 20
274.0682976708
 30
0.0
  0
SPLINE
  5
339
100
AcDbEntity
  8
0
100
AcDbSpline
 62
7
  6
CONTINUOUS
 70
0
 71
3
 72
9
 73
5
 74
0
 42
0.0000001
 43
0.0000001
 44
0.0000000001
 40
0.0
 40
0.0
 40
0.0
 40
0.0
 40
0.5147163309
 40
1.0
 40
1.0
 40
1.0
 40
1.0
 10
90.4444774337
 20
274.0712029201
 30
0.0
 10
89.5587369586
 20
274.153244841
 30
0.0
 10
87.8461785806
 20
274.4252835768
 30
0.0
 10
86.1879581847
 20
274.9401059291
 30
0.0
 10
85.4116461148
 20
275.257440134
 30
0.0
  0
SPLINE
  5
33A
100
AcDbEntity
  8
0
100
AcDbSpline
 62
7
  6
CONTINUOUS
 70
0
 71
3
 72
11
 73
7
 74
0
 42
0.0000001
 43
0.0000001
 44
0.0000000001
 40
0.0
 40
0.0
 40
0.0
 40
0.0
 40
0.2177836649
 40
0.4509127634
 40
0.7102976676
 40
1.0
 40
1.0
 40
1.0
 40
1.0
 10
90.4457983017
 20
273.9716871895
 30
0.0
 10
90.4458031171
 20
273.8993181645
 30
0.0
 10
90.4725449968
 20
273.7484788645
 30
0.0
 10
90.5868981615
 20
273.5383110822
 30
0.0
 10
90.767674427
 20
273.3483333669
 30
0.0
 10
90.9189304933
 20
273.2441561992
 30
0.0
 10
91.0023010113
 20
273.1960232971
 30
0.0
  0
SPLINE
  5
33B
100
AcDbEntity
  8
0
100
AcDbSpline
 62
7
  6
CONTINUOUS
 70
0
 71
3
 72
17
 73
13
 74
0
 42
0.0000001
 43
0.0000001
 44
0.0000000001
 40
0.0
 40
0.0
 40
0.0
 40
0.0
 40
0.0428584554
 40
0.0874839031
 40
0.1353177481
 40
0.1872794187
 40
0.3045395902
 40
0.4382053041
 40
0.582547581
 40
0.729712444
 40
0.8713059798
 40
1.0
 40
1.0
 40
1.0
 40
1.0
 10
94.2457918254
 20
272.7469335601
 30
0.0
 10
94.245795915
 20
272.6928473256
 30
0.0
 10
94.231298083
 20
272.5819795685
 30
0.0
 10
94.1677473525
 20
272.4218782464
 30
0.0
 10
94.064549876
 20
272.2701099555
 30
0.0
 10
93.8703181461
 20
272.0751627277
 30
0.0
 10
93.5393367274
 20
271.8736912342
 30
0.0
 10
93.0634466249
 20
271.7147247531
 30
0.0
 10
92.529375906
 20
271.6396599835
 30
0.0
 10
91.9804273108
 20
271.6548542731
 30
0.0
 10
91.4614039947
 20
271.7586710429
 30
0.0
 10
91.1429516434
 20
271.8900668282
 30
0.0
 10
91.0023010113
 20
271.9712696714
 30
0.0
  0
SPLINE
  5
33C
100
AcDbEntity
  8
0
100
AcDbSpline
 62
7
  6
CONTINUOUS
 70
0
 71
3
 72
13
 73
9
 74
0
 42
0.0000001
 43
0.0000001
 44
0.0000000001
 40
0.0
 40
0.0
 40
0.0
 40
0.0
 40
0.2894093637
 40
0.5482893222
 40
0.667743693
 40
0.7817683305
 40
0.8919017487
 40
1.0
 40
1.0
 40
1.0
 40
1.0
 10
43.2017872189
 20
311.5712383626
 30
0.0
 10
43.7065769538
 20
311.8626771122
 30
0.0
 10
44.7096630369
 20
312.3405019873
 30
0.0
 10
46.0305460462
 20
312.6585542243
 30
0.0
 10
47.0245931751
 20
312.6932515058
 30
0.0
 10
47.7151018747
 20
312.6161900284
 30
0.0
 10
48.3628275051
 20
312.4371224787
 30
0.0
 10
48.7631257592
 20
312.2496335227
 30
0.0
 10
48.9516793486
 20
312.1407909556
 30
0.0
  0
SPLINE
  5
33D
100
AcDbEntity
  8
0
100
AcDbSpline
 62
7
  6
CONTINUOUS
 70
0
 71
3
 72
11
 73
7
 74
0
 42
0.0000001
 43
0.0000001
 44
0.0000000001
 40
0.0
 40
0.0
 40
0.0
 40
0.0
 40
0.2884463769
 40
0.5471938033
 40
0.7809049901
 40
1.0
 40
1.0
 40
1.0
 40
1.0
 10
55.172335763
 20
270.0634714048
 30
0.0
 10
55.0476895722
 20
269.9879386853
 30
0.0
 10
54.8217615207
 20
269.8254606087
 30
0.0
 10
54.5529649673
 20
269.5319353173
 30
0.0
 10
54.3835057098
 20
269.2095155204
 30
0.0
 10
54.3440626521
 20
268.9792502176
 30
0.0
 10
54.3440626536
 20
268.868546115
 30
0.0
  0
SPLINE
  5
33E
100
AcDbEntity
  8
0
100
AcDbSpline
 62
7
  6
CONTINUOUS
 70
0
 71
3
 72
11
 73
7
 74
0
 42
0.0000001
 43
0.0000001
 44
0.0000000001
 40
0.0
 40
0.0
 40
0.0
 40
0.0
 40
0.2451117305
 40
0.4911314743
 40
0.741116646
 40
1.0
 40
1.0
 40
1.0
 40
1.0
 10
73.3862351041
 20
261.9284846502
 30
0.0
 10
73.3862351041
 20
262.0311531377
 30
0.0
 10
73.3525594052
 20
262.238262337
 30
0.0
 10
73.2104029271
 20
262.5189095809
 30
0.0
 10
72.9958400588
 20
262.7553766428
 30
0.0
 10
72.8200858975
 20
262.8788240738
 30
0.0
 10
72.7261762345
 20
262.9330416165
 30
0.0
  0
SPLINE
  5
33F
100
AcDbEntity
  8
0
100
AcDbSpline
 62
7
  6
CONTINUOUS
 70
0
 71
3
 72
16
 73
12
 74
0
 42
0.0000001
 43
0.0000001
 44
0.0000000001
 40
0.0
 40
0.0
 40
0.0
 40
0.0
 40
0.1255556452
 40
0.2585414488
 40
0.3947881623
 40
0.5285480428
 40
0.6552674168
 40
0.7738681319
 40
0.8873393665
 40
0.9435556912
 40
1.0
 40
1.0
 40
1.0
 40
1.0
 10
72.7261762345
 20
262.9330416165
 30
0.0
 10
72.5872584768
 20
263.0132440069
 30
0.0
 10
72.2789987176
 20
263.14113992
 30
0.0
 10
71.7811594668
 20
263.237259961
 30
0.0
 10
71.2636221925
 20
263.2436660648
 30
0.0
 10
70.7608352033
 20
263.1599361047
 30
0.0
 10
70.3044885327
 20
262.9868797011
 30
0.0
 10
69.9226854846
 20
262.7231102328
 30
0.0
 10
69.6973924926
 20
262.4199959786
 30
0.0
 10
69.6025090015
 20
262.1450651463
 30
0.0
 10
69.5862351041
 20
262.0005968247
 30
0.0
 10
69.5862351041
 20
261.9284846502
 30
0.0
  0
SPLINE
  5
340
100
AcDbEntity
  8
0
100
AcDbSpline
 62
7
  6
CONTINUOUS
 70
0
 71
3
 72
11
 73
7
 74
0
 42
0.0000001
 43
0.0000001
 44
0.0000000001
 40
0.0
 40
0.0
 40
0.0
 40
0.0
 40
0.2897781767
 40
0.5490726313
 40
0.7822276909
 40
1.0
 40
1.0
 40
1.0
 40
1.0
 10
55.2227290896
 20
263.8879025346
 30
0.0
 10
55.0910567286
 20
263.9639218878
 30
0.0
 10
54.8522012119
 20
264.1283669877
 30
0.0
 10
54.5668298538
 20
264.4283985664
 30
0.0
 10
54.3862603399
 20
264.7601897593
 30
0.0
 10
54.344062655
 20
264.998373866
 30
0.0
 10
54.3440626536
 20
265.1126349962
 30
0.0
  0
SPLINE
  5
341
100
AcDbEntity
  8
0
100
AcDbSpline
 62
7
  6
CONTINUOUS
 70
0
 71
3
 72
11
 73
7
 74
0
 42
0.0000001
 43
0.0000001
 44
0.0000000001
 40
0.0
 40
0.0
 40
0.0
 40
0.0
 40
0.2372279391
 40
0.4999994739
 40
0.762771295
 40
1.0
 40
1.0
 40
1.0
 40
1.0
 10
73.6075642796
 20
255.7230976422
 30
0.0
 10
73.3064119943
 20
255.5492283271
 30
0.0
 10
72.6060567895
 20
255.2954837146
 30
0.0
 10
71.4862472712
 20
255.1739341511
 30
0.0
 10
70.3664360633
 20
255.2954786044
 30
0.0
 10
69.6660781039
 20
255.5492197393
 30
0.0
 10
69.3649235925
 20
255.7230874441
 30
0.0
  0
SPLINE
  5
342
100
AcDbEntity
  8
0
100
AcDbSpline
 62
7
  6
CONTINUOUS
 70
0
 71
3
 72
11
 73
7
 74
0
 42
0.0000001
 43
0.0000001
 44
0.0000000001
 40
0.0
 40
0.0
 40
0.0
 40
0.0
 40
0.2451117305
 40
0.4911314743
 40
0.741116646
 40
1.0
 40
1.0
 40
1.0
 40
1.0
 10
87.5283118484
 20
270.0933677277
 30
0.0
 10
87.5283118484
 20
270.1960362151
 30
0.0
 10
87.4946361495
 20
270.4031454145
 30
0.0
 10
87.3524796714
 20
270.6837926583
 30
0.0
 10
87.137916803
 20
270.9202597202
 30
0.0
 10
86.9621626418
 20
271.0437071513
 30
0.0
 10
86.8682529788
 20
271.0979246939
 30
0.0
  0
SPLINE
  5
343
100
AcDbEntity
  8
0
100
AcDbSpline
 62
7
  6
CONTINUOUS
 70
0
 71
3
 72
9
 73
5
 74
0
 42
0.0000001
 43
0.0000001
 44
0.0000000001
 40
0.0
 40
0.0
 40
0.0
 40
0.0
 40
0.4844455046
 40
1.0
 40
1.0
 40
1.0
 40
1.0
 10
86.8682529788
 20
271.0979246939
 30
0.0
 10
86.659005876
 20
271.218730832
 30
0.0
 10
86.1778491312
 20
271.3841320945
 30
0.0
 10
85.6739952645
 20
271.4126438906
 30
0.0
 10
85.4175382102
 20
271.3940264274
 30
0.0
  0
SPLINE
  5
344
100
AcDbEntity
  8
0
100
AcDbSpline
 62
7
  6
CONTINUOUS
 70
0
 71
3
 72
11
 73
7
 74
0
 42
0.0000001
 43
0.0000001
 44
0.0000000001
 40
0.0
 40
0.0
 40
0.0
 40
0.0
 40
0.2177723091
 40
0.4509273687
 40
0.7102218233
 40
1.0
 40
1.0
 40
1.0
 40
1.0
 10
88.6282897961
 20
268.868614102
 30
0.0
 10
88.6282897946
 20
268.9828752321
 30
0.0
 10
88.5860921098
 20
269.2210593388
 30
0.0
 10
88.4055225959
 20
269.5528505317
 30
0.0
 10
88.1201512378
 20
269.8528821105
 30
0.0
 10
87.881295721
 20
270.0173272104
 30
0.0
 10
87.7496233601
 20
270.0933465636
 30
0.0
  0
SPLINE
  5
345
100
AcDbEntity
  8
0
100
AcDbSpline
 62
7
  6
CONTINUOUS
 70
0
 71
3
 72
11
 73
7
 74
0
 42
0.0000001
 43
0.0000001
 44
0.0000000001
 40
0.0
 40
0.0
 40
0.0
 40
0.0
 40
0.2177727701
 40
0.4509280213
 40
0.7102223029
 40
1.0
 40
1.0
 40
1.0
 40
1.0
 10
88.6282897961
 20
265.1127029832
 30
0.0
 10
88.6282897975
 20
264.9984430831
 30
0.0
 10
88.5860930763
 20
264.7602617246
 30
0.0
 10
88.4055274686
 20
264.4284737442
 30
0.0
 10
88.1201619063
 20
264.1284443894
 30
0.0
 10
87.8813109225
 20
263.9639999173
 30
0.0
 10
87.7496410239
 20
263.8879807196
 30
0.0
  0
SPLINE
  5
346
100
AcDbEntity
  8
0
100
AcDbSpline
 62
7
  6
CONTINUOUS
 70
0
 71
3
 72
22
 73
18
 74
0
 42
0.0000001
 43
0.0000001
 44
0.0000000001
 40
0.0
 40
0.0
 40
0.0
 40
0.0
 40
0.0428201003
 40
0.0874080099
 40
0.1351973355
 40
0.1871135922
 40
0.2435678075
 40
0.3045334602
 40
0.3696401173
 40
0.4382573127
 40
0.5095645596
 40
0.5826102378
 40
0.7296286939
 40
0.801625793
 40
0.8712381088
 40
0.9375987365
 40
1.0
 40
1.0
 40
1.0
 40
1.0
 10
85.4861698044
 20
271.8079888101
 30
0.0
 10
85.4861707245
 20
271.4094398029
 30
0.0
 10
85.3796088767
 20
270.5924230008
 30
0.0
 10
84.911030966
 20
269.412731878
 30
0.0
 10
84.1506988396
 20
268.2944065267
 30
0.0
 10
83.1201735199
 20
267.259568987
 30
0.0
 10
81.843224659
 20
266.3264984688
 30
0.0
 10
80.3470442668
 20
265.512746845
 30
0.0
 10
78.6629501862
 20
264.8342912707
 30
0.0
 10
76.8263897323
 20
264.3050001545
 30
0.0
 10
74.8759166752
 20
263.9358257664
 30
0.0
 10
72.1748235492
 20
263.6674067028
 30
0.0
 10
69.4415894766
 20
263.742681549
 30
0.0
 10
66.7856549694
 20
264.1636241333
 30
0.0
 10
64.9064463729
 20
264.6406827267
 30
0.0
 10
63.1676577296
 20
265.2707069538
 30
0.0
 10
62.0897138611
 20
265.80217503
 30
0.0
 10
61.5867225038
 20
266.0925706559
 30
0.0
  0
SPLINE
  5
347
100
AcDbEntity
  8
0
100
AcDbSpline
 62
7
  6
CONTINUOUS
 70
0
 71
3
 72
21
 73
17
 74
0
 42
0.0000001
 43
0.0000001
 44
0.0000000001
 40
0.0
 40
0.0
 40
0.0
 40
0.0
 40
0.0428267842
 40
0.0874214681
 40
0.135217865
 40
0.1871416048
 40
0.2436038332
 40
0.3045781221
 40
0.3696940577
 40
0.4383210659
 40
0.5825526823
 40
0.7295909905
 40
0.8015985371
 40
0.8712194981
 40
0.9375916107
 40
1.0
 40
1.0
 40
1.0
 40
1.0
 10
37.4518950892
 20
292.2221301755
 30
0.0
 10
37.168356831
 20
292.3858026465
 30
0.0
 10
36.6309174077
 20
292.7972029426
 30
0.0
 10
35.9841335029
 20
293.6150514444
 30
0.0
 10
35.5008352347
 20
294.6152573147
 30
0.0
 10
35.1878978657
 20
295.773379627
 30
0.0
 10
35.0485640729
 20
297.0650135808
 30
0.0
 10
35.084165293
 20
298.4635836792
 30
0.0
 10
35.2931614696
 20
299.9403413964
 30
0.0
 10
35.8054186444
 20
302.0057695011
 30
0.0
 10
36.8424783027
 20
304.5705925066
 30
0.0
 10
38.3038217263
 20
306.9483703663
 30
0.0
 10
39.6942919126
 20
308.6651032985
 30
0.0
 10
40.8054507233
 20
309.8059782384
 30
0.0
 10
41.9678142951
 20
310.7841519095
 30
0.0
 10
42.7886246436
 20
311.3327002623
 30
0.0
 10
43.2017872189
 20
311.5712383626
 30
0.0
  0
SPLINE
  5
348
100
AcDbEntity
  8
0
100
AcDbSpline
 62
7
  6
CONTINUOUS
 70
0
 71
3
 72
11
 73
7
 74
0
 42
0.0000001
 43
0.0000001
 44
0.0000000001
 40
0.0
 40
0.0
 40
0.0
 40
0.0
 40
0.2448197203
 40
0.5075829757
 40
0.7662618223
 40
1.0
 40
1.0
 40
1.0
 40
1.0
 10
58.5015435188
 20
267.9986813207
 30
0.0
 10
58.3091953099
 20
267.9133640707
 30
0.0
 10
57.8845254204
 20
267.7932716841
 30
0.0
 10
57.2230618202
 20
267.751268612
 30
0.0
 10
56.5759133185
 20
267.8404489208
 30
0.0
 10
56.1745254968
 20
267.9924358329
 30
0.0
 10
56.0005433105
 20
268.0928822226
 30
0.0
  0
SPLINE
  5
349
100
AcDbEntity
  8
0
100
AcDbSpline
 62
7
  6
CONTINUOUS
 70
0
 71
3
 72
14
 73
10
 74
0
 42
0.0000001
 43
0.0000001
 44
0.0000000001
 40
0.0
 40
0.0
 40
0.0
 40
0.0
 40
0.4198448
 40
0.5840360543
 40
0.7191594594
 40
0.8265418279
 40
0.9076863151
 40
0.9644659903
 40
1.0
 40
1.0
 40
1.0
 40
1.0
 10
84.5188940282
 20
294.4122543694
 30
0.0
 10
84.647733257
 20
294.4761187346
 30
0.0
 10
84.8279461442
 20
294.5630947462
 30
0.0
 10
85.0533778052
 20
294.662370018
 30
0.0
 10
85.1825651654
 20
294.7146417007
 30
0.0
 10
85.2869505792
 20
294.7517963852
 30
0.0
 10
85.3681452743
 20
294.7746992785
 30
0.0
 10
85.426394193
 20
294.7843715564
 30
0.0
 10
85.4593541421
 20
294.7824674446
 30
0.0
 10
85.4703412498
 20
294.7772322874
 30
0.0
  0
SPLINE
  5
34A
100
AcDbEntity
  8
0
100
AcDbSpline
 62
7
  6
CONTINUOUS
 70
0
 71
3
 72
16
 73
12
 74
0
 42
0.0000001
 43
0.0000001
 44
0.0000000001
 40
0.0
 40
0.0
 40
0.0
 40
0.0
 40
0.1367484362
 40
0.2821368884
 40
0.4293127978
 40
0.5710690874
 40
0.7010693012
 40
0.8151037033
 40
0.9127696571
 40
0.9571482185
 40
1.0
 40
1.0
 40
1.0
 40
1.0
 10
84.5358334879
 20
269.1959189021
 30
0.0
 10
84.6839404337
 20
269.1357993242
 30
0.0
 10
85.0028532399
 20
269.0435030292
 30
0.0
 10
85.5032445659
 20
268.9855399551
 30
0.0
 10
86.0126159094
 20
269.0055694551
 30
0.0
 10
86.4949416209
 20
269.1022650697
 30
0.0
 10
86.9169754781
 20
269.2694014238
 30
0.0
 10
87.2504705989
 20
269.4961918507
 30
0.0
 10
87.4411523885
 20
269.736425677
 30
0.0
 10
87.5159414916
 20
269.9409417523
 30
0.0
 10
87.5283151816
 20
270.043278743
 30
0.0
 10
87.5283118487
 20
270.0933677277
 30
0.0
  0
SPLINE
  5
34B
100
AcDbEntity
  8
0
100
AcDbSpline
 62
7
  6
CONTINUOUS
 70
0
 71
3
 72
18
 73
14
 74
0
 42
0.0000001
 43
0.0000001
 44
0.0000000001
 40
0.0
 40
0.0
 40
0.0
 40
0.0
 40
0.1489135984
 40
0.3049360773
 40
0.4562230354
 40
0.5920808251
 40
0.6521884754
 40
0.706734257
 40
0.7563875282
 40
0.8026886448
 40
0.8479257317
 40
0.8946537927
 40
1.0
 40
1.0
 40
1.0
 40
1.0
 10
84.9000173298
 20
269.8113377214
 30
0.0
 10
85.0426221827
 20
269.7611410012
 30
0.0
 10
85.3478560041
 20
269.6943696077
 30
0.0
 10
85.8136116739
 20
269.6853116362
 30
0.0
 10
86.2595506697
 20
269.7633736064
 30
0.0
 10
86.5893822571
 20
269.9000928756
 30
0.0
 10
86.7967168647
 20
270.0492827637
 30
0.0
 10
86.9129537439
 20
270.1705036791
 30
0.0
 10
86.9924416046
 20
270.3027760187
 30
0.0
 10
87.031701283
 20
270.4426837187
 30
0.0
 10
87.0278314566
 20
270.5851767755
 30
0.0
 10
86.9637052754
 20
270.7775131782
 30
0.0
 10
86.8566917036
 20
270.8981141143
 30
0.0
 10
86.7740765721
 20
270.9660344631
 30
0.0
  0
SPLINE
  5
34C
100
AcDbEntity
  8
0
100
AcDbSpline
 62
7
  6
CONTINUOUS
 70
0
 71
3
 72
9
 73
5
 74
0
 42
0.0000001
 43
0.0000001
 44
0.0000000001
 40
0.0
 40
0.0
 40
0.0
 40
0.0
 40
0.2417316218
 40
1.0
 40
1.0
 40
1.0
 40
1.0
 10
86.7740765721
 20
270.9660344631
 30
0.0
 10
86.7622993959
 20
270.9757168288
 30
0.0
 10
86.7126703676
 20
271.0146601021
 30
0.0
 10
86.659675058
 20
271.049248693
 30
0.0
 10
86.6182572205
 20
271.0731607517
 30
0.0
  0
SPLINE
  5
34D
100
AcDbEntity
  8
0
100
AcDbSpline
 62
7
  6
CONTINUOUS
 70
0
 71
3
 72
9
 73
5
 74
0
 42
0.0000001
 43
0.0000001
 44
0.0000000001
 40
0.0
 40
0.0
 40
0.0
 40
0.0
 40
0.4754637907
 40
1.0
 40
1.0
 40
1.0
 40
1.0
 10
86.6182572205
 20
271.0731607517
 30
0.0
 10
86.4476176659
 20
271.1716773157
 30
0.0
 10
86.0448760686
 20
271.302329681
 30
0.0
 10
85.6260237172
 20
271.3197501381
 30
0.0
 10
85.4095538746
 20
271.2999607241
 30
0.0
  0
SPLINE
  5
34E
100
AcDbEntity
  8
0
100
AcDbSpline
 62
7
  6
CONTINUOUS
 70
0
 71
3
 72
16
 73
12
 74
0
 42
0.0000001
 43
0.0000001
 44
0.0000000001
 40
0.0
 40
0.0
 40
0.0
 40
0.0
 40
0.1287447803
 40
0.2703893673
 40
0.4176132118
 40
0.5620213809
 40
0.6957504642
 40
0.8130669313
 40
0.912474233
 40
0.9571209515
 40
1.0
 40
1.0
 40
1.0
 40
1.0
 10
70.1427378134
 20
261.1528207579
 30
0.0
 10
70.283383258
 20
261.0716209096
 30
0.0
 10
70.6018185271
 20
260.9402317383
 30
0.0
 10
71.1208076829
 20
260.8364016477
 30
0.0
 10
71.6697742233
 20
260.8212345588
 30
0.0
 10
72.2037370693
 20
260.8961479915
 30
0.0
 10
72.6800335188
 20
261.0555659206
 30
0.0
 10
73.0616471454
 20
261.2871640936
 30
0.0
 10
73.2839866331
 20
261.542447146
 30
0.0
 10
73.371738782
 20
261.7635232142
 30
0.0
 10
73.3862387035
 20
261.8743957576
 30
0.0
 10
73.3862351045
 20
261.9284846502
 30
0.0
  0
SPLINE
  5
34F
100
AcDbEntity
  8
0
100
AcDbSpline
 62
7
  6
CONTINUOUS
 70
0
 71
3
 72
19
 73
15
 74
0
 42
0.0000001
 43
0.0000001
 44
0.0000000001
 40
0.0
 40
0.0
 40
0.0
 40
0.0
 40
0.1375031753
 40
0.2897301121
 40
0.4436111787
 40
0.5855383886
 40
0.6488660308
 40
0.7061397013
 40
0.7576539185
 40
0.804712273
 40
0.8496919727
 40
0.8955724926
 40
0.9450692869
 40
1.0
 40
1.0
 40
1.0
 40
1.0
 10
70.496289732
 20
261.7651940434
 30
0.0
 10
70.6286120637
 20
261.6887994379
 30
0.0
 10
70.9347261017
 20
261.5745822677
 30
0.0
 10
71.4269616748
 20
261.5116126472
 30
0.0
 10
71.9267090969
 20
261.5509357593
 30
0.0
 10
72.3127371296
 20
261.6698345077
 30
0.0
 10
72.5667896042
 20
261.815574786
 30
0.0
 10
72.7143419095
 20
261.9391551014
 30
0.0
 10
72.8210454644
 20
262.0776891742
 30
0.0
 10
72.8819049129
 20
262.2276849603
 30
0.0
 10
72.8922850585
 20
262.3833570678
 30
0.0
 10
72.8513451728
 20
262.5365220434
 30
0.0
 10
72.76251685
 20
262.680217218
 30
0.0
 10
72.6791495225
 20
262.7623882239
 30
0.0
 10
72.6319998278
 20
262.8011513857
 30
0.0
  0
SPLINE
  5
350
100
AcDbEntity
  8
0
100
AcDbSpline
 62
7
  6
CONTINUOUS
 70
0
 71
3
 72
9
 73
5
 74
0
 42
0.0000001
 43
0.0000001
 44
0.0000000001
 40
0.0
 40
0.0
 40
0.0
 40
0.0
 40
0.2417316218
 40
1.0
 40
1.0
 40
1.0
 40
1.0
 10
72.6319998278
 20
262.8011513857
 30
0.0
 10
72.6202226517
 20
262.8108337514
 30
0.0
 10
72.5705936233
 20
262.8497770247
 30
0.0
 10
72.5175983137
 20
262.8843656156
 30
0.0
 10
72.4761804762
 20
262.9082776742
 30
0.0
  0
SPLINE
  5
351
100
AcDbEntity
  8
0
100
AcDbSpline
 62
7
  6
CONTINUOUS
 70
0
 71
3
 72
19
 73
15
 74
0
 42
0.0000001
 43
0.0000001
 44
0.0000000001
 40
0.0
 40
0.0
 40
0.0
 40
0.0
 40
0.138268433
 40
0.291399633
 40
0.4445411314
 40
0.5827846438
 40
0.6432373716
 40
0.6973194311
 40
0.7459596107
 40
0.7913884449
 40
0.8368174529
 40
0.8854518571
 40
0.9395803522
 40
1.0
 40
1.0
 40
1.0
 40
1.0
 10
72.4761804762
 20
262.9082776742
 30
0.0
 10
72.335629685
 20
262.9894228756
 30
0.0
 10
72.0087865405
 20
263.1078219626
 30
0.0
 10
71.4862387835
 20
263.1645677134
 30
0.0
 10
70.9635872314
 20
263.1077152834
 30
0.0
 10
70.5692523346
 20
262.9651375619
 30
0.0
 10
70.3234312314
 20
262.7961114358
 30
0.0
 10
70.1902241847
 20
262.6560928243
 30
0.0
 10
70.1059495835
 20
262.5011456565
 30
0.0
 10
70.076760705
 20
262.3367674565
 30
0.0
 10
70.1059129318
 20
262.1723933045
 30
0.0
 10
70.1902048086
 20
262.0173774408
 30
0.0
 10
70.3234314816
 20
261.8774514567
 30
0.0
 10
70.4348727541
 20
261.80065235
 30
0.0
 10
70.496289732
 20
261.7651940434
 30
0.0
  0
SPLINE
  5
352
100
AcDbEntity
  8
0
100
AcDbSpline
 62
7
  6
CONTINUOUS
 70
0
 71
3
 72
11
 73
7
 74
0
 42
0.0000001
 43
0.0000001
 44
0.0000000001
 40
0.0
 40
0.0
 40
0.0
 40
0.0
 40
0.2975552641
 40
0.5687949365
 40
0.804100065
 40
1.0
 40
1.0
 40
1.0
 40
1.0
 10
76.5998223328
 20
289.8402034858
 30
0.0
 10
75.0892516089
 20
288.9196831656
 30
0.0
 10
72.2147394105
 20
287.1386157583
 30
0.0
 10
68.1799092557
 20
284.5749201384
 30
0.0
 10
64.6797708927
 20
282.2970771087
 30
0.0
 10
62.5485182829
 20
280.8723476416
 30
0.0
 10
61.5867225038
 20
280.2156324579
 30
0.0
  0
SPLINE
  5
353
100
AcDbEntity
  8
0
100
AcDbSpline
 62
7
  6
CONTINUOUS
 70
0
 71
3
 72
9
 73
5
 74
0
 42
0.0000001
 43
0.0000001
 44
0.0000000001
 40
0.0
 40
0.0
 40
0.0
 40
0.0
 40
0.4778425454
 40
1.0
 40
1.0
 40
1.0
 40
1.0
 10
56.0005433105
 20
269.3176358483
 30
0.0
 10
56.1196526929
 20
269.24886957
 30
0.0
 10
56.385461715
 20
269.1330838448
 30
0.0
 10
56.6663389295
 20
269.0646320151
 30
0.0
 10
56.814563547
 20
269.0398027676
 30
0.0
  0
SPLINE
  5
354
100
AcDbEntity
  8
0
100
AcDbSpline
 62
7
  6
CONTINUOUS
 70
0
 71
3
 72
12
 73
8
 74
0
 42
0.0000001
 43
0.0000001
 44
0.0000000001
 40
0.0
 40
0.0
 40
0.0
 40
0.0
 40
0.2855240763
 40
0.5494915843
 40
0.6721061525
 40
0.7880352494
 40
1.0
 40
1.0
 40
1.0
 40
1.0
 10
76.5998223328
 20
289.8402034858
 30
0.0
 10
77.4664993723
 20
290.0365338859
 30
0.0
 10
79.1131577449
 20
290.519564654
 30
0.0
 10
81.0221271398
 20
291.3982927789
 30
0.0
 10
82.3437346984
 20
292.2394189479
 30
0.0
 10
83.4474031347
 20
293.1056290437
 30
0.0
 10
84.1480886496
 20
293.8666312955
 30
0.0
 10
84.5188940282
 20
294.4122543694
 30
0.0
  0
SPLINE
  5
355
100
AcDbEntity
  8
0
100
AcDbSpline
 62
7
  6
CONTINUOUS
 70
0
 71
3
 72
16
 73
12
 74
0
 42
0.0000001
 43
0.0000001
 44
0.0000000001
 40
0.0
 40
0.0
 40
0.0
 40
0.0
 40
0.0428770766
 40
0.0875219132
 40
0.1869263068
 40
0.3042374256
 40
0.4379612148
 40
0.5823662057
 40
0.7295950091
 40
0.8712500646
 40
1.0
 40
1.0
 40
1.0
 40
1.0
 10
87.5283053719
 20
268.8686140983
 30
0.0
 10
87.5283094615
 20
268.8145278638
 30
0.0
 10
87.5138118392
 20
268.7036601368
 30
0.0
 10
87.4260603711
 20
268.4825939505
 30
0.0
 10
87.2037379161
 20
268.2273165908
 30
0.0
 10
86.8221441489
 20
267.9957203403
 30
0.0
 10
86.3458697853
 20
267.8362980835
 30
0.0
 10
85.8119150433
 20
267.7613708752
 30
0.0
 10
85.2629341806
 20
267.7765268921
 30
0.0
 10
84.7439192344
 20
267.8803535896
 30
0.0
 10
84.4254651898
 20
268.0117473664
 30
0.0
 10
84.2848145577
 20
268.0929502096
 30
0.0
  0
SPLINE
  5
356
100
AcDbEntity
  8
0
100
AcDbSpline
 62
7
  6
CONTINUOUS
 70
0
 71
3
 72
11
 73
7
 74
0
 42
0.0000001
 43
0.0000001
 44
0.0000000001
 40
0.0
 40
0.0
 40
0.0
 40
0.0
 40
0.237228705
 40
0.5000005261
 40
0.7627720609
 40
1.0
 40
1.0
 40
1.0
 40
1.0
 10
69.3649235925
 20
259.4789985629
 30
0.0
 10
69.6660781039
 20
259.3051308581
 30
0.0
 10
70.3664360633
 20
259.0513897232
 30
0.0
 10
71.4862472712
 20
258.9298452699
 30
0.0
 10
72.6060567895
 20
259.0513948334
 30
0.0
 10
73.3064119943
 20
259.3051394459
 30
0.0
 10
73.6075642796
 20
259.479008761
 30
0.0
  0
SPLINE
  5
357
100
AcDbEntity
  8
0
100
AcDbSpline
 62
7
  6
CONTINUOUS
 70
0
 71
3
 72
11
 73
7
 74
0
 42
0.0000001
 43
0.0000001
 44
0.0000000001
 40
0.0
 40
0.0
 40
0.0
 40
0.0
 40
0.2177723091
 40
0.4509273687
 40
0.7102218233
 40
1.0
 40
1.0
 40
1.0
 40
1.0
 10
54.3440626536
 20
268.868546115
 30
0.0
 10
54.344062655
 20
268.7542849848
 30
0.0
 10
54.3862603399
 20
268.5161008781
 30
0.0
 10
54.5668298538
 20
268.1843096852
 30
0.0
 10
54.8522012119
 20
267.8842781065
 30
0.0
 10
55.0910567286
 20
267.7198330066
 30
0.0
 10
55.2227290896
 20
267.6438136533
 30
0.0
  0
SPLINE
  5
358
100
AcDbEntity
  8
0
100
AcDbSpline
 62
7
  6
CONTINUOUS
 70
0
 71
3
 72
11
 73
7
 74
0
 42
0.0000001
 43
0.0000001
 44
0.0000000001
 40
0.0
 40
0.0
 40
0.0
 40
0.0
 40
0.2897776971
 40
0.5490719787
 40
0.7822272299
 40
1.0
 40
1.0
 40
1.0
 40
1.0
 10
87.7496410239
 20
267.6438918384
 30
0.0
 10
87.8813109225
 20
267.7199110361
 30
0.0
 10
88.1201619063
 20
267.8843555082
 30
0.0
 10
88.4055274686
 20
268.184384863
 30
0.0
 10
88.5860930763
 20
268.5161728434
 30
0.0
 10
88.6282897975
 20
268.7543542019
 30
0.0
 10
88.6282897961
 20
268.868614102
 30
0.0
  0
SPLINE
  5
359
100
AcDbEntity
  8
0
100
AcDbSpline
 62
7
  6
CONTINUOUS
 70
0
 71
3
 72
11
 73
7
 74
0
 42
0.0000001
 43
0.0000001
 44
0.0000000001
 40
0.0
 40
0.0
 40
0.0
 40
0.0
 40
0.2211968568
 40
0.4596517185
 40
0.7188867346
 40
1.0
 40
1.0
 40
1.0
 40
1.0
 10
83.2395247341
 20
267.4711897463
 30
0.0
 10
83.1185962551
 20
267.1321604185
 30
0.0
 10
82.7812086123
 20
266.4565090797
 30
0.0
 10
82.052391216
 20
265.533210431
 30
0.0
 10
81.1039202553
 20
264.6847282123
 30
0.0
 10
80.3676585773
 20
264.198416034
 30
0.0
 10
79.9714929266
 20
263.9696910542
 30
0.0
  0
SPLINE
  5
35A
100
AcDbEntity
  8
0
100
AcDbSpline
 62
7
  6
CONTINUOUS
 70
0
 71
3
 72
9
 73
5
 74
0
 42
0.0000001
 43
0.0000001
 44
0.0000000001
 40
0.0
 40
0.0
 40
0.0
 40
0.0
 40
0.262171749
 40
1.0
 40
1.0
 40
1.0
 40
1.0
 10
84.2848145577
 20
268.0929502096
 30
0.0
 10
84.2582354174
 20
268.1082953363
 30
0.0
 10
84.1584225062
 20
268.1694367253
 30
0.0
 10
84.0649408818
 20
268.2413899634
 30
0.0
 10
84.0024503906
 20
268.3010155203
 30
0.0
  0
SPLINE
  5
35B
100
AcDbEntity
  8
0
100
AcDbSpline
 62
7
  6
CONTINUOUS
 70
0
 71
3
 72
11
 73
7
 74
0
 42
0.0000001
 43
0.0000001
 44
0.0000000001
 40
0.0
 40
0.0
 40
0.0
 40
0.0
 40
0.2897036169
 40
0.5490920547
 40
0.7822205729
 40
1.0
 40
1.0
 40
1.0
 40
1.0
 10
70.1427378134
 20
259.9280671322
 30
0.0
 10
70.059367184
 20
259.9762000987
 30
0.0
 10
69.9081109393
 20
260.080378938
 30
0.0
 10
69.7273349727
 20
260.2703576327
 30
0.0
 10
69.6129842575
 20
260.480526151
 30
0.0
 10
69.5862470525
 20
260.6313636356
 30
0.0
 10
69.5862415807
 20
260.7037310282
 30
0.0
  0
SPLINE
  5
35C
100
AcDbEntity
  8
0
100
AcDbSpline
 62
7
  6
CONTINUOUS
 70
0
 71
3
 72
9
 73
5
 74
0
 42
0.0000001
 43
0.0000001
 44
0.0000000001
 40
0.0
 40
0.0
 40
0.0
 40
0.0
 40
0.4595942789
 40
1.0
 40
1.0
 40
1.0
 40
1.0
 10
55.4868082586
 20
269.8619107793
 30
0.0
 10
55.5275071348
 20
269.7529202635
 30
0.0
 10
55.6750182166
 20
269.5374691815
 30
0.0
 10
55.8820720926
 20
269.3860336905
 30
0.0
 10
56.0005433105
 20
269.3176358483
 30
0.0
  0
SPLINE
  5
35D
100
AcDbEntity
  8
0
100
AcDbSpline
 62
7
  6
CONTINUOUS
 70
0
 71
3
 72
11
 73
7
 74
0
 42
0.0000001
 43
0.0000001
 44
0.0000000001
 40
0.0
 40
0.0
 40
0.0
 40
0.0
 40
0.2897036169
 40
0.5490920547
 40
0.7822205729
 40
1.0
 40
1.0
 40
1.0
 40
1.0
 10
56.0005433105
 20
268.0928822226
 30
0.0
 10
55.917172681
 20
268.1410151891
 30
0.0
 10
55.7659164364
 20
268.2451940284
 30
0.0
 10
55.5851404697
 20
268.4351727231
 30
0.0
 10
55.4707897545
 20
268.6453412414
 30
0.0
 10
55.4440525496
 20
268.796178726
 30
0.0
 10
55.4440470777
 20
268.8685461186
 30
0.0
  0
SPLINE
  5
35E
100
AcDbEntity
  8
0
100
AcDbSpline
 62
7
  6
CONTINUOUS
 70
0
 71
3
 72
10
 73
6
 74
0
 42
0.0000001
 43
0.0000001
 44
0.0000000001
 40
0.0
 40
0.0
 40
0.0
 40
0.0
 40
0.2302746196
 40
0.4759468709
 40
1.0
 40
1.0
 40
1.0
 40
1.0
 10
79.9714929266
 20
263.9696910542
 30
0.0
 10
79.5101571501
 20
263.7033403094
 30
0.0
 10
78.5171617842
 20
263.2192984986
 30
0.0
 10
76.3305631715
 20
262.454070126
 30
0.0
 10
74.5632142687
 20
262.1350634699
 30
0.0
 10
73.3558982073
 20
262.0250951659
 30
0.0
  0
SPLINE
  5
35F
100
AcDbEntity
  8
0
100
AcDbSpline
 62
7
  6
CONTINUOUS
 70
0
 71
3
 72
14
 73
10
 74
0
 42
0.0000001
 43
0.0000001
 44
0.0000000001
 40
0.0
 40
0.0
 40
0.0
 40
0.0
 40
0.2929107665
 40
0.4314464155
 40
0.5625524806
 40
0.6851510281
 40
0.798691698
 40
0.9033107111
 40
1.0
 40
1.0
 40
1.0
 40
1.0
 10
69.5849116912
 20
262.0280006254
 30
0.0
 10
68.4860054053
 20
262.129787194
 30
0.0
 10
66.8735462792
 20
262.4110249303
 30
0.0
 10
64.855118379
 20
263.0663359987
 30
0.0
 10
63.5009587617
 20
263.665819888
 30
0.0
 10
62.3060784563
 20
264.3704630484
 30
0.0
 10
61.2937831776
 20
265.1676509574
 30
0.0
 10
60.4848467308
 20
266.0426389315
 30
0.0
 10
60.0791888917
 20
266.6908373847
 30
0.0
 10
59.9216031202
 20
267.0192897484
 30
0.0
  0
SPLINE
  5
360
100
AcDbEntity
  8
0
100
AcDbSpline
 62
7
  6
CONTINUOUS
 70
0
 71
3
 72
11
 73
7
 74
0
 42
0.0000001
 43
0.0000001
 44
0.0000000001
 40
0.0
 40
0.0
 40
0.0
 40
0.0
 40
0.2177836649
 40
0.4509127634
 40
0.7102976676
 40
1.0
 40
1.0
 40
1.0
 40
1.0
 10
69.5862351038
 20
261.9284846502
 30
0.0
 10
69.5862399193
 20
261.8561156253
 30
0.0
 10
69.612981799
 20
261.7052763253
 30
0.0
 10
69.7273349637
 20
261.495108543
 30
0.0
 10
69.9081112292
 20
261.3051308277
 30
0.0
 10
70.0593672955
 20
261.20095366
 30
0.0
 10
70.1427378134
 20
261.1528207579
 30
0.0
  0
SPLINE
  5
361
100
AcDbEntity
  8
0
100
AcDbSpline
 62
7
  6
CONTINUOUS
 70
0
 71
3
 72
16
 73
12
 74
0
 42
0.0000001
 43
0.0000001
 44
0.0000000001
 40
0.0
 40
0.0
 40
0.0
 40
0.0
 40
0.0428770766
 40
0.0875219132
 40
0.1869263068
 40
0.3042374256
 40
0.4379612148
 40
0.5823662057
 40
0.7295950091
 40
0.8712500646
 40
1.0
 40
1.0
 40
1.0
 40
1.0
 10
73.3862286276
 20
260.7037310209
 30
0.0
 10
73.3862327172
 20
260.6496447864
 30
0.0
 10
73.3717350949
 20
260.5387770594
 30
0.0
 10
73.2839836269
 20
260.3177108731
 30
0.0
 10
73.0616611718
 20
260.0624335134
 30
0.0
 10
72.6800674047
 20
259.8308372629
 30
0.0
 10
72.203793041
 20
259.671415006
 30
0.0
 10
71.669838299
 20
259.5964877978
 30
0.0
 10
71.1208574364
 20
259.6116438147
 30
0.0
 10
70.6018424901
 20
259.7154705121
 30
0.0
 10
70.2833884456
 20
259.8468642889
 30
0.0
 10
70.1427378134
 20
259.9280671322
 30
0.0
  0
SPLINE
  5
362
100
AcDbEntity
  8
0
100
AcDbSpline
 62
7
  6
CONTINUOUS
 70
0
 71
3
 72
11
 73
7
 74
0
 42
0.0000001
 43
0.0000001
 44
0.0000000001
 40
0.0
 40
0.0
 40
0.0
 40
0.0
 40
0.2375347386
 40
0.4973873292
 40
0.758741283
 40
1.0
 40
1.0
 40
1.0
 40
1.0
 10
47.4954852133
 20
256.3497838273
 30
0.0
 10
47.2157767109
 20
256.2049938695
 30
0.0
 10
46.6865414607
 20
255.7911962124
 30
0.0
 10
46.0717524114
 20
254.9844594976
 30
0.0
 10
45.6506321145
 20
254.0563592106
 30
0.0
 10
45.5313193125
 20
253.3890435783
 30
0.0
 10
45.5313193125
 20
253.0691438593
 30
0.0
  0
SPLINE
  5
363
100
AcDbEntity
  8
0
100
AcDbSpline
 62
7
  6
CONTINUOUS
 70
0
 71
3
 72
11
 73
7
 74
0
 42
0.0000001
 43
0.0000001
 44
0.0000000001
 40
0.0
 40
0.0
 40
0.0
 40
0.0
 40
0.2686418689
 40
0.5215931983
 40
0.7636604372
 40
1.0
 40
1.0
 40
1.0
 40
1.0
 10
45.5313193125
 20
253.0691438593
 30
0.0
 10
45.5313193125
 20
252.928099771
 30
0.0
 10
45.5533994428
 20
252.653403873
 30
0.0
 10
45.665834509
 20
252.265103075
 30
0.0
 10
45.8622687367
 20
251.9299427353
 30
0.0
 10
46.0499596222
 20
251.7560286322
 30
0.0
 10
46.1532058694
 20
251.6872014481
 30
0.0
  0
SPLINE
  5
364
100
AcDbEntity
  8
0
100
AcDbSpline
 62
7
  6
CONTINUOUS
 70
0
 71
3
 72
13
 73
9
 74
0
 42
0.0000001
 43
0.0000001
 44
0.0000000001
 40
0.0
 40
0.0
 40
0.0
 40
0.0
 40
0.1142494128
 40
0.2375488016
 40
0.500001607
 40
0.7624535328
 40
0.8857518943
 40
1.0
 40
1.0
 40
1.0
 40
1.0
 10
46.7374153318
 20
264.296037049
 30
0.0
 10
46.7374153318
 20
264.5754972288
 30
0.0
 10
46.7885998727
 20
265.1571417306
 30
0.0
 10
47.066582318
 20
266.3511736549
 30
0.0
 10
47.712276439
 20
267.8156929425
 30
0.0
 10
48.6577322251
 20
269.1071432339
 30
0.0
 10
49.5527951778
 20
269.9448960109
 30
0.0
 10
50.0309173106
 20
270.2800420382
 30
0.0
 10
50.2729345178
 20
270.419769904
 30
0.0
  0
SPLINE
  5
365
100
AcDbEntity
  8
0
100
AcDbSpline
 62
7
  6
CONTINUOUS
 70
0
 71
3
 72
9
 73
5
 74
0
 42
0.0000001
 43
0.0000001
 44
0.0000000001
 40
0.0
 40
0.0
 40
0.0
 40
0.0
 40
0.2470021932
 40
1.0
 40
1.0
 40
1.0
 40
1.0
 10
45.8352902889
 20
216.1875132352
 30
0.0
 10
45.7104796922
 20
216.3167924422
 30
0.0
 10
45.2149845681
 20
216.8495912688
 30
0.0
 10
44.7591615539
 20
217.4190729709
 30
0.0
 10
44.4393455246
 20
217.8638389024
 30
0.0
  0
SPLINE
  5
366
100
AcDbEntity
  8
0
100
AcDbSpline
 62
7
  6
CONTINUOUS
 70
0
 71
3
 72
9
 73
5
 74
0
 42
0.0000001
 43
0.0000001
 44
0.0000000001
 40
0.0
 40
0.0
 40
0.0
 40
0.0
 40
0.2342030627
 40
1.0
 40
1.0
 40
1.0
 40
1.0
 10
47.5726188937
 20
255.4684832646
 30
0.0
 10
47.6807374132
 20
255.5059637177
 30
0.0
 10
48.1350554188
 20
255.6870696623
 30
0.0
 10
48.557173486
 20
255.9435067272
 30
0.0
 10
48.8587445072
 20
256.1649899107
 30
0.0
  0
SPLINE
  5
367
100
AcDbEntity
  8
0
100
AcDbSpline
 62
7
  6
CONTINUOUS
 70
0
 71
3
 72
9
 73
5
 74
0
 42
0.0000001
 43
0.0000001
 44
0.0000000001
 40
0.0
 40
0.0
 40
0.0
 40
0.0
 40
0.5390737069
 40
1.0
 40
1.0
 40
1.0
 40
1.0
 10
47.2226837678
 20
255.114364848
 30
0.0
 10
47.2620432399
 20
255.1964220627
 30
0.0
 10
47.3583944202
 20
255.3378216255
 30
0.0
 10
47.4990959654
 20
255.442995747
 30
0.0
 10
47.5726188937
 20
255.4684832646
 30
0.0
  0
SPLINE
  5
368
100
AcDbEntity
  8
0
100
AcDbSpline
 62
7
  6
CONTINUOUS
 70
0
 71
3
 72
9
 73
5
 74
0
 42
0.0000001
 43
0.0000001
 44
0.0000000001
 40
0.0
 40
0.0
 40
0.0
 40
0.0
 40
0.4787874828
 40
1.0
 40
1.0
 40
1.0
 40
1.0
 10
44.4393455246
 20
229.5785007122
 30
0.0
 10
44.1914421528
 20
231.110696926
 30
0.0
 10
43.9675365599
 20
234.3611816545
 30
0.0
 10
44.2181077252
 20
237.6035727249
 30
0.0
 10
44.4492825091
 20
239.2773375938
 30
0.0
  0
SPLINE
  5
369
100
AcDbEntity
  8
0
100
AcDbSpline
 62
7
  6
CONTINUOUS
 70
0
 71
3
 72
9
 73
5
 74
0
 42
0.0000001
 43
0.0000001
 44
0.0000000001
 40
0.0
 40
0.0
 40
0.0
 40
0.0
 40
0.2430753139
 40
1.0
 40
1.0
 40
1.0
 40
1.0
 10
46.1565453299
 20
251.6857632974
 30
0.0
 10
46.1260025916
 20
251.7067809229
 30
0.0
 10
46.0055727264
 20
251.800801304
 30
0.0
 10
45.9089823809
 20
251.9237571222
 30
0.0
 10
45.8516137065
 20
252.0239464602
 30
0.0
  0
SPLINE
  5
36A
100
AcDbEntity
  8
0
100
AcDbSpline
 62
7
  6
CONTINUOUS
 70
0
 71
3
 72
9
 73
5
 74
0
 42
0.0000001
 43
0.0000001
 44
0.0000000001
 40
0.0
 40
0.0
 40
0.0
 40
0.0
 40
0.2269581367
 40
1.0
 40
1.0
 40
1.0
 40
1.0
 10
45.8516137065
 20
252.0239464602
 30
0.0
 10
45.8173661068
 20
252.0837568772
 30
0.0
 10
45.6890702588
 20
252.3603498558
 30
0.0
 10
45.6484777776
 20
252.6710924822
 30
0.0
 10
45.6484777776
 20
252.9058461977
 30
0.0
  0
SPLINE
  5
36B
100
AcDbEntity
  8
0
100
AcDbSpline
 62
7
  6
CONTINUOUS
 70
0
 71
3
 72
11
 73
7
 74
0
 42
0.0000001
 43
0.0000001
 44
0.0000000001
 40
0.0
 40
0.0
 40
0.0
 40
0.0
 40
0.2367452473
 40
0.4989694841
 40
0.7617664305
 40
1.0
 40
1.0
 40
1.0
 40
1.0
 10
45.6484777776
 20
252.9058461977
 30
0.0
 10
45.6484777776
 20
253.2210506082
 30
0.0
 10
45.7654589584
 20
253.8858350831
 30
0.0
 10
46.174404787
 20
254.8220200844
 30
0.0
 10
46.7742064802
 20
255.6514694558
 30
0.0
 10
47.2884619843
 20
256.092555083
 30
0.0
 10
47.5608802797
 20
256.2550211237
 30
0.0
  0
SPLINE
  5
36C
100
AcDbEntity
  8
0
100
AcDbSpline
 62
7
  6
CONTINUOUS
 70
0
 71
3
 72
9
 73
5
 74
0
 42
0.0000001
 43
0.0000001
 44
0.0000000001
 40
0.0
 40
0.0
 40
0.0
 40
0.0
 40
0.2319083353
 40
1.0
 40
1.0
 40
1.0
 40
1.0
 10
51.1081675194
 20
253.427279492
 30
0.0
 10
51.097167433
 20
253.4234661932
 30
0.0
 10
51.0506003037
 20
253.4045388844
 30
0.0
 10
51.0077544527
 20
253.3771551683
 30
0.0
 10
50.9773578741
 20
253.3534294224
 30
0.0
  0
SPLINE
  5
36D
100
AcDbEntity
  8
0
100
AcDbSpline
 62
7
  6
CONTINUOUS
 70
0
 71
3
 72
8
 73
4
 74
0
 42
0.0000001
 43
0.0000001
 44
0.0000000001
 40
0.0
 40
0.0
 40
0.0
 40
0.0
 40
1.0
 40
1.0
 40
1.0
 40
1.0
 10
50.9773578741
 20
253.3534294224
 30
0.0
 10
50.9551592678
 20
253.3361025218
 30
0.0
 10
50.934154692
 20
253.3171711708
 30
0.0
 10
50.9143610515
 20
253.2971409087
 30
0.0
  0
SPLINE
  5
36E
100
AcDbEntity
  8
0
100
AcDbSpline
 62
7
  6
CONTINUOUS
 70
0
 71
3
 72
18
 73
14
 74
0
 42
0.0000001
 43
0.0000001
 44
0.0000000001
 40
0.0
 40
0.0
 40
0.0
 40
0.0
 40
0.1309177414
 40
0.2605254543
 40
0.3884354198
 40
0.5140760459
 40
0.636586617
 40
0.6963328335
 40
0.7548641629
 40
0.8121956484
 40
0.8690582287
 40
0.9287930682
 40
1.0
 40
1.0
 40
1.0
 40
1.0
 10
52.2028999556
 20
265.2231215011
 30
0.0
 10
51.94120164
 20
265.2597008289
 30
0.0
 10
51.4197504048
 20
265.3278399031
 30
0.0
 10
50.640093275
 20
265.4111447348
 30
0.0
 10
49.8686765358
 20
265.4688329656
 30
0.0
 10
49.1096971725
 20
265.4908314153
 30
0.0
 10
48.4876641511
 20
265.4658167609
 30
0.0
 10
48.0055209814
 20
265.4015723445
 30
0.0
 10
47.6589657342
 20
265.3241233575
 30
0.0
 10
47.3301498397
 20
265.2043078043
 30
0.0
 10
47.0279563494
 20
265.0178516781
 30
0.0
 10
46.7858390523
 20
264.7114341042
 30
0.0
 10
46.7374153318
 20
264.4397600588
 30
0.0
 10
46.7374153318
 20
264.296037049
 30
0.0
  0
SPLINE
  5
36F
100
AcDbEntity
  8
0
100
AcDbSpline
 62
7
  6
CONTINUOUS
 70
0
 71
3
 72
18
 73
14
 74
0
 42
0.0000001
 43
0.0000001
 44
0.0000000001
 40
0.0
 40
0.0
 40
0.0
 40
0.0
 40
0.1309185173
 40
0.2605269088
 40
0.3884374214
 40
0.5140784109
 40
0.6365890666
 40
0.6963351737
 40
0.754866253
 40
0.8121973079
 40
0.8690592549
 40
0.9287934021
 40
1.0
 40
1.0
 40
1.0
 40
1.0
 10
52.2028999556
 20
265.2231215011
 30
0.0
 10
52.040368133
 20
265.4314630535
 30
0.0
 10
51.7206242797
 20
265.8489711521
 30
0.0
 10
51.2586392427
 20
266.4825030893
 30
0.0
 10
50.8229589631
 20
267.1217068784
 30
0.0
 10
50.4244055061
 20
267.7679843396
 30
0.0
 10
50.1350414257
 20
268.3191726189
 30
0.0
 10
49.949598184
 20
268.7688309068
 30
0.0
 10
49.8433866826
 20
269.1076717416
 30
0.0
 10
49.7827352134
 20
269.4523332525
 30
0.0
 10
49.7931071129
 20
269.8072601176
 30
0.0
 10
49.9374079258
 20
270.170141763
 30
0.0
 10
50.1484689984
 20
270.3479101318
 30
0.0
 10
50.2729345178
 20
270.419769904
 30
0.0
  0
SPLINE
  5
370
100
AcDbEntity
  8
0
100
AcDbSpline
 62
7
  6
CONTINUOUS
 70
0
 71
3
 72
9
 73
5
 74
0
 42
0.0000001
 43
0.0000001
 44
0.0000000001
 40
0.0
 40
0.0
 40
0.0
 40
0.0
 40
0.254665055
 40
1.0
 40
1.0
 40
1.0
 40
1.0
 10
52.3942931329
 20
254.1237861381
 30
0.0
 10
52.3589364132
 20
254.0978190581
 30
0.0
 10
52.2190311619
 20
253.9973214442
 30
0.0
 10
52.0748163425
 20
253.9027894133
 30
0.0
 10
51.9649941929
 20
253.8362847586
 30
0.0
  0
SPLINE
  5
371
100
AcDbEntity
  8
0
100
AcDbSpline
 62
7
  6
CONTINUOUS
 70
0
 71
3
 72
9
 73
5
 74
0
 42
0.0000001
 43
0.0000001
 44
0.0000000001
 40
0.0
 40
0.0
 40
0.0
 40
0.0
 40
0.2553764961
 40
1.0
 40
1.0
 40
1.0
 40
1.0
 10
51.9649941929
 20
253.8362847586
 30
0.0
 10
51.9293394265
 20
253.8146934134
 30
0.0
 10
51.788746209
 20
253.7317763436
 30
0.0
 10
51.6441993935
 20
253.6555116711
 30
0.0
 10
51.5345157794
 20
253.6031573931
 30
0.0
  0
SPLINE
  5
372
100
AcDbEntity
  8
0
100
AcDbSpline
 62
7
  6
CONTINUOUS
 70
0
 71
3
 72
9
 73
5
 74
0
 42
0.0000001
 43
0.0000001
 44
0.0000000001
 40
0.0
 40
0.0
 40
0.0
 40
0.0
 40
0.2558776365
 40
1.0
 40
1.0
 40
1.0
 40
1.0
 10
51.5345157794
 20
253.6031573931
 30
0.0
 10
51.4990053911
 20
253.5862075436
 30
0.0
 10
51.3593725836
 20
253.521779997
 30
0.0
 10
51.2162847222
 20
253.4647594887
 30
0.0
 10
51.1081675194
 20
253.427279492
 30
0.0
  0
SPLINE
  5
373
100
AcDbEntity
  8
0
100
AcDbSpline
 62
7
  6
CONTINUOUS
 70
0
 71
3
 72
9
 73
5
 74
0
 42
0.0000001
 43
0.0000001
 44
0.0000000001
 40
0.0
 40
0.0
 40
0.0
 40
0.0
 40
0.5390737069
 40
1.0
 40
1.0
 40
1.0
 40
1.0
 10
50.7582323935
 20
253.0731610754
 30
0.0
 10
50.7975918656
 20
253.1552182901
 30
0.0
 10
50.8939430459
 20
253.2966178529
 30
0.0
 10
51.0346445911
 20
253.4017919744
 30
0.0
 10
51.1081675194
 20
253.427279492
 30
0.0
  0
LINE
  5
374
100
AcDbEntity
  8
0
100
AcDbLine
 62
7
  6
CONTINUOUS
 10
117.2452382891
 20
264.6379703642
 11
110.2643917783
 21
277.5884228491
  0
SPLINE
  5
375
100
AcDbEntity
  8
0
100
AcDbSpline
 62
7
  6
CONTINUOUS
 70
0
 71
3
 72
9
 73
5
 74
0
 42
0.0000001
 43
0.0000001
 44
0.0000000001
 40
0.0
 40
0.0
 40
0.0
 40
0.0
 40
0.4999261051
 40
1.0
 40
1.0
 40
1.0
 40
1.0
 10
70.4957820625
 20
202.1114285494
 30
0.0
 10
71.7491615226
 20
201.5788929111
 30
0.0
 10
74.2573279299
 20
200.5161070275
 30
0.0
 10
76.7653353645
 20
199.452946217
 30
0.0
 10
78.0200205262
 20
198.9224595689
 30
0.0
  0
SPLINE
  5
376
100
AcDbEntity
  8
0
100
AcDbSpline
 62
7
  6
CONTINUOUS
 70
0
 71
3
 72
12
 73
8
 74
0
 42
0.0000001
 43
0.0000001
 44
0.0000000001
 40
0.0
 40
0.0
 40
0.0
 40
0.0
 40
0.2406301837
 40
0.4853046085
 40
0.736261212
 40
0.8656732218
 40
1.0
 40
1.0
 40
1.0
 40
1.0
 10
70.4957820625
 20
202.1114285494
 30
0.0
 10
70.3818540612
 20
202.1598342579
 30
0.0
 10
70.1523613132
 20
202.2581239617
 30
0.0
 10
69.8054927174
 20
202.4101981871
 30
0.0
 10
69.512415051
 20
202.5425637162
 30
0.0
 10
69.2735950759
 20
202.6567973393
 30
0.0
 10
69.1524102712
 20
202.7180663091
 30
0.0
 10
69.0924973894
 20
202.7524945442
 30
0.0
  0
SPLINE
  5
377
100
AcDbEntity
  8
0
100
AcDbSpline
 62
7
  6
CONTINUOUS
 70
0
 71
3
 72
9
 73
5
 74
0
 42
0.0000001
 43
0.0000001
 44
0.0000000001
 40
0.0
 40
0.0
 40
0.0
 40
0.0
 40
0.2342030627
 40
1.0
 40
1.0
 40
1.0
 40
1.0
 10
51.1081675194
 20
253.427279492
 30
0.0
 10
51.2162860389
 20
253.4647599451
 30
0.0
 10
51.6706040445
 20
253.6458658897
 30
0.0
 10
52.0927221117
 20
253.9023029546
 30
0.0
 10
52.3942931329
 20
254.1237861381
 30
0.0
  0
SPLINE
  5
378
100
AcDbEntity
  8
0
100
AcDbSpline
 62
7
  6
CONTINUOUS
 70
0
 71
3
 72
11
 73
7
 74
0
 42
0.0000001
 43
0.0000001
 44
0.0000000001
 40
0.0
 40
0.0
 40
0.0
 40
0.0
 40
0.2372446848
 40
0.5000016179
 40
0.7627576706
 40
1.0
 40
1.0
 40
1.0
 40
1.0
 10
52.3942931329
 20
264.7043718899
 30
0.0
 10
52.3942931329
 20
264.7623324997
 30
0.0
 10
52.4160383844
 20
264.8845645666
 30
0.0
 10
52.4918071545
 20
265.0563213723
 30
0.0
 10
52.6026673937
 20
265.2078175671
 30
0.0
 10
52.6976501145
 20
265.2877652879
 30
0.0
 10
52.7478450516
 20
265.3167451754
 30
0.0
  0
SPLINE
  5
379
100
AcDbEntity
  8
0
100
AcDbSpline
 62
7
  6
CONTINUOUS
 70
0
 71
3
 72
9
 73
5
 74
0
 42
0.0000001
 43
0.0000001
 44
0.0000000001
 40
0.0
 40
0.0
 40
0.0
 40
0.0
 40
0.2470021932
 40
1.0
 40
1.0
 40
1.0
 40
1.0
 10
49.3708389146
 20
214.1463094625
 30
0.0
 10
49.246028318
 20
214.2755886696
 30
0.0
 10
48.7505331938
 20
214.8083874962
 30
0.0
 10
48.2947101797
 20
215.3778691983
 30
0.0
 10
47.9748941504
 20
215.8226351298
 30
0.0
  0
SPLINE
  5
37A
100
AcDbEntity
  8
0
100
AcDbSpline
 62
7
  6
CONTINUOUS
 70
0
 71
3
 72
9
 73
5
 74
0
 42
0.0000001
 43
0.0000001
 44
0.0000000001
 40
0.0
 40
0.0
 40
0.0
 40
0.0
 40
0.4787874828
 40
1.0
 40
1.0
 40
1.0
 40
1.0
 10
47.9748941504
 20
227.5372969396
 30
0.0
 10
47.7269907785
 20
229.0694931534
 30
0.0
 10
47.5030851856
 20
232.3199778819
 30
0.0
 10
47.7536563509
 20
235.5623689523
 30
0.0
 10
47.9848311349
 20
237.2361338212
 30
0.0
  0
SPLINE
  5
37B
100
AcDbEntity
  8
0
100
AcDbSpline
 62
7
  6
CONTINUOUS
 70
0
 71
3
 72
9
 73
5
 74
0
 42
0.0000001
 43
0.0000001
 44
0.0000000001
 40
0.0
 40
0.0
 40
0.0
 40
0.0
 40
0.3070452222
 40
1.0
 40
1.0
 40
1.0
 40
1.0
 10
110.183407709
 20
277.4717815397
 30
0.0
 10
110.1823478128
 20
277.4840411685
 30
0.0
 10
110.1803451291
 20
277.5223957432
 30
0.0
 10
110.1892431222
 20
277.5722239132
 30
0.0
 10
110.2134135879
 20
277.5859000241
 30
0.0
  0
SPLINE
  5
37C
100
AcDbEntity
  8
0
100
AcDbSpline
 62
7
  6
CONTINUOUS
 70
0
 71
3
 72
9
 73
5
 74
0
 42
0.0000001
 43
0.0000001
 44
0.0000000001
 40
0.0
 40
0.0
 40
0.0
 40
0.0
 40
0.2150866958
 40
1.0
 40
1.0
 40
1.0
 40
1.0
 10
110.2134135879
 20
277.5859000241
 30
0.0
 10
110.2166495762
 20
277.587731008
 30
0.0
 10
110.2328473242
 20
277.5943033501
 30
0.0
 10
110.2513520271
 20
277.5921711017
 30
0.0
 10
110.2643922709
 20
277.5884224922
 30
0.0
  0
SPLINE
  5
37D
100
AcDbEntity
  8
0
100
AcDbSpline
 62
7
  6
CONTINUOUS
 70
0
 71
3
 72
8
 73
4
 74
0
 42
0.0000001
 43
0.0000001
 44
0.0000000001
 40
0.0
 40
0.0
 40
0.0
 40
0.0
 40
1.0
 40
1.0
 40
1.0
 40
1.0
 10
79.0426213994
 20
198.5121271331
 30
0.0
 10
79.0530384165
 20
198.5024380438
 30
0.0
 10
79.0647519756
 20
198.4939704081
 30
0.0
 10
79.0772618269
 20
198.487195726
 30
0.0
  0
SPLINE
  5
37E
100
AcDbEntity
  8
0
100
AcDbSpline
 62
7
  6
CONTINUOUS
 70
0
 71
3
 72
9
 73
5
 74
0
 42
0.0000001
 43
0.0000001
 44
0.0000000001
 40
0.0
 40
0.0
 40
0.0
 40
0.0
 40
0.254578277
 40
1.0
 40
1.0
 40
1.0
 40
1.0
 10
76.2692201407
 20
220.9065036404
 30
0.0
 10
76.2293175262
 20
220.6175984525
 30
0.0
 10
76.0845322596
 20
219.4811575902
 30
0.0
 10
75.988183288
 20
218.3384158483
 30
0.0
 10
75.9467697294
 20
217.4854570011
 30
0.0
  0
SPLINE
  5
37F
100
AcDbEntity
  8
0
100
AcDbSpline
 62
7
  6
CONTINUOUS
 70
0
 71
3
 72
12
 73
8
 74
0
 42
0.0000001
 43
0.0000001
 44
0.0000000001
 40
0.0
 40
0.0
 40
0.0
 40
0.0
 40
0.1315346401
 40
0.2592230793
 40
0.508170474
 40
0.7541281837
 40
1.0
 40
1.0
 40
1.0
 40
1.0
 10
108.1792926823
 20
264.6603830425
 30
0.0
 10
108.462419299
 20
265.1628788764
 30
0.0
 10
108.9592366848
 20
266.1889434117
 30
0.0
 10
109.6971379129
 20
268.2954060775
 30
0.0
 10
110.2176898271
 20
270.9901119274
 30
0.0
 10
110.3842081174
 20
274.2405798575
 30
0.0
 10
110.2762700678
 20
276.3976593274
 30
0.0
 10
110.183407709
 20
277.4717815397
 30
0.0
  0
SPLINE
  5
380
100
AcDbEntity
  8
0
100
AcDbSpline
 62
7
  6
CONTINUOUS
 70
0
 71
3
 72
8
 73
4
 74
0
 42
0.0000001
 43
0.0000001
 44
0.0000000001
 40
0.0
 40
0.0
 40
0.0
 40
0.0
 40
1.0
 40
1.0
 40
1.0
 40
1.0
 10
70.5951554834
 20
254.6855153077
 30
0.0
 10
75.0780656795
 20
251.5973475535
 30
0.0
 10
79.5608799704
 20
248.5090405655
 30
0.0
 10
84.0435219946
 20
245.4204835583
 30
0.0
  0
SPLINE
  5
381
100
AcDbEntity
  8
0
100
AcDbSpline
 62
7
  6
CONTINUOUS
 70
0
 71
3
 72
11
 73
7
 74
0
 42
0.0000001
 43
0.0000001
 44
0.0000000001
 40
0.0
 40
0.0
 40
0.0
 40
0.0
 40
0.2467377961
 40
0.4970976394
 40
0.7485211801
 40
1.0
 40
1.0
 40
1.0
 40
1.0
 10
93.1294383979
 20
255.9713974864
 30
0.0
 10
91.3303212743
 20
255.6334989646
 30
0.0
 10
87.6688146211
 20
255.1464780769
 30
0.0
 10
82.1244837567
 20
254.793602924
 30
0.0
 10
76.5352276132
 20
254.6987258033
 30
0.0
 10
72.8041180282
 20
254.7604966104
 30
0.0
 10
70.9391447436
 20
254.8142309999
 30
0.0
  0
SPLINE
  5
382
100
AcDbEntity
  8
0
100
AcDbSpline
 62
7
  6
CONTINUOUS
 70
0
 71
3
 72
10
 73
6
 74
0
 42
0.0000001
 43
0.0000001
 44
0.0000000001
 40
0.0
 40
0.0
 40
0.0
 40
0.0
 40
0.5165032546
 40
0.7645315954
 40
1.0
 40
1.0
 40
1.0
 40
1.0
 10
70.5951554834
 20
254.6855153077
 30
0.0
 10
70.5080340644
 20
254.6935650285
 30
0.0
 10
70.3780124888
 20
254.700041187
 30
0.0
 10
70.2092802205
 20
254.6850671523
 30
0.0
 10
70.1286794992
 20
254.6646788334
 30
0.0
 10
70.0926413651
 20
254.6475844189
 30
0.0
  0
SPLINE
  5
383
100
AcDbEntity
  8
0
100
AcDbSpline
 62
7
  6
CONTINUOUS
 70
0
 71
3
 72
9
 73
5
 74
0
 42
0.0000001
 43
0.0000001
 44
0.0000000001
 40
0.0
 40
0.0
 40
0.0
 40
0.0
 40
0.4972041859
 40
1.0
 40
1.0
 40
1.0
 40
1.0
 10
70.5951564869
 20
254.6855152439
 30
0.0
 10
70.6312235281
 20
254.7367868414
 30
0.0
 10
70.7484591418
 20
254.8076370215
 30
0.0
 10
70.8757794707
 20
254.8160567066
 30
0.0
 10
70.9391447436
 20
254.8142309999
 30
0.0
  0
SPLINE
  5
384
100
AcDbEntity
  8
0
100
AcDbSpline
 62
7
  6
CONTINUOUS
 70
0
 71
3
 72
9
 73
5
 74
0
 42
0.0000001
 43
0.0000001
 44
0.0000000001
 40
0.0
 40
0.0
 40
0.0
 40
0.0
 40
0.2627500549
 40
1.0
 40
1.0
 40
1.0
 40
1.0
 10
70.0926413651
 20
254.6475844189
 30
0.0
 10
70.0892867386
 20
254.6348037224
 30
0.0
 10
70.0778819072
 20
254.5858323168
 30
0.0
 10
70.0720362616
 20
254.5354290982
 30
0.0
 10
70.0720362616
 20
254.4983530269
 30
0.0
  0
SPLINE
  5
385
100
AcDbEntity
  8
0
100
AcDbSpline
 62
7
  6
CONTINUOUS
 70
0
 71
3
 72
9
 73
5
 74
0
 42
0.0000001
 43
0.0000001
 44
0.0000000001
 40
0.0
 40
0.0
 40
0.0
 40
0.0
 40
0.2608427578
 40
1.0
 40
1.0
 40
1.0
 40
1.0
 10
70.0720362616
 20
248.1961634095
 30
0.0
 10
70.0754070855
 20
248.2118576624
 30
0.0
 10
70.086917716
 20
248.2723074088
 30
0.0
 10
70.0926413651
 20
248.3339538684
 30
0.0
 10
70.0926413651
 20
248.379441329
 30
0.0
  0
SPLINE
  5
386
100
AcDbEntity
  8
0
100
AcDbSpline
 62
7
  6
CONTINUOUS
 70
0
 71
3
 72
21
 73
17
 74
0
 42
0.0000001
 43
0.0000001
 44
0.0000000001
 40
0.0
 40
0.0
 40
0.0
 40
0.0
 40
0.0166739887
 40
0.0331120645
 40
0.0654155477
 40
0.0972835575
 40
0.1289082376
 40
0.1917536731
 40
0.2543026876
 40
0.3166882397
 40
0.3789733217
 40
0.5033641116
 40
0.6276159224
 40
0.7517882525
 40
0.8759107828
 40
1.0
 40
1.0
 40
1.0
 40
1.0
 10
70.0720362616
 20
248.1961634095
 30
0.0
 10
70.1100401462
 20
248.12343015
 30
0.0
 10
70.2006500792
 20
247.9871461857
 30
0.0
 10
70.3987757953
 20
247.7334448989
 30
0.0
 10
70.6615543402
 20
247.4357894651
 30
0.0
 10
70.9842928443
 20
247.0921316483
 30
0.0
 10
71.4179885124
 20
246.6465053609
 30
0.0
 10
71.9654572262
 20
246.1010515411
 30
0.0
 10
72.6262869537
 20
245.4549570977
 30
0.0
 10
73.2886310753
 20
244.8143810886
 30
0.0
 10
74.1726049188
 20
243.9651685255
 30
0.0
 10
75.2796228528
 20
242.9086323972
 30
0.0
 10
76.6097347628
 20
241.644697647
 30
0.0
 10
77.9405296599
 20
240.3834005657
 30
0.0
 10
79.2717734741
 20
239.12374176
 30
0.0
 10
80.1595758407
 20
238.2846106721
 30
0.0
 10
80.603499156
 20
237.8651879443
 30
0.0
  0
SPLINE
  5
387
100
AcDbEntity
  8
0
100
AcDbSpline
 62
7
  6
CONTINUOUS
 70
0
 71
3
 72
8
 73
4
 74
0
 42
0.0000001
 43
0.0000001
 44
0.0000000001
 40
0.0
 40
0.0
 40
0.0
 40
0.0
 40
1.0
 40
1.0
 40
1.0
 40
1.0
 10
78.2058441556
 20
199.3612772622
 30
0.0
 10
74.9907925163
 20
200.6728549282
 30
0.0
 10
71.7760076916
 20
201.9850868011
 30
0.0
 10
68.5614743195
 20
203.2979341711
 30
0.0
  0
SPLINE
  5
388
100
AcDbEntity
  8
0
100
AcDbSpline
 62
7
  6
CONTINUOUS
 70
0
 71
3
 72
9
 73
5
 74
0
 42
0.0000001
 43
0.0000001
 44
0.0000000001
 40
0.0
 40
0.0
 40
0.0
 40
0.0
 40
0.2558758255
 40
1.0
 40
1.0
 40
1.0
 40
1.0
 10
80.6786821388
 20
237.7941559573
 30
0.0
 10
80.6355796261
 20
237.7625001248
 30
0.0
 10
80.4655541859
 20
237.6409526869
 30
0.0
 10
80.2891374475
 20
237.528268036
 30
0.0
 10
80.1544508899
 20
237.4505071799
 30
0.0
  0
SPLINE
  5
389
100
AcDbEntity
  8
0
100
AcDbSpline
 62
7
  6
CONTINUOUS
 70
0
 71
3
 72
9
 73
5
 74
0
 42
0.0000001
 43
0.0000001
 44
0.0000000001
 40
0.0
 40
0.0
 40
0.0
 40
0.0
 40
0.2394442502
 40
1.0
 40
1.0
 40
1.0
 40
1.0
 10
84.0435219946
 20
244.1866133204
 30
0.0
 10
84.0435219946
 20
244.0895316806
 30
0.0
 10
84.0320526145
 20
243.6841130519
 30
0.0
 10
83.9776543747
 20
243.2803630435
 30
0.0
 10
83.9171177508
 20
242.9779995104
 30
0.0
  0
SPLINE
  5
38A
100
AcDbEntity
  8
0
100
AcDbSpline
 62
7
  6
CONTINUOUS
 70
0
 71
3
 72
9
 73
5
 74
0
 42
0.0000001
 43
0.0000001
 44
0.0000000001
 40
0.0
 40
0.0
 40
0.0
 40
0.0
 40
0.2457672944
 40
1.0
 40
1.0
 40
1.0
 40
1.0
 10
83.9171177508
 20
242.9779995104
 30
0.0
 10
83.9048640382
 20
242.9167956373
 30
0.0
 10
83.8517649755
 20
242.6684198085
 30
0.0
 10
83.7860494664
 20
242.4227713537
 30
0.0
 10
83.7301337451
 20
242.2395585749
 30
0.0
  0
SPLINE
  5
38B
100
AcDbEntity
  8
0
100
AcDbSpline
 62
7
  6
CONTINUOUS
 70
0
 71
3
 72
9
 73
5
 74
0
 42
0.0000001
 43
0.0000001
 44
0.0000000001
 40
0.0
 40
0.0
 40
0.0
 40
0.0
 40
0.2449764273
 40
1.0
 40
1.0
 40
1.0
 40
1.0
 10
83.7301337451
 20
242.2395585749
 30
0.0
 10
83.6831140103
 20
242.0854942786
 30
0.0
 10
83.47272801
 20
241.4623333296
 30
0.0
 10
83.1927489763
 20
240.8630480908
 30
0.0
 10
82.9485650615
 20
240.4307999352
 30
0.0
  0
SPLINE
  5
38C
100
AcDbEntity
  8
0
100
AcDbSpline
 62
7
  6
CONTINUOUS
 70
0
 71
3
 72
9
 73
5
 74
0
 42
0.0000001
 43
0.0000001
 44
0.0000000001
 40
0.0
 40
0.0
 40
0.0
 40
0.0
 40
0.2551869134
 40
1.0
 40
1.0
 40
1.0
 40
1.0
 10
81.2138052899
 20
238.2319787074
 30
0.0
 10
81.1701692297
 20
238.1925264124
 30
0.0
 10
80.9973308264
 20
238.0399820227
 30
0.0
 10
80.8170673578
 20
237.8957903873
 30
0.0
 10
80.6786821388
 20
237.7941559573
 30
0.0
  0
SPLINE
  5
38D
100
AcDbEntity
  8
0
100
AcDbSpline
 62
7
  6
CONTINUOUS
 70
0
 71
3
 72
9
 73
5
 74
0
 42
0.0000001
 43
0.0000001
 44
0.0000000001
 40
0.0
 40
0.0
 40
0.0
 40
0.0
 40
0.2446736887
 40
1.0
 40
1.0
 40
1.0
 40
1.0
 10
93.1294383979
 20
255.9713974864
 30
0.0
 10
92.679302386
 20
255.5620148769
 30
0.0
 10
90.8692703314
 20
253.8563472185
 30
0.0
 10
89.1764991108
 20
252.0271592192
 30
0.0
 10
87.9655060158
 20
250.5913061751
 30
0.0
  0
LINE
  5
38E
100
AcDbEntity
  8
0
100
AcDbLine
 62
7
  6
CONTINUOUS
 10
87.9655060158
 20
250.5913061751
 11
87.8904835204
 21
250.5021806492
  0
LINE
  5
38F
100
AcDbEntity
  8
0
100
AcDbLine
 62
7
  6
CONTINUOUS
 10
117.2102749877
 20
264.6179269379
 11
117.2088616206
 21
264.618361132
  0
SPLINE
  5
390
100
AcDbEntity
  8
0
100
AcDbSpline
 62
7
  6
CONTINUOUS
 70
0
 71
3
 72
9
 73
5
 74
0
 42
0.0000001
 43
0.0000001
 44
0.0000000001
 40
0.0
 40
0.0
 40
0.0
 40
0.0
 40
0.2399843562
 40
1.0
 40
1.0
 40
1.0
 40
1.0
 10
113.3432250644
 20
265.2430516401
 30
0.0
 10
112.9269773062
 20
265.2559505862
 30
0.0
 10
111.1905783165
 20
265.2434877114
 30
0.0
 10
109.4602033493
 20
264.9744999942
 30
0.0
 10
108.1792926823
 20
264.6603830425
 30
0.0
  0
SPLINE
  5
391
100
AcDbEntity
  8
0
100
AcDbSpline
 62
7
  6
CONTINUOUS
 70
0
 71
3
 72
14
 73
10
 74
0
 42
0.0000001
 43
0.0000001
 44
0.0000000001
 40
0.0
 40
0.0
 40
0.0
 40
0.0
 40
0.2892799713
 40
0.4225377465
 40
0.5484975384
 40
0.6678947397
 40
0.7818683892
 40
0.8919527711
 40
1.0
 40
1.0
 40
1.0
 40
1.0
 10
269.2998583497
 20
157.2344281294
 30
0.0
 10
269.2998583497
 20
158.755049479
 30
0.0
 10
269.1223311675
 20
160.9870709618
 30
0.0
 10
268.4361328051
 20
163.7925092795
 30
0.0
 10
267.7380313404
 20
165.6619312925
 30
0.0
 10
266.8482377607
 20
167.3348360386
 30
0.0
 10
265.773588464
 20
168.7944019511
 30
0.0
 10
264.5240390487
 20
170.0241415301
 30
0.0
 10
263.5783373525
 20
170.6840030258
 30
0.0
 10
263.0864680141
 20
170.9679766802
 30
0.0
  0
SPLINE
  5
392
100
AcDbEntity
  8
0
100
AcDbSpline
 62
7
  6
CONTINUOUS
 70
0
 71
3
 72
23
 73
19
 74
0
 42
0.0000001
 43
0.0000001
 44
0.0000000001
 40
0.0
 40
0.0
 40
0.0
 40
0.0
 40
0.0623942916
 40
0.1287432136
 40
0.1983474925
 40
0.2703353399
 40
0.3437244795
 40
0.4174680422
 40
0.4905040705
 40
0.561801867
 40
0.6304100206
 40
0.695508085
 40
0.7564655936
 40
0.8129121514
 40
0.8648212723
 40
0.9126039886
 40
0.9571857717
 40
1.0
 40
1.0
 40
1.0
 40
1.0
 10
229.7020434657
 20
134.3727555126
 30
0.0
 10
229.7020434657
 20
135.4514101722
 30
0.0
 10
229.8481634995
 20
137.6785730094
 30
0.0
 10
230.4494866418
 20
141.0602163865
 30
0.0
 10
231.4270657125
 20
144.5253015884
 30
0.0
 10
232.7600644725
 20
147.9997410316
 30
0.0
 10
234.4200597554
 20
151.4098828041
 30
0.0
 10
236.3716711229
 20
154.6829638935
 30
0.0
 10
238.5732550195
 20
157.7491726645
 30
0.0
 10
240.9779160472
 20
160.5431620357
 30
0.0
 10
243.5346382283
 20
163.0055395412
 30
0.0
 10
246.1896174696
 20
165.0841103769
 30
0.0
 10
248.8877259211
 20
166.7348286897
 30
0.0
 10
251.5741577058
 20
167.9221397863
 30
0.0
 10
254.1954371144
 20
168.6186176722
 30
0.0
 10
256.7000912439
 20
168.8030131376
 30
0.0
 10
259.0325245064
 20
168.4612014522
 30
0.0
 10
260.4455024563
 20
167.8739320428
 30
0.0
 10
261.0865045028
 20
167.5038598981
 30
0.0
  0
SPLINE
  5
393
100
AcDbEntity
  8
0
100
AcDbSpline
 62
7
  6
CONTINUOUS
 70
0
 71
3
 72
11
 73
7
 74
0
 42
0.0000001
 43
0.0000001
 44
0.0000000001
 40
0.0
 40
0.0
 40
0.0
 40
0.0
 40
0.289777178
 40
0.5490714024
 40
0.7822268829
 40
1.0
 40
1.0
 40
1.0
 40
1.0
 10
270.3604993857
 20
184.383079145
 30
0.0
 10
270.3604993857
 20
184.5858050777
 30
0.0
 10
270.3298467096
 20
184.9712499407
 30
0.0
 10
270.1736375493
 20
185.5007998801
 30
0.0
 10
269.9108856483
 20
185.9305054435
 30
0.0
 10
269.6639772224
 20
186.1380233428
 30
0.0
 10
269.5320354014
 20
186.2141982723
 30
0.0
  0
SPLINE
  5
394
100
AcDbEntity
  8
0
100
AcDbSpline
 62
7
  6
CONTINUOUS
 70
0
 71
3
 72
9
 73
5
 74
0
 42
0.0000001
 43
0.0000001
 44
0.0000000001
 40
0.0
 40
0.0
 40
0.0
 40
0.0
 40
0.5213658848
 40
1.0
 40
1.0
 40
1.0
 40
1.0
 10
270.7047332056
 20
155.2109852781
 30
0.0
 10
270.9370586053
 20
156.8944299511
 30
0.0
 10
271.1875241718
 20
160.1548082177
 30
0.0
 10
270.9574690947
 20
163.4230047326
 30
0.0
 10
270.7047332056
 20
164.9625125887
 30
0.0
  0
SPLINE
  5
395
100
AcDbEntity
  8
0
100
AcDbSpline
 62
7
  6
CONTINUOUS
 70
0
 71
3
 72
13
 73
9
 74
0
 42
0.0000001
 43
0.0000001
 44
0.0000000001
 40
0.0
 40
0.0
 40
0.0
 40
0.0
 40
0.3063250776
 40
0.5828024889
 40
0.7037040493
 40
0.8118590585
 40
0.9091435183
 40
1.0
 40
1.0
 40
1.0
 40
1.0
 10
226.1940527089
 20
114.3255837026
 30
0.0
 10
226.3706165481
 20
114.6314029404
 30
0.0
 10
226.7710050119
 20
115.1782804022
 30
0.0
 10
227.4007013203
 20
115.7088861261
 30
0.0
 10
227.9296663837
 20
115.9610217917
 30
0.0
 10
228.2987574125
 20
116.0499700096
 30
0.0
 10
228.6448640602
 20
116.0413206335
 30
0.0
 10
228.8533107471
 20
115.9656489357
 30
0.0
 10
228.9440156313
 20
115.9132771238
 30
0.0
  0
SPLINE
  5
396
100
AcDbEntity
  8
0
100
AcDbSpline
 62
7
  6
CONTINUOUS
 70
0
 71
3
 72
19
 73
15
 74
0
 42
0.0000001
 43
0.0000001
 44
0.0000000001
 40
0.0
 40
0.0
 40
0.0
 40
0.0
 40
0.0454155331
 40
0.0940785971
 40
0.1481522923
 40
0.2086060578
 40
0.3468514499
 40
0.4999930679
 40
0.6531346863
 40
0.7913848153
 40
0.8518424219
 40
0.9059189384
 40
0.9545841771
 40
1.0
 40
1.0
 40
1.0
 40
1.0
 10
224.4440599949
 20
155.4621018776
 30
0.0
 10
224.3533788623
 20
155.5144581508
 30
0.0
 10
224.1836538355
 20
155.6571943733
 30
0.0
 10
224.0029767224
 20
155.9525436868
 30
0.0
 10
223.8955749528
 20
156.3167595724
 30
0.0
 10
223.8493675742
 20
156.900899374
 30
0.0
 10
223.994271708
 20
157.7117559137
 30
0.0
 10
224.4106532869
 20
158.6567637322
 30
0.0
 10
225.0208435518
 20
159.4898936097
 30
0.0
 10
225.6506150241
 20
160.0208412985
 30
0.0
 10
226.179614273
 20
160.2729242616
 30
0.0
 10
226.5487554434
 20
160.3620264504
 30
0.0
 10
226.8948867374
 20
160.3532288255
 30
0.0
 10
227.1033668344
 20
160.2776048156
 30
0.0
 10
227.1940485455
 20
160.2252482083
 30
0.0
  0
SPLINE
  5
397
100
AcDbEntity
  8
0
100
AcDbSpline
 62
7
  6
CONTINUOUS
 70
0
 71
3
 72
13
 73
9
 74
0
 42
0.0000001
 43
0.0000001
 44
0.0000000001
 40
0.0
 40
0.0
 40
0.0
 40
0.0
 40
0.3063250776
 40
0.5828024889
 40
0.7037040493
 40
0.8118590585
 40
0.9091435183
 40
1.0
 40
1.0
 40
1.0
 40
1.0
 10
265.4438892953
 20
182.3086722414
 30
0.0
 10
265.6204531344
 20
182.6144914792
 30
0.0
 10
266.0208415983
 20
183.161368941
 30
0.0
 10
266.6505379066
 20
183.6919746649
 30
0.0
 10
267.17950297
 20
183.9441103305
 30
0.0
 10
267.5485939988
 20
184.0330585484
 30
0.0
 10
267.8947006465
 20
184.0244091723
 30
0.0
 10
268.1031473334
 20
183.9487374745
 30
0.0
 10
268.1938522176
 20
183.8963656626
 30
0.0
  0
SPLINE
  5
398
100
AcDbEntity
  8
0
100
AcDbSpline
 62
7
  6
CONTINUOUS
 70
0
 71
3
 72
13
 73
9
 74
0
 42
0.0000001
 43
0.0000001
 44
0.0000000001
 40
0.0
 40
0.0
 40
0.0
 40
0.0
 40
0.0908531688
 40
0.1881342974
 40
0.2962871864
 40
0.4171896577
 40
0.6936745752
 40
1.0
 40
1.0
 40
1.0
 40
1.0
 10
224.4440856232
 20
108.1190451365
 30
0.0
 10
224.3533822469
 20
108.1714160777
 30
0.0
 10
224.1836161386
 20
108.3140809726
 30
0.0
 10
224.0030729874
 20
108.6094937998
 30
0.0
 10
223.8955522246
 20
108.9736086463
 30
0.0
 10
223.8494065943
 20
109.557791782
 30
0.0
 10
223.9940738829
 20
110.3684565289
 30
0.0
 10
224.2674924527
 20
110.9886649313
 30
0.0
 10
224.4440599949
 20
111.294490583
 30
0.0
  0
SPLINE
  5
399
100
AcDbEntity
  8
0
100
AcDbSpline
 62
7
  6
CONTINUOUS
 70
0
 71
3
 72
11
 73
7
 74
0
 42
0.0000001
 43
0.0000001
 44
0.0000000001
 40
0.0
 40
0.0
 40
0.0
 40
0.0
 40
0.2177731171
 40
0.4509285976
 40
0.710222822
 40
1.0
 40
1.0
 40
1.0
 40
1.0
 10
217.0954697756
 20
108.454756523
 30
0.0
 10
216.9635279547
 20
108.5309314525
 30
0.0
 10
216.7166195287
 20
108.7384493518
 30
0.0
 10
216.4538676277
 20
109.1681549152
 30
0.0
 10
216.2976584674
 20
109.6977048546
 30
0.0
 10
216.2670057914
 20
110.0831497177
 30
0.0
 10
216.2670057914
 20
110.2858756503
 30
0.0
  0
SPLINE
  5
39A
100
AcDbEntity
  8
0
100
AcDbSpline
 62
7
  6
CONTINUOUS
 70
0
 71
3
 72
11
 73
7
 74
0
 42
0.0000001
 43
0.0000001
 44
0.0000000001
 40
0.0
 40
0.0
 40
0.0
 40
0.0
 40
0.2177745347
 40
0.4509306045
 40
0.7102242968
 40
1.0
 40
1.0
 40
1.0
 40
1.0
 10
223.1059024394
 20
104.9847101096
 30
0.0
 10
223.2378398924
 20
104.9085377019
 30
0.0
 10
223.5410002998
 20
104.7984758344
 30
0.0
 10
224.0444930167
 20
104.7857813747
 30
0.0
 10
224.5811789801
 20
104.9152697369
 30
0.0
 10
224.9302955829
 20
105.0814382026
 30
0.0
 10
225.105853804
 20
105.1827961838
 30
0.0
  0
SPLINE
  5
39B
100
AcDbEntity
  8
0
100
AcDbSpline
 62
7
  6
CONTINUOUS
 70
0
 71
3
 72
11
 73
7
 74
0
 42
0.0000001
 43
0.0000001
 44
0.0000000001
 40
0.0
 40
0.0
 40
0.0
 40
0.0
 40
0.2372297508
 40
0.500001618
 40
0.7627726046
 40
1.0
 40
1.0
 40
1.0
 40
1.0
 10
216.2670057914
 20
160.0925230952
 30
0.0
 10
216.2670057914
 20
160.556180766
 30
0.0
 10
216.4409069742
 20
161.5340504225
 30
0.0
 10
217.047092227
 20
162.9081338138
 30
0.0
 10
217.9339816616
 20
164.1201482366
 30
0.0
 10
218.6938852063
 20
164.7596838835
 30
0.0
 10
219.0954211402
 20
164.9915093792
 30
0.0
  0
SPLINE
  5
39C
100
AcDbEntity
  8
0
100
AcDbSpline
 62
7
  6
CONTINUOUS
 70
0
 71
3
 72
9
 73
5
 74
0
 42
0.0000001
 43
0.0000001
 44
0.0000000001
 40
0.0
 40
0.0
 40
0.0
 40
0.0
 40
0.507844654
 40
1.0
 40
1.0
 40
1.0
 40
1.0
 10
244.2416512916
 20
189.715709312
 30
0.0
 10
244.8909732613
 20
189.6922745649
 30
0.0
 10
246.1682793737
 20
189.5693221883
 30
0.0
 10
247.4190319817
 20
189.2795303573
 30
0.0
 10
248.0209944291
 20
189.0947940689
 30
0.0
  0
SPLINE
  5
39D
100
AcDbEntity
  8
0
100
AcDbSpline
 62
7
  6
CONTINUOUS
 70
0
 71
3
 72
9
 73
5
 74
0
 42
0.0000001
 43
0.0000001
 44
0.0000000001
 40
0.0
 40
0.0
 40
0.0
 40
0.0
 40
0.2521101897
 40
1.0
 40
1.0
 40
1.0
 40
1.0
 10
214.9183349555
 20
169.9830787924
 30
0.0
 10
215.2152505377
 20
170.4170457679
 30
0.0
 10
216.4136413081
 20
172.124129259
 30
0.0
 10
217.6945448045
 20
173.7734617192
 30
0.0
 10
218.6976780931
 20
174.9679775417
 30
0.0
  0
SPLINE
  5
39E
100
AcDbEntity
  8
0
100
AcDbSpline
 62
7
  6
CONTINUOUS
 70
0
 71
3
 72
13
 73
9
 74
0
 42
0.0000001
 43
0.0000001
 44
0.0000000001
 40
0.0
 40
0.0
 40
0.0
 40
0.0
 40
0.0908531688
 40
0.1881342974
 40
0.2962871864
 40
0.4171896577
 40
0.6936745752
 40
1.0
 40
1.0
 40
1.0
 40
1.0
 10
263.6939222095
 20
176.1021336753
 30
0.0
 10
263.6032188332
 20
176.1545046165
 30
0.0
 10
263.4334527249
 20
176.2971695114
 30
0.0
 10
263.2529095737
 20
176.5925823386
 30
0.0
 10
263.1453888109
 20
176.9566971851
 30
0.0
 10
263.0992431806
 20
177.5408803208
 30
0.0
 10
263.2439104692
 20
178.3515450677
 30
0.0
 10
263.517329039
 20
178.9717534701
 30
0.0
 10
263.6938965812
 20
179.2775791218
 30
0.0
  0
SPLINE
  5
39F
100
AcDbEntity
  8
0
100
AcDbSpline
 62
7
  6
CONTINUOUS
 70
0
 71
3
 72
13
 73
9
 74
0
 42
0.0000001
 43
0.0000001
 44
0.0000000001
 40
0.0
 40
0.0
 40
0.0
 40
0.0
 40
0.3036258362
 40
0.5828973073
 40
0.7052735088
 40
0.8139615425
 40
0.9106849882
 40
1.0
 40
1.0
 40
1.0
 40
1.0
 10
209.8554954335
 20
161.2139348313
 30
0.0
 10
209.8858769732
 20
161.2772886205
 30
0.0
 10
209.9591086756
 20
161.392205116
 30
0.0
 10
210.0795802325
 20
161.5060212057
 30
0.0
 10
210.1838240171
 20
161.562916596
 30
0.0
 10
210.2572910387
 20
161.5845852414
 30
0.0
 10
210.3265255445
 20
161.5855133307
 30
0.0
 10
210.3682838879
 20
161.5711178973
 30
0.0
 10
210.3861927305
 20
161.5608002325
 30
0.0
  0
SPLINE
  5
3A0
100
AcDbEntity
  8
0
100
AcDbSpline
 62
7
  6
CONTINUOUS
 70
0
 71
3
 72
9
 73
5
 74
0
 42
0.0000001
 43
0.0000001
 44
0.0000000001
 40
0.0
 40
0.0
 40
0.0
 40
0.0
 40
0.4786341152
 40
1.0
 40
1.0
 40
1.0
 40
1.0
 10
207.0839004072
 20
135.6259540552
 30
0.0
 10
206.831164518
 20
137.1654619114
 30
0.0
 10
206.6011094409
 20
140.4336584263
 30
0.0
 10
206.8515750074
 20
143.6940366929
 30
0.0
 10
207.0839004072
 20
145.3774813659
 30
0.0
  0
SPLINE
  5
3A1
100
AcDbEntity
  8
0
100
AcDbSpline
 62
7
  6
CONTINUOUS
 70
0
 71
3
 72
21
 73
17
 74
0
 42
0.0000001
 43
0.0000001
 44
0.0000000001
 40
0.0
 40
0.0
 40
0.0
 40
0.0
 40
0.0452712636
 40
0.0937007999
 40
0.1474688947
 40
0.2075027481
 40
0.2736727162
 40
0.3450819334
 40
0.4973462346
 40
0.6502266916
 40
0.7223566249
 40
0.7894467055
 40
0.8505023183
 40
0.9052469939
 40
0.9544301491
 40
1.0
 40
1.0
 40
1.0
 40
1.0
 10
210.4759701135
 20
161.5056744889
 30
0.0
 10
210.623186714
 20
161.4216726374
 30
0.0
 10
210.9604291354
 20
161.3001158416
 30
0.0
 10
211.519747362
 20
161.2853891086
 30
0.0
 10
212.1160361135
 20
161.4268660846
 30
0.0
 10
212.7293556289
 20
161.7148628413
 30
0.0
 10
213.3401076922
 20
162.137544641
 30
0.0
 10
214.1394295391
 20
162.8756808543
 30
0.0
 10
214.9886884681
 20
164.017360606
 30
0.0
 10
215.576594517
 20
165.3157917107
 30
0.0
 10
215.8401193129
 20
166.380005182
 30
0.0
 10
215.9195926619
 20
167.1284078186
 30
0.0
 10
215.8813651178
 20
167.8156469616
 30
0.0
 10
215.7247589985
 20
168.4184913653
 30
0.0
 10
215.4510061306
 20
168.9146467063
 30
0.0
 10
215.1874136439
 20
169.1631889248
 30
0.0
 10
215.0449321874
 20
169.2570414073
 30
0.0
  0
SPLINE
  5
3A2
100
AcDbEntity
  8
0
100
AcDbSpline
 62
7
  6
CONTINUOUS
 70
0
 71
3
 72
13
 73
9
 74
0
 42
0.0000001
 43
0.0000001
 44
0.0000000001
 40
0.0
 40
0.0
 40
0.0
 40
0.0
 40
0.0893148173
 40
0.18603838
 40
0.2947267022
 40
0.4171032701
 40
0.6963752391
 40
1.0
 40
1.0
 40
1.0
 40
1.0
 10
214.8832945696
 20
169.3500375526
 30
0.0
 10
214.8654042978
 20
169.3603880465
 30
0.0
 10
214.8320572818
 20
169.3893541709
 30
0.0
 10
214.7982423482
 20
169.4497777721
 30
0.0
 10
214.7802733942
 20
169.5242377914
 30
0.0
 10
214.7774232593
 20
169.6429656519
 30
0.0
 10
214.8157544294
 20
169.8042083533
 30
0.0
 10
214.8786594211
 20
169.9250896781
 30
0.0
 10
214.9183349555
 20
169.9830787924
 30
0.0
  0
SPLINE
  5
3A3
100
AcDbEntity
  8
0
100
AcDbSpline
 62
7
  6
CONTINUOUS
 70
0
 71
3
 72
17
 73
13
 74
0
 42
0.0000001
 43
0.0000001
 44
0.0000000001
 40
0.0
 40
0.0
 40
0.0
 40
0.0
 40
0.0470435923
 40
0.0947299195
 40
0.143658513
 40
0.1943529163
 40
0.302471348
 40
0.4214128127
 40
0.5517422449
 40
0.6927861802
 40
0.8429531896
 40
1.0
 40
1.0
 40
1.0
 40
1.0
 10
233.0870184524
 20
119.0062303463
 30
0.0
 10
233.504152768
 20
118.7654038772
 30
0.0
 10
234.3806154664
 20
118.3408174006
 30
0.0
 10
235.7867036445
 20
117.8937132889
 30
0.0
 10
237.2775788686
 20
117.6368327784
 30
0.0
 10
239.4077534675
 20
117.5477841026
 30
0.0
 10
242.2486946457
 20
117.9488318218
 30
0.0
 10
245.7191124759
 20
119.1648577736
 30
0.0
 10
249.2419334524
 20
121.0827358998
 30
0.0
 10
252.7264297976
 20
123.648894802
 30
0.0
 10
256.0820391197
 20
126.7934202128
 30
0.0
 10
258.1402152092
 20
129.1805656329
 30
0.0
 10
259.1295019432
 20
130.4481612115
 30
0.0
  0
SPLINE
  5
3A4
100
AcDbEntity
  8
0
100
AcDbSpline
 62
7
  6
CONTINUOUS
 70
0
 71
3
 72
11
 73
7
 74
0
 42
0.0000001
 43
0.0000001
 44
0.0000000001
 40
0.0
 40
0.0
 40
0.0
 40
0.0
 40
0.2659835856
 40
0.5230452825
 40
0.7684553126
 40
1.0
 40
1.0
 40
1.0
 40
1.0
 10
266.1808554553
 20
142.6481835936
 30
0.0
 10
266.6809183414
 20
143.8805428648
 30
0.0
 10
267.5667434335
 20
146.3450633904
 30
0.0
 10
268.5505229808
 20
150.0646065603
 30
0.0
 10
269.1541037453
 20
153.6904039003
 30
0.0
 10
269.2998583497
 20
156.0766750508
 30
0.0
 10
269.2998583497
 20
157.2344281294
 30
0.0
  0
SPLINE
  5
3A5
100
AcDbEntity
  8
0
100
AcDbSpline
 62
7
  6
CONTINUOUS
 70
0
 71
3
 72
14
 73
10
 74
0
 42
0.0000001
 43
0.0000001
 44
0.0000000001
 40
0.0
 40
0.0
 40
0.0
 40
0.0
 40
0.1080467732
 40
0.2181307248
 40
0.3321041835
 40
0.4515015274
 40
0.5774615197
 40
0.7107196141
 40
1.0
 40
1.0
 40
1.0
 40
1.0
 10
235.0869819637
 20
122.4703471283
 30
0.0
 10
234.6606966938
 20
122.7164560213
 30
0.0
 10
233.8410932874
 20
123.2883355319
 30
0.0
 10
232.758150907
 20
124.3541028214
 30
0.0
 10
231.8267885352
 20
125.6190577729
 30
0.0
 10
231.0556338356
 20
127.0689089373
 30
0.0
 10
230.4506074678
 20
128.6890759477
 30
0.0
 10
229.8559014221
 20
131.1204600876
 30
0.0
 10
229.7020434657
 20
133.0548818367
 30
0.0
 10
229.7020434657
 20
134.3727555126
 30
0.0
  0
SPLINE
  5
3A6
100
AcDbEntity
  8
0
100
AcDbSpline
 62
7
  6
CONTINUOUS
 70
0
 71
3
 72
11
 73
7
 74
0
 42
0.0000001
 43
0.0000001
 44
0.0000000001
 40
0.0
 40
0.0
 40
0.0
 40
0.0
 40
0.2897757032
 40
0.5490693955
 40
0.7822254653
 40
1.0
 40
1.0
 40
1.0
 40
1.0
 10
261.5216513731
 20
189.4861586115
 30
0.0
 10
261.6972095942
 20
189.5875165927
 30
0.0
 10
262.046326197
 20
189.7536850584
 30
0.0
 10
262.5830121603
 20
189.8831734206
 30
0.0
 10
263.0865048773
 20
189.8704789609
 30
0.0
 10
263.3896652847
 20
189.7604170934
 30
0.0
 10
263.5216027377
 20
189.6842446857
 30
0.0
  0
SPLINE
  5
3A7
100
AcDbEntity
  8
0
100
AcDbSpline
 62
7
  6
CONTINUOUS
 70
0
 71
3
 72
14
 73
10
 74
0
 42
0.0000001
 43
0.0000001
 44
0.0000000001
 40
0.0
 40
0.0
 40
0.0
 40
0.0
 40
0.2892799713
 40
0.4225377465
 40
0.5484975384
 40
0.6678947397
 40
0.7818683892
 40
0.8919527711
 40
1.0
 40
1.0
 40
1.0
 40
1.0
 10
226.8736281168
 20
132.7397788971
 30
0.0
 10
226.8736281168
 20
131.2191575474
 30
0.0
 10
227.051155299
 20
128.9871360646
 30
0.0
 10
227.7373536614
 20
126.1816977469
 30
0.0
 10
228.4354551261
 20
124.3122757339
 30
0.0
 10
229.3252487058
 20
122.6393709878
 30
0.0
 10
230.3998980025
 20
121.1798050753
 30
0.0
 10
231.6494474178
 20
119.9500654963
 30
0.0
 10
232.595149114
 20
119.2902040007
 30
0.0
 10
233.0870184524
 20
119.0062303463
 30
0.0
  0
SPLINE
  5
3A8
100
AcDbEntity
  8
0
100
AcDbSpline
 62
7
  6
CONTINUOUS
 70
0
 71
3
 72
11
 73
7
 74
0
 42
0.0000001
 43
0.0000001
 44
0.0000000001
 40
0.0
 40
0.0
 40
0.0
 40
0.0
 40
0.2177745347
 40
0.4509306045
 40
0.7102242968
 40
1.0
 40
1.0
 40
1.0
 40
1.0
 10
269.5320354014
 20
186.2141982723
 30
0.0
 10
269.4000979484
 20
186.29037068
 30
0.0
 10
269.096937541
 20
186.4004325475
 30
0.0
 10
268.5934448241
 20
186.4131270072
 30
0.0
 10
268.0567588607
 20
186.283638645
 30
0.0
 10
267.7076422579
 20
186.1174701793
 30
0.0
 10
267.5320840368
 20
186.0161121981
 30
0.0
  0
SPLINE
  5
3A9
100
AcDbEntity
  8
0
100
AcDbSpline
 62
7
  6
CONTINUOUS
 70
0
 71
3
 72
19
 73
15
 74
0
 42
0.0000001
 43
0.0000001
 44
0.0000000001
 40
0.0
 40
0.0
 40
0.0
 40
0.0
 40
0.0454155331
 40
0.0940785971
 40
0.1481522923
 40
0.2086060578
 40
0.3468514499
 40
0.4999930679
 40
0.6531346863
 40
0.7913848153
 40
0.8518424219
 40
0.9059189384
 40
0.9545841771
 40
1.0
 40
1.0
 40
1.0
 40
1.0
 10
228.9440412596
 20
159.2148605558
 30
0.0
 10
229.0347223922
 20
159.1625042826
 30
0.0
 10
229.204447419
 20
159.0197680602
 30
0.0
 10
229.3851245321
 20
158.7244187466
 30
0.0
 10
229.4925263017
 20
158.360202861
 30
0.0
 10
229.5387336803
 20
157.7760630594
 30
0.0
 10
229.3938295465
 20
156.9652065197
 30
0.0
 10
228.9774479676
 20
156.0201987012
 30
0.0
 10
228.3672577027
 20
155.1870688237
 30
0.0
 10
227.7374862304
 20
154.6561211349
 30
0.0
 10
227.2084869815
 20
154.4040381718
 30
0.0
 10
226.8393458111
 20
154.314935983
 30
0.0
 10
226.4932145171
 20
154.3237336079
 30
0.0
 10
226.2847344201
 20
154.3993576178
 30
0.0
 10
226.1940527089
 20
154.4517142251
 30
0.0
  0
SPLINE
  5
3AA
100
AcDbEntity
  8
0
100
AcDbSpline
 62
7
  6
CONTINUOUS
 70
0
 71
3
 72
12
 73
8
 74
0
 42
0.0000001
 43
0.0000001
 44
0.0000000001
 40
0.0
 40
0.0
 40
0.0
 40
0.0
 40
0.2863488681
 40
0.5458559386
 40
0.7812500618
 40
0.8921589441
 40
1.0
 40
1.0
 40
1.0
 40
1.0
 10
263.9965589628
 20
157.0302941547
 30
0.0
 10
263.9965589628
 20
158.2083340473
 30
0.0
 10
263.8357848093
 20
160.4601114025
 30
0.0
 10
263.032136011
 20
163.5921728446
 30
0.0
 10
261.8830752285
 20
165.8356831505
 30
0.0
 10
260.7082912463
 20
167.2952195095
 30
0.0
 10
260.0470607099
 20
167.9113791082
 30
0.0
 10
259.7006375516
 20
168.1885500402
 30
0.0
  0
SPLINE
  5
3AB
100
AcDbEntity
  8
0
100
AcDbSpline
 62
7
  6
CONTINUOUS
 70
0
 71
3
 72
13
 73
9
 74
0
 42
0.0000001
 43
0.0000001
 44
0.0000000001
 40
0.0
 40
0.0
 40
0.0
 40
0.0
 40
0.3063250776
 40
0.5828024889
 40
0.7037040493
 40
0.8118590585
 40
0.9091435183
 40
1.0
 40
1.0
 40
1.0
 40
1.0
 10
266.4438851318
 20
177.6898270965
 30
0.0
 10
266.2673212927
 20
177.3840078587
 30
0.0
 10
265.8669328288
 20
176.8371303968
 30
0.0
 10
265.2372365205
 20
176.306524673
 30
0.0
 10
264.7082714571
 20
176.0543890073
 30
0.0
 10
264.3391804283
 20
175.9654407894
 30
0.0
 10
263.9930737806
 20
175.9740901655
 30
0.0
 10
263.7846270937
 20
176.0497618633
 30
0.0
 10
263.6939222095
 20
176.1021336753
 30
0.0
  0
SPLINE
  5
3AC
100
AcDbEntity
  8
0
100
AcDbSpline
 62
7
  6
CONTINUOUS
 70
0
 71
3
 72
24
 73
20
 74
0
 42
0.0000001
 43
0.0000001
 44
0.0000000001
 40
0.0
 40
0.0
 40
0.0
 40
0.0
 40
0.0213336781
 40
0.0428958729
 40
0.0874738514
 40
0.1352524973
 40
0.1871572457
 40
0.2435990218
 40
0.3045512917
 40
0.3696437342
 40
0.4382459891
 40
0.5095376091
 40
0.5825672214
 40
0.6563042027
 40
0.729686932
 40
0.8016687369
 40
0.8712672442
 40
0.9376108292
 40
1.0
 40
1.0
 40
1.0
 40
1.0
 10
263.0864680141
 20
170.9679766802
 30
0.0
 10
262.7178966119
 20
171.180766053
 30
0.0
 10
261.9484238737
 20
171.5615694294
 30
0.0
 10
260.295593136
 20
172.133170104
 30
0.0
 10
258.0244178658
 20
172.4675275423
 30
0.0
 10
255.1354739857
 20
172.254075881
 30
0.0
 10
252.1106045597
 20
171.4506536312
 30
0.0
 10
249.0109706186
 20
170.0806152149
 30
0.0
 10
245.8977417258
 20
168.1759594022
 30
0.0
 10
242.834315403
 20
165.7776046352
 30
0.0
 10
239.8842521204
 20
162.9364044539
 30
0.0
 10
237.1096479
 20
159.7125756193
 30
0.0
 10
234.5693645138
 20
156.1746526515
 30
0.0
 10
232.3175097614
 20
152.3980328323
 30
0.0
 10
230.4021304387
 20
148.4632618099
 30
0.0
 10
228.8640511465
 20
144.454292504
 30
0.0
 10
227.7360680116
 20
140.4561073357
 30
0.0
 10
227.0422298753
 20
136.5541979422
 30
0.0
 10
226.8736281168
 20
133.984384385
 30
0.0
 10
226.8736281168
 20
132.7397788971
 30
0.0
  0
SPLINE
  5
3AD
100
AcDbEntity
  8
0
100
AcDbSpline
 62
7
  6
CONTINUOUS
 70
0
 71
3
 72
9
 73
5
 74
0
 42
0.0000001
 43
0.0000001
 44
0.0000000001
 40
0.0
 40
0.0
 40
0.0
 40
0.0
 40
0.4787962473
 40
1.0
 40
1.0
 40
1.0
 40
1.0
 10
266.4714430008
 20
155.6014515139
 30
0.0
 10
266.4714430008
 20
153.8618090681
 30
0.0
 10
266.0899886395
 20
150.2251600665
 30
0.0
 10
265.1296016318
 20
146.706100447
 30
0.0
 10
264.5064965966
 20
144.9178240433
 30
0.0
  0
SPLINE
  5
3AE
100
AcDbEntity
  8
0
100
AcDbSpline
 62
7
  6
CONTINUOUS
 70
0
 71
3
 72
17
 73
13
 74
0
 42
0.0000001
 43
0.0000001
 44
0.0000000001
 40
0.0
 40
0.0
 40
0.0
 40
0.0
 40
0.1570518086
 40
0.3068941644
 40
0.447484647
 40
0.5774216858
 40
0.6961922634
 40
0.8044656374
 40
0.8553641399
 40
0.9045712837
 40
0.9525920339
 40
1.0
 40
1.0
 40
1.0
 40
1.0
 10
257.0692031116
 20
131.6504121614
 30
0.0
 10
256.218629516
 20
130.6093619372
 30
0.0
 10
254.4572759182
 20
128.6532680719
 30
0.0
 10
251.6036063981
 20
126.0868713951
 30
0.0
 10
248.656949092
 20
124.0052467023
 30
0.0
 10
245.6896680741
 20
122.4622201327
 30
0.0
 10
242.774058895
 20
121.4989223148
 30
0.0
 10
240.3929909085
 20
121.2008842097
 30
0.0
 10
238.6078509758
 20
121.2974135132
 30
0.0
 10
237.3567755366
 20
121.5251286516
 30
0.0
 10
236.1756867687
 20
121.9084326961
 30
0.0
 10
235.4384230649
 20
122.2674483033
 30
0.0
 10
235.0869819637
 20
122.4703471283
 30
0.0
  0
SPLINE
  5
3AF
100
AcDbEntity
  8
0
100
AcDbSpline
 62
7
  6
CONTINUOUS
 70
0
 71
3
 72
14
 73
10
 74
0
 42
0.0000001
 43
0.0000001
 44
0.0000000001
 40
0.0
 40
0.0
 40
0.0
 40
0.0
 40
0.1080467509
 40
0.2181307398
 40
0.3321042356
 40
0.4515015225
 40
0.5774613933
 40
0.7107194663
 40
1.0
 40
1.0
 40
1.0
 40
1.0
 10
231.3192442963
 20
120.0268325066
 30
0.0
 10
230.8273768171
 20
120.3108043163
 30
0.0
 10
229.8816805292
 20
120.9706653384
 30
0.0
 10
228.6321314372
 20
122.2003970535
 30
0.0
 10
227.5574826651
 20
123.6599606456
 30
0.0
 10
226.6676887962
 20
125.3328650014
 30
0.0
 10
225.9695820038
 20
127.2022875715
 30
0.0
 10
225.2833824062
 20
130.0077307434
 30
0.0
 10
225.105853804
 20
132.2397565312
 30
0.0
 10
225.105853804
 20
133.7603807834
 30
0.0
  0
SPLINE
  5
3B0
100
AcDbEntity
  8
0
100
AcDbSpline
 62
7
  6
CONTINUOUS
 70
0
 71
3
 72
15
 73
11
 74
0
 42
0.0000001
 43
0.0000001
 44
0.0000000001
 40
0.0
 40
0.0
 40
0.0
 40
0.0
 40
0.0955372882
 40
0.1973276955
 40
0.307766201
 40
0.4280640287
 40
0.5583915922
 40
0.6980914019
 40
0.8458770389
 40
1.0
 40
1.0
 40
1.0
 40
1.0
 10
234.0228458374
 20
123.2449384322
 30
0.0
 10
234.7455231117
 20
122.9845985993
 30
0.0
 10
236.3135975618
 20
122.6407566502
 30
0.0
 10
238.8056088903
 20
122.6806231933
 30
0.0
 10
241.4331732544
 20
123.2492354354
 30
0.0
 10
244.1405751342
 20
124.3270910642
 30
0.0
 10
246.8736666738
 20
125.8872038234
 30
0.0
 10
249.5758456232
 20
127.8949829246
 30
0.0
 10
252.1897730806
 20
130.3064743039
 30
0.0
 10
253.8100971204
 20
132.1194290404
 30
0.0
 10
254.5941405548
 20
133.0790365052
 30
0.0
  0
SPLINE
  5
3B1
100
AcDbEntity
  8
0
100
AcDbSpline
 62
7
  6
CONTINUOUS
 70
0
 71
3
 72
9
 73
5
 74
0
 42
0.0000001
 43
0.0000001
 44
0.0000000001
 40
0.0
 40
0.0
 40
0.0
 40
0.0
 40
0.521136734
 40
1.0
 40
1.0
 40
1.0
 40
1.0
 10
262.0519397553
 20
146.4051480862
 30
0.0
 10
262.6687284507
 20
148.1840100734
 30
0.0
 10
263.6193060137
 20
151.6842152777
 30
0.0
 10
263.9965589628
 20
155.3002612104
 30
0.0
 10
263.9965589628
 20
157.0302941547
 30
0.0
  0
SPLINE
  5
3B2
100
AcDbEntity
  8
0
100
AcDbSpline
 62
7
  6
CONTINUOUS
 70
0
 71
3
 72
14
 73
10
 74
0
 42
0.0000001
 43
0.0000001
 44
0.0000000001
 40
0.0
 40
0.0
 40
0.0
 40
0.0
 40
0.1080467732
 40
0.2181307248
 40
0.3321041835
 40
0.4515015274
 40
0.5774615197
 40
0.7107196141
 40
1.0
 40
1.0
 40
1.0
 40
1.0
 10
261.0865045028
 20
167.5038598981
 30
0.0
 10
261.5127897727
 20
167.2577510051
 30
0.0
 10
262.3323931792
 20
166.6858714946
 30
0.0
 10
263.4153355595
 20
165.620104205
 30
0.0
 10
264.3466979314
 20
164.3551492535
 30
0.0
 10
265.1178526309
 20
162.9052980891
 30
0.0
 10
265.7228789988
 20
161.2851310787
 30
0.0
 10
266.3175850444
 20
158.8537469388
 30
0.0
 10
266.4714430008
 20
156.9193251897
 30
0.0
 10
266.4714430008
 20
155.6014515139
 30
0.0
  0
SPLINE
  5
3B3
100
AcDbEntity
  8
0
100
AcDbSpline
 62
7
  6
CONTINUOUS
 70
0
 71
3
 72
11
 73
7
 74
0
 42
0.0000001
 43
0.0000001
 44
0.0000000001
 40
0.0
 40
0.0
 40
0.0
 40
0.0
 40
0.289777178
 40
0.5490714024
 40
0.7822268829
 40
1.0
 40
1.0
 40
1.0
 40
1.0
 10
222.2774384551
 20
106.8158292369
 30
0.0
 10
222.2774384551
 20
106.6131033042
 30
0.0
 10
222.3080911312
 20
106.2276584412
 30
0.0
 10
222.4643002915
 20
105.6981085018
 30
0.0
 10
222.7270521925
 20
105.2684029384
 30
0.0
 10
222.9739606184
 20
105.0608850391
 30
0.0
 10
223.1059024394
 20
104.9847101096
 30
0.0
  0
SPLINE
  5
3B4
100
AcDbEntity
  8
0
100
AcDbSpline
 62
7
  6
CONTINUOUS
 70
0
 71
3
 72
13
 73
9
 74
0
 42
0.0000001
 43
0.0000001
 44
0.0000000001
 40
0.0
 40
0.0
 40
0.0
 40
0.0
 40
0.0908531688
 40
0.1881342974
 40
0.2962871864
 40
0.4171896577
 40
0.6936745752
 40
1.0
 40
1.0
 40
1.0
 40
1.0
 10
268.1938522176
 20
183.8963656626
 30
0.0
 10
268.2845555939
 20
183.8439947213
 30
0.0
 10
268.4543217022
 20
183.7013298264
 30
0.0
 10
268.6348648534
 20
183.4059169992
 30
0.0
 10
268.7423856162
 20
183.0418021528
 30
0.0
 10
268.7885312465
 20
182.457619017
 30
0.0
 10
268.6438639579
 20
181.6469542701
 30
0.0
 10
268.3704453881
 20
181.0267458677
 30
0.0
 10
268.1938778459
 20
180.720920216
 30
0.0
  0
SPLINE
  5
3B5
100
AcDbEntity
  8
0
100
AcDbSpline
 62
7
  6
CONTINUOUS
 70
0
 71
3
 72
9
 73
5
 74
0
 42
0.0000001
 43
0.0000001
 44
0.0000000001
 40
0.0
 40
0.0
 40
0.0
 40
0.0
 40
0.5213658848
 40
1.0
 40
1.0
 40
1.0
 40
1.0
 10
221.9332046352
 20
136.804425521
 30
0.0
 10
221.7008792354
 20
135.1209808479
 30
0.0
 10
221.450413669
 20
131.8606025814
 30
0.0
 10
221.6804687461
 20
128.5924060664
 30
0.0
 10
221.9332046352
 20
127.0528982103
 30
0.0
  0
SPLINE
  5
3B6
100
AcDbEntity
  8
0
100
AcDbSpline
 62
7
  6
CONTINUOUS
 70
0
 71
3
 72
13
 73
9
 74
0
 42
0.0000001
 43
0.0000001
 44
0.0000000001
 40
0.0
 40
0.0
 40
0.0
 40
0.0
 40
0.0908531688
 40
0.1881342974
 40
0.2962871864
 40
0.4171896577
 40
0.6936745752
 40
1.0
 40
1.0
 40
1.0
 40
1.0
 10
228.9440156313
 20
115.9132771238
 30
0.0
 10
229.0347190076
 20
115.8609061825
 30
0.0
 10
229.2044851159
 20
115.7182412876
 30
0.0
 10
229.3850282671
 20
115.4228284604
 30
0.0
 10
229.4925490299
 20
115.058713614
 30
0.0
 10
229.5386946602
 20
114.4745304782
 30
0.0
 10
229.3940273716
 20
113.6638657313
 30
0.0
 10
229.1206088018
 20
113.0436573289
 30
0.0
 10
228.9440412596
 20
112.7378316772
 30
0.0
  0
SPLINE
  5
3B7
100
AcDbEntity
  8
0
100
AcDbSpline
 62
7
  6
CONTINUOUS
 70
0
 71
3
 72
24
 73
20
 74
0
 42
0.0000001
 43
0.0000001
 44
0.0000000001
 40
0.0
 40
0.0
 40
0.0
 40
0.0
 40
0.0623890026
 40
0.1287322886
 40
0.1983305877
 40
0.270312325
 40
0.3436952171
 40
0.4174324411
 40
0.4904622264
 40
0.5617539785
 40
0.6303563855
 40
0.6954489599
 40
0.7564012679
 40
0.8128429875
 40
0.8647476625
 40
0.9125262652
 40
0.9571042048
 40
0.978666365
 40
1.0
 40
1.0
 40
1.0
 40
1.0
 10
225.105853804
 20
133.7603807834
 30
0.0
 10
225.105853804
 20
135.0049829112
 30
0.0
 10
225.2744540661
 20
137.5747871733
 30
0.0
 10
225.9682885695
 20
141.476683434
 30
0.0
 10
227.0962646865
 20
145.4748585916
 30
0.0
 10
228.6343401415
 20
149.4838269577
 30
0.0
 10
230.5497192772
 20
153.4186055697
 30
0.0
 10
232.801578024
 20
157.1952364892
 30
0.0
 10
235.341866719
 20
160.7331691193
 30
0.0
 10
238.1164765349
 20
163.9570051905
 30
0.0
 10
241.0665459769
 20
166.7982109771
 30
0.0
 10
244.12997807
 20
169.1965688494
 30
0.0
 10
247.2432098646
 20
171.101224309
 30
0.0
 10
250.3428430428
 20
172.4712599026
 30
0.0
 10
253.3677096469
 20
173.2746791644
 30
0.0
 10
256.2566505429
 20
173.4881287186
 30
0.0
 10
258.5278232342
 20
173.1537704463
 30
0.0
 10
260.1806516409
 20
172.5821700402
 30
0.0
 10
260.950122638
 20
172.2013668011
 30
0.0
 10
261.3186935445
 20
171.9885782925
 30
0.0
  0
SPLINE
  5
3B8
100
AcDbEntity
  8
0
100
AcDbSpline
 62
7
  6
CONTINUOUS
 70
0
 71
3
 72
11
 73
7
 74
0
 42
0.0000001
 43
0.0000001
 44
0.0000000001
 40
0.0
 40
0.0
 40
0.0
 40
0.0
 40
0.2372273954
 40
0.499998382
 40
0.7627702492
 40
1.0
 40
1.0
 40
1.0
 40
1.0
 10
225.105853804
 20
161.5214629658
 30
0.0
 10
224.70431787
 20
161.28963747
 30
0.0
 10
223.9444143253
 20
160.6501018232
 30
0.0
 10
223.0575248907
 20
159.4380874003
 30
0.0
 10
222.451339638
 20
158.0640040091
 30
0.0
 10
222.2774384551
 20
157.0861343526
 30
0.0
 10
222.2774384551
 20
156.6224766818
 30
0.0
  0
SPLINE
  5
3B9
100
AcDbEntity
  8
0
100
AcDbSpline
 62
7
  6
CONTINUOUS
 70
0
 71
3
 72
13
 73
9
 74
0
 42
0.0000001
 43
0.0000001
 44
0.0000000001
 40
0.0
 40
0.0
 40
0.0
 40
0.0
 40
0.3063250776
 40
0.5828024889
 40
0.7037040493
 40
0.8118590585
 40
0.9091435183
 40
1.0
 40
1.0
 40
1.0
 40
1.0
 10
227.1940485455
 20
109.7067385577
 30
0.0
 10
227.0174847064
 20
109.4009193199
 30
0.0
 10
226.6170962425
 20
108.854041858
 30
0.0
 10
225.9873999342
 20
108.3234361342
 30
0.0
 10
225.4584348708
 20
108.0713004685
 30
0.0
 10
225.089343842
 20
107.9823522506
 30
0.0
 10
224.7432371943
 20
107.9910016267
 30
0.0
 10
224.5347905074
 20
108.0666733245
 30
0.0
 10
224.4440856232
 20
108.1190451365
 30
0.0
  0
SPLINE
  5
3BA
100
AcDbEntity
  8
0
100
AcDbSpline
 62
7
  6
CONTINUOUS
 70
0
 71
3
 72
9
 73
5
 74
0
 42
0.0000001
 43
0.0000001
 44
0.0000000001
 40
0.0
 40
0.0
 40
0.0
 40
0.0
 40
0.4786159706
 40
1.0
 40
1.0
 40
1.0
 40
1.0
 10
76.2692201407
 20
211.1467255767
 30
0.0
 10
76.0160437909
 20
212.6874463166
 30
0.0
 10
75.785607428
 20
215.9584423597
 30
0.0
 10
76.0365059724
 20
219.2215932329
 30
0.0
 10
76.2692201407
 20
220.9065036404
 30
0.0
  0
SPLINE
  5
3BB
100
AcDbEntity
  8
0
100
AcDbSpline
 62
7
  6
CONTINUOUS
 70
0
 71
3
 72
9
 73
5
 74
0
 42
0.0000001
 43
0.0000001
 44
0.0000000001
 40
0.0
 40
0.0
 40
0.0
 40
0.0
 40
0.2564699519
 40
1.0
 40
1.0
 40
1.0
 40
1.0
 10
113.4263521394
 20
265.2402488982
 30
0.0
 10
113.754367836
 20
265.2284104495
 30
0.0
 10
115.0314815652
 20
265.1437902868
 30
0.0
 10
116.2992376764
 20
264.8977602014
 30
0.0
 10
117.208861727
 20
264.6183614782
 30
0.0
  0
SPLINE
  5
3BC
100
AcDbEntity
  8
0
100
AcDbSpline
 62
7
  6
CONTINUOUS
 70
0
 71
3
 72
9
 73
5
 74
0
 42
0.0000001
 43
0.0000001
 44
0.0000000001
 40
0.0
 40
0.0
 40
0.0
 40
0.0
 40
0.252111208
 40
1.0
 40
1.0
 40
1.0
 40
1.0
 10
84.0998693533
 20
245.5029899221
 30
0.0
 10
84.3970149415
 20
245.9373728261
 30
0.0
 10
85.5963507838
 20
247.6460757804
 30
0.0
 10
86.8783484179
 20
249.2969328924
 30
0.0
 10
87.8823789409
 20
250.492517128
 30
0.0
  0
SPLINE
  5
3BD
100
AcDbEntity
  8
0
100
AcDbSpline
 62
7
  6
CONTINUOUS
 70
0
 71
3
 72
9
 73
5
 74
0
 42
0.0000001
 43
0.0000001
 44
0.0000000001
 40
0.0
 40
0.0
 40
0.0
 40
0.0
 40
0.4609276237
 40
1.0
 40
1.0
 40
1.0
 40
1.0
 10
83.9681618113
 20
245.0228741745
 30
0.0
 10
83.9534736513
 20
245.0992915052
 30
0.0
 10
83.9742060522
 20
245.2737305193
 30
0.0
 10
84.0484855883
 20
245.4278744569
 30
0.0
 10
84.0998693533
 20
245.5029899221
 30
0.0
  0
SPLINE
  5
3BE
100
AcDbEntity
  8
0
100
AcDbSpline
 62
7
  6
CONTINUOUS
 70
0
 71
3
 72
15
 73
11
 74
0
 42
0.0000001
 43
0.0000001
 44
0.0000000001
 40
0.0
 40
0.0
 40
0.0
 40
0.0
 40
0.1085537261
 40
0.2304721863
 40
0.3625268872
 40
0.4999981157
 40
0.6374696243
 40
0.7695251357
 40
0.8914448192
 40
1.0
 40
1.0
 40
1.0
 40
1.0
 10
79.3925565253
 20
237.0976493112
 30
0.0
 10
79.7260270229
 20
237.2132504626
 30
0.0
 10
80.400747322
 20
237.55712197
 30
0.0
 10
81.3290734686
 20
238.2921831422
 30
0.0
 10
82.1892136405
 20
239.2371761897
 30
0.0
 10
82.9314716351
 20
240.3379130941
 30
0.0
 10
83.5136038889
 20
241.5311011116
 30
0.0
 10
83.9019193174
 20
242.7485094544
 30
0.0
 10
84.0743380997
 20
243.9200053462
 30
0.0
 10
84.0347816982
 20
244.6762745089
 30
0.0
 10
83.9681618113
 20
245.0228741745
 30
0.0
  0
SPLINE
  5
3BF
100
AcDbEntity
  8
0
100
AcDbSpline
 62
7
  6
CONTINUOUS
 70
0
 71
3
 72
9
 73
5
 74
0
 42
0.0000001
 43
0.0000001
 44
0.0000000001
 40
0.0
 40
0.0
 40
0.0
 40
0.0
 40
0.5390737069
 40
1.0
 40
1.0
 40
1.0
 40
1.0
 10
79.0426213994
 20
236.7435308946
 30
0.0
 10
79.0819808715
 20
236.8255881093
 30
0.0
 10
79.1783320518
 20
236.966987672
 30
0.0
 10
79.319033597
 20
237.0721617936
 30
0.0
 10
79.3925565253
 20
237.0976493112
 30
0.0
  0
SPLINE
  5
3C0
100
AcDbEntity
  8
0
100
AcDbSpline
 62
7
  6
CONTINUOUS
 70
0
 71
3
 72
9
 73
5
 74
0
 42
0.0000001
 43
0.0000001
 44
0.0000000001
 40
0.0
 40
0.0
 40
0.0
 40
0.0
 40
0.2553818704
 40
1.0
 40
1.0
 40
1.0
 40
1.0
 10
206.7614764254
 20
141.9486613737
 30
0.0
 10
206.7480843508
 20
141.6708791676
 30
0.0
 10
206.7083152817
 20
140.5826145204
 30
0.0
 10
206.7201330571
 20
139.4922900628
 30
0.0
 10
206.7614764254
 20
138.6824731244
 30
0.0
  0
SPLINE
  5
3C1
100
AcDbEntity
  8
0
100
AcDbSpline
 62
7
  6
CONTINUOUS
 70
0
 71
3
 72
9
 73
5
 74
0
 42
0.0000001
 43
0.0000001
 44
0.0000000001
 40
0.0
 40
0.0
 40
0.0
 40
0.0
 40
0.2545398449
 40
1.0
 40
1.0
 40
1.0
 40
1.0
 10
206.8119640498
 20
137.8974949534
 30
0.0
 10
206.8270478266
 20
137.7036157672
 30
0.0
 10
206.8939963533
 20
136.9425583464
 30
0.0
 10
206.9921720853
 20
136.1841707818
 30
0.0
 10
207.0845192929
 20
135.6221859904
 30
0.0
  0
SPLINE
  5
3C2
100
AcDbEntity
  8
0
100
AcDbSpline
 62
7
  6
CONTINUOUS
 70
0
 71
3
 72
8
 73
4
 74
0
 42
0.0000001
 43
0.0000001
 44
0.0000000001
 40
0.0
 40
0.0
 40
0.0
 40
0.0
 40
1.0
 40
1.0
 40
1.0
 40
1.0
 10
210.2078556775
 20
161.5731097249
 30
0.0
 10
210.1945619869
 20
161.5685013234
 30
0.0
 10
210.1815417687
 20
161.5630507391
 30
0.0
 10
210.1688538038
 20
161.556970022
 30
0.0
  0
SPLINE
  5
3C3
100
AcDbEntity
  8
0
100
AcDbSpline
 62
7
  6
CONTINUOUS
 70
0
 71
3
 72
9
 73
5
 74
0
 42
0.0000001
 43
0.0000001
 44
0.0000000001
 40
0.0
 40
0.0
 40
0.0
 40
0.0
 40
0.2382513267
 40
1.0
 40
1.0
 40
1.0
 40
1.0
 10
210.1688538038
 20
161.556970022
 30
0.0
 10
210.1610801896
 20
161.5532445112
 30
0.0
 10
210.1289424444
 20
161.5365913713
 30
0.0
 10
210.0987855326
 20
161.5162272447
 30
0.0
 10
210.0770588118
 20
161.49926963
 30
0.0
  0
SPLINE
  5
3C4
100
AcDbEntity
  8
0
100
AcDbSpline
 62
7
  6
CONTINUOUS
 70
0
 71
3
 72
9
 73
5
 74
0
 42
0.0000001
 43
0.0000001
 44
0.0000000001
 40
0.0
 40
0.0
 40
0.0
 40
0.0
 40
0.2394747993
 40
1.0
 40
1.0
 40
1.0
 40
1.0
 10
210.0552014589
 20
161.4813755547
 30
0.0
 10
210.0352274528
 20
161.464252101
 30
0.0
 10
209.9562677194
 20
161.3876523035
 30
0.0
 10
209.8940555812
 20
161.2943261573
 30
0.0
 10
209.8579205516
 20
161.2189913084
 30
0.0
  0
SPLINE
  5
3C5
100
AcDbEntity
  8
0
100
AcDbSpline
 62
7
  6
CONTINUOUS
 70
0
 71
3
 72
13
 73
9
 74
0
 42
0.0000001
 43
0.0000001
 44
0.0000000001
 40
0.0
 40
0.0
 40
0.0
 40
0.0
 40
0.1095173155
 40
0.2316269172
 40
0.4993146358
 40
0.7673951831
 40
0.8899450381
 40
1.0
 40
1.0
 40
1.0
 40
1.0
 10
214.8049541491
 20
169.3757152335
 30
0.0
 10
214.8590828547
 20
169.0348112579
 30
0.0
 10
214.8812453371
 20
168.2982309415
 30
0.0
 10
214.6318562503
 20
166.7380089514
 30
0.0
 10
213.8266779008
 20
164.7956307548
 30
0.0
 10
212.5550423694
 20
163.1196690839
 30
0.0
 10
211.331879454
 20
162.1127873559
 30
0.0
 10
210.6831599752
 20
161.7569734556
 30
0.0
 10
210.3604888625
 20
161.6296883894
 30
0.0
  0
SPLINE
  5
3C6
100
AcDbEntity
  8
0
100
AcDbSpline
 62
7
  6
CONTINUOUS
 70
0
 71
3
 72
9
 73
5
 74
0
 42
0.0000001
 43
0.0000001
 44
0.0000000001
 40
0.0
 40
0.0
 40
0.0
 40
0.0
 40
0.2569903553
 40
1.0
 40
1.0
 40
1.0
 40
1.0
 10
214.9151685055
 20
169.9784503358
 30
0.0
 10
214.898952514
 20
169.9547449545
 30
0.0
 10
214.8407033066
 20
169.8593866882
 30
0.0
 10
214.8000643647
 20
169.7524293995
 30
0.0
 10
214.7855319295
 20
169.670672496
 30
0.0
  0
SPLINE
  5
3C7
100
AcDbEntity
  8
0
100
AcDbSpline
 62
7
  6
CONTINUOUS
 70
0
 71
3
 72
9
 73
5
 74
0
 42
0.0000001
 43
0.0000001
 44
0.0000000001
 40
0.0
 40
0.0
 40
0.0
 40
0.0
 40
0.2636324668
 40
1.0
 40
1.0
 40
1.0
 40
1.0
 10
214.7820148499
 20
169.6485619803
 30
0.0
 10
214.7805173026
 20
169.6378724465
 30
0.0
 10
214.7759552323
 20
169.5971907204
 30
0.0
 10
214.7759051228
 20
169.5558954816
 30
0.0
 10
214.7792851148
 20
169.5259363949
 30
0.0
  0
ELLIPSE
  5
3C8
100
AcDbEntity
  8
0
100
AcDbEllipse
 62
7
  6
CONTINUOUS
 10
76.7893254694
 20
305.3839862355
 30
0.0
 11
6.9731426067
 21
12.1707374227
 31
0.0
 40
0.5773435439
 41
0.0437998013
 42
2.0195483275
  0
ELLIPSE
  5
3C9
100
AcDbEntity
  8
0
100
AcDbEllipse
 62
7
  6
CONTINUOUS
 10
205.5220093635
 20
244.0668452973
 30
0.0
 11
113.9089605082
 21
-65.2633770834
 31
0.0
 40
0.0753343482
 41
8.9694883847
 42
9.7924679295
  0
ELLIPSE
  5
3CA
100
AcDbEntity
  8
0
100
AcDbEllipse
 62
7
  6
CONTINUOUS
 10
-191.1398852111
 20
433.0023398329
 30
0.0
 11
273.5462731791
 21
-140.9189398968
 31
0.0
 40
0.0331551487
 41
0.3245296176
 42
0.3498992522
  0
ELLIPSE
  5
3CB
100
AcDbEntity
  8
0
100
AcDbEllipse
 62
7
  6
CONTINUOUS
 10
48.620797318
 20
278.2025248774
 30
0.0
 11
-2.3730994875
 21
4.4026278786
 31
0.0
 40
0.5568670418
 41
0.8016832507
 42
2.3724795775
  0
ELLIPSE
  5
3CC
100
AcDbEntity
  8
0
100
AcDbEllipse
 62
7
  6
CONTINUOUS
 10
54.5155428213
 20
294.0143957948
 30
0.0
 11
6.9731426067
 21
12.1707374227
 31
0.0
 40
0.5773435439
 41
0.0437998023
 42
2.0046014781
  0
ELLIPSE
  5
3CD
100
AcDbEntity
  8
0
100
AcDbEllipse
 62
7
  6
CONTINUOUS
 10
184.6624461657
 20
232.0236427581
 30
0.0
 11
113.9089605082
 21
-65.2633770834
 31
0.0
 40
0.0753343482
 41
8.9694883847
 42
9.7924679295
  0
ELLIPSE
  5
3CE
100
AcDbEntity
  8
0
100
AcDbEllipse
 62
7
  6
CONTINUOUS
 10
-211.9994484089
 20
420.9591372937
 30
0.0
 11
273.5462731791
 21
-140.9189398968
 31
0.0
 40
0.0331551487
 41
0.0170784054
 42
0.3648461017
  0
ELLIPSE
  5
3CF
100
AcDbEntity
  8
0
100
AcDbEllipse
 62
7
  6
CONTINUOUS
 10
80.1838836877
 20
236.1604693213
 30
0.0
 11
1.1463525428
 21
-1.0355620121
 31
0.0
 40
0.2522977138
 41
2.8630670344
 42
3.756158382
  0
ELLIPSE
  5
3D0
100
AcDbEntity
  8
0
100
AcDbEllipse
 62
7
  6
CONTINUOUS
 10
67.8197904806
 20
249.0625288775
 30
0.0
 11
12.6098779713
 21
-11.3911821334
 31
0.0
 40
0.2522977138
 41
-0.2785256192
 42
-0.0813438267
  0
ELLIPSE
  5
3D1
100
AcDbEntity
  8
0
100
AcDbEllipse
 62
7
  6
CONTINUOUS
 10
302.2174952866
 20
113.7354062516
 30
0.0
 11
258.0769414546
 21
-112.8333823661
 31
0.0
 40
0.0888900236
 41
-2.7250404204
 42
-2.6626052628
  0
ENDSEC
  0
SECTION
  2
OBJECTS
  0
DICTIONARY
  5
C
100
AcDbDictionary
280
0
281
1
  3
ACAD_GROUP
350
D
  3
ACAD_MLINESTYLE
350
17
  3
ACAD_LAYOUT
350
1A
  3
ACAD_PLOTSETTINGS
350
19
  3
ACAD_PLOTSTYLENAME
350
E
  0
DICTIONARY
  5
D
102
{ACAD_REACTORS
330
C
102
}
100
AcDbDictionary
280
0
281
1
  0
ACDBDICTIONARYWDFLT
  5
E
102
{ACAD_REACTORS
330
C
102
}
100
AcDbDictionary
281
1
  3
Normal
350
F
100
AcDbDictionaryWithDefault
340
F
  0
DICTIONARY
  5
17
102
{ACAD_REACTORS
330
C
102
}
100
AcDbDictionary
280
0
281
1
  3
Standard
350
18
  0
DICTIONARY
  5
19
102
{ACAD_REACTORS
330
C
102
}
100
AcDbDictionary
281
1
  0
DICTIONARY
  5
1A
102
{ACAD_REACTORS
330
C
102
}
100
AcDbDictionary
281
1
  3
Model
350
3D2
  3
Layout1
350
3D3
  0
ACDBPLACEHOLDER
  5
F
102
{ACAD_REACTORS
330
E
102
}
  0
MLINESTYLE
  5
18
102
{ACAD_REACTORS
330
17
102
}
100
AcDbMlineStyle
  2
STANDARD
 70
0
  3

 62
256
 51
90.0
 52
90.0
 71
2
 49
0.5
 62
256
  6
BYLAYER
 49
-0.5
 62
256
  6
BYLAYER
  0
LAYOUT
  5
3D2
102
{ACAD_REACTORS
330
1A
102
}
100
AcDbPlotSettings
  1

  2
none_device
  4

  6

 40
0.0
 41
0.0
 42
0.0
 43
0.0
 44
210.0
 45
297.0
 46
0.0
 47
0.0
 48
0.0
 49
0.0
140
0.0
141
0.0
142
1.0
143
1.0
 70
1024
 72
1
 73
0
 74
0
  7

 75
0
147
1.0
148
0.0
149
0.0
100
AcDbLayout
  1
Model
 70
0
 71
0
 10
0.0
 20
0.0
 11
210.0
 21
297.0
 12
0.0
 22
0.0
 32
0.0
 14
0.0
 24
0.0
 34
0.0
 15
0.0
 25
0.0
 35
0.0
146
0.0
 13
0.0
 23
0.0
 33
0.0
 16
1.0
 26
0.0
 36
0.0
 17
0.0
 27
1.0
 37
0.0
 76
0
330
210
345
0
346
0
  0
LAYOUT
  5
3D3
102
{ACAD_REACTORS
330
1A
102
}
100
AcDbPlotSettings
  1

  2
none_device
  4

  6

 40
0.0
 41
0.0
 42
0.0
 43
0.0
 44
210.0
 45
297.0
 46
0.0
 47
0.0
 48
0.0
 49
0.0
140
0.0
141
0.0
142
1.0
143
1.0
 70
0
 72
1
 73
0
 74
0
  7

 75
0
147
1.0
148
0.0
149
0.0
100
AcDbLayout
  1
Layout1
 70
0
 71
1
 10
0.0
 20
0.0
 11
210.0
 21
297.0
 12
0.0
 22
0.0
 32
0.0
 14
0.0
 24
0.0
 34
0.0
 15
0.0
 25
0.0
 35
0.0
146
0.0
 13
0.0
 23
0.0
 33
0.0
 16
1.0
 26
0.0
 36
0.0
 17
0.0
 27
1.0
 37
0.0
 76
0
330
211
345
0
346
0
  0
ENDSEC
  0
EOF
