999
DXF file: C:\Users\sesa63760\Dev\_Creo\CAD\MCADID0000364_3D-CAD\drw0001_1.dxf
999
Pro/ENGINEER 2019471 by Parametric Technology Corporation
  0
SECTION
  2
HEADER
  9
$ACADVER
  1
AC1024
  9
$DWGCODEPAGE
  3
ANSI_1252
  9
$EXTMAX
 10
260.3194152691
 20
368.1660301662
 30
0.0
  9
$EXTMIN
 10
0.0
 20
0.0
 30
0.0
  9
$LIMMIN
 10
0.0
 20
0.0
  9
$LIMMAX
 10
260.3194152691
 20
368.1660301662
  9
$VIEWCTR
 10
130.1597076345
 20
184.0830150831
  9
$VIEWSIZE
 40
368.1660301662
  9
$CLAYER
  8
0
  9
$LTSCALE
 40
23.9989708553
  9
$CELTYPE
  6
BYLAYER
  9
$DIMSCALE
 40
1.0
  9
$DIMASZ
 40
3.099040658
  9
$DIMEXO
 40
1.0
  9
$DIMDLI
 40
16.5811071364
  9
$DIMEXE
 40
1.0
  9
$DIMCEN
 40
3.9271043218
  9
$DIMLFAC
 40
1.0
  9
$DIMBLK
  1
_FILLED
  9
$DIMALT
 70
0
  9
$DIMALTF
 40
0.0393700787
  9
$DIMTXT
 40
4.3386569212
  9
$DIMTOL
 70
1
  9
$DIMLIM
 70
0
  9
$DIMTFAC
 40
1.0
  9
$DIMTP
 40
0.01
  9
$DIMTM
 40
0.01
  9
$DIMGAP
 40
0.625
  9
$DIMDSEP
 70
46
  9
$AUNITS
 70
0
  9
$PDMODE
 70
3
  9
$PDSIZE
 40
0.3125
  9
$HANDSEED
  5
47B
  9
$TILEMODE
 70
1
  9
$MEASUREMENT
 70
1
  9
$INSUNITS
 70
4
  0
ENDSEC
  0
SECTION
  2
CLASSES
  0
CLASS
  1
ACDBDICTIONARYWDFLT
  2
AcDbDictionaryWithDefault
  3
AutoCAD 2000
 90
0
 91
1
280
0
281
0
  0
CLASS
  1
ACDBPLACEHOLDER
  2
AcDbPlaceHolder
  3
AutoCAD 2000
 90
0
 91
1
280
0
281
0
  0
CLASS
  1
LAYOUT
  2
AcDbLayout
  3
AutoCAD 2000
 90
0
 91
0
280
0
281
0
  0
ENDSEC
  0
SECTION
  2
TABLES
  0
TABLE
  2
VPORT
  5
8
100
AcDbSymbolTable
 70
2
  0
VPORT
  5
1F4
100
AcDbSymbolTableRecord
100
AcDbViewportTableRecord
  2
*ACTIVE
 70
0
 10
0.0
 20
0.0
 11
1.0
 21
1.0
 12
130.1597076345
 22
184.0830150831
 13
0.0
 23
0.0
 14
1.0
 24
1.0
 15
0.0
 25
0.0
 16
0.0
 26
0.0
 36
1.0
 17
0.0
 27
0.0
 37
0.0
 40
368.1660301662
 41
0.7070707071
 42
50.0
 43
0.0
 44
0.0
 50
0.0
 51
0.0
 71
0
 72
100
 73
1
 74
1
 75
0
 76
0
 77
0
 78
0
  0
ENDTAB
  0
TABLE
  2
LTYPE
  5
5
100
AcDbSymbolTable
 70
6
  0
LTYPE
  5
14
100
AcDbSymbolTableRecord
100
AcDbLinetypeTableRecord
  2
BYBLOCK
 70
0
  3

 72
65
 73
0
 40
0.0
  0
LTYPE
  5
15
100
AcDbSymbolTableRecord
100
AcDbLinetypeTableRecord
  2
BYLAYER
 70
0
  3

 72
65
 73
0
 40
0.0
  0
LTYPE
  5
16
100
AcDbSymbolTableRecord
100
AcDbLinetypeTableRecord
  2
CONTINUOUS
 70
64
  3
Solid line
 72
65
 73
0
 40
0.0
  0
LTYPE
  5
1F5
100
AcDbSymbolTableRecord
100
AcDbLinetypeTableRecord
  2
CENTER
 70
64
  3
____ _ ____ _ ____ _ ____ _ ____ _ ____ _ ____
 72
65
 73
4
 40
0.6
 49
0.375
 74
0
 49
-0.075
 74
0
 49
0.075
 74
0
 49
-0.075
 74
0
  0
LTYPE
  5
1F6
100
AcDbSymbolTableRecord
100
AcDbLinetypeTableRecord
  2
HIDDEN
 70
64
  3
- - - - - - - - - - - - - - - - - - - -
 72
65
 73
2
 40
0.2
 49
0.1
 74
0
 49
-0.1
 74
0
  0
LTYPE
  5
1F7
100
AcDbSymbolTableRecord
100
AcDbLinetypeTableRecord
  2
PHANTOM
 70
64
  3
_____ _ _ _____ _ _ _____ _ _ _____
 72
65
 73
6
 40
0.8
 49
0.45
 74
0
 49
-0.05
 74
0
 49
0.1
 74
0
 49
-0.05
 74
0
 49
0.1
 74
0
 49
-0.05
 74
0
  0
LTYPE
  5
1F8
100
AcDbSymbolTableRecord
100
AcDbLinetypeTableRecord
  2
DOT
 70
64
  3
. . . . . . . . . . . . . . . . . . . .
 72
65
 73
2
 40
0.2
 49
0.1
 74
0
 49
-0.1
 74
0
  0
LTYPE
  5
1F9
100
AcDbSymbolTableRecord
100
AcDbLinetypeTableRecord
  2
DASHED
 70
64
  3
- - - - - - - - - - - - - - - - - - - -
 72
65
 73
2
 40
0.2
 49
0.1
 74
0
 49
-0.1
 74
0
  0
ENDTAB
  0
TABLE
  2
LAYER
  5
2
100
AcDbSymbolTable
 70
36
  0
LAYER
  5
10
100
AcDbSymbolTableRecord
100
AcDbLayerTableRecord
  2
0
 70
0
 62
7
  6
CONTINUOUS
370
-3
390
F
  0
LAYER
  5
1FA
100
AcDbSymbolTableRecord
100
AcDbLayerTableRecord
  2
DEFAULT_1
 70
0
 62
7
  6
CENTER
370
-3
390
F
  0
LAYER
  5
1FB
100
AcDbSymbolTableRecord
100
AcDbLayerTableRecord
  2
DEFAULT_2
 70
0
 62
8
  6
HIDDEN
370
-3
390
F
  0
LAYER
  5
1FC
100
AcDbSymbolTableRecord
100
AcDbLayerTableRecord
  2
DEFAULT_3
 70
0
 62
7
  6
PHANTOM
370
-3
390
F
  0
LAYER
  5
1FD
100
AcDbSymbolTableRecord
100
AcDbLayerTableRecord
  2
00_COMPONENTS
 70
0
 62
7
  6
CONTINUOUS
370
-3
390
F
  0
LAYER
  5
1FE
100
AcDbSymbolTableRecord
100
AcDbLayerTableRecord
  2
01_1_DEFAULT_DATUMS
 70
0
 62
7
  6
CONTINUOUS
370
-3
390
F
  0
LAYER
  5
1FF
100
AcDbSymbolTableRecord
100
AcDbLayerTableRecord
  2
01_PLANES
 70
0
 62
7
  6
CONTINUOUS
370
-3
390
F
  0
LAYER
  5
200
100
AcDbSymbolTableRecord
100
AcDbLayerTableRecord
  2
02_COORD_SYS
 70
0
 62
7
  6
CONTINUOUS
370
-3
390
F
  0
LAYER
  5
201
100
AcDbSymbolTableRecord
100
AcDbLayerTableRecord
  2
03_AXES
 70
0
 62
7
  6
CONTINUOUS
370
-3
390
F
  0
LAYER
  5
202
100
AcDbSymbolTableRecord
100
AcDbLayerTableRecord
  2
04_POINTS
 70
0
 62
7
  6
CONTINUOUS
370
-3
390
F
  0
LAYER
  5
203
100
AcDbSymbolTableRecord
100
AcDbLayerTableRecord
  2
05_CURVES
 70
0
 62
7
  6
CONTINUOUS
370
-3
390
F
  0
LAYER
  5
204
100
AcDbSymbolTableRecord
100
AcDbLayerTableRecord
  2
06_SURFS
 70
0
 62
7
  6
CONTINUOUS
370
-3
390
F
  0
LAYER
  5
205
100
AcDbSymbolTableRecord
100
AcDbLayerTableRecord
  2
07_COSMETICS
 70
0
 62
7
  6
CONTINUOUS
370
-3
390
F
  0
LAYER
  5
206
100
AcDbSymbolTableRecord
100
AcDbLayerTableRecord
  2
10_NOTES
 70
0
 62
7
  6
CONTINUOUS
370
-3
390
F
  0
LAYER
  5
207
100
AcDbSymbolTableRecord
100
AcDbLayerTableRecord
  2
11_NOTES_PUB
 70
0
 62
7
  6
CONTINUOUS
370
-3
390
F
  0
LAYER
  5
208
100
AcDbSymbolTableRecord
100
AcDbLayerTableRecord
  2
13_REF_GTOL
 70
0
 62
7
  6
CONTINUOUS
370
-3
390
F
  0
LAYER
  5
209
100
AcDbSymbolTableRecord
100
AcDbLayerTableRecord
  2
16_MISC
 70
0
 62
7
  6
CONTINUOUS
370
-3
390
F
  0
LAYER
  5
20A
100
AcDbSymbolTableRecord
100
AcDbLayerTableRecord
  2
17_NO_PRINT
 70
0
 62
7
  6
CONTINUOUS
370
-3
390
F
  0
LAYER
  5
20B
100
AcDbSymbolTableRecord
100
AcDbLayerTableRecord
  2
18_DATUM_CAMS_JOINTS
 70
0
 62
7
  6
CONTINUOUS
370
-3
390
F
  0
LAYER
  5
20C
100
AcDbSymbolTableRecord
100
AcDbLayerTableRecord
  2
19_DATUM_FUNCTIONAL
 70
0
 62
7
  6
CONTINUOUS
370
-3
390
F
  0
LAYER
  5
20D
100
AcDbSymbolTableRecord
100
AcDbLayerTableRecord
  2
20_DATUM_KINEMATIC_SCHEME
 70
0
 62
7
  6
CONTINUOUS
370
-3
390
F
  0
ENDTAB
  0
TABLE
  2
STYLE
  5
3
100
AcDbSymbolTable
 70
1
  0
STYLE
  5
11
100
AcDbSymbolTableRecord
100
AcDbTextStyleTableRecord
  2
STANDARD
 70
0
 40
0.0
 41
0.8
 50
0.0
 71
0
 42
0.2
  3
txt
  4

  0
STYLE
  5
20E
100
AcDbSymbolTableRecord
100
AcDbTextStyleTableRecord
  2
TEXTSTYLE_1
 70
0
 40
0.0
 41
0.8
 50
0.0
 71
0
 42
0.2
  3
gdt
  4

  0
ENDTAB
  0
TABLE
  2
VIEW
  5
6
100
AcDbSymbolTable
 70
0
  0
ENDTAB
  0
TABLE
  2
UCS
  5
7
100
AcDbSymbolTable
 70
0
  0
ENDTAB
  0
TABLE
  2
APPID
  5
9
100
AcDbSymbolTable
 70
1
  0
APPID
  5
20F
100
AcDbSymbolTableRecord
100
AcDbRegAppTableRecord
  2
ACAD
 70
0
  0
ENDTAB
  0
TABLE
  2
BLOCK_RECORD
  5
1
100
AcDbSymbolTable
 70
0
  0
BLOCK_RECORD
  5
210
100
AcDbSymbolTableRecord
100
AcDbBlockTableRecord
  2
*Model_Space
  0
BLOCK_RECORD
  5
211
100
AcDbSymbolTableRecord
100
AcDbBlockTableRecord
  2
*Paper_Space
  0
BLOCK_RECORD
  5
212
100
AcDbSymbolTableRecord
100
AcDbBlockTableRecord
  2
_FILLED
  0
ENDTAB
  0
TABLE
  2
DIMSTYLE
  5
A
100
AcDbSymbolTable
 70
1
100
AcDbDimStyleTable
 71
0
  0
DIMSTYLE
105
213
100
AcDbSymbolTableRecord
100
AcDbDimStyleTableRecord
  2
STANDARD
 70
0
  3

  4

 40
1.0
 41
3.099040658
 42
1.0
 43
0.38
 44
1.0
 45
0.0
 46
0.0
 47
0.01
 48
0.01
140
4.3386569212
141
0.09
142
0.0
143
25.4
144
1.0
145
0.0
146
1.0
147
0.625
 71
1
 72
0
 73
0
 74
0
 75
0
 76
0
 77
1
 78
8
 79
2
170
0
171
1
172
0
173
0
174
0
175
0
176
0
177
0
178
0
270
2
179
2
271
2
272
2
273
2
274
2
275
0
280
0
281
0
282
0
283
1
284
8
285
0
286
0
287
3
288
0
340
11
278
46
341
212
342
212
343
212
344
212
  0
ENDTAB
  0
ENDSEC
  0
SECTION
  2
BLOCKS
  0
BLOCK
  5
20
100
AcDbEntity
  8
0
100
AcDbBlockBegin
  2
*Model_Space
 70
0
 10
0.0
 20
0.0
 30
0.0
  3
*Model_Space
  1

  0
ENDBLK
  5
21
100
AcDbEntity
  8
0
100
AcDbBlockEnd
  0
BLOCK
  5
1C
100
AcDbEntity
  8
0
100
AcDbBlockBegin
  2
*Paper_Space
 70
0
 10
0.0
 20
0.0
 30
0.0
  3
*Paper_Space
  1

  0
ENDBLK
  5
1D
100
AcDbEntity
  8
0
100
AcDbBlockEnd
  0
BLOCK
  5
214
100
AcDbEntity
  8
0
100
AcDbBlockBegin
  2
_FILLED
 70
64
 10
0.0
 20
0.0
  3
_FILLED
  1

  0
SOLID
  5
215
100
AcDbEntity
  8
0
  6
BYBLOCK
 62
0
100
AcDbTrace
 10
0.0
 20
0.0
 11
-1.0
 21
0.25
 12
-1.0
 22
-0.25
 13
-1.0
 23
-0.25
  0
ENDBLK
  5
216
100
AcDbEntity
  8
0
  6
BYBLOCK
 62
0
100
AcDbBlockEnd
  0
ENDSEC
  0
SECTION
  2
ENTITIES
  0
LINE
  5
217
100
AcDbEntity
  8
0
100
AcDbLine
 62
7
  6
CONTINUOUS
 10
46.0621543657
 20
260.9492105255
 11
44.4505742712
 21
260.0187698781
  0
LINE
  5
218
100
AcDbEntity
  8
0
100
AcDbLine
 62
7
  6
CONTINUOUS
 10
30.5153236655
 20
190.8295813006
 11
30.5153236655
 21
202.5442431104
  0
LINE
  5
219
100
AcDbEntity
  8
0
100
AcDbLine
 62
7
  6
CONTINUOUS
 10
30.52526065
 20
212.243079992
 11
32.4618846648
 21
226.2647357507
  0
LINE
  5
21A
100
AcDbEntity
  8
0
100
AcDbLine
 62
7
  6
CONTINUOUS
 10
35.9974332906
 20
224.2235319781
 11
34.0608092757
 21
210.2018762194
  0
LINE
  5
21B
100
AcDbEntity
  8
0
100
AcDbLine
 62
7
  6
CONTINUOUS
 10
44.874866602
 20
256.0996433376
 11
44.4506042997
 21
255.8546968453
  0
LINE
  5
21C
100
AcDbEntity
  8
0
100
AcDbLine
 62
7
  6
CONTINUOUS
 10
32.8133934727
 20
229.680399873
 11
32.8133934727
 21
237.2617794471
  0
LINE
  5
21D
100
AcDbEntity
  8
0
100
AcDbLine
 62
7
  6
CONTINUOUS
 10
34.0508722912
 20
200.5030393378
 11
34.0508722912
 21
188.788377528
  0
LINE
  5
21E
100
AcDbEntity
  8
0
100
AcDbLine
 62
7
  6
CONTINUOUS
 10
38.4702712738
 20
238.0783654966
 11
38.4702712738
 21
227.0895285363
  0
LINE
  5
21F
100
AcDbEntity
  8
0
100
AcDbLine
 62
7
  6
CONTINUOUS
 10
40.5915886734
 20
242.2425241686
 11
40.5915945613
 21
237.6701281414
  0
LINE
  5
220
100
AcDbEntity
  8
0
100
AcDbLine
 62
7
  6
CONTINUOUS
 10
41.3114400983
 20
243.7122444124
 11
41.3114400983
 21
241.8342888531
  0
LINE
  5
221
100
AcDbEntity
  8
0
100
AcDbLine
 62
7
  6
CONTINUOUS
 10
36.3489126587
 20
243.3855123021
 11
43.9747665797
 21
247.7882748353
  0
LINE
  5
222
100
AcDbEntity
  8
0
100
AcDbLine
 62
7
  6
CONTINUOUS
 10
41.3114400983
 20
242.6581281017
 11
40.5915886734
 21
242.2425241686
  0
LINE
  5
223
100
AcDbEntity
  8
0
100
AcDbLine
 62
7
  6
CONTINUOUS
 10
55.8245238502
 20
249.2881098871
 11
56.2487861526
 21
249.5330563794
  0
LINE
  5
224
100
AcDbEntity
  8
0
100
AcDbLine
 62
7
  6
CONTINUOUS
 10
70.2494421294
 20
257.616290626
 11
70.6737044317
 21
257.8612371184
  0
LINE
  5
225
100
AcDbEntity
  8
0
100
AcDbLine
 62
7
  6
CONTINUOUS
 10
40.5915945613
 20
239.303104757
 11
38.4702712738
 21
238.0783654966
  0
LINE
  5
226
100
AcDbEntity
  8
0
100
AcDbLine
 62
7
  6
CONTINUOUS
 10
44.319781356
 20
239.7237472955
 11
43.6774351075
 21
254.7382317957
  0
LINE
  5
227
100
AcDbEntity
  8
0
100
AcDbLine
 62
7
  6
CONTINUOUS
 10
43.8365136581
 20
255.1832307319
 11
43.677405079
 21
258.9023048285
  0
LINE
  5
228
100
AcDbEntity
  8
0
100
AcDbLine
 62
7
  6
CONTINUOUS
 10
44.9049638847
 20
238.9357706576
 11
44.4506198588
 21
253.6971010529
  0
LINE
  5
229
100
AcDbEntity
  8
0
100
AcDbLine
 62
7
  6
CONTINUOUS
 10
44.5112698301
 20
255.8897218965
 11
44.4505898303
 21
257.8611740857
  0
LINE
  5
22A
100
AcDbEntity
  8
0
100
AcDbLine
 62
7
  6
CONTINUOUS
 10
44.8748556654
 20
257.616229633
 11
44.9205167953
 21
256.1327303781
  0
LINE
  5
22B
100
AcDbEntity
  8
0
100
AcDbLine
 62
7
  6
CONTINUOUS
 10
45.8121543657
 20
258.4909718161
 11
45.8121543657
 21
256.8579669818
  0
LINE
  5
22C
100
AcDbEntity
  8
0
100
AcDbLine
 62
7
  6
CONTINUOUS
 10
46.0621543657
 20
267.0642471959
 11
46.0621543657
 21
258.4909718161
  0
LINE
  5
22D
100
AcDbEntity
  8
0
100
AcDbLine
 62
7
  6
CONTINUOUS
 10
46.5621543657
 20
270.3302568645
 11
46.5621543657
 21
267.0642471959
  0
LINE
  5
22E
100
AcDbEntity
  8
0
100
AcDbLine
 62
7
  6
CONTINUOUS
 10
63.0370130183
 20
249.2881272237
 11
70.6737344602
 21
253.6971640856
  0
LINE
  5
22F
100
AcDbEntity
  8
0
100
AcDbLine
 62
7
  6
CONTINUOUS
 10
52.0874048904
 20
249.2881009041
 11
52.5417489163
 21
234.5267705088
  0
LINE
  5
230
100
AcDbEntity
  8
0
100
AcDbLine
 62
7
  6
CONTINUOUS
 10
51.3988626344
 20
267.9613857501
 11
51.3988626344
 21
266.3609508006
  0
LINE
  5
231
100
AcDbEntity
  8
0
100
AcDbLine
 62
7
  6
CONTINUOUS
 10
51.98179588
 20
270.9484778552
 11
51.98179588
 21
268.2318801233
  0
LINE
  5
232
100
AcDbEntity
  8
0
100
AcDbLine
 62
7
  6
CONTINUOUS
 10
52.3988626344
 20
267.9613857501
 11
52.3988626344
 21
265.9756056433
  0
LINE
  5
233
100
AcDbEntity
  8
0
100
AcDbLine
 62
7
  6
CONTINUOUS
 10
52.98179588
 20
270.9484778552
 11
52.98179588
 21
266.0494633524
  0
LINE
  5
234
100
AcDbEntity
  8
0
100
AcDbLine
 62
7
  6
CONTINUOUS
 10
53.73179588
 20
266.0494633524
 11
53.73179588
 21
265.5148612518
  0
LINE
  5
235
100
AcDbEntity
  8
0
100
AcDbLine
 62
7
  6
CONTINUOUS
 10
55.0805035726
 20
265.8358374497
 11
55.0805035726
 21
265.2496893229
  0
LINE
  5
236
100
AcDbEntity
  8
0
100
AcDbLine
 62
7
  6
CONTINUOUS
 10
55.3122126562
 20
235.6290774729
 11
55.3122126562
 21
233.7511219135
  0
LINE
  5
237
100
AcDbEntity
  8
0
100
AcDbLine
 62
7
  6
CONTINUOUS
 10
55.6403426858
 20
272.5477724843
 11
55.6403426858
 21
266.1085295276
  0
LINE
  5
238
100
AcDbEntity
  8
0
100
AcDbLine
 62
7
  6
CONTINUOUS
 10
56.0805035726
 20
265.8358374497
 11
56.0805035726
 21
265.1278896575
  0
LINE
  5
239
100
AcDbEntity
  8
0
100
AcDbLine
 62
7
  6
CONTINUOUS
 10
56.1480144025
 20
227.464095425
 11
56.1480144025
 21
221.1619058076
  0
LINE
  5
23A
100
AcDbEntity
  8
0
100
AcDbLine
 62
7
  6
CONTINUOUS
 10
56.168619506
 20
227.6133268171
 11
56.168619506
 21
221.3451837271
  0
LINE
  5
23B
100
AcDbEntity
  8
0
100
AcDbLine
 62
7
  6
CONTINUOUS
 10
56.3121543657
 20
269.1055032388
 11
56.3121543657
 21
265.0996746685
  0
LINE
  5
23C
100
AcDbEntity
  8
0
100
AcDbLine
 62
7
  6
CONTINUOUS
 10
56.8551182397
 20
232.0365019063
 11
56.8551182397
 21
228.2805907875
  0
LINE
  5
23D
100
AcDbEntity
  8
0
100
AcDbLine
 62
7
  6
CONTINUOUS
 10
58.1403426858
 20
272.5477724843
 11
58.1403426858
 21
269.7180880189
  0
LINE
  5
23E
100
AcDbEntity
  8
0
100
AcDbLine
 62
7
  6
CONTINUOUS
 10
58.2693318021
 20
232.0365053056
 11
58.2693318021
 21
228.2805941868
  0
LINE
  5
23F
100
AcDbEntity
  8
0
100
AcDbLine
 62
7
  6
CONTINUOUS
 10
58.8121543657
 20
269.1055032388
 11
58.8121543657
 21
265.112052604
  0
LINE
  5
240
100
AcDbEntity
  8
0
100
AcDbLine
 62
7
  6
CONTINUOUS
 10
59.8122126562
 20
235.6290774729
 11
59.8122126562
 21
233.7511219135
  0
LINE
  5
241
100
AcDbEntity
  8
0
100
AcDbLine
 62
7
  6
CONTINUOUS
 10
55.413794017
 20
235.9438842818
 11
55.8245238502
 21
249.2881098871
  0
LINE
  5
242
100
AcDbEntity
  8
0
100
AcDbLine
 62
7
  6
CONTINUOUS
 10
56.2487861526
 20
249.5330563794
 11
55.8473974773
 21
236.4923162048
  0
LINE
  5
243
100
AcDbEntity
  8
0
100
AcDbLine
 62
7
  6
CONTINUOUS
 10
58.2693318021
 20
232.0365053056
 11
74.532720058
 21
241.4261208446
  0
LINE
  5
244
100
AcDbEntity
  8
0
100
AcDbLine
 62
7
  6
CONTINUOUS
 10
79.1288949999
 20
242.7733039774
 11
95.3922832558
 21
252.1629195164
  0
LINE
  5
245
100
AcDbEntity
  8
0
100
AcDbLine
 62
7
  6
CONTINUOUS
 10
95.3922832558
 20
249.7134122651
 11
79.1288949999
 21
240.323796726
  0
LINE
  5
246
100
AcDbEntity
  8
0
100
AcDbLine
 62
7
  6
CONTINUOUS
 10
74.532720058
 20
237.6702097259
 11
58.2693318021
 21
228.2805941868
  0
LINE
  5
247
100
AcDbEntity
  8
0
100
AcDbLine
 62
7
  6
CONTINUOUS
 10
59.2776541301
 20
236.4715126375
 11
58.8756282233
 21
249.5330626935
  0
LINE
  5
248
100
AcDbEntity
  8
0
100
AcDbLine
 62
7
  6
CONTINUOUS
 10
59.2998940584
 20
249.2881182408
 11
59.7120446931
 21
235.8976226159
  0
LINE
  5
249
100
AcDbEntity
  8
0
100
AcDbLine
 62
7
  6
CONTINUOUS
 10
60.2543679763
 20
266.1724141775
 11
60.2543679763
 21
265.2268056239
  0
LINE
  5
24A
100
AcDbEntity
  8
0
100
AcDbLine
 62
7
  6
CONTINUOUS
 10
60.554777389
 20
271.554968162
 11
60.554777389
 21
266.4213868285
  0
LINE
  5
24B
100
AcDbEntity
  8
0
100
AcDbLine
 62
7
  6
CONTINUOUS
 10
61.2543679763
 20
266.1724141775
 11
61.2543679763
 21
265.5091050262
  0
LINE
  5
24C
100
AcDbEntity
  8
0
100
AcDbLine
 62
7
  6
CONTINUOUS
 10
62.2744304219
 20
268.7176667925
 11
62.2744304219
 21
265.7970680449
  0
LINE
  5
24D
100
AcDbEntity
  8
0
100
AcDbLine
 62
7
  6
CONTINUOUS
 10
63.054777389
 20
271.554968162
 11
63.054777389
 21
269.3653080541
  0
LINE
  5
24E
100
AcDbEntity
  8
0
100
AcDbLine
 62
7
  6
CONTINUOUS
 10
64.7744304219
 20
268.7176667925
 11
64.7744304219
 21
267.0121795675
  0
LINE
  5
24F
100
AcDbEntity
  8
0
100
AcDbLine
 62
7
  6
CONTINUOUS
 10
68.5621543657
 20
270.3302568645
 11
68.5621543657
 21
267.0642471959
  0
LINE
  5
250
100
AcDbEntity
  8
0
100
AcDbLine
 62
7
  6
CONTINUOUS
 10
62.5826652091
 20
234.5267946442
 11
63.0370130183
 21
249.2881272237
  0
LINE
  5
251
100
AcDbEntity
  8
0
100
AcDbLine
 62
7
  6
CONTINUOUS
 10
70.2037810945
 20
256.1328065902
 11
70.2494421294
 21
257.616290626
  0
LINE
  5
252
100
AcDbEntity
  8
0
100
AcDbLine
 62
7
  6
CONTINUOUS
 10
70.6737044317
 20
257.8612371184
 11
70.613024432
 21
255.8898010532
  0
LINE
  5
253
100
AcDbEntity
  8
0
100
AcDbLine
 62
7
  6
CONTINUOUS
 10
70.6737344602
 20
253.6971640856
 11
70.219386651
 21
238.935831506
  0
LINE
  5
254
100
AcDbEntity
  8
0
100
AcDbLine
 62
7
  6
CONTINUOUS
 10
71.2877691024
 20
255.1833796251
 11
71.4468736239
 21
258.9023588782
  0
LINE
  5
255
100
AcDbEntity
  8
0
100
AcDbLine
 62
7
  6
CONTINUOUS
 10
70.8045574038
 20
239.7238013452
 11
71.4469036524
 21
254.7382858454
  0
LINE
  5
256
100
AcDbEntity
  8
0
100
AcDbLine
 62
7
  6
CONTINUOUS
 10
64.2818222965
 20
207.8939017973
 11
62.3451982816
 21
193.8722460386
  0
LINE
  5
257
100
AcDbEntity
  8
0
100
AcDbLine
 62
7
  6
CONTINUOUS
 10
70.1760816458
 20
218.4690742308
 11
70.1195001355
 21
218.3862259565
  0
LINE
  5
258
100
AcDbEntity
  8
0
100
AcDbLine
 62
7
  6
CONTINUOUS
 10
70.1787479908
 20
218.4665940563
 11
70.1195001355
 21
218.3862259565
  0
LINE
  5
259
100
AcDbEntity
  8
0
100
AcDbLine
 62
7
  6
CONTINUOUS
 10
94.2552708232
 20
237.6261254407
 11
79.2054165388
 21
228.9371398846
  0
LINE
  5
25A
100
AcDbEntity
  8
0
100
AcDbLine
 62
7
  6
CONTINUOUS
 10
64.2818222965
 20
172.3270196603
 11
62.3451982816
 21
184.1124679749
  0
LINE
  5
25B
100
AcDbEntity
  8
0
100
AcDbLine
 62
7
  6
CONTINUOUS
 10
69.0621543657
 20
267.0642471959
 11
69.0621543657
 21
258.4909718161
  0
LINE
  5
25C
100
AcDbEntity
  8
0
100
AcDbLine
 62
7
  6
CONTINUOUS
 10
69.3121543657
 20
258.4909718161
 11
69.3121543657
 21
256.8579669818
  0
LINE
  5
25D
100
AcDbEntity
  8
0
100
AcDbLine
 62
7
  6
CONTINUOUS
 10
70.1195001355
 20
218.3636426283
 11
70.1195001355
 21
218.3862259565
  0
LINE
  5
25E
100
AcDbEntity
  8
0
100
AcDbLine
 62
7
  6
CONTINUOUS
 10
72.4048852514
 20
267.6603313453
 11
72.4048852514
 21
266.7658782923
  0
LINE
  5
25F
100
AcDbEntity
  8
0
100
AcDbLine
 62
7
  6
CONTINUOUS
 10
73.4048852514
 20
267.6603313453
 11
73.4048852514
 21
266.3402363213
  0
LINE
  5
260
100
AcDbEntity
  8
0
100
AcDbLine
 62
7
  6
CONTINUOUS
 10
73.8128686331
 20
243.7123117196
 11
73.8128686331
 21
241.8343561602
  0
LINE
  5
261
100
AcDbEntity
  8
0
100
AcDbLine
 62
7
  6
CONTINUOUS
 10
74.532720058
 20
237.6702097259
 11
74.5327141701
 21
242.242605753
  0
LINE
  5
262
100
AcDbEntity
  8
0
100
AcDbLine
 62
7
  6
CONTINUOUS
 10
74.5867294342
 20
269.5204113656
 11
74.5867294342
 21
265.9708175293
  0
LINE
  5
263
100
AcDbEntity
  8
0
100
AcDbLine
 62
7
  6
CONTINUOUS
 10
75.5867294342
 20
269.5204113656
 11
75.5867294342
 21
265.7695599274
  0
LINE
  5
264
100
AcDbEntity
  8
0
100
AcDbLine
 62
7
  6
CONTINUOUS
 10
76.171775854
 20
246.3658761447
 11
76.171775854
 21
244.4879205854
  0
LINE
  5
265
100
AcDbEntity
  8
0
100
AcDbLine
 62
7
  6
CONTINUOUS
 10
76.4014443135
 20
265.9821885474
 11
76.4014443135
 21
265.6055923645
  0
LINE
  5
266
100
AcDbEntity
  8
0
100
AcDbLine
 62
7
  6
CONTINUOUS
 10
76.9230124069
 20
250.2280784203
 11
76.9230124069
 21
247.3994931153
  0
LINE
  5
267
100
AcDbEntity
  8
0
100
AcDbLine
 62
7
  6
CONTINUOUS
 10
77.3652479702
 20
268.0589017018
 11
77.3652479702
 21
266.0698408044
  0
LINE
  5
268
100
AcDbEntity
  8
0
100
AcDbLine
 62
7
  6
CONTINUOUS
 10
77.4014443135
 20
265.9821885474
 11
77.4014443135
 21
265.5366175432
  0
LINE
  5
269
100
AcDbEntity
  8
0
100
AcDbLine
 62
7
  6
CONTINUOUS
 10
77.7146814375
 20
242.7733005781
 11
77.7146814375
 21
240.3237933267
  0
LINE
  5
26A
100
AcDbEntity
  8
0
100
AcDbLine
 62
7
  6
CONTINUOUS
 10
73.9583570817
 20
223.4582595261
 11
99.5023302803
 21
238.2059912964
  0
LINE
  5
26B
100
AcDbEntity
  8
0
100
AcDbLine
 62
7
  6
CONTINUOUS
 10
65.5062150688
 20
209.998126948
 11
66.2304290308
 21
210.4162495781
  0
LINE
  5
26C
100
AcDbEntity
  8
0
100
AcDbLine
 62
7
  6
CONTINUOUS
 10
31.9488175503
 20
189.1239444045
 11
31.9112684298
 21
189.1532556333
  0
LINE
  5
26D
100
AcDbEntity
  8
0
100
AcDbLine
 62
7
  6
CONTINUOUS
 10
35.4468170555
 20
187.1120518607
 11
35.484366176
 21
187.0827406319
  0
LINE
  5
26E
100
AcDbEntity
  8
0
100
AcDbLine
 62
7
  6
CONTINUOUS
 10
78.329051627
 20
270.1356148562
 11
78.329051627
 21
268.1465539588
  0
LINE
  5
26F
100
AcDbEntity
  8
0
100
AcDbLine
 62
7
  6
CONTINUOUS
 10
78.3652479702
 20
268.0589017018
 11
78.3652479702
 21
265.5164842143
  0
LINE
  5
270
100
AcDbEntity
  8
0
100
AcDbLine
 62
7
  6
CONTINUOUS
 10
79.1288949999
 20
242.7733039774
 11
79.1288949999
 21
240.323796726
  0
LINE
  5
271
100
AcDbEntity
  8
0
100
AcDbLine
 62
7
  6
CONTINUOUS
 10
79.329051627
 20
270.1356148562
 11
79.329051627
 21
265.4963508853
  0
LINE
  5
272
100
AcDbEntity
  8
0
100
AcDbLine
 62
7
  6
CONTINUOUS
 10
79.9205176615
 20
250.2144894126
 11
79.9205176615
 21
247.3618029563
  0
LINE
  5
273
100
AcDbEntity
  8
0
100
AcDbLine
 62
7
  6
CONTINUOUS
 10
79.9984604068
 20
266.5386501854
 11
79.9984604068
 21
265.5708771111
  0
LINE
  5
274
100
AcDbEntity
  8
0
100
AcDbLine
 62
7
  6
CONTINUOUS
 10
80.671775854
 20
246.3658761447
 11
80.671775854
 21
244.4879205854
  0
LINE
  5
275
100
AcDbEntity
  8
0
100
AcDbLine
 62
7
  6
CONTINUOUS
 10
80.9622640635
 20
268.6153633398
 11
80.9622640635
 21
266.6263024424
  0
LINE
  5
276
100
AcDbEntity
  8
0
100
AcDbLine
 62
7
  6
CONTINUOUS
 10
80.9984604068
 20
266.5386501854
 11
80.9984604068
 21
265.7261530864
  0
LINE
  5
277
100
AcDbEntity
  8
0
100
AcDbLine
 62
7
  6
CONTINUOUS
 10
81.9622640635
 20
268.6153633398
 11
81.9622640635
 21
265.8758086393
  0
LINE
  5
278
100
AcDbEntity
  8
0
100
AcDbLine
 62
7
  6
CONTINUOUS
 10
83.5800155112
 20
267.1971347609
 11
83.5800155112
 21
266.4084307748
  0
LINE
  5
279
100
AcDbEntity
  8
0
100
AcDbLine
 62
7
  6
CONTINUOUS
 10
84.5800155112
 20
267.1971347609
 11
84.5800155112
 21
266.7717204659
  0
LINE
  5
27A
100
AcDbEntity
  8
0
100
AcDbLine
 62
7
  6
CONTINUOUS
 10
185.1401352239
 20
91.8306126974
 11
179.1297025602
 21
95.3006591109
  0
LINE
  5
27B
100
AcDbEntity
  8
0
100
AcDbLine
 62
7
  6
CONTINUOUS
 10
184.311685941
 20
93.6617572887
 11
178.3012532773
 21
97.1318037021
  0
LINE
  5
27C
100
AcDbEntity
  8
0
100
AcDbLine
 62
7
  6
CONTINUOUS
 10
189.2282960314
 20
96.5526666095
 11
186.4782722715
 21
98.1403576492
  0
LINE
  5
27D
100
AcDbEntity
  8
0
100
AcDbLine
 62
7
  6
CONTINUOUS
 10
35.4434564772
 20
187.1062310368
 11
31.9487618918
 21
189.1238482518
  0
LINE
  5
27E
100
AcDbEntity
  8
0
100
AcDbLine
 62
7
  6
CONTINUOUS
 10
35.4843105175
 20
187.0826444792
 11
55.1685064437
 21
175.7182257599
  0
LINE
  5
27F
100
AcDbEntity
  8
0
100
AcDbLine
 62
7
  6
CONTINUOUS
 10
31.9112684298
 20
189.1532556333
 11
55.0927862151
 21
175.7697028761
  0
LINE
  5
280
100
AcDbEntity
  8
0
100
AcDbLine
 62
7
  6
CONTINUOUS
 10
48.226711735
 20
180.6041379613
 11
30.5153236655
 21
190.8295813006
  0
LINE
  5
281
100
AcDbEntity
  8
0
100
AcDbLine
 62
7
  6
CONTINUOUS
 10
178.3012532773
 20
106.1291535428
 11
65.1492757839
 21
171.4551553375
  0
LINE
  5
282
100
AcDbEntity
  8
0
100
AcDbLine
 62
7
  6
CONTINUOUS
 10
65.1185995403
 20
171.4778695313
 11
178.3012532773
 21
106.1341683178
  0
LINE
  5
283
100
AcDbEntity
  8
0
100
AcDbLine
 62
7
  6
CONTINUOUS
 10
55.1684808628
 20
175.7182408254
 11
55.0927862151
 21
175.7697028761
  0
LINE
  5
284
100
AcDbEntity
  8
0
100
AcDbLine
 62
7
  6
CONTINUOUS
 10
65.14945635
 20
171.4554677572
 11
65.1185995403
 21
171.4778695313
  0
LINE
  5
285
100
AcDbEntity
  8
0
100
AcDbLine
 62
7
  6
CONTINUOUS
 10
89.6717175635
 20
270.9424255638
 11
89.6717175635
 21
268.4929183125
  0
LINE
  5
286
100
AcDbEntity
  8
0
100
AcDbLine
 62
7
  6
CONTINUOUS
 10
89.8236420876
 20
255.5697384314
 11
89.8236420876
 21
251.7058557228
  0
LINE
  5
287
100
AcDbEntity
  8
0
100
AcDbLine
 62
7
  6
CONTINUOUS
 10
89.9217175635
 20
268.4929183125
 11
89.9217175635
 21
260.3278941412
  0
LINE
  5
288
100
AcDbEntity
  8
0
100
AcDbLine
 62
7
  6
CONTINUOUS
 10
90.1717175635
 20
260.3278941412
 11
90.1717175635
 21
256.8985839892
  0
LINE
  5
289
100
AcDbEntity
  8
0
100
AcDbLine
 62
7
  6
CONTINUOUS
 10
90.1724318309
 20
254.4491103914
 11
90.1724318309
 21
252.571154832
  0
LINE
  5
28A
100
AcDbEntity
  8
0
100
AcDbLine
 62
7
  6
CONTINUOUS
 10
94.6724318309
 20
254.4491103914
 11
94.6724318309
 21
252.571154832
  0
LINE
  5
28B
100
AcDbEntity
  8
0
100
AcDbLine
 62
7
  6
CONTINUOUS
 10
95.3922832558
 20
249.7134122651
 11
95.3922773679
 21
252.9794044248
  0
LINE
  5
28C
100
AcDbEntity
  8
0
100
AcDbLine
 62
7
  6
CONTINUOUS
 10
64.2903611267
 20
171.8060376528
 11
65.1185995403
 21
171.4778695313
  0
LINE
  5
28D
100
AcDbEntity
  8
0
100
AcDbLine
 62
7
  6
CONTINUOUS
 10
178.3012532773
 20
106.5005525465
 11
64.2818222965
 21
172.3270196603
  0
LINE
  5
28E
100
AcDbEntity
  8
0
100
AcDbLine
 62
7
  6
CONTINUOUS
 10
188.2282649855
 20
101.1714507688
 11
190.9782887455
 21
99.5837597291
  0
LINE
  5
28F
100
AcDbEntity
  8
0
100
AcDbLine
 62
7
  6
CONTINUOUS
 10
184.311685941
 20
111.80197064
 11
178.3012532773
 21
115.2720170534
  0
LINE
  5
290
100
AcDbEntity
  8
0
100
AcDbLine
 62
7
  6
CONTINUOUS
 10
193.3534709117
 20
106.8727244007
 11
195.1212452246
 21
105.8521225144
  0
LINE
  5
291
100
AcDbEntity
  8
0
100
AcDbLine
 62
7
  6
CONTINUOUS
 10
171.9230235374
 20
109.8111115535
 11
171.8897429194
 21
109.8357718074
  0
LINE
  5
292
100
AcDbEntity
  8
0
100
AcDbLine
 62
7
  6
CONTINUOUS
 10
62.2531240097
 20
184.1521632383
 11
62.3451982816
 21
184.1124679749
  0
LINE
  5
293
100
AcDbEntity
  8
0
100
AcDbLine
 62
7
  6
CONTINUOUS
 10
62.3451982816
 20
184.1124679749
 11
169.1187667788
 21
122.4681140423
  0
LINE
  5
294
100
AcDbEntity
  8
0
100
AcDbLine
 62
7
  6
CONTINUOUS
 10
169.118147893
 20
122.4718821071
 11
183.9674521211
 21
113.8988262621
  0
LINE
  5
295
100
AcDbEntity
  8
0
100
AcDbLine
 62
7
  6
CONTINUOUS
 10
30.5153236655
 20
202.5442431104
 11
62.3352612971
 21
184.173409157
  0
LINE
  5
296
100
AcDbEntity
  8
0
100
AcDbLine
 62
7
  6
CONTINUOUS
 10
183.9674521211
 20
123.6503535728
 11
169.118147893
 21
132.2234094178
  0
LINE
  5
297
100
AcDbEntity
  8
0
100
AcDbLine
 62
7
  6
CONTINUOUS
 10
169.1187667788
 20
132.227892106
 11
30.52526065
 21
212.243079992
  0
LINE
  5
298
100
AcDbEntity
  8
0
100
AcDbLine
 62
7
  6
CONTINUOUS
 10
178.3012532773
 20
129.6147402129
 11
184.311685941
 21
126.1446937994
  0
LINE
  5
299
100
AcDbEntity
  8
0
100
AcDbLine
 62
7
  6
CONTINUOUS
 10
66.6794824738
 20
210.8309461376
 11
66.7546602797
 21
210.7598983554
  0
LINE
  5
29A
100
AcDbEntity
  8
0
100
AcDbLine
 62
7
  6
CONTINUOUS
 10
66.6794772969
 20
210.8309303424
 11
66.7546602797
 21
210.7598983554
  0
LINE
  5
29B
100
AcDbEntity
  8
0
100
AcDbLine
 62
7
  6
CONTINUOUS
 10
204.1032885161
 20
125.492375887
 11
203.396178791
 21
125.9006166415
  0
LINE
  5
29C
100
AcDbEntity
  8
0
100
AcDbLine
 62
7
  6
CONTINUOUS
 10
171.0531347183
 20
146.2444474376
 11
178.3012532773
 21
142.059838905
  0
LINE
  5
29D
100
AcDbEntity
  8
0
100
AcDbLine
 62
7
  6
CONTINUOUS
 10
32.4618846648
 20
226.2647357507
 11
171.0553907937
 21
146.2495478647
  0
LINE
  5
29E
100
AcDbEntity
  8
0
100
AcDbLine
 62
7
  6
CONTINUOUS
 10
225.7130126827
 20
114.7483190812
 11
204.8532757909
 21
126.7914213395
  0
LINE
  5
29F
100
AcDbEntity
  8
0
100
AcDbLine
 62
7
  6
CONTINUOUS
 10
171.8897429194
 20
148.0598628831
 11
178.3012532773
 21
144.3582593936
  0
LINE
  5
2A0
100
AcDbEntity
  8
0
100
AcDbLine
 62
7
  6
CONTINUOUS
 10
171.8921680375
 20
148.0649193602
 11
33.2986619087
 21
228.0801072462
  0
LINE
  5
2A1
100
AcDbEntity
  8
0
100
AcDbLine
 62
7
  6
CONTINUOUS
 10
172.2421031634
 20
148.4190377768
 11
65.4685346662
 21
210.0633917093
  0
LINE
  5
2A2
100
AcDbEntity
  8
0
100
AcDbLine
 62
7
  6
CONTINUOUS
 10
65.229520728
 20
210.2013833491
 11
33.6485970346
 21
228.4342256628
  0
LINE
  5
2A3
100
AcDbEntity
  8
0
100
AcDbLine
 62
7
  6
CONTINUOUS
 10
178.3012532773
 20
145.0115218592
 11
172.4204421745
 21
148.4067329224
  0
LINE
  5
2A4
100
AcDbEntity
  8
0
100
AcDbLine
 62
7
  6
CONTINUOUS
 10
32.8133934727
 20
229.680399873
 11
34.3805652318
 21
228.775613305
  0
LINE
  5
2A5
100
AcDbEntity
  8
0
100
AcDbLine
 62
7
  6
CONTINUOUS
 10
66.7546602797
 20
210.7598983554
 11
34.9347226481
 21
229.1307323089
  0
LINE
  5
2A6
100
AcDbEntity
  8
0
100
AcDbLine
 62
7
  6
CONTINUOUS
 10
178.3012532773
 20
146.938451147
 11
184.311685941
 21
143.4684047336
  0
LINE
  5
2A7
100
AcDbEntity
  8
0
100
AcDbLine
 62
7
  6
CONTINUOUS
 10
188.2283001948
 20
141.2976422769
 11
186.4783074808
 21
142.3080299294
  0
LINE
  5
2A8
100
AcDbEntity
  8
0
100
AcDbLine
 62
7
  6
CONTINUOUS
 10
189.2282960314
 20
147.0711762602
 11
190.9782887455
 21
146.0607886077
  0
LINE
  5
2A9
100
AcDbEntity
  8
0
100
AcDbLine
 62
7
  6
CONTINUOUS
 10
187.1401012899
 20
148.3673910176
 11
181.1296686261
 21
151.837437431
  0
LINE
  5
2AA
100
AcDbEntity
  8
0
100
AcDbLine
 62
7
  6
CONTINUOUS
 10
222.4954256291
 20
127.9861833751
 11
211.8887797519
 21
134.1097946929
  0
LINE
  5
2AB
100
AcDbEntity
  8
0
100
AcDbLine
 62
7
  6
CONTINUOUS
 10
182.7982679696
 20
152.8007979607
 11
176.9175390174
 21
156.1959615954
  0
LINE
  5
2AC
100
AcDbEntity
  8
0
100
AcDbLine
 62
7
  6
CONTINUOUS
 10
176.8177084494
 20
156.34426264
 11
70.0441399522
 21
217.9886165726
  0
LINE
  5
2AD
100
AcDbEntity
  8
0
100
AcDbLine
 62
7
  6
CONTINUOUS
 10
211.8887797519
 20
136.1197391619
 11
222.4954256291
 21
129.9961278441
  0
LINE
  5
2AE
100
AcDbEntity
  8
0
100
AcDbLine
 62
7
  6
CONTINUOUS
 10
176.9494159914
 20
156.8243783876
 11
70.1758474942
 21
218.4687323202
  0
LINE
  5
2AF
100
AcDbEntity
  8
0
100
AcDbLine
 62
7
  6
CONTINUOUS
 10
176.9525824414
 20
156.8290068443
 11
183.3640306405
 21
153.1274392413
  0
LINE
  5
2B0
100
AcDbEntity
  8
0
100
AcDbLine
 62
7
  6
CONTINUOUS
 10
38.4702712738
 20
237.670114288
 11
56.1480144025
 21
227.464095425
  0
LINE
  5
2B1
100
AcDbEntity
  8
0
100
AcDbLine
 62
7
  6
CONTINUOUS
 10
38.2788780965
 20
238.1888638992
 11
38.4702712738
 21
238.0783654966
  0
LINE
  5
2B2
100
AcDbEntity
  8
0
100
AcDbLine
 62
7
  6
CONTINUOUS
 10
57.0151228845
 20
227.779973398
 11
38.8238231924
 21
238.2824875735
  0
LINE
  5
2B3
100
AcDbEntity
  8
0
100
AcDbLine
 62
7
  6
CONTINUOUS
 10
56.8551182397
 20
228.2805907875
 11
40.5915945613
 21
237.6701281414
  0
LINE
  5
2B4
100
AcDbEntity
  8
0
100
AcDbLine
 62
7
  6
CONTINUOUS
 10
232.7128939135
 20
126.8727433048
 11
226.7631852221
 21
130.3077315096
  0
LINE
  5
2B5
100
AcDbEntity
  8
0
100
AcDbLine
 62
7
  6
CONTINUOUS
 10
212.6810400978
 20
138.4378778594
 11
211.8531570217
 21
138.9158455632
  0
LINE
  5
2B6
100
AcDbEntity
  8
0
100
AcDbLine
 62
7
  6
CONTINUOUS
 10
103.3411872265
 20
237.5666614496
 11
103.3212164299
 21
237.6037127623
  0
LINE
  5
2B7
100
AcDbEntity
  8
0
100
AcDbLine
 62
7
  6
CONTINUOUS
 10
226.0309448151
 20
132.0373486135
 11
215.4242989379
 21
138.1609599313
  0
LINE
  5
2B8
100
AcDbEntity
  8
0
100
AcDbLine
 62
7
  6
CONTINUOUS
 10
212.6031442964
 20
140.2148910157
 11
211.8960345713
 21
140.6231317702
  0
LINE
  5
2B9
100
AcDbEntity
  8
0
100
AcDbLine
 62
7
  6
CONTINUOUS
 10
40.5915945613
 20
241.4260392602
 11
56.8551182397
 21
232.0365019063
  0
LINE
  5
2BA
100
AcDbEntity
  8
0
100
AcDbLine
 62
7
  6
CONTINUOUS
 10
189.5707971433
 20
156.7108961621
 11
73.9583570817
 21
223.4582595261
  0
LINE
  5
2BB
100
AcDbEntity
  8
0
100
AcDbLine
 62
7
  6
CONTINUOUS
 10
62.2805493914
 20
184.1591522166
 11
48.226711735
 21
180.6041379613
  0
LINE
  5
2BC
100
AcDbEntity
  8
0
100
AcDbLine
 62
7
  6
CONTINUOUS
 10
70.1195001355
 20
217.1523557186
 11
56.168619506
 21
221.3451837271
  0
LINE
  5
2BD
100
AcDbEntity
  8
0
100
AcDbLine
 62
7
  6
CONTINUOUS
 10
44.4506198588
 20
253.6971010529
 11
52.0874048904
 21
249.2881009041
  0
LINE
  5
2BE
100
AcDbEntity
  8
0
100
AcDbLine
 62
7
  6
CONTINUOUS
 10
210.0932303868
 20
175.9242309311
 11
210.055241915
 21
175.9407221207
  0
LINE
  5
2BF
100
AcDbEntity
  8
0
100
AcDbLine
 62
7
  6
CONTINUOUS
 10
44.4505898303
 20
257.8611740857
 11
44.8748556654
 21
257.616229633
  0
LINE
  5
2C0
100
AcDbEntity
  8
0
100
AcDbLine
 62
7
  6
CONTINUOUS
 10
58.8756282233
 20
249.5330626935
 11
59.2998940584
 21
249.2881182408
  0
LINE
  5
2C1
100
AcDbEntity
  8
0
100
AcDbLine
 62
7
  6
CONTINUOUS
 10
77.7146814375
 20
240.3237933267
 11
74.5327147596
 21
242.1608610847
  0
LINE
  5
2C2
100
AcDbEntity
  8
0
100
AcDbLine
 62
7
  6
CONTINUOUS
 10
74.5327141701
 20
242.242605753
 11
73.8128686331
 21
242.6581993656
  0
LINE
  5
2C3
100
AcDbEntity
  8
0
100
AcDbLine
 62
7
  6
CONTINUOUS
 10
71.0984383376
 20
246.5931038973
 11
77.7146814375
 21
242.7733005781
  0
LINE
  5
2C4
100
AcDbEntity
  8
0
100
AcDbLine
 62
7
  6
CONTINUOUS
 10
223.3529619009
 20
158.834542502
 11
225.1207362137
 21
157.8139406157
  0
LINE
  5
2C5
100
AcDbEntity
  8
0
100
AcDbLine
 62
7
  6
CONTINUOUS
 10
169.1187667788
 20
122.4681140423
 11
171.0553907937
 21
110.6826657278
  0
LINE
  5
2C6
100
AcDbEntity
  8
0
100
AcDbLine
 62
7
  6
CONTINUOUS
 10
171.0531347183
 20
110.6851610791
 11
169.118147893
 21
122.4718821071
  0
LINE
  5
2C7
100
AcDbEntity
  8
0
100
AcDbLine
 62
7
  6
CONTINUOUS
 10
103.2848398678
 20
237.5841038764
 11
103.3196632015
 21
237.5685871333
  0
LINE
  5
2C8
100
AcDbEntity
  8
0
100
AcDbLine
 62
7
  6
CONTINUOUS
 10
99.5023302803
 20
238.2059912964
 11
215.1147703418
 21
171.4586279323
  0
LINE
  5
2C9
100
AcDbEntity
  8
0
100
AcDbLine
 62
7
  6
CONTINUOUS
 10
228.4781326177
 20
164.5357551483
 11
225.7281088578
 21
166.123446188
  0
LINE
  5
2CA
100
AcDbEntity
  8
0
100
AcDbLine
 62
7
  6
CONTINUOUS
 10
70.6737189011
 20
255.8547598779
 11
70.249453066
 21
256.0997043306
  0
LINE
  5
2CB
100
AcDbEntity
  8
0
100
AcDbLine
 62
7
  6
CONTINUOUS
 10
216.4666901142
 20
172.2391545177
 11
103.2848398678
 21
237.5841038764
  0
LINE
  5
2CC
100
AcDbEntity
  8
0
100
AcDbLine
 62
7
  6
CONTINUOUS
 10
103.3198421691
 20
237.5688974604
 11
216.4710314151
 21
172.241660954
  0
LINE
  5
2CD
100
AcDbEntity
  8
0
100
AcDbLine
 62
7
  6
CONTINUOUS
 10
227.4781015719
 20
169.1545393076
 11
230.2281253318
 21
167.5668482679
  0
LINE
  5
2CE
100
AcDbEntity
  8
0
100
AcDbLine
 62
7
  6
CONTINUOUS
 10
70.6736888726
 20
260.0188329107
 11
69.0621543657
 21
260.9492317436
  0
LINE
  5
2CF
100
AcDbEntity
  8
0
100
AcDbLine
 62
7
  6
CONTINUOUS
 10
96.2589014506
 20
250.6069818604
 11
96.3403699192
 21
250.5541652473
  0
LINE
  5
2D0
100
AcDbEntity
  8
0
100
AcDbLine
 62
7
  6
CONTINUOUS
 10
178.3012532773
 20
97.1318037021
 11
178.3012532773
 21
115.2720170534
  0
LINE
  5
2D1
100
AcDbEntity
  8
0
100
AcDbLine
 62
7
  6
CONTINUOUS
 10
178.3012532773
 20
129.6147402129
 11
178.3012532773
 21
146.938451147
  0
LINE
  5
2D2
100
AcDbEntity
  8
0
100
AcDbLine
 62
7
  6
CONTINUOUS
 10
169.118147893
 20
132.2234094178
 11
171.0531347183
 21
146.2444474376
  0
LINE
  5
2D3
100
AcDbEntity
  8
0
100
AcDbLine
 62
7
  6
CONTINUOUS
 10
171.0553907937
 20
146.2495478647
 11
169.1187667788
 21
132.227892106
  0
LINE
  5
2D4
100
AcDbEntity
  8
0
100
AcDbLine
 62
7
  6
CONTINUOUS
 10
206.2758987775
 20
176.5616373638
 11
180.7319255789
 21
161.8139055936
  0
LINE
  5
2D5
100
AcDbEntity
  8
0
100
AcDbLine
 62
7
  6
CONTINUOUS
 10
58.2693318021
 20
228.2805941868
 11
56.8551182397
 21
228.2805907875
  0
LINE
  5
2D6
100
AcDbEntity
  8
0
100
AcDbLine
 62
7
  6
CONTINUOUS
 10
103.3411872265
 20
237.5666614496
 11
103.2836624602
 21
237.5782687441
  0
LINE
  5
2D7
100
AcDbEntity
  8
0
100
AcDbLine
 62
7
  6
CONTINUOUS
 10
103.3411872265
 20
237.5666614496
 11
103.2862531286
 21
237.583669336
  0
LINE
  5
2D8
100
AcDbEntity
  8
0
100
AcDbLine
 62
7
  6
CONTINUOUS
 10
223.5558988589
 20
176.3320866633
 11
229.5663315227
 21
172.8620402499
  0
LINE
  5
2D9
100
AcDbEntity
  8
0
100
AcDbLine
 62
7
  6
CONTINUOUS
 10
95.3922832558
 20
250.9381345287
 11
96.2593858499
 21
250.4375239379
  0
LINE
  5
2DA
100
AcDbEntity
  8
0
100
AcDbLine
 62
7
  6
CONTINUOUS
 10
95.3922832558
 20
251.107230324
 11
96.2589143762
 21
250.6068919326
  0
LINE
  5
2DB
100
AcDbEntity
  8
0
100
AcDbLine
 62
7
  6
CONTINUOUS
 10
231.5662975886
 20
173.0601517881
 11
225.5558649249
 21
176.5301982016
  0
LINE
  5
2DC
100
AcDbEntity
  8
0
100
AcDbLine
 62
7
  6
CONTINUOUS
 10
95.3922773679
 20
252.9794044248
 11
94.6724318309
 21
253.3949980374
  0
LINE
  5
2DD
100
AcDbEntity
  8
0
100
AcDbLine
 62
7
  6
CONTINUOUS
 10
90.9972811106
 20
255.5167992935
 11
90.0168213679
 21
256.082855184
  0
LINE
  5
2DE
100
AcDbEntity
  8
0
100
AcDbLine
 62
7
  6
CONTINUOUS
 10
183.9674521211
 20
113.8988262621
 11
184.311685941
 21
111.80197064
  0
LINE
  5
2DF
100
AcDbEntity
  8
0
100
AcDbLine
 62
7
  6
CONTINUOUS
 10
184.311685941
 20
143.4684047336
 11
184.311685941
 21
126.1446937994
  0
LINE
  5
2E0
100
AcDbEntity
  8
0
100
AcDbLine
 62
7
  6
CONTINUOUS
 10
184.311685941
 20
111.80197064
 11
184.311685941
 21
93.6617572887
  0
LINE
  5
2E1
100
AcDbEntity
  8
0
100
AcDbLine
 62
7
  6
CONTINUOUS
 10
181.1296686261
 20
151.837437431
 11
189.5707971433
 21
156.7108961621
  0
LINE
  5
2E2
100
AcDbEntity
  8
0
100
AcDbLine
 62
7
  6
CONTINUOUS
 10
215.1147703418
 20
171.4586279323
 11
223.5558988589
 21
176.3320866633
  0
LINE
  5
2E3
100
AcDbEntity
  8
0
100
AcDbLine
 62
7
  6
CONTINUOUS
 10
56.8551182397
 20
232.0365019063
 11
58.2693318021
 21
232.0365053056
  0
LINE
  5
2E4
100
AcDbEntity
  8
0
100
AcDbLine
 62
7
  6
CONTINUOUS
 10
79.1288949999
 20
240.323796726
 11
77.7146814375
 21
240.3237933267
  0
LINE
  5
2E5
100
AcDbEntity
  8
0
100
AcDbLine
 62
7
  6
CONTINUOUS
 10
184.311685941
 20
126.1446937994
 11
183.9674521211
 21
123.6503535728
  0
LINE
  5
2E6
100
AcDbEntity
  8
0
100
AcDbLine
 62
7
  6
CONTINUOUS
 10
229.5663315227
 20
172.8620402499
 11
187.1401012899
 21
148.3673910176
  0
LINE
  5
2E7
100
AcDbEntity
  8
0
100
AcDbLine
 62
7
  6
CONTINUOUS
 10
77.7146814375
 20
242.7733005781
 11
79.1288949999
 21
242.7733039774
  0
LINE
  5
2E8
100
AcDbEntity
  8
0
100
AcDbLine
 62
7
  6
CONTINUOUS
 10
211.1565393449
 20
135.3220888978
 11
211.1565393449
 21
137.1403495466
  0
LINE
  5
2E9
100
AcDbEntity
  8
0
100
AcDbLine
 62
7
  6
CONTINUOUS
 10
211.8887797519
 20
134.1097946929
 11
211.8887797519
 21
136.1197391619
  0
LINE
  5
2EA
100
AcDbEntity
  8
0
100
AcDbLine
 62
7
  6
CONTINUOUS
 10
222.4954256291
 20
129.9961278441
 11
222.4954256291
 21
127.9861833751
  0
LINE
  5
2EB
100
AcDbEntity
  8
0
100
AcDbLine
 62
7
  6
CONTINUOUS
 10
186.4783074808
 20
98.1404186348
 11
188.2283001948
 21
101.1715117544
  0
LINE
  5
2EC
100
AcDbEntity
  8
0
100
AcDbLine
 62
7
  6
CONTINUOUS
 10
225.7281440671
 20
166.1235071736
 11
227.4781367811
 21
169.1546002932
  0
LINE
  5
2ED
100
AcDbEntity
  8
0
100
AcDbLine
 62
7
  6
CONTINUOUS
 10
229.5665081607
 20
123.9132456051
 11
230.5883241747
 21
124.2855212479
  0
LINE
  5
2EE
100
AcDbEntity
  8
0
100
AcDbLine
 62
7
  6
CONTINUOUS
 10
226.7631852221
 20
129.19847758
 11
226.7631852221
 21
131.0167382288
  0
LINE
  5
2EF
100
AcDbEntity
  8
0
100
AcDbLine
 62
7
  6
CONTINUOUS
 10
232.3947468716
 20
127.0564214298
 11
232.3947468716
 21
139.5625731033
  0
LINE
  5
2F0
100
AcDbEntity
  8
0
100
AcDbLine
 62
7
  6
CONTINUOUS
 10
232.3947468716
 20
153.9052962627
 11
232.3947468716
 21
171.2290071969
  0
LINE
  5
2F1
100
AcDbEntity
  8
0
100
AcDbLine
 62
7
  6
CONTINUOUS
 10
234.1626831024
 20
123.2600420091
 11
234.1626801584
 21
123.6682878628
  0
LINE
  5
2F2
100
AcDbEntity
  8
0
100
AcDbLine
 62
7
  6
CONTINUOUS
 10
230.2281253318
 20
167.5668482679
 11
228.4781326177
 21
164.5357551483
  0
LINE
  5
2F3
100
AcDbEntity
  8
0
100
AcDbLine
 62
7
  6
CONTINUOUS
 10
190.9782887455
 20
99.5837597291
 11
189.2282960314
 21
96.5526666095
  0
LINE
  5
2F4
100
AcDbEntity
  8
0
100
AcDbLine
 62
7
  6
CONTINUOUS
 10
232.7389806914
 20
151.8084406406
 11
232.3947468716
 21
153.9052962627
  0
LINE
  5
2F5
100
AcDbEntity
  8
0
100
AcDbLine
 62
7
  6
CONTINUOUS
 10
232.3947468716
 20
139.5625731033
 11
232.7389806914
 21
142.0569133299
  0
LINE
  5
2F6
100
AcDbEntity
  8
0
100
AcDbLine
 62
7
  6
CONTINUOUS
 10
187.1401012899
 20
92.0287242357
 11
226.1689489629
 21
114.5619054409
  0
LINE
  5
2F7
100
AcDbEntity
  8
0
100
AcDbLine
 62
7
  6
CONTINUOUS
 10
229.5665081607
 20
115.2991451044
 11
229.2129532981
 21
115.0950142731
  0
ARC
  5
2F8
100
AcDbEntity
  8
0
100
AcDbCircle
 62
7
  6
CONTINUOUS
 10
95.5505939185
 20
197.8736389564
 40
65.122160614
100
AcDbArc
 50
154.3737468961
 51
156.1325252575
  0
ARC
  5
2F9
100
AcDbEntity
  8
0
100
AcDbCircle
 62
7
  6
CONTINUOUS
 10
123.8349829242
 20
181.5440087757
 40
65.1221606137
100
AcDbArc
 50
154.3737468961
 51
156.1325252575
  0
ARC
  5
2FA
100
AcDbEntity
  8
0
100
AcDbCircle
 62
7
  6
CONTINUOUS
 10
95.3878165716
 20
197.9486695383
 40
64.9429443627
100
AcDbArc
 50
154.3713199464
 51
156.1349522072
  0
ARC
  5
2FB
100
AcDbEntity
  8
0
100
AcDbCircle
 62
7
  6
CONTINUOUS
 10
123.6722055775
 20
181.6190393575
 40
64.9429443628
100
AcDbArc
 50
154.3713199464
 51
156.1349522072
  0
ARC
  5
2FC
100
AcDbEntity
  8
0
100
AcDbCircle
 62
7
  6
CONTINUOUS
 10
123.0531747117
 20
182.3247612245
 40
64.049967477
100
AcDbArc
 50
141.5865786331
 51
145.6453109003
  0
ARC
  5
2FD
100
AcDbEntity
  8
0
100
AcDbCircle
 62
7
  6
CONTINUOUS
 10
121.7495881963
 20
183.3458672651
 40
62.3941005518
100
AcDbArc
 50
141.2651362317
 51
141.5775117935
  0
ARC
  5
2FE
100
AcDbEntity
  8
0
100
AcDbCircle
 62
7
  6
CONTINUOUS
 10
121.098517265
 20
183.8723582018
 40
61.5567983319
100
AcDbArc
 50
139.9664351172
 51
141.2682103438
  0
ARC
  5
2FF
100
AcDbEntity
  8
0
100
AcDbCircle
 62
7
  6
CONTINUOUS
 10
97.0443384211
 20
188.7483497707
 40
35.0629648142
100
AcDbArc
 50
177.2163081056
 51
179.023717139
  0
ARC
  5
300
100
AcDbEntity
  8
0
100
AcDbCircle
 62
7
  6
CONTINUOUS
 10
94.3719272833
 20
188.7905950391
 40
32.3902219907
100
AcDbArc
 50
179.0178888761
 51
182.8256145499
  0
ARC
  5
301
100
AcDbEntity
  8
0
100
AcDbCircle
 62
7
  6
CONTINUOUS
 10
91.3409867811
 20
188.6665470295
 40
29.3568624925
100
AcDbArc
 50
182.8754159373
 51
185.3155627668
  0
ARC
  5
302
100
AcDbEntity
  8
0
100
AcDbCircle
 62
7
  6
CONTINUOUS
 10
88.851107111
 20
188.4367960172
 40
26.8564060653
100
AcDbArc
 50
185.3196206621
 51
189.1342031275
  0
ARC
  5
303
100
AcDbEntity
  8
0
100
AcDbCircle
 62
7
  6
CONTINUOUS
 10
74.5081421079
 20
195.2142932756
 40
25.537838045
100
AcDbArc
 50
247.8889596926
 51
248.4170065696
  0
ARC
  5
304
100
AcDbEntity
  8
0
100
AcDbCircle
 62
7
  6
CONTINUOUS
 10
87.0952940814
 20
188.1794649622
 40
25.0820195876
100
AcDbArc
 50
189.190541741
 51
189.3315904866
  0
ARC
  5
305
100
AcDbEntity
  8
0
100
AcDbCircle
 62
7
  6
CONTINUOUS
 10
65.6573909341
 20
185.9638072035
 40
14.6809937772
100
AcDbArc
 50
221.3553501603
 51
223.1061247899
  0
ARC
  5
306
100
AcDbEntity
  8
0
100
AcDbCircle
 62
7
  6
CONTINUOUS
 10
65.509803712
 20
185.8264187557
 40
14.4793572998
100
AcDbArc
 50
223.1082939385
 51
223.9917993495
  0
ARC
  5
307
100
AcDbEntity
  8
0
100
AcDbCircle
 62
7
  6
CONTINUOUS
 10
74.6843221216
 20
181.7335391692
 40
14.024785627
100
AcDbArc
 50
222.1216417409
 51
223.7541279602
  0
ARC
  5
308
100
AcDbEntity
  8
0
100
AcDbCircle
 62
7
  6
CONTINUOUS
 10
74.5210487481
 20
181.5773016159
 40
13.7988025221
100
AcDbArc
 50
223.7543836241
 51
225.404653248
  0
ARC
  5
309
100
AcDbEntity
  8
0
100
AcDbCircle
 62
7
  6
CONTINUOUS
 10
74.4712047576
 20
181.5288750185
 40
13.7293093655
100
AcDbArc
 50
223.7522613545
 51
227.0613751573
  0
ARC
  5
30A
100
AcDbEntity
  8
0
100
AcDbCircle
 62
7
  6
CONTINUOUS
 10
74.3794338633
 20
181.4337646544
 40
13.5971651479
100
AcDbArc
 50
225.4049269203
 51
227.0714605804
  0
ARC
  5
30B
100
AcDbEntity
  8
0
100
AcDbCircle
 62
7
  6
CONTINUOUS
 10
60.3337741772
 20
191.7421332744
 40
7.8288910745
100
AcDbArc
 50
284.3985581616
 51
284.8123396638
  0
ARC
  5
30C
100
AcDbEntity
  8
0
100
AcDbCircle
 62
7
  6
CONTINUOUS
 10
91.8522679458
 20
199.9898733109
 40
64.9429443626
100
AcDbArc
 50
154.3713199464
 51
156.1349522072
  0
ARC
  5
30D
100
AcDbEntity
  8
0
100
AcDbCircle
 62
7
  6
CONTINUOUS
 10
82.2075486961
 20
214.0837250217
 40
45.917626895
100
AcDbArc
 50
247.0328798681
 51
247.8507077679
  0
ARC
  5
30E
100
AcDbEntity
  8
0
100
AcDbCircle
 62
7
  6
CONTINUOUS
 10
57.4410751087
 20
278.5439241088
 40
17.8237073086
100
AcDbArc
 50
259.9026294603
 51
262.3172108646
  0
ARC
  5
30F
100
AcDbEntity
  8
0
100
AcDbCircle
 62
7
  6
CONTINUOUS
 10
98.9145185343
 20
221.9208835338
 40
16.2957275142
100
AcDbArc
 50
87.8557281878
 51
88.2252448575
  0
ARC
  5
310
100
AcDbEntity
  8
0
100
AcDbCircle
 62
7
  6
CONTINUOUS
 10
78.4369734042
 20
249.6603035701
 40
16.1519153496
100
AcDbArc
 50
84.4004971241
 51
86.8234843354
  0
ARC
  5
311
100
AcDbEntity
  8
0
100
AcDbCircle
 62
7
  6
CONTINUOUS
 10
98.9396138397
 20
222.4480242627
 40
15.7680178456
100
AcDbArc
 50
84.7529466064
 51
87.8751839693
  0
ARC
  5
312
100
AcDbEntity
  8
0
100
AcDbCircle
 62
7
  6
CONTINUOUS
 10
78.3529482891
 20
250.1554740507
 40
15.6538292526
100
AcDbArc
 50
97.2380107725
 51
97.5174862832
  0
ARC
  5
313
100
AcDbEntity
  8
0
100
AcDbCircle
 62
7
  6
CONTINUOUS
 10
98.9760291477
 20
222.8613354897
 40
15.3531084267
100
AcDbArc
 50
83.9517178539
 51
84.7472190649
  0
ARC
  5
314
100
AcDbEntity
  8
0
100
AcDbCircle
 62
7
  6
CONTINUOUS
 10
57.6519793959
 20
252.884732086
 40
15.0250066936
100
AcDbArc
 50
78.7927330781
 51
85.5172597876
  0
ARC
  5
315
100
AcDbEntity
  8
0
100
AcDbCircle
 62
7
  6
CONTINUOUS
 10
76.3838289984
 20
258.5370289518
 40
12.2806311852
100
AcDbArc
 50
243.7582722825
 51
244.5790774429
  0
ARC
  5
316
100
AcDbEntity
  8
0
100
AcDbCircle
 62
7
  6
CONTINUOUS
 10
56.6668828652
 20
256.0023661274
 40
11.8009489858
100
AcDbArc
 50
108.4612473997
 51
111.3044510762
  0
ARC
  5
317
100
AcDbEntity
  8
0
100
AcDbCircle
 62
7
  6
CONTINUOUS
 10
60.735580526
 20
218.0790922247
 40
9.5201457833
100
AcDbArc
 50
329.6955131265
 51
330.5372930933
  0
ARC
  5
318
100
AcDbEntity
  8
0
100
AcDbCircle
 62
7
  6
CONTINUOUS
 10
62.2739788168
 20
216.7448792556
 40
7.4785867293
100
AcDbArc
 50
312.1202516292
 51
313.329076845
  0
ARC
  5
319
100
AcDbEntity
  8
0
100
AcDbCircle
 62
7
  6
CONTINUOUS
 10
77.9019434036
 20
245.7549600687
 40
1.860133561
100
AcDbArc
 50
119.9884664752
 51
122.2555767243
  0
ARC
  5
31A
100
AcDbEntity
  8
0
100
AcDbCircle
 62
7
  6
CONTINUOUS
 10
91.9025993805
 20
253.8381943154
 40
1.860133561
100
AcDbArc
 50
119.9884664752
 51
122.2555767243
  0
ARC
  5
31B
100
AcDbEntity
  8
0
100
AcDbCircle
 62
7
  6
CONTINUOUS
 10
57.0423209285
 20
235.0182652728
 40
1.8600139631
100
AcDbArc
 50
119.9884842859
 51
122.2550319343
  0
ARC
  5
31C
100
AcDbEntity
  8
0
100
AcDbCircle
 62
7
  6
CONTINUOUS
 10
43.0415483706
 20
243.1014322123
 40
1.8600139631
100
AcDbArc
 50
119.9884842858
 51
122.2550319343
  0
ARC
  5
31D
100
AcDbEntity
  8
0
100
AcDbCircle
 62
7
  6
CONTINUOUS
 10
65.8966518633
 20
209.3359151748
 40
0.8629957715
100
AcDbArc
 50
147.0326301469
 51
154.3653983411
  0
ARC
  5
31E
100
AcDbEntity
  8
0
100
AcDbCircle
 62
7
  6
CONTINUOUS
 10
37.607783677
 20
225.6680068078
 40
0.8578926178
100
AcDbArc
 50
142.0165098764
 51
154.384188489
  0
ARC
  5
31F
100
AcDbEntity
  8
0
100
AcDbCircle
 62
7
  6
CONTINUOUS
 10
37.5389050937
 20
225.7220229082
 40
0.7703599931
100
AcDbArc
 50
135.4052457613
 51
142.0302395912
  0
ARC
  5
320
100
AcDbEntity
  8
0
100
AcDbCircle
 62
7
  6
CONTINUOUS
 10
52.5892773668
 20
266.2721426469
 40
0.4926561337
100
AcDbArc
 50
296.5699240123
 51
299.9658030707
  0
ARC
  5
321
100
AcDbEntity
  8
0
100
AcDbCircle
 62
7
  6
CONTINUOUS
 10
230.9127813235
 20
119.7550861843
 40
65.4589905751
100
AcDbArc
 50
154.3748244015
 51
154.669543592
  0
ARC
  5
322
100
AcDbEntity
  8
0
100
AcDbCircle
 62
7
  6
CONTINUOUS
 10
230.7681592594
 20
119.8235355426
 40
65.2989879
100
AcDbArc
 50
154.669537838
 51
154.9622792216
  0
ARC
  5
323
100
AcDbEntity
  8
0
100
AcDbCircle
 62
7
  6
CONTINUOUS
 10
230.7883390144
 20
119.9962539999
 40
65.229904018
100
AcDbArc
 50
144.5142069654
 51
145.6262038417
  0
ARC
  5
324
100
AcDbEntity
  8
0
100
AcDbCircle
 62
7
  6
CONTINUOUS
 10
230.6129567268
 20
119.8960302372
 40
65.1276890183
100
AcDbArc
 50
154.9622777319
 51
155.2555347218
  0
ARC
  5
325
100
AcDbEntity
  8
0
100
AcDbCircle
 62
7
  6
CONTINUOUS
 10
230.4500792848
 20
119.9710930925
 40
64.9483471845
100
AcDbArc
 50
155.2555302376
 51
155.5493268662
  0
ARC
  5
326
100
AcDbEntity
  8
0
100
AcDbCircle
 62
7
  6
CONTINUOUS
 10
230.4429655905
 20
119.9759718524
 40
64.9398554094
100
AcDbArc
 50
154.3762193419
 51
156.1399082845
  0
ARC
  5
327
100
AcDbEntity
  8
0
100
AcDbCircle
 62
7
  6
CONTINUOUS
 10
230.2796836196
 20
120.0485678547
 40
64.7611653972
100
AcDbArc
 50
155.5493253179
 51
155.8436851371
  0
ARC
  5
328
100
AcDbEntity
  8
0
100
AcDbCircle
 62
7
  6
CONTINUOUS
 10
230.3208205156
 20
120.3290913738
 40
64.6560101957
100
AcDbArc
 50
143.7699054639
 51
144.5138711083
  0
ARC
  5
329
100
AcDbEntity
  8
0
100
AcDbCircle
 62
7
  6
CONTINUOUS
 10
230.0988574652
 20
120.1296619895
 40
64.5629878083
100
AcDbArc
 50
155.8436797116
 51
156.1361674472
  0
ARC
  5
32A
100
AcDbEntity
  8
0
100
AcDbCircle
 62
7
  6
CONTINUOUS
 10
229.7292975283
 20
120.7638993497
 40
63.9218738813
100
AcDbArc
 50
142.5212545635
 51
143.7709186402
  0
ARC
  5
32B
100
AcDbEntity
  8
0
100
AcDbCircle
 62
7
  6
CONTINUOUS
 10
229.1208768188
 20
121.2288555711
 40
63.1561333704
100
AcDbArc
 50
141.8903863908
 51
142.5201437514
  0
ARC
  5
32C
100
AcDbEntity
  8
0
100
AcDbCircle
 62
7
  6
CONTINUOUS
 10
228.1017994507
 20
122.0371488691
 40
61.8554389375
100
AcDbArc
 50
139.9796259327
 51
141.8969155588
  0
ARC
  5
32D
100
AcDbEntity
  8
0
100
AcDbCircle
 62
7
  6
CONTINUOUS
 10
208.5964929178
 20
126.7641942302
 40
39.8540193152
100
AcDbArc
 50
172.1203479387
 51
175.8651038078
  0
ARC
  5
32E
100
AcDbEntity
  8
0
100
AcDbCircle
 62
7
  6
CONTINUOUS
 10
205.4654994723
 20
127.022289035
 40
36.7125794296
100
AcDbArc
 50
175.9145188451
 51
177.2329698179
  0
ARC
  5
32F
100
AcDbEntity
  8
0
100
AcDbCircle
 62
7
  6
CONTINUOUS
 10
198.4005079985
 20
127.0383862924
 40
29.6432672947
100
AcDbArc
 50
182.9198276776
 51
184.4402467415
  0
ARC
  5
330
100
AcDbEntity
  8
0
100
AcDbCircle
 62
7
  6
CONTINUOUS
 10
205.7264341922
 20
161.0038666559
 40
15.5674705951
100
AcDbArc
 50
83.1610911757
 51
87.9772859157
  0
ARC
  5
331
100
AcDbEntity
  8
0
100
AcDbCircle
 62
7
  6
CONTINUOUS
 10
205.7986626807
 20
161.6317375927
 40
14.9354665097
100
AcDbArc
 50
81.5026157888
 51
83.1493860942
  0
ARC
  5
332
100
AcDbEntity
  8
0
100
AcDbCircle
 62
7
  6
CONTINUOUS
 10
205.8787278385
 20
162.1434974027
 40
14.4174941589
100
AcDbArc
 50
78.1402119694
 51
81.5167889943
  0
ARC
  5
333
100
AcDbEntity
  8
0
100
AcDbCircle
 62
7
  6
CONTINUOUS
 10
181.5017268898
 20
120.1293860033
 40
14.0842629128
100
AcDbArc
 50
222.1233362104
 51
222.9304585115
  0
ARC
  5
334
100
AcDbEntity
  8
0
100
AcDbCircle
 62
7
  6
CONTINUOUS
 10
205.957164058
 20
162.5195152129
 40
14.0333830289
100
AcDbArc
 50
76.0782241582
 51
78.1381039292
  0
ARC
  5
335
100
AcDbEntity
  8
0
100
AcDbCircle
 62
7
  6
CONTINUOUS
 10
181.4151764332
 20
120.0488766149
 40
13.9660565545
100
AcDbArc
 50
222.9304706546
 51
223.7490065687
  0
ARC
  5
336
100
AcDbEntity
  8
0
100
AcDbCircle
 62
7
  6
CONTINUOUS
 10
181.3476049459
 20
119.9858886215
 40
13.8737035461
100
AcDbArc
 50
222.0968129061
 51
225.3885887704
  0
ARC
  5
337
100
AcDbEntity
  8
0
100
AcDbCircle
 62
7
  6
CONTINUOUS
 10
181.3333419982
 20
119.9705524843
 40
13.8527801488
100
AcDbArc
 50
223.7490441523
 51
224.5720435266
  0
ARC
  5
338
100
AcDbEntity
  8
0
100
AcDbCircle
 62
7
  6
CONTINUOUS
 10
181.2568381146
 20
119.8951903794
 40
13.7453916436
100
AcDbArc
 50
224.5720654336
 51
225.4062899831
  0
ARC
  5
339
100
AcDbEntity
  8
0
100
AcDbCircle
 62
7
  6
CONTINUOUS
 10
206.0408890311
 20
162.8537567019
 40
13.6888158993
100
AcDbArc
 50
72.9330360007
 51
76.0817738595
  0
ARC
  5
33A
100
AcDbEntity
  8
0
100
AcDbCircle
 62
7
  6
CONTINUOUS
 10
181.1861551389
 20
119.8235171574
 40
13.6447281764
100
AcDbArc
 50
225.4063470867
 51
226.2307054147
  0
ARC
  5
33B
100
AcDbEntity
  8
0
100
AcDbCircle
 62
7
  6
CONTINUOUS
 10
181.1541057877
 20
119.7905623689
 40
13.5987600346
100
AcDbArc
 50
225.3910019735
 51
227.0574053385
  0
ARC
  5
33C
100
AcDbEntity
  8
0
100
AcDbCircle
 62
7
  6
CONTINUOUS
 10
181.1203099992
 20
119.7547841902
 40
13.549545178
100
AcDbArc
 50
226.2307153879
 51
227.0729568097
  0
ARC
  5
33D
100
AcDbEntity
  8
0
100
AcDbCircle
 62
7
  6
CONTINUOUS
 10
228.330533017
 20
123.2620546618
 40
5.8321370164
100
AcDbArc
 50
359.9801512262
 51
3.9955196119
  0
ARC
  5
33E
100
AcDbEntity
  8
0
100
AcDbCircle
 62
7
  6
CONTINUOUS
 10
226.708720076
 20
120.2370110879
 40
5.7052145629
100
AcDbArc
 50
295.8735678615
 51
300.0600964364
  0
ARC
  5
33F
100
AcDbEntity
  8
0
100
AcDbCircle
 62
7
  6
CONTINUOUS
 10
228.775204281
 20
123.2870765169
 40
5.3868064076
100
AcDbArc
 50
4.0595818662
 51
4.3766735975
  0
ARC
  5
340
100
AcDbEntity
  8
0
100
AcDbCircle
 62
7
  6
CONTINUOUS
 10
170.9315780364
 20
152.1846119802
 40
3.9871644252
100
AcDbArc
 50
290.9782616077
 51
291.5286938904
  0
ARC
  5
341
100
AcDbEntity
  8
0
100
AcDbCircle
 62
7
  6
CONTINUOUS
 10
173.0473242361
 20
155.6201820138
 40
3.839282468
100
AcDbArc
 50
9.013072638
 51
10.8709707794
  0
ARC
  5
342
100
AcDbEntity
  8
0
100
AcDbCircle
 62
7
  6
CONTINUOUS
 10
170.9840660293
 20
152.0461799947
 40
3.8391168385
100
AcDbArc
 50
289.1285793441
 51
290.9864946041
  0
ARC
  5
343
100
AcDbEntity
  8
0
100
AcDbCircle
 62
7
  6
CONTINUOUS
 10
172.4895752289
 20
147.8608514232
 40
0.614555679
100
AcDbArc
 50
127.9894325556
 51
130.6232474289
  0
ARC
  5
344
100
AcDbEntity
  8
0
100
AcDbCircle
 62
7
  6
CONTINUOUS
 10
177.4200507529
 20
156.4097814894
 40
0.609701558
100
AcDbArc
 50
169.909765399
 51
172.0138085834
  0
ARC
  5
345
100
AcDbEntity
  8
0
100
AcDbCircle
 62
7
  6
CONTINUOUS
 10
177.1715049471
 20
156.4119049284
 40
0.3602047209
100
AcDbArc
 50
186.3822087902
 51
190.8237490706
  0
SPLINE
  5
346
100
AcDbEntity
  8
0
100
AcDbSpline
 62
7
  6
CONTINUOUS
 70
0
 71
3
 72
15
 73
11
 74
0
 42
0.0000001
 43
0.0000001
 44
0.0000000001
 40
0.0
 40
0.0
 40
0.0
 40
0.0
 40
0.0869258731
 40
0.1863900355
 40
0.3037775758
 40
0.4375856292
 40
0.582082136
 40
0.7293904368
 40
0.8711742898
 40
1.0
 40
1.0
 40
1.0
 40
1.0
 10
73.4048646907
 20
267.660331333
 30
0.0
 10
73.4048652163
 20
267.68916769
 30
0.0
 10
73.3874659948
 20
267.7515684599
 30
0.0
 10
73.3194477606
 20
267.8289146904
 30
0.0
 10
73.2190549886
 20
267.890092365
 30
0.0
 10
73.0937167201
 20
267.9319759006
 30
0.0
 10
72.9532125027
 20
267.9517071096
 30
0.0
 10
72.808737724
 20
267.9477312976
 30
0.0
 10
72.6721554132
 20
267.9203919831
 30
0.0
 10
72.5883409063
 20
267.8858196272
 30
0.0
 10
72.5513303889
 20
267.8644517225
 30
0.0
  0
SPLINE
  5
347
100
AcDbEntity
  8
0
100
AcDbSpline
 62
7
  6
CONTINUOUS
 70
0
 71
3
 72
15
 73
11
 74
0
 42
0.0000001
 43
0.0000001
 44
0.0000000001
 40
0.0
 40
0.0
 40
0.0
 40
0.0
 40
0.0869258731
 40
0.1863900355
 40
0.3037775758
 40
0.4375856292
 40
0.582082136
 40
0.7293904368
 40
0.8711742898
 40
1.0
 40
1.0
 40
1.0
 40
1.0
 10
79.3290310662
 20
270.1356148439
 30
0.0
 10
79.3290315919
 20
270.1644512009
 30
0.0
 10
79.3116323704
 20
270.2268519709
 30
0.0
 10
79.2436141361
 20
270.3041982013
 30
0.0
 10
79.1432213642
 20
270.3653758759
 30
0.0
 10
79.0178830957
 20
270.4072594115
 30
0.0
 10
78.8773788782
 20
270.4269906205
 30
0.0
 10
78.7329040995
 20
270.4230148085
 30
0.0
 10
78.5963217887
 20
270.395675494
 30
0.0
 10
78.5125072818
 20
270.3611031381
 30
0.0
 10
78.4754967644
 20
270.3397352335
 30
0.0
  0
SPLINE
  5
348
100
AcDbEntity
  8
0
100
AcDbSpline
 62
7
  6
CONTINUOUS
 70
0
 71
3
 72
21
 73
17
 74
0
 42
0.0000001
 43
0.0000001
 44
0.0000000001
 40
0.0
 40
0.0
 40
0.0
 40
0.0
 40
0.059809103
 40
0.1230503126
 40
0.1892138673
 40
0.2576793113
 40
0.3985014601
 40
0.5394041742
 40
0.607967047
 40
0.674263395
 40
0.7376630304
 40
0.7976560932
 40
0.8538929353
 40
0.9062309818
 40
0.9547885898
 40
1.0
 40
1.0
 40
1.0
 40
1.0
 10
86.3766357322
 20
275.5351722949
 30
0.0
 10
86.0201937738
 20
275.7409595
 30
0.0
 10
85.2618952739
 20
276.1220687747
 30
0.0
 10
84.044570341
 20
276.589156002
 30
0.0
 10
82.7329544216
 20
276.9614604673
 30
0.0
 10
80.8710433113
 20
277.326315706
 30
0.0
 10
78.4582677487
 20
277.5092410729
 30
0.0
 10
76.0441932373
 20
277.3353168413
 30
0.0
 10
74.1787149705
 20
276.9776031541
 30
0.0
 10
72.8629730928
 20
276.6102676191
 30
0.0
 10
71.6402762451
 20
276.1477419149
 30
0.0
 10
70.530841274
 20
275.5974901898
 30
0.0
 10
69.5530475949
 20
274.9683313627
 30
0.0
 10
68.7230598602
 20
274.269819257
 30
0.0
 10
68.0552384084
 20
273.5128783995
 30
0.0
 10
67.7157679579
 20
272.9588893758
 30
0.0
 10
67.5810296683
 20
272.6784520984
 30
0.0
  0
SPLINE
  5
349
100
AcDbEntity
  8
0
100
AcDbSpline
 62
7
  6
CONTINUOUS
 70
0
 71
3
 72
14
 73
10
 74
0
 42
0.0000001
 43
0.0000001
 44
0.0000000001
 40
0.0
 40
0.0
 40
0.0
 40
0.0
 40
0.2892820218
 40
0.4225404569
 40
0.548498011
 40
0.6678964344
 40
0.7818698289
 40
0.8919530438
 40
1.0
 40
1.0
 40
1.0
 40
1.0
 10
71.70423111
 20
267.0641061021
 30
0.0
 10
71.2872187144
 20
267.3048628743
 30
0.0
 10
70.7032231802
 20
267.7069397587
 30
0.0
 10
70.042505697
 20
268.3392900496
 30
0.0
 10
69.6403846092
 20
268.8267246741
 30
0.0
 10
69.3224788241
 20
269.335591847
 30
0.0
 10
69.0923536325
 20
269.8613883634
 30
0.0
 10
68.9529797755
 20
270.3987622262
 30
0.0
 10
68.9217196043
 20
270.762576989
 30
0.0
 10
68.921727926
 20
270.9424255507
 30
0.0
  0
SPLINE
  5
34A
100
AcDbEntity
  8
0
100
AcDbSpline
 62
7
  6
CONTINUOUS
 70
0
 71
3
 72
15
 73
11
 74
0
 42
0.0000001
 43
0.0000001
 44
0.0000000001
 40
0.0
 40
0.0
 40
0.0
 40
0.0
 40
0.0869258731
 40
0.1863900355
 40
0.3037775758
 40
0.4375856292
 40
0.582082136
 40
0.7293904368
 40
0.8711742898
 40
1.0
 40
1.0
 40
1.0
 40
1.0
 10
78.3652274095
 20
268.0589016895
 30
0.0
 10
78.3652279351
 20
268.0877380465
 30
0.0
 10
78.3478287137
 20
268.1501388164
 30
0.0
 10
78.2798104794
 20
268.2274850469
 30
0.0
 10
78.1794177074
 20
268.2886627215
 30
0.0
 10
78.054079439
 20
268.3305462571
 30
0.0
 10
77.9135752215
 20
268.3502774661
 30
0.0
 10
77.7691004428
 20
268.3463016541
 30
0.0
 10
77.632518132
 20
268.3189623396
 30
0.0
 10
77.5487036251
 20
268.2843899837
 30
0.0
 10
77.5116931077
 20
268.2630220791
 30
0.0
  0
SPLINE
  5
34B
100
AcDbEntity
  8
0
100
AcDbSpline
 62
7
  6
CONTINUOUS
 70
0
 71
3
 72
15
 73
11
 74
0
 42
0.0000001
 43
0.0000001
 44
0.0000000001
 40
0.0
 40
0.0
 40
0.0
 40
0.0
 40
0.0869258731
 40
0.1863900355
 40
0.3037775758
 40
0.4375856292
 40
0.582082136
 40
0.7293904368
 40
0.8711742898
 40
1.0
 40
1.0
 40
1.0
 40
1.0
 10
77.4014237527
 20
265.9821885351
 30
0.0
 10
77.4014242784
 20
266.011024892
 30
0.0
 10
77.3840250569
 20
266.073425662
 30
0.0
 10
77.3160068226
 20
266.1507718924
 30
0.0
 10
77.2156140507
 20
266.2119495671
 30
0.0
 10
77.0902757822
 20
266.2538331027
 30
0.0
 10
76.9497715647
 20
266.2735643117
 30
0.0
 10
76.805296786
 20
266.2695884997
 30
0.0
 10
76.6687144752
 20
266.2422491851
 30
0.0
 10
76.5848999683
 20
266.2076768293
 30
0.0
 10
76.5478894509
 20
266.1863089246
 30
0.0
  0
SPLINE
  5
34C
100
AcDbEntity
  8
0
100
AcDbSpline
 62
7
  6
CONTINUOUS
 70
0
 71
3
 72
15
 73
11
 74
0
 42
0.0000001
 43
0.0000001
 44
0.0000000001
 40
0.0
 40
0.0
 40
0.0
 40
0.0
 40
0.0869258731
 40
0.1863900355
 40
0.3037775758
 40
0.4375856292
 40
0.582082136
 40
0.7293904368
 40
0.8711742898
 40
1.0
 40
1.0
 40
1.0
 40
1.0
 10
81.9622435028
 20
268.6153633276
 30
0.0
 10
81.9622440284
 20
268.6441996845
 30
0.0
 10
81.9448448069
 20
268.7066004545
 30
0.0
 10
81.8768265726
 20
268.7839466849
 30
0.0
 10
81.7764338007
 20
268.8451243596
 30
0.0
 10
81.6510955322
 20
268.8870078952
 30
0.0
 10
81.5105913147
 20
268.9067391042
 30
0.0
 10
81.366116536
 20
268.9027632922
 30
0.0
 10
81.2295342253
 20
268.8754239776
 30
0.0
 10
81.1457197184
 20
268.8408516218
 30
0.0
 10
81.108709201
 20
268.8194837171
 30
0.0
  0
SPLINE
  5
34D
100
AcDbEntity
  8
0
100
AcDbSpline
 62
7
  6
CONTINUOUS
 70
0
 71
3
 72
15
 73
11
 74
0
 42
0.0000001
 43
0.0000001
 44
0.0000000001
 40
0.0
 40
0.0
 40
0.0
 40
0.0
 40
0.0869258731
 40
0.1863900355
 40
0.3037775758
 40
0.4375856292
 40
0.582082136
 40
0.7293904368
 40
0.8711742898
 40
1.0
 40
1.0
 40
1.0
 40
1.0
 10
80.998439846
 20
266.5386501731
 30
0.0
 10
80.9984403717
 20
266.5674865301
 30
0.0
 10
80.9810411502
 20
266.6298873
 30
0.0
 10
80.9130229159
 20
266.7072335305
 30
0.0
 10
80.812630144
 20
266.7684112051
 30
0.0
 10
80.6872918755
 20
266.8102947407
 30
0.0
 10
80.546787658
 20
266.8300259497
 30
0.0
 10
80.4023128793
 20
266.8260501377
 30
0.0
 10
80.2657305685
 20
266.7987108232
 30
0.0
 10
80.1819160616
 20
266.7641384673
 30
0.0
 10
80.1449055442
 20
266.7427705627
 30
0.0
  0
SPLINE
  5
34E
100
AcDbEntity
  8
0
100
AcDbSpline
 62
7
  6
CONTINUOUS
 70
0
 71
3
 72
15
 73
11
 74
0
 42
0.0000001
 43
0.0000001
 44
0.0000000001
 40
0.0
 40
0.0
 40
0.0
 40
0.0
 40
0.0869258731
 40
0.1863900355
 40
0.3037775758
 40
0.4375856292
 40
0.582082136
 40
0.7293904368
 40
0.8711742898
 40
1.0
 40
1.0
 40
1.0
 40
1.0
 10
84.5799949505
 20
267.1971347486
 30
0.0
 10
84.5799954761
 20
267.2259711055
 30
0.0
 10
84.5625962546
 20
267.2883718755
 30
0.0
 10
84.4945780203
 20
267.3657181059
 30
0.0
 10
84.3941852484
 20
267.4268957806
 30
0.0
 10
84.2688469799
 20
267.4687793162
 30
0.0
 10
84.1283427624
 20
267.4885105252
 30
0.0
 10
83.9838679837
 20
267.4845347132
 30
0.0
 10
83.847285673
 20
267.4571953986
 30
0.0
 10
83.7634711661
 20
267.4226230428
 30
0.0
 10
83.7264606487
 20
267.4012551381
 30
0.0
  0
SPLINE
  5
34F
100
AcDbEntity
  8
0
100
AcDbSpline
 62
7
  6
CONTINUOUS
 70
0
 71
3
 72
11
 73
7
 74
0
 42
0.0000001
 43
0.0000001
 44
0.0000000001
 40
0.0
 40
0.0
 40
0.0
 40
0.0
 40
0.2895468475
 40
0.5491384346
 40
0.782278826
 40
1.0
 40
1.0
 40
1.0
 40
1.0
 10
83.7264606487
 20
267.4012551381
 30
0.0
 10
83.7045336046
 20
267.3885956289
 30
0.0
 10
83.6647427846
 20
267.3611584582
 30
0.0
 10
83.6171442882
 20
267.3111884975
 30
0.0
 10
83.5870367506
 20
267.2558671043
 30
0.0
 10
83.580036419
 20
267.2161731814
 30
0.0
 10
83.580036072
 20
267.1971347731
 30
0.0
  0
SPLINE
  5
350
100
AcDbEntity
  8
0
100
AcDbSpline
 62
7
  6
CONTINUOUS
 70
0
 71
3
 72
11
 73
7
 74
0
 42
0.0000001
 43
0.0000001
 44
0.0000000001
 40
0.0
 40
0.0
 40
0.0
 40
0.0
 40
0.2895468475
 40
0.5491384346
 40
0.782278826
 40
1.0
 40
1.0
 40
1.0
 40
1.0
 10
80.1449055442
 20
266.7427705627
 30
0.0
 10
80.1229785002
 20
266.7301110535
 30
0.0
 10
80.0831876802
 20
266.7026738828
 30
0.0
 10
80.0355891837
 20
266.6527039221
 30
0.0
 10
80.0054816462
 20
266.5973825288
 30
0.0
 10
79.9984813146
 20
266.5576886059
 30
0.0
 10
79.9984809675
 20
266.5386501977
 30
0.0
  0
SPLINE
  5
351
100
AcDbEntity
  8
0
100
AcDbSpline
 62
7
  6
CONTINUOUS
 70
0
 71
3
 72
11
 73
7
 74
0
 42
0.0000001
 43
0.0000001
 44
0.0000000001
 40
0.0
 40
0.0
 40
0.0
 40
0.0
 40
0.2895468475
 40
0.5491384346
 40
0.782278826
 40
1.0
 40
1.0
 40
1.0
 40
1.0
 10
81.108709201
 20
268.8194837171
 30
0.0
 10
81.0867821569
 20
268.8068242079
 30
0.0
 10
81.0469913369
 20
268.7793870372
 30
0.0
 10
80.9993928405
 20
268.7294170765
 30
0.0
 10
80.9692853029
 20
268.6740956833
 30
0.0
 10
80.9622849713
 20
268.6344017604
 30
0.0
 10
80.9622846243
 20
268.6153633521
 30
0.0
  0
SPLINE
  5
352
100
AcDbEntity
  8
0
100
AcDbSpline
 62
7
  6
CONTINUOUS
 70
0
 71
3
 72
11
 73
7
 74
0
 42
0.0000001
 43
0.0000001
 44
0.0000000001
 40
0.0
 40
0.0
 40
0.0
 40
0.0
 40
0.2895468475
 40
0.5491384346
 40
0.782278826
 40
1.0
 40
1.0
 40
1.0
 40
1.0
 10
76.5478894509
 20
266.1863089246
 30
0.0
 10
76.5259624069
 20
266.1736494154
 30
0.0
 10
76.4861715869
 20
266.1462122447
 30
0.0
 10
76.4385730905
 20
266.096242284
 30
0.0
 10
76.4084655529
 20
266.0409208908
 30
0.0
 10
76.4014652213
 20
266.0012269679
 30
0.0
 10
76.4014648743
 20
265.9821885597
 30
0.0
  0
SPLINE
  5
353
100
AcDbEntity
  8
0
100
AcDbSpline
 62
7
  6
CONTINUOUS
 70
0
 71
3
 72
11
 73
7
 74
0
 42
0.0000001
 43
0.0000001
 44
0.0000000001
 40
0.0
 40
0.0
 40
0.0
 40
0.0
 40
0.2895468475
 40
0.5491384346
 40
0.782278826
 40
1.0
 40
1.0
 40
1.0
 40
1.0
 10
77.5116931077
 20
268.2630220791
 30
0.0
 10
77.4897660636
 20
268.2503625699
 30
0.0
 10
77.4499752437
 20
268.2229253991
 30
0.0
 10
77.4023767472
 20
268.1729554385
 30
0.0
 10
77.3722692096
 20
268.1176340452
 30
0.0
 10
77.365268878
 20
268.0779401223
 30
0.0
 10
77.365268531
 20
268.0589017141
 30
0.0
  0
SPLINE
  5
354
100
AcDbEntity
  8
0
100
AcDbSpline
 62
7
  6
CONTINUOUS
 70
0
 71
3
 72
11
 73
7
 74
0
 42
0.0000001
 43
0.0000001
 44
0.0000000001
 40
0.0
 40
0.0
 40
0.0
 40
0.0
 40
0.2895468475
 40
0.5491384346
 40
0.782278826
 40
1.0
 40
1.0
 40
1.0
 40
1.0
 10
78.4754967644
 20
270.3397352335
 30
0.0
 10
78.4535697204
 20
270.3270757243
 30
0.0
 10
78.4137789004
 20
270.2996385536
 30
0.0
 10
78.3661804039
 20
270.2496685929
 30
0.0
 10
78.3360728664
 20
270.1943471996
 30
0.0
 10
78.3290725348
 20
270.1546532768
 30
0.0
 10
78.3290721877
 20
270.1356148685
 30
0.0
  0
SPLINE
  5
355
100
AcDbEntity
  8
0
100
AcDbSpline
 62
7
  6
CONTINUOUS
 70
0
 71
3
 72
11
 73
7
 74
0
 42
0.0000001
 43
0.0000001
 44
0.0000000001
 40
0.0
 40
0.0
 40
0.0
 40
0.0
 40
0.2895468475
 40
0.5491384346
 40
0.782278826
 40
1.0
 40
1.0
 40
1.0
 40
1.0
 10
72.5513303889
 20
267.8644517225
 30
0.0
 10
72.5294033448
 20
267.8517922133
 30
0.0
 10
72.4896125249
 20
267.8243550426
 30
0.0
 10
72.4420140284
 20
267.774385082
 30
0.0
 10
72.4119064908
 20
267.7190636887
 30
0.0
 10
72.4049061592
 20
267.6793697658
 30
0.0
 10
72.4049058122
 20
267.6603313576
 30
0.0
  0
SPLINE
  5
356
100
AcDbEntity
  8
0
100
AcDbSpline
 62
7
  6
CONTINUOUS
 70
0
 71
3
 72
11
 73
7
 74
0
 42
0.0000001
 43
0.0000001
 44
0.0000000001
 40
0.0
 40
0.0
 40
0.0
 40
0.0
 40
0.2895468475
 40
0.5491384346
 40
0.782278826
 40
1.0
 40
1.0
 40
1.0
 40
1.0
 10
74.7331745717
 20
269.7245317428
 30
0.0
 10
74.7112475276
 20
269.7118722336
 30
0.0
 10
74.6714567077
 20
269.6844350629
 30
0.0
 10
74.6238582112
 20
269.6344651022
 30
0.0
 10
74.5937506736
 20
269.579143709
 30
0.0
 10
74.586750342
 20
269.5394497861
 30
0.0
 10
74.586749995
 20
269.5204113779
 30
0.0
  0
SPLINE
  5
357
100
AcDbEntity
  8
0
100
AcDbSpline
 62
7
  6
CONTINUOUS
 70
0
 71
3
 72
15
 73
11
 74
0
 42
0.0000001
 43
0.0000001
 44
0.0000000001
 40
0.0
 40
0.0
 40
0.0
 40
0.0
 40
0.0869258731
 40
0.1863900355
 40
0.3037775758
 40
0.4375856292
 40
0.582082136
 40
0.7293904368
 40
0.8711742898
 40
1.0
 40
1.0
 40
1.0
 40
1.0
 10
75.5867088735
 20
269.5204113533
 30
0.0
 10
75.5867093991
 20
269.5492477103
 30
0.0
 10
75.5693101776
 20
269.6116484802
 30
0.0
 10
75.5012919434
 20
269.6889947107
 30
0.0
 10
75.4008991714
 20
269.7501723853
 30
0.0
 10
75.275560903
 20
269.7920559209
 30
0.0
 10
75.1350566855
 20
269.8117871299
 30
0.0
 10
74.9905819068
 20
269.8078113179
 30
0.0
 10
74.853999596
 20
269.7804720034
 30
0.0
 10
74.7701850891
 20
269.7458996475
 30
0.0
 10
74.7331745717
 20
269.7245317428
 30
0.0
  0
SPLINE
  5
358
100
AcDbEntity
  8
0
100
AcDbSpline
 62
7
  6
CONTINUOUS
 70
0
 71
3
 72
23
 73
19
 74
0
 42
0.0000001
 43
0.0000001
 44
0.0000000001
 40
0.0
 40
0.0
 40
0.0
 40
0.0
 40
0.0428137266
 40
0.0873950035
 40
0.1351772872
 40
0.1870861402
 40
0.2435326078
 40
0.3044901477
 40
0.3695883203
 40
0.4381966675
 40
0.5094946866
 40
0.5825308235
 40
0.6562744106
 40
0.729663534
 40
0.8016518602
 40
0.8712561249
 40
0.9376063732
 40
1.0
 40
1.0
 40
1.0
 40
1.0
 10
87.921707201
 20
270.942425577
 30
0.0
 10
87.9216946876
 20
270.6719856366
 30
0.0
 10
87.8494080804
 20
270.1175896704
 30
0.0
 10
87.5314483793
 20
269.3170935829
 30
0.0
 10
87.0155248238
 20
268.5582341288
 30
0.0
 10
86.3162513
 20
267.8560219562
 30
0.0
 10
85.4497587326
 20
267.2228624887
 30
0.0
 10
84.4344942886
 20
266.6706668496
 30
0.0
 10
83.2917217889
 20
266.2102819766
 30
0.0
 10
82.0454503261
 20
265.8511053479
 30
0.0
 10
80.722026505
 20
265.6006271903
 30
0.0
 10
79.349565042
 20
265.4641392106
 30
0.0
 10
77.9573114913
 20
265.4445440975
 30
0.0
 10
76.5749598261
 20
265.5422606171
 30
0.0
 10
75.232002262
 20
265.7552018966
 30
0.0
 10
73.9569249024
 20
266.0788913792
 30
0.0
 10
72.777000644
 20
266.5064098014
 30
0.0
 10
72.0455506251
 20
266.8670496462
 30
0.0
 10
71.70423111
 20
267.0641061021
 30
0.0
  0
SPLINE
  5
359
100
AcDbEntity
  8
0
100
AcDbSpline
 62
7
  6
CONTINUOUS
 70
0
 71
3
 72
14
 73
10
 74
0
 42
0.0000001
 43
0.0000001
 44
0.0000000001
 40
0.0
 40
0.0
 40
0.0
 40
0.0
 40
0.1080463396
 40
0.2181299137
 40
0.3321030983
 40
0.4515003041
 40
0.5774603201
 40
0.7107186209
 40
1.0
 40
1.0
 40
1.0
 40
1.0
 10
89.6717018515
 20
270.9424255651
 30
0.0
 10
89.6717023967
 20
271.1554029538
 30
0.0
 10
89.6347208678
 20
271.586238347
 30
0.0
 10
89.4696415994
 20
272.2225965588
 30
0.0
 10
89.1971308874
 20
272.8452473727
 30
0.0
 10
88.8206774758
 20
273.4478662508
 30
0.0
 10
88.3444639304
 20
274.0250805026
 30
0.0
 10
87.5620402979
 20
274.7739251566
 30
0.0
 10
86.8704652055
 20
275.2500661655
 30
0.0
 10
86.3766357322
 20
275.5351722949
 30
0.0
  0
SPLINE
  5
35A
100
AcDbEntity
  8
0
100
AcDbSpline
 62
7
  6
CONTINUOUS
 70
0
 71
3
 72
9
 73
5
 74
0
 42
0.0000001
 43
0.0000001
 44
0.0000000001
 40
0.0
 40
0.0
 40
0.0
 40
0.0
 40
0.4949330054
 40
1.0
 40
1.0
 40
1.0
 40
1.0
 10
89.9217015341
 20
268.4929183138
 30
0.0
 10
89.9217021019
 20
268.7200562053
 30
0.0
 10
89.8805214294
 20
269.179874827
 30
0.0
 10
89.7598122821
 20
269.6251956606
 30
0.0
 10
89.681343967
 20
269.8432981616
 30
0.0
  0
SPLINE
  5
35B
100
AcDbEntity
  8
0
100
AcDbSpline
 62
7
  6
CONTINUOUS
 70
0
 71
3
 72
9
 73
5
 74
0
 42
0.0000001
 43
0.0000001
 44
0.0000000001
 40
0.0
 40
0.0
 40
0.0
 40
0.0
 40
0.4951361836
 40
1.0
 40
1.0
 40
1.0
 40
1.0
 10
90.1717012111
 20
260.3278941426
 30
0.0
 10
90.1717017747
 20
260.5550835907
 30
0.0
 10
90.1314149708
 20
261.0147823039
 30
0.0
 10
90.0131931798
 20
261.4605856586
 30
0.0
 10
89.9362738425
 20
261.6790953395
 30
0.0
  0
SPLINE
  5
35C
100
AcDbEntity
  8
0
100
AcDbSpline
 62
7
  6
CONTINUOUS
 70
0
 71
3
 72
23
 73
19
 74
0
 42
0.0000001
 43
0.0000001
 44
0.0000000001
 40
0.0
 40
0.0
 40
0.0
 40
0.0
 40
0.0427752378
 40
0.0871382436
 40
0.1344048095
 40
0.1854672365
 40
0.240775682
 40
0.3003932911
 40
0.3640713981
 40
0.4313198321
 40
0.5014666151
 40
0.5737083579
 40
0.6471539121
 40
0.7208641783
 40
0.7938894448
 40
0.8653074515
 40
0.9342600299
 40
1.0
 40
1.0
 40
1.0
 40
1.0
 10
90.1717013523
 20
256.8985839903
 30
0.0
 10
90.1717009797
 20
256.5823739578
 30
0.0
 10
90.092130138
 20
255.9357313407
 30
0.0
 10
89.7411297455
 20
254.9977835708
 30
0.0
 10
89.1695993062
 20
254.1030876894
 30
0.0
 10
88.3921919049
 20
253.2679629628
 30
0.0
 10
87.4252539499
 20
252.5058845364
 30
0.0
 10
86.2874211051
 20
251.8297402965
 30
0.0
 10
85.0001178904
 20
251.2513941538
 30
0.0
 10
83.5875773943
 20
250.7813739198
 30
0.0
 10
82.0765248198
 20
250.428425129
 30
0.0
 10
80.4956861663
 20
250.1992080867
 30
0.0
 10
78.8752144778
 20
250.0980797369
 30
0.0
 10
77.2460692602
 20
250.1269752374
 30
0.0
 10
75.6394069899
 20
250.285329771
 30
0.0
 10
74.0858507458
 20
250.5701616126
 30
0.0
 10
72.6152013573
 20
250.9759674911
 30
0.0
 10
71.6830991576
 20
251.3318410498
 30
0.0
 10
71.2392628246
 20
251.5297796522
 30
0.0
  0
SPLINE
  5
35D
100
AcDbEntity
  8
0
100
AcDbSpline
 62
7
  6
CONTINUOUS
 70
0
 71
3
 72
11
 73
7
 74
0
 42
0.0000001
 43
0.0000001
 44
0.0000000001
 40
0.0
 40
0.0
 40
0.0
 40
0.0
 40
0.2306873806
 40
0.4695292945
 40
0.7241992333
 40
1.0
 40
1.0
 40
1.0
 40
1.0
 10
76.171775854
 20
246.3658761447
 30
0.0
 10
76.171775854
 20
246.4646400097
 30
0.0
 10
76.2066646792
 20
246.6670581872
 30
0.0
 10
76.3544618324
 20
246.9444214965
 30
0.0
 10
76.581937105
 20
247.186772835
 30
0.0
 10
76.7699424955
 20
247.3169361972
 30
0.0
 10
76.8722013652
 20
247.3759750307
 30
0.0
  0
SPLINE
  5
35E
100
AcDbEntity
  8
0
100
AcDbSpline
 62
7
  6
CONTINUOUS
 70
0
 71
3
 72
17
 73
13
 74
0
 42
0.0000001
 43
0.0000001
 44
0.0000000001
 40
0.0
 40
0.0
 40
0.0
 40
0.0
 40
0.1273229158
 40
0.2655260336
 40
0.4084846382
 40
0.5487696417
 40
0.6796631286
 40
0.7971330466
 40
0.8509919496
 40
0.9022105555
 40
0.9515214527
 40
1.0
 40
1.0
 40
1.0
 40
1.0
 10
76.8722013652
 20
247.3759750307
 30
0.0
 10
77.0377032702
 20
247.4715270298
 30
0.0
 10
77.409682925
 20
247.6254049742
 30
0.0
 10
78.0139894749
 20
247.7453748026
 30
0.0
 10
78.6494618039
 20
247.7606636918
 30
0.0
 10
79.2677064172
 20
247.6698240626
 30
0.0
 10
79.8226149291
 20
247.4784935872
 30
0.0
 10
80.2117850515
 20
247.2332994624
 30
0.0
 10
80.4448021821
 20
246.9917726208
 30
0.0
 10
80.5727093196
 20
246.7966339574
 30
0.0
 10
80.6533241928
 20
246.5860308273
 30
0.0
 10
80.671775854
 20
246.4386398388
 30
0.0
 10
80.671775854
 20
246.3658761447
 30
0.0
  0
SPLINE
  5
35F
100
AcDbEntity
  8
0
100
AcDbSpline
 62
7
  6
CONTINUOUS
 70
0
 71
3
 72
11
 73
7
 74
0
 42
0.0000001
 43
0.0000001
 44
0.0000000001
 40
0.0
 40
0.0
 40
0.0
 40
0.0
 40
0.2306873806
 40
0.4695292945
 40
0.7241992333
 40
1.0
 40
1.0
 40
1.0
 40
1.0
 10
90.1724318309
 20
254.4491103914
 30
0.0
 10
90.1724318309
 20
254.5478742564
 30
0.0
 10
90.207320656
 20
254.7502924338
 30
0.0
 10
90.3551178092
 20
255.0276557432
 30
0.0
 10
90.5825930818
 20
255.2700070816
 30
0.0
 10
90.7705984723
 20
255.4001704439
 30
0.0
 10
90.872857342
 20
255.4592092774
 30
0.0
  0
SPLINE
  5
360
100
AcDbEntity
  8
0
100
AcDbSpline
 62
7
  6
CONTINUOUS
 70
0
 71
3
 72
17
 73
13
 74
0
 42
0.0000001
 43
0.0000001
 44
0.0000000001
 40
0.0
 40
0.0
 40
0.0
 40
0.0
 40
0.1273229158
 40
0.2655260336
 40
0.4084846382
 40
0.5487696417
 40
0.6796631286
 40
0.7971330466
 40
0.8509919496
 40
0.9022105555
 40
0.9515214527
 40
1.0
 40
1.0
 40
1.0
 40
1.0
 10
90.872857342
 20
255.4592092774
 30
0.0
 10
91.038359247
 20
255.5547612764
 30
0.0
 10
91.4103389018
 20
255.7086392208
 30
0.0
 10
92.0146454518
 20
255.8286090493
 30
0.0
 10
92.6501177807
 20
255.8438979384
 30
0.0
 10
93.268362394
 20
255.7530583093
 30
0.0
 10
93.8232709059
 20
255.5617278339
 30
0.0
 10
94.2124410284
 20
255.3165337091
 30
0.0
 10
94.4454581589
 20
255.0750068674
 30
0.0
 10
94.5733652964
 20
254.8798682041
 30
0.0
 10
94.6539801696
 20
254.669265074
 30
0.0
 10
94.6724318309
 20
254.5218740854
 30
0.0
 10
94.6724318309
 20
254.4491103914
 30
0.0
  0
SPLINE
  5
361
100
AcDbEntity
  8
0
100
AcDbSpline
 62
7
  6
CONTINUOUS
 70
0
 71
3
 72
24
 73
20
 74
0
 42
0.0000001
 43
0.0000001
 44
0.0000000001
 40
0.0
 40
0.0
 40
0.0
 40
0.0
 40
0.0623887453
 40
0.1287319543
 40
0.1983303726
 40
0.2703122602
 40
0.3436953611
 40
0.4174328781
 40
0.4904629632
 40
0.5617549888
 40
0.6303575896
 40
0.6954503386
 40
0.7564027685
 40
0.8128444906
 40
0.864748999
 40
0.9125272825
 40
0.9571047635
 40
0.978666649
 40
1.0
 40
1.0
 40
1.0
 40
1.0
 10
70.2900234356
 20
263.7981105429
 30
0.0
 10
70.7032025033
 20
263.5595668935
 30
0.0
 10
71.5886337825
 20
263.1230024893
 30
0.0
 10
73.0169593814
 20
262.6054904826
 30
0.0
 10
74.5604592378
 20
262.2136490185
 30
0.0
 10
76.1861452753
 20
261.9558814005
 30
0.0
 10
77.8595186448
 20
261.8375882675
 30
0.0
 10
79.5448827667
 20
261.8613085539
 30
0.0
 10
81.2062868702
 20
262.0265297051
 30
0.0
 10
82.8083287863
 20
262.3297396367
 30
0.0
 10
84.3169753067
 20
262.764533379
 30
0.0
 10
85.7003339268
 20
263.3218377318
 30
0.0
 10
86.9293392618
 20
263.9902986941
 30
0.0
 10
87.9782555379
 20
264.7567118469
 30
0.0
 10
88.8247364366
 20
265.6069032935
 30
0.0
 10
89.4493066339
 20
266.5250458497
 30
0.0
 10
89.7736110832
 20
267.3431000798
 30
0.0
 10
89.900639957
 20
268.0013498562
 30
0.0
 10
89.9217011264
 20
268.3297792184
 30
0.0
 10
89.9217015341
 20
268.4929183138
 30
0.0
  0
SPLINE
  5
362
100
AcDbEntity
  8
0
100
AcDbSpline
 62
7
  6
CONTINUOUS
 70
0
 71
3
 72
9
 73
5
 74
0
 42
0.0000001
 43
0.0000001
 44
0.0000000001
 40
0.0
 40
0.0
 40
0.0
 40
0.0
 40
0.2607162011
 40
1.0
 40
1.0
 40
1.0
 40
1.0
 10
70.4667993949
 20
263.9001715814
 30
0.0
 10
70.3298655285
 20
263.9792285975
 30
0.0
 10
69.8115993716
 20
264.2941417074
 30
0.0
 10
69.3218108575
 20
264.6574902613
 30
0.0
 10
68.98672916
 20
264.9553853371
 30
0.0
  0
SPLINE
  5
363
100
AcDbEntity
  8
0
100
AcDbSpline
 62
7
  6
CONTINUOUS
 70
0
 71
3
 72
15
 73
11
 74
0
 42
0.0000001
 43
0.0000001
 44
0.0000000001
 40
0.0
 40
0.0
 40
0.0
 40
0.0
 40
0.0869258731
 40
0.1863900355
 40
0.3037775758
 40
0.4375856292
 40
0.582082136
 40
0.7293904368
 40
0.8711742898
 40
1.0
 40
1.0
 40
1.0
 40
1.0
 10
83.580036072
 20
267.1971347731
 30
0.0
 10
83.5800355463
 20
267.1682984162
 30
0.0
 10
83.5974347678
 20
267.1058976462
 30
0.0
 10
83.6654530021
 20
267.0285514158
 30
0.0
 10
83.765845774
 20
266.9673737412
 30
0.0
 10
83.8911840425
 20
266.9254902055
 30
0.0
 10
84.03168826
 20
266.9057589965
 30
0.0
 10
84.1761630387
 20
266.9097348086
 30
0.0
 10
84.3127453495
 20
266.9370741231
 30
0.0
 10
84.3965598564
 20
266.971646479
 30
0.0
 10
84.4335703738
 20
266.9930143836
 30
0.0
  0
SPLINE
  5
364
100
AcDbEntity
  8
0
100
AcDbSpline
 62
7
  6
CONTINUOUS
 70
0
 71
3
 72
15
 73
11
 74
0
 42
0.0000001
 43
0.0000001
 44
0.0000000001
 40
0.0
 40
0.0
 40
0.0
 40
0.0
 40
0.0869258731
 40
0.1863900355
 40
0.3037775758
 40
0.4375856292
 40
0.582082136
 40
0.7293904368
 40
0.8711742898
 40
1.0
 40
1.0
 40
1.0
 40
1.0
 10
72.4049058122
 20
267.6603313576
 30
0.0
 10
72.4049052866
 20
267.6314950006
 30
0.0
 10
72.422304508
 20
267.5690942307
 30
0.0
 10
72.4903227423
 20
267.4917480002
 30
0.0
 10
72.5907155142
 20
267.4305703256
 30
0.0
 10
72.7160537827
 20
267.38868679
 30
0.0
 10
72.8565580002
 20
267.368955581
 30
0.0
 10
73.0010327789
 20
267.372931393
 30
0.0
 10
73.1376150897
 20
267.4002707075
 30
0.0
 10
73.2214295966
 20
267.4348430634
 30
0.0
 10
73.258440114
 20
267.456210968
 30
0.0
  0
SPLINE
  5
365
100
AcDbEntity
  8
0
100
AcDbSpline
 62
7
  6
CONTINUOUS
 70
0
 71
3
 72
13
 73
9
 74
0
 42
0.0000001
 43
0.0000001
 44
0.0000000001
 40
0.0
 40
0.0
 40
0.0
 40
0.0
 40
0.1142562435
 40
0.2375377784
 40
0.5000005226
 40
0.7624629807
 40
0.8857441816
 40
1.0
 40
1.0
 40
1.0
 40
1.0
 10
76.8307922203
 20
245.4473267985
 30
0.0
 10
76.9397082031
 20
245.3844455492
 30
0.0
 10
77.1778830675
 20
245.2735176024
 30
0.0
 10
77.7057637595
 20
245.113219863
 30
0.0
 10
78.4217849705
 20
245.0353096373
 30
0.0
 10
79.1378054927
 20
245.1132231736
 30
0.0
 10
79.6656842067
 20
245.2735235097
 30
0.0
 10
79.9038576116
 20
245.3844526462
 30
0.0
 10
80.0127727356
 20
245.4473344471
 30
0.0
  0
SPLINE
  5
366
100
AcDbEntity
  8
0
100
AcDbSpline
 62
7
  6
CONTINUOUS
 70
0
 71
3
 72
23
 73
19
 74
0
 42
0.0000001
 43
0.0000001
 44
0.0000000001
 40
0.0
 40
0.0
 40
0.0
 40
0.0
 40
0.0660279226
 40
0.1352016178
 40
0.2067694443
 40
0.2798770056
 40
0.3536081923
 40
0.4270223615
 40
0.4991914434
 40
0.5692366982
 40
0.636367657
 40
0.6999250583
 40
0.7594306062
 40
0.8146458598
 40
0.8656413543
 40
0.9128701662
 40
0.9572212511
 40
1.0
 40
1.0
 40
1.0
 40
1.0
 10
71.346543735
 20
254.9118113299
 30
0.0
 10
71.7916944074
 20
254.7179638671
 30
0.0
 10
72.7251246038
 20
254.3700588105
 30
0.0
 10
74.1953576859
 20
253.9750612532
 30
0.0
 10
75.7456105459
 20
253.7002743959
 30
0.0
 10
77.3464264836
 20
253.5509489013
 30
0.0
 10
78.967602375
 20
253.5298741972
 30
0.0
 10
80.5784438089
 20
253.6374586874
 30
0.0
 10
82.1484878916
 20
253.8716658147
 30
0.0
 10
83.6480942893
 20
254.2280892704
 30
0.0
 10
85.049047509
 20
254.7000736061
 30
0.0
 10
86.3251124102
 20
255.2789289332
 30
0.0
 10
87.4525097442
 20
255.9542288804
 30
0.0
 10
88.4102191062
 20
256.7142468941
 30
0.0
 10
89.1799521146
 20
257.54625519
 30
0.0
 10
89.7456628586
 20
258.4369407576
 30
0.0
 10
90.0929851935
 20
259.370181702
 30
0.0
 10
90.1717004308
 20
260.0133269958
 30
0.0
 10
90.1717012111
 20
260.3278941426
 30
0.0
  0
SPLINE
  5
367
100
AcDbEntity
  8
0
100
AcDbSpline
 62
7
  6
CONTINUOUS
 70
0
 71
3
 72
11
 73
7
 74
0
 42
0.0000001
 43
0.0000001
 44
0.0000000001
 40
0.0
 40
0.0
 40
0.0
 40
0.0
 40
0.2898002934
 40
0.5490499699
 40
0.7822286378
 40
1.0
 40
1.0
 40
1.0
 40
1.0
 10
80.0127727356
 20
245.4473344471
 30
0.0
 10
80.1115339599
 20
245.5043539261
 30
0.0
 10
80.2906806051
 20
245.6276695365
 30
0.0
 10
80.5046798868
 20
245.8527144093
 30
0.0
 10
80.6401456708
 20
246.1015280516
 30
0.0
 10
80.6717758522
 20
246.2801808194
 30
0.0
 10
80.671775854
 20
246.3658761447
 30
0.0
  0
SPLINE
  5
368
100
AcDbEntity
  8
0
100
AcDbSpline
 62
7
  6
CONTINUOUS
 70
0
 71
3
 72
21
 73
17
 74
0
 42
0.0000001
 43
0.0000001
 44
0.0000000001
 40
0.0
 40
0.0
 40
0.0
 40
0.0
 40
0.0590178302
 40
0.1118268811
 40
0.1596089515
 40
0.204756145
 40
0.2504746832
 40
0.2997839832
 40
0.3546588045
 40
0.4158468364
 40
0.4830867193
 40
0.5553905846
 40
0.7087246982
 40
0.8616194838
 40
0.9334221788
 40
1.0
 40
1.0
 40
1.0
 40
1.0
 10
76.9091960189
 20
247.3280301545
 30
0.0
 10
76.8245818297
 20
247.2746070902
 30
0.0
 10
76.6719408481
 20
247.1598656026
 30
0.0
 10
76.4936827429
 20
246.9528792493
 30
0.0
 10
76.3867567731
 20
246.7259700115
 30
0.0
 10
76.3595282653
 20
246.4878467555
 30
0.0
 10
76.4150572073
 20
246.2522416526
 30
0.0
 10
76.5475951426
 20
246.031492306
 30
0.0
 10
76.7485825378
 20
245.832700195
 30
0.0
 10
77.0096902582
 20
245.6611374494
 30
0.0
 10
77.3216124745
 20
245.5218547512
 30
0.0
 10
77.7996408723
 20
245.3828409532
 30
0.0
 10
78.4439706944
 20
245.3177375628
 30
0.0
 10
79.0867598189
 20
245.3908078926
 30
0.0
 10
79.5600035585
 20
245.5360490114
 30
0.0
 10
79.7735882655
 20
245.6358401981
 30
0.0
 10
79.8713507906
 20
245.6922830814
 30
0.0
  0
SPLINE
  5
369
100
AcDbEntity
  8
0
100
AcDbSpline
 62
7
  6
CONTINUOUS
 70
0
 71
3
 72
21
 73
17
 74
0
 42
0.0000001
 43
0.0000001
 44
0.0000000001
 40
0.0
 40
0.0
 40
0.0
 40
0.0
 40
0.0604047207
 40
0.1144554927
 40
0.1630583399
 40
0.2084539169
 40
0.2538482643
 40
0.3024555349
 40
0.3564975202
 40
0.4169079394
 40
0.4835290862
 40
0.5554126383
 40
0.7084492893
 40
0.861487024
 40
0.9333831524
 40
1.0
 40
1.0
 40
1.0
 40
1.0
 10
79.8713507906
 20
245.6922830814
 30
0.0
 10
79.961324513
 20
245.7442291242
 30
0.0
 10
80.1245397688
 20
245.8566133824
 30
0.0
 10
80.3195394553
 20
246.061570677
 30
0.0
 10
80.4429307626
 20
246.2884911585
 30
0.0
 10
80.4856839113
 20
246.5291733141
 30
0.0
 10
80.4429345765
 20
246.7698704525
 30
0.0
 10
80.3195355467
 20
246.9967592503
 30
0.0
 10
80.1244985649
 20
247.2017738669
 30
0.0
 10
79.8665400253
 20
247.3794022316
 30
0.0
 10
79.5551762905
 20
247.5243896134
 30
0.0
 10
79.07411852
 20
247.6704964989
 30
0.0
 10
78.4218120445
 20
247.7414470064
 30
0.0
 10
77.7694037489
 20
247.6704953776
 30
0.0
 10
77.2884462174
 20
247.524421769
 30
0.0
 10
77.0714276946
 20
247.4233584395
 30
0.0
 10
76.9722009175
 20
247.3660701749
 30
0.0
  0
SPLINE
  5
36A
100
AcDbEntity
  8
0
100
AcDbSpline
 62
7
  6
CONTINUOUS
 70
0
 71
3
 72
13
 73
9
 74
0
 42
0.0000001
 43
0.0000001
 44
0.0000000001
 40
0.0
 40
0.0
 40
0.0
 40
0.0
 40
0.1142562435
 40
0.2375377784
 40
0.5000005226
 40
0.7624629807
 40
0.8857441816
 40
1.0
 40
1.0
 40
1.0
 40
1.0
 10
90.8314481972
 20
253.5305610452
 30
0.0
 10
90.9403641799
 20
253.4676797958
 30
0.0
 10
91.1785390443
 20
253.356751849
 30
0.0
 10
91.7064197364
 20
253.1964541096
 30
0.0
 10
92.4224409473
 20
253.118543884
 30
0.0
 10
93.1384614696
 20
253.1964574203
 30
0.0
 10
93.6663401835
 20
253.3567577564
 30
0.0
 10
93.9045135884
 20
253.4676868929
 30
0.0
 10
94.0134287125
 20
253.5305686937
 30
0.0
  0
SPLINE
  5
36B
100
AcDbEntity
  8
0
100
AcDbSpline
 62
7
  6
CONTINUOUS
 70
0
 71
3
 72
11
 73
7
 74
0
 42
0.0000001
 43
0.0000001
 44
0.0000000001
 40
0.0
 40
0.0
 40
0.0
 40
0.0
 40
0.2898002934
 40
0.5490499699
 40
0.7822286378
 40
1.0
 40
1.0
 40
1.0
 40
1.0
 10
94.0134287125
 20
253.5305686937
 30
0.0
 10
94.1121899367
 20
253.5875881728
 30
0.0
 10
94.291336582
 20
253.7109037831
 30
0.0
 10
94.5053358636
 20
253.935948656
 30
0.0
 10
94.6408016476
 20
254.1847622983
 30
0.0
 10
94.672431829
 20
254.363415066
 30
0.0
 10
94.6724318309
 20
254.4491103914
 30
0.0
  0
SPLINE
  5
36C
100
AcDbEntity
  8
0
100
AcDbSpline
 62
7
  6
CONTINUOUS
 70
0
 71
3
 72
21
 73
17
 74
0
 42
0.0000001
 43
0.0000001
 44
0.0000000001
 40
0.0
 40
0.0
 40
0.0
 40
0.0
 40
0.0590178302
 40
0.1118268811
 40
0.1596089515
 40
0.204756145
 40
0.2504746832
 40
0.2997839832
 40
0.3546588045
 40
0.4158468364
 40
0.4830867193
 40
0.5553905846
 40
0.7087246982
 40
0.8616194838
 40
0.9334221788
 40
1.0
 40
1.0
 40
1.0
 40
1.0
 10
90.9098519957
 20
255.4112644012
 30
0.0
 10
90.8252378065
 20
255.3578413368
 30
0.0
 10
90.6725968249
 20
255.2430998492
 30
0.0
 10
90.4943387198
 20
255.036113496
 30
0.0
 10
90.3874127499
 20
254.8092042582
 30
0.0
 10
90.3601842421
 20
254.5710810021
 30
0.0
 10
90.4157131842
 20
254.3354758992
 30
0.0
 10
90.5482511194
 20
254.1147265526
 30
0.0
 10
90.7492385147
 20
253.9159344416
 30
0.0
 10
91.010346235
 20
253.744371696
 30
0.0
 10
91.3222684513
 20
253.6050889978
 30
0.0
 10
91.8002968491
 20
253.4660751999
 30
0.0
 10
92.4446266713
 20
253.4009718094
 30
0.0
 10
93.0874157957
 20
253.4740421393
 30
0.0
 10
93.5606595353
 20
253.6192832581
 30
0.0
 10
93.7742442423
 20
253.7190744448
 30
0.0
 10
93.8720067674
 20
253.7755173281
 30
0.0
  0
SPLINE
  5
36D
100
AcDbEntity
  8
0
100
AcDbSpline
 62
7
  6
CONTINUOUS
 70
0
 71
3
 72
21
 73
17
 74
0
 42
0.0000001
 43
0.0000001
 44
0.0000000001
 40
0.0
 40
0.0
 40
0.0
 40
0.0
 40
0.0604047207
 40
0.1144554927
 40
0.1630583399
 40
0.2084539169
 40
0.2538482643
 40
0.3024555349
 40
0.3564975202
 40
0.4169079394
 40
0.4835290862
 40
0.5554126383
 40
0.7084492893
 40
0.861487024
 40
0.9333831524
 40
1.0
 40
1.0
 40
1.0
 40
1.0
 10
93.8720067674
 20
253.7755173281
 30
0.0
 10
93.9619804899
 20
253.8274633709
 30
0.0
 10
94.1251957457
 20
253.9398476291
 30
0.0
 10
94.3201954322
 20
254.1448049236
 30
0.0
 10
94.4435867395
 20
254.3717254052
 30
0.0
 10
94.4863398882
 20
254.6124075608
 30
0.0
 10
94.4435905533
 20
254.8531046992
 30
0.0
 10
94.3201915235
 20
255.079993497
 30
0.0
 10
94.1251545417
 20
255.2850081136
 30
0.0
 10
93.8671960022
 20
255.4626364782
 30
0.0
 10
93.5558322674
 20
255.60762386
 30
0.0
 10
93.0747744969
 20
255.7537307455
 30
0.0
 10
92.4224680214
 20
255.824681253
 30
0.0
 10
91.7700597257
 20
255.7537296243
 30
0.0
 10
91.2891021942
 20
255.6076560157
 30
0.0
 10
91.0720836715
 20
255.5065926861
 30
0.0
 10
90.9728568943
 20
255.4493044216
 30
0.0
  0
SPLINE
  5
36E
100
AcDbEntity
  8
0
100
AcDbSpline
 62
7
  6
CONTINUOUS
 70
0
 71
3
 72
15
 73
11
 74
0
 42
0.0000001
 43
0.0000001
 44
0.0000000001
 40
0.0
 40
0.0
 40
0.0
 40
0.0
 40
0.0869258731
 40
0.1863900355
 40
0.3037775758
 40
0.4375856292
 40
0.582082136
 40
0.7293904368
 40
0.8711742898
 40
1.0
 40
1.0
 40
1.0
 40
1.0
 10
77.365268531
 20
268.0589017141
 30
0.0
 10
77.3652680054
 20
268.0300653571
 30
0.0
 10
77.3826672268
 20
267.9676645872
 30
0.0
 10
77.4506854611
 20
267.8903183567
 30
0.0
 10
77.5510782331
 20
267.8291406821
 30
0.0
 10
77.6764165015
 20
267.7872571465
 30
0.0
 10
77.816920719
 20
267.7675259375
 30
0.0
 10
77.9613954977
 20
267.7715017495
 30
0.0
 10
78.0979778085
 20
267.798841064
 30
0.0
 10
78.1817923154
 20
267.8334134199
 30
0.0
 10
78.2188028328
 20
267.8547813245
 30
0.0
  0
SPLINE
  5
36F
100
AcDbEntity
  8
0
100
AcDbSpline
 62
7
  6
CONTINUOUS
 70
0
 71
3
 72
15
 73
11
 74
0
 42
0.0000001
 43
0.0000001
 44
0.0000000001
 40
0.0
 40
0.0
 40
0.0
 40
0.0
 40
0.0869258731
 40
0.1863900355
 40
0.3037775758
 40
0.4375856292
 40
0.582082136
 40
0.7293904368
 40
0.8711742898
 40
1.0
 40
1.0
 40
1.0
 40
1.0
 10
78.3290721877
 20
270.1356148685
 30
0.0
 10
78.3290716621
 20
270.1067785116
 30
0.0
 10
78.3464708836
 20
270.0443777416
 30
0.0
 10
78.4144891179
 20
269.9670315112
 30
0.0
 10
78.5148818898
 20
269.9058538365
 30
0.0
 10
78.6402201583
 20
269.8639703009
 30
0.0
 10
78.7807243758
 20
269.8442390919
 30
0.0
 10
78.9251991545
 20
269.8482149039
 30
0.0
 10
79.0617814653
 20
269.8755542185
 30
0.0
 10
79.1455959721
 20
269.9101265743
 30
0.0
 10
79.1826064896
 20
269.931494479
 30
0.0
  0
SPLINE
  5
370
100
AcDbEntity
  8
0
100
AcDbSpline
 62
7
  6
CONTINUOUS
 70
0
 71
3
 72
11
 73
7
 74
0
 42
0.0000001
 43
0.0000001
 44
0.0000000001
 40
0.0
 40
0.0
 40
0.0
 40
0.0
 40
0.2895468475
 40
0.5491384346
 40
0.782278826
 40
1.0
 40
1.0
 40
1.0
 40
1.0
 10
84.4335703738
 20
266.9930143836
 30
0.0
 10
84.4554974178
 20
267.0056738928
 30
0.0
 10
84.4952882378
 20
267.0331110635
 30
0.0
 10
84.5428867343
 20
267.0830810242
 30
0.0
 10
84.5729942719
 20
267.1384024175
 30
0.0
 10
84.5799946034
 20
267.1780963403
 30
0.0
 10
84.5799949505
 20
267.1971347486
 30
0.0
  0
SPLINE
  5
371
100
AcDbEntity
  8
0
100
AcDbSpline
 62
7
  6
CONTINUOUS
 70
0
 71
3
 72
11
 73
7
 74
0
 42
0.0000001
 43
0.0000001
 44
0.0000000001
 40
0.0
 40
0.0
 40
0.0
 40
0.0
 40
0.2895468475
 40
0.5491384346
 40
0.782278826
 40
1.0
 40
1.0
 40
1.0
 40
1.0
 10
80.8520152694
 20
266.3345298082
 30
0.0
 10
80.8739423134
 20
266.3471893174
 30
0.0
 10
80.9137331334
 20
266.3746264881
 30
0.0
 10
80.9613316298
 20
266.4245964487
 30
0.0
 10
80.9914391674
 20
266.479917842
 30
0.0
 10
80.998439499
 20
266.5196117649
 30
0.0
 10
80.998439846
 20
266.5386501731
 30
0.0
  0
SPLINE
  5
372
100
AcDbEntity
  8
0
100
AcDbSpline
 62
7
  6
CONTINUOUS
 70
0
 71
3
 72
11
 73
7
 74
0
 42
0.0000001
 43
0.0000001
 44
0.0000000001
 40
0.0
 40
0.0
 40
0.0
 40
0.0
 40
0.2895468475
 40
0.5491384346
 40
0.782278826
 40
1.0
 40
1.0
 40
1.0
 40
1.0
 10
81.8158189261
 20
268.4112429626
 30
0.0
 10
81.8377459701
 20
268.4239024718
 30
0.0
 10
81.8775367901
 20
268.4513396425
 30
0.0
 10
81.9251352866
 20
268.5013096032
 30
0.0
 10
81.9552428242
 20
268.5566309964
 30
0.0
 10
81.9622431557
 20
268.5963249193
 30
0.0
 10
81.9622435028
 20
268.6153633276
 30
0.0
  0
SPLINE
  5
373
100
AcDbEntity
  8
0
100
AcDbSpline
 62
7
  6
CONTINUOUS
 70
0
 71
3
 72
15
 73
11
 74
0
 42
0.0000001
 43
0.0000001
 44
0.0000000001
 40
0.0
 40
0.0
 40
0.0
 40
0.0
 40
0.0869258731
 40
0.1863900355
 40
0.3037775758
 40
0.4375856292
 40
0.582082136
 40
0.7293904368
 40
0.8711742898
 40
1.0
 40
1.0
 40
1.0
 40
1.0
 10
76.4014648743
 20
265.9821885597
 30
0.0
 10
76.4014643486
 20
265.9533522027
 30
0.0
 10
76.4188635701
 20
265.8909514327
 30
0.0
 10
76.4868818044
 20
265.8136052023
 30
0.0
 10
76.5872745763
 20
265.7524275277
 30
0.0
 10
76.7126128448
 20
265.7105439921
 30
0.0
 10
76.8531170623
 20
265.6908127831
 30
0.0
 10
76.997591841
 20
265.6947885951
 30
0.0
 10
77.1341741518
 20
265.7221279096
 30
0.0
 10
77.2179886587
 20
265.7567002655
 30
0.0
 10
77.2549991761
 20
265.7780681701
 30
0.0
  0
SPLINE
  5
374
100
AcDbEntity
  8
0
100
AcDbSpline
 62
7
  6
CONTINUOUS
 70
0
 71
3
 72
11
 73
7
 74
0
 42
0.0000001
 43
0.0000001
 44
0.0000000001
 40
0.0
 40
0.0
 40
0.0
 40
0.0
 40
0.2895468475
 40
0.5491384346
 40
0.782278826
 40
1.0
 40
1.0
 40
1.0
 40
1.0
 10
77.2549991761
 20
265.7780681701
 30
0.0
 10
77.2769262201
 20
265.7907276793
 30
0.0
 10
77.3167170401
 20
265.81816485
 30
0.0
 10
77.3643155365
 20
265.8681348107
 30
0.0
 10
77.3944230741
 20
265.923456204
 30
0.0
 10
77.4014234057
 20
265.9631501268
 30
0.0
 10
77.4014237527
 20
265.9821885351
 30
0.0
  0
SPLINE
  5
375
100
AcDbEntity
  8
0
100
AcDbSpline
 62
7
  6
CONTINUOUS
 70
0
 71
3
 72
11
 73
7
 74
0
 42
0.0000001
 43
0.0000001
 44
0.0000000001
 40
0.0
 40
0.0
 40
0.0
 40
0.0
 40
0.2895468475
 40
0.5491384346
 40
0.782278826
 40
1.0
 40
1.0
 40
1.0
 40
1.0
 10
78.2188028328
 20
267.8547813245
 30
0.0
 10
78.2407298768
 20
267.8674408337
 30
0.0
 10
78.2805206968
 20
267.8948780045
 30
0.0
 10
78.3281191933
 20
267.9448479651
 30
0.0
 10
78.3582267309
 20
268.0001693584
 30
0.0
 10
78.3652270625
 20
268.0398632813
 30
0.0
 10
78.3652274095
 20
268.0589016895
 30
0.0
  0
SPLINE
  5
376
100
AcDbEntity
  8
0
100
AcDbSpline
 62
7
  6
CONTINUOUS
 70
0
 71
3
 72
11
 73
7
 74
0
 42
0.0000001
 43
0.0000001
 44
0.0000000001
 40
0.0
 40
0.0
 40
0.0
 40
0.0
 40
0.2895468475
 40
0.5491384346
 40
0.782278826
 40
1.0
 40
1.0
 40
1.0
 40
1.0
 10
79.1826064896
 20
269.931494479
 30
0.0
 10
79.2045335336
 20
269.9441539882
 30
0.0
 10
79.2443243536
 20
269.9715911589
 30
0.0
 10
79.29192285
 20
270.0215611196
 30
0.0
 10
79.3220303876
 20
270.0768825128
 30
0.0
 10
79.3290307192
 20
270.1165764357
 30
0.0
 10
79.3290310662
 20
270.1356148439
 30
0.0
  0
SPLINE
  5
377
100
AcDbEntity
  8
0
100
AcDbSpline
 62
7
  6
CONTINUOUS
 70
0
 71
3
 72
11
 73
7
 74
0
 42
0.0000001
 43
0.0000001
 44
0.0000000001
 40
0.0
 40
0.0
 40
0.0
 40
0.0
 40
0.2895468475
 40
0.5491384346
 40
0.782278826
 40
1.0
 40
1.0
 40
1.0
 40
1.0
 10
73.258440114
 20
267.456210968
 30
0.0
 10
73.280367158
 20
267.4688704772
 30
0.0
 10
73.320157978
 20
267.4963076479
 30
0.0
 10
73.3677564745
 20
267.5462776086
 30
0.0
 10
73.3978640121
 20
267.6015990019
 30
0.0
 10
73.4048643437
 20
267.6412929248
 30
0.0
 10
73.4048646907
 20
267.660331333
 30
0.0
  0
SPLINE
  5
378
100
AcDbEntity
  8
0
100
AcDbSpline
 62
7
  6
CONTINUOUS
 70
0
 71
3
 72
11
 73
7
 74
0
 42
0.0000001
 43
0.0000001
 44
0.0000000001
 40
0.0
 40
0.0
 40
0.0
 40
0.0
 40
0.2895468475
 40
0.5491384346
 40
0.782278826
 40
1.0
 40
1.0
 40
1.0
 40
1.0
 10
75.4402842968
 20
269.3162909883
 30
0.0
 10
75.4622113408
 20
269.3289504975
 30
0.0
 10
75.5020021608
 20
269.3563876682
 30
0.0
 10
75.5496006573
 20
269.4063576289
 30
0.0
 10
75.5797081949
 20
269.4616790222
 30
0.0
 10
75.5867085265
 20
269.501372945
 30
0.0
 10
75.5867088735
 20
269.5204113533
 30
0.0
  0
SPLINE
  5
379
100
AcDbEntity
  8
0
100
AcDbSpline
 62
7
  6
CONTINUOUS
 70
0
 71
3
 72
15
 73
11
 74
0
 42
0.0000001
 43
0.0000001
 44
0.0000000001
 40
0.0
 40
0.0
 40
0.0
 40
0.0
 40
0.0869258731
 40
0.1863900355
 40
0.3037775758
 40
0.4375856292
 40
0.582082136
 40
0.7293904368
 40
0.8711742898
 40
1.0
 40
1.0
 40
1.0
 40
1.0
 10
74.586749995
 20
269.5204113779
 30
0.0
 10
74.5867494694
 20
269.4915750209
 30
0.0
 10
74.6041486908
 20
269.429174251
 30
0.0
 10
74.6721669251
 20
269.3518280205
 30
0.0
 10
74.772559697
 20
269.2906503459
 30
0.0
 10
74.8978979655
 20
269.2487668103
 30
0.0
 10
75.038402183
 20
269.2290356013
 30
0.0
 10
75.1828769617
 20
269.2330114133
 30
0.0
 10
75.3194592725
 20
269.2603507278
 30
0.0
 10
75.4032737794
 20
269.2949230837
 30
0.0
 10
75.4402842968
 20
269.3162909883
 30
0.0
  0
SPLINE
  5
37A
100
AcDbEntity
  8
0
100
AcDbSpline
 62
7
  6
CONTINUOUS
 70
0
 71
3
 72
15
 73
11
 74
0
 42
0.0000001
 43
0.0000001
 44
0.0000000001
 40
0.0
 40
0.0
 40
0.0
 40
0.0
 40
0.0869258731
 40
0.1863900355
 40
0.3037775758
 40
0.4375856292
 40
0.582082136
 40
0.7293904368
 40
0.8711742898
 40
1.0
 40
1.0
 40
1.0
 40
1.0
 10
80.9622846243
 20
268.6153633521
 30
0.0
 10
80.9622840987
 20
268.5865269952
 30
0.0
 10
80.9796833201
 20
268.5241262252
 30
0.0
 10
81.0477015544
 20
268.4467799948
 30
0.0
 10
81.1480943263
 20
268.3856023201
 30
0.0
 10
81.2734325948
 20
268.3437187845
 30
0.0
 10
81.4139368123
 20
268.3239875755
 30
0.0
 10
81.558411591
 20
268.3279633875
 30
0.0
 10
81.6949939018
 20
268.3553027021
 30
0.0
 10
81.7788084087
 20
268.3898750579
 30
0.0
 10
81.8158189261
 20
268.4112429626
 30
0.0
  0
SPLINE
  5
37B
100
AcDbEntity
  8
0
100
AcDbSpline
 62
7
  6
CONTINUOUS
 70
0
 71
3
 72
23
 73
19
 74
0
 42
0.0000001
 43
0.0000001
 44
0.0000000001
 40
0.0
 40
0.0
 40
0.0
 40
0.0
 40
0.0428137266
 40
0.0873950035
 40
0.1351772872
 40
0.1870861402
 40
0.2435326078
 40
0.3044901477
 40
0.3695883203
 40
0.4381966675
 40
0.5094946866
 40
0.5825308235
 40
0.6562744106
 40
0.729663534
 40
0.8016518602
 40
0.8712561249
 40
0.9376063732
 40
1.0
 40
1.0
 40
1.0
 40
1.0
 10
68.921727926
 20
270.9424255507
 30
0.0
 10
68.9217404394
 20
271.2128654911
 30
0.0
 10
68.9940270467
 20
271.7672614573
 30
0.0
 10
69.3119867478
 20
272.5677575448
 30
0.0
 10
69.8279103032
 20
273.3266169989
 30
0.0
 10
70.527183827
 20
274.0288291715
 30
0.0
 10
71.3936763944
 20
274.661988639
 30
0.0
 10
72.4089408385
 20
275.2141842781
 30
0.0
 10
73.5517133381
 20
275.6745691511
 30
0.0
 10
74.7979848009
 20
276.0337457798
 30
0.0
 10
76.121408622
 20
276.2842239374
 30
0.0
 10
77.493870085
 20
276.4207119171
 30
0.0
 10
78.8861236357
 20
276.4403070302
 30
0.0
 10
80.2684753009
 20
276.3425905106
 30
0.0
 10
81.611432865
 20
276.1296492311
 30
0.0
 10
82.8865102246
 20
275.8059597485
 30
0.0
 10
84.066434483
 20
275.3784413263
 30
0.0
 10
84.7978845019
 20
275.0178014815
 30
0.0
 10
85.139204017
 20
274.8207450256
 30
0.0
  0
SPLINE
  5
37C
100
AcDbEntity
  8
0
100
AcDbSpline
 62
7
  6
CONTINUOUS
 70
0
 71
3
 72
9
 73
5
 74
0
 42
0.0000001
 43
0.0000001
 44
0.0000000001
 40
0.0
 40
0.0
 40
0.0
 40
0.0
 40
0.2389078248
 40
1.0
 40
1.0
 40
1.0
 40
1.0
 10
68.9241042759
 20
267.4612003302
 30
0.0
 10
69.0362538234
 20
267.3592124514
 30
0.0
 10
69.5187566784
 20
266.9467509362
 30
0.0
 10
70.048578246
 20
266.5911334633
 30
0.0
 10
70.4667993949
 20
266.3496788328
 30
0.0
  0
SPLINE
  5
37D
100
AcDbEntity
  8
0
100
AcDbSpline
 62
7
  6
CONTINUOUS
 70
0
 71
3
 72
24
 73
20
 74
0
 42
0.0000001
 43
0.0000001
 44
0.0000000001
 40
0.0
 40
0.0
 40
0.0
 40
0.0
 40
0.021333407
 40
0.0428953347
 40
0.0874728326
 40
0.1352510788
 40
0.1871555461
 40
0.2435972226
 40
0.3045495678
 40
0.3696422005
 40
0.4382447232
 40
0.5095367045
 40
0.5825666706
 40
0.656303981
 40
0.7296869458
 40
0.8016689148
 40
0.8712675522
 40
0.9376110687
 40
1.0
 40
1.0
 40
1.0
 40
1.0
 10
89.6717019942
 20
268.4929183131
 30
0.0
 10
89.6717018041
 20
268.3333252993
 30
0.0
 10
89.6510981894
 20
268.0120349565
 30
0.0
 10
89.5268303668
 20
267.3680941792
 30
0.0
 10
89.2095755592
 20
266.567823721
 30
0.0
 10
88.5985828745
 20
265.6696414274
 30
0.0
 10
87.7705042346
 20
264.8379332244
 30
0.0
 10
86.7443914969
 20
264.0881820226
 30
0.0
 10
85.5421053739
 20
263.4342535533
 30
0.0
 10
84.188821847
 20
262.8890649364
 30
0.0
 10
82.7129738403
 20
262.4637232353
 30
0.0
 10
81.1457608018
 20
262.1671045647
 30
0.0
 10
79.5204770048
 20
262.0054746774
 30
0.0
 10
77.8717547069
 20
261.9822690757
 30
0.0
 10
76.23476086
 20
262.0979890475
 30
0.0
 10
74.6444143988
 20
262.3501519309
 30
0.0
 10
73.1344640503
 20
262.7334746784
 30
0.0
 10
71.7371837844
 20
263.239737775
 30
0.0
 10
70.8709975171
 20
263.666812966
 30
0.0
 10
70.4667993949
 20
263.9001715814
 30
0.0
  0
SPLINE
  5
37E
100
AcDbEntity
  8
0
100
AcDbSpline
 62
7
  6
CONTINUOUS
 70
0
 71
3
 72
9
 73
5
 74
0
 42
0.0000001
 43
0.0000001
 44
0.0000000001
 40
0.0
 40
0.0
 40
0.0
 40
0.0
 40
0.2410700693
 40
1.0
 40
1.0
 40
1.0
 40
1.0
 10
68.9714015352
 20
264.7096057473
 30
0.0
 10
69.0704607346
 20
264.627126963
 30
0.0
 10
69.4895170156
 20
264.2948101572
 30
0.0
 10
69.9385861349
 20
264.0010083729
 30
0.0
 10
70.2900234356
 20
263.7981105429
 30
0.0
  0
SPLINE
  5
37F
100
AcDbEntity
  8
0
100
AcDbSpline
 62
7
  6
CONTINUOUS
 70
0
 71
3
 72
23
 73
19
 74
0
 42
0.0000001
 43
0.0000001
 44
0.0000000001
 40
0.0
 40
0.0
 40
0.0
 40
0.0
 40
0.0427718766
 40
0.0871575792
 40
0.1344902635
 40
0.1856676109
 40
0.2411347094
 40
0.3009422125
 40
0.3648241752
 40
0.4322703154
 40
0.5025871888
 40
0.5749497782
 40
0.6484462867
 40
0.7221191236
 40
0.7950032695
 40
0.8661663848
 40
0.9347447844
 40
1.0
 40
1.0
 40
1.0
 40
1.0
 10
89.9217016764
 20
260.327894142
 30
0.0
 10
89.9217013128
 20
260.0157316677
 30
0.0
 10
89.8424174934
 20
259.3771365659
 30
0.0
 10
89.4928406351
 20
258.4514721606
 30
0.0
 10
88.923914832
 20
257.5692912768
 30
0.0
 10
88.1504571329
 20
256.7468904498
 30
0.0
 10
87.1889647948
 20
255.9977246157
 30
0.0
 10
86.0582529335
 20
255.3346703098
 30
0.0
 10
84.7799611448
 20
254.7695640898
 30
0.0
 10
83.3785608334
 20
254.3128748804
 30
0.0
 10
81.8810214452
 20
253.9732501592
 30
0.0
 10
80.3163018459
 20
253.7572113549
 30
0.0
 10
78.7147599438
 20
253.6689356487
 30
0.0
 10
77.1075174088
 20
253.7101434818
 30
0.0
 10
75.5258308845
 20
253.8800167363
 30
0.0
 10
74.0003611227
 20
254.1753123187
 30
0.0
 10
72.5608263276
 20
254.5902145892
 30
0.0
 10
71.6511280854
 20
254.9515898571
 30
0.0
 10
71.2190968853
 20
255.1520040564
 30
0.0
  0
SPLINE
  5
380
100
AcDbEntity
  8
0
100
AcDbSpline
 62
7
  6
CONTINUOUS
 70
0
 71
3
 72
11
 73
7
 74
0
 42
0.0000001
 43
0.0000001
 44
0.0000000001
 40
0.0
 40
0.0
 40
0.0
 40
0.0
 40
0.2897933785
 40
0.5490611793
 40
0.7822321444
 40
1.0
 40
1.0
 40
1.0
 40
1.0
 10
76.8307922203
 20
243.5693712391
 30
0.0
 10
76.7320320503
 20
243.62638916
 30
0.0
 10
76.5528836383
 20
243.7497120629
 30
0.0
 10
76.3388712162
 20
243.9747509068
 30
0.0
 10
76.2034132952
 20
244.2235778508
 30
0.0
 10
76.1717920717
 20
244.4022258688
 30
0.0
 10
76.1717834391
 20
244.4879205871
 30
0.0
  0
SPLINE
  5
381
100
AcDbEntity
  8
0
100
AcDbSpline
 62
7
  6
CONTINUOUS
 70
0
 71
3
 72
11
 73
7
 74
0
 42
0.0000001
 43
0.0000001
 44
0.0000000001
 40
0.0
 40
0.0
 40
0.0
 40
0.0
 40
0.2897933785
 40
0.5490611793
 40
0.7822321444
 40
1.0
 40
1.0
 40
1.0
 40
1.0
 10
90.8314481972
 20
251.6526054858
 30
0.0
 10
90.7326880271
 20
251.7096234066
 30
0.0
 10
90.5535396151
 20
251.8329463096
 30
0.0
 10
90.339527193
 20
252.0579851534
 30
0.0
 10
90.204069272
 20
252.3068120975
 30
0.0
 10
90.1724480486
 20
252.4854601155
 30
0.0
 10
90.1724394159
 20
252.5711548338
 30
0.0
  0
SPLINE
  5
382
100
AcDbEntity
  8
0
100
AcDbSpline
 62
7
  6
CONTINUOUS
 70
0
 71
3
 72
11
 73
7
 74
0
 42
0.0000001
 43
0.0000001
 44
0.0000000001
 40
0.0
 40
0.0
 40
0.0
 40
0.0
 40
0.2177709015
 40
0.4509493769
 40
0.7101992283
 40
1.0
 40
1.0
 40
1.0
 40
1.0
 10
76.171775854
 20
246.3658761447
 30
0.0
 10
76.1717758522
 20
246.2801798968
 30
0.0
 10
76.2034067665
 20
246.1015250683
 30
0.0
 10
76.3388754753
 20
245.8527090162
 30
0.0
 10
76.5528791055
 20
245.6276624757
 30
0.0
 10
76.7320291496
 20
245.504346394
 30
0.0
 10
76.8307922203
 20
245.4473267985
 30
0.0
  0
SPLINE
  5
383
100
AcDbEntity
  8
0
100
AcDbSpline
 62
7
  6
CONTINUOUS
 70
0
 71
3
 72
15
 73
11
 74
0
 42
0.0000001
 43
0.0000001
 44
0.0000000001
 40
0.0
 40
0.0
 40
0.0
 40
0.0
 40
0.0869258731
 40
0.1863900355
 40
0.3037775758
 40
0.4375856292
 40
0.582082136
 40
0.7293904368
 40
0.8711742898
 40
1.0
 40
1.0
 40
1.0
 40
1.0
 10
79.9984809675
 20
266.5386501977
 30
0.0
 10
79.9984804419
 20
266.5098138407
 30
0.0
 10
80.0158796634
 20
266.4474130708
 30
0.0
 10
80.0838978977
 20
266.3700668403
 30
0.0
 10
80.1842906696
 20
266.3088891657
 30
0.0
 10
80.3096289381
 20
266.2670056301
 30
0.0
 10
80.4501331556
 20
266.2472744211
 30
0.0
 10
80.5946079343
 20
266.2512502331
 30
0.0
 10
80.7311902451
 20
266.2785895476
 30
0.0
 10
80.8150047519
 20
266.3131619035
 30
0.0
 10
80.8520152694
 20
266.3345298082
 30
0.0
  0
SPLINE
  5
384
100
AcDbEntity
  8
0
100
AcDbSpline
 62
7
  6
CONTINUOUS
 70
0
 71
3
 72
24
 73
20
 74
0
 42
0.0000001
 43
0.0000001
 44
0.0000000001
 40
0.0
 40
0.0
 40
0.0
 40
0.0
 40
0.0623887594
 40
0.1287319573
 40
0.1983303618
 40
0.2703122373
 40
0.343695361
 40
0.4174329258
 40
0.4904630405
 40
0.5617550652
 40
0.6303576369
 40
0.6954503452
 40
0.7564027443
 40
0.8128444451
 40
0.8647489452
 40
0.9125272378
 40
0.9571047377
 40
0.9786666353
 40
1.0
 40
1.0
 40
1.0
 40
1.0
 10
70.4667993949
 20
266.3496788328
 30
0.0
 10
70.8709963998
 20
266.1163208624
 30
0.0
 10
71.7371792016
 20
265.6892469963
 30
0.0
 10
73.1344541699
 20
265.182985293
 30
0.0
 10
74.6443994072
 20
264.7996621737
 30
0.0
 10
76.2347444155
 20
264.5474981779
 30
0.0
 10
77.8717405384
 20
264.4317765858
 30
0.0
 10
79.5204670605
 20
264.4549812638
 30
0.0
 10
81.1457542429
 20
264.6166108233
 30
0.0
 10
82.7129691288
 20
264.9132293804
 30
0.0
 10
84.1888184398
 20
265.3385710584
 30
0.0
 10
85.5421033139
 20
265.8837598881
 30
0.0
 10
86.7443905309
 20
266.5376887443
 30
0.0
 10
87.7705039747
 20
267.2874403812
 30
0.0
 10
88.5985831153
 20
268.1191491759
 30
0.0
 10
89.2095759775
 20
269.0173321029
 30
0.0
 10
89.5268305691
 20
269.8176027737
 30
0.0
 10
89.6510981475
 20
270.4615430793
 30
0.0
 10
89.671701443
 20
270.7828328695
 30
0.0
 10
89.6717018515
 20
270.9424255651
 30
0.0
  0
SPLINE
  5
385
100
AcDbEntity
  8
0
100
AcDbSpline
 62
7
  6
CONTINUOUS
 70
0
 71
3
 72
17
 73
13
 74
0
 42
0.0000001
 43
0.0000001
 44
0.0000000001
 40
0.0
 40
0.0
 40
0.0
 40
0.0
 40
0.0428583514
 40
0.0874867632
 40
0.1353205869
 40
0.1872858865
 40
0.3045494199
 40
0.4382200143
 40
0.5825658202
 40
0.7297200337
 40
0.8713089174
 40
1.0
 40
1.0
 40
1.0
 40
1.0
 10
80.671768269
 20
244.4879205836
 30
0.0
 10
80.6717747212
 20
244.4238709204
 30
0.0
 10
80.6546275669
 20
244.2925709193
 30
0.0
 10
80.5793442204
 20
244.1029812232
 30
0.0
 10
80.4571560339
 20
243.9232303537
 30
0.0
 10
80.2271037825
 20
243.6923919401
 30
0.0
 10
79.83515836
 20
243.4537711379
 30
0.0
 10
79.2715686795
 20
243.2655410374
 30
0.0
 10
78.639118025
 20
243.1766652839
 30
0.0
 10
77.9890597507
 20
243.1946554073
 30
0.0
 10
77.3744579146
 20
243.317624378
 30
0.0
 10
76.9973492369
 20
243.4732116762
 30
0.0
 10
76.8307922203
 20
243.5693712391
 30
0.0
  0
SPLINE
  5
386
100
AcDbEntity
  8
0
100
AcDbSpline
 62
7
  6
CONTINUOUS
 70
0
 71
3
 72
10
 73
6
 74
0
 42
0.0000001
 43
0.0000001
 44
0.0000000001
 40
0.0
 40
0.0
 40
0.0
 40
0.0
 40
0.5178117356
 40
0.7644222624
 40
1.0
 40
1.0
 40
1.0
 40
1.0
 10
76.1546084466
 20
246.06200219
 30
0.0
 10
75.2547633806
 20
246.1664801451
 30
0.0
 10
73.9335714212
 20
246.4145478711
 30
0.0
 10
72.264628746
 20
246.9438687995
 30
0.0
 10
71.4844089195
 20
247.2684999597
 30
0.0
 10
71.1121841782
 20
247.4454256775
 30
0.0
  0
SPLINE
  5
387
100
AcDbEntity
  8
0
100
AcDbSpline
 62
7
  6
CONTINUOUS
 70
0
 71
3
 72
15
 73
11
 74
0
 42
0.0000001
 43
0.0000001
 44
0.0000000001
 40
0.0
 40
0.0
 40
0.0
 40
0.0
 40
0.0945201712
 40
0.196060444
 40
0.3068556965
 40
0.4278518295
 40
0.5589191318
 40
0.6990942201
 40
0.8467829349
 40
1.0
 40
1.0
 40
1.0
 40
1.0
 10
89.8236420876
 20
251.7058557228
 30
0.0
 10
89.744276017
 20
251.3572536194
 30
0.0
 10
89.4812142604
 20
250.6541297423
 30
0.0
 10
88.8289568508
 20
249.6840054372
 30
0.0
 10
87.9304375114
 20
248.7897814558
 30
0.0
 10
86.8088358308
 20
247.9899590281
 30
0.0
 10
85.4905415529
 20
247.3006070258
 30
0.0
 10
84.0060699839
 20
246.7368569216
 30
0.0
 10
82.3900667481
 20
246.3113372581
 30
0.0
 10
81.2646208039
 20
246.1288593169
 30
0.0
 10
80.6889448906
 20
246.0620159156
 30
0.0
  0
SPLINE
  5
388
100
AcDbEntity
  8
0
100
AcDbSpline
 62
7
  6
CONTINUOUS
 70
0
 71
3
 72
11
 73
7
 74
0
 42
0.0000001
 43
0.0000001
 44
0.0000000001
 40
0.0
 40
0.0
 40
0.0
 40
0.0
 40
0.2177709015
 40
0.4509493769
 40
0.7101992283
 40
1.0
 40
1.0
 40
1.0
 40
1.0
 10
90.1724318309
 20
254.4491103914
 30
0.0
 10
90.172431829
 20
254.3634141434
 30
0.0
 10
90.2040627434
 20
254.1847593149
 30
0.0
 10
90.3395314521
 20
253.9359432628
 30
0.0
 10
90.5535350823
 20
253.7108967224
 30
0.0
 10
90.7326851265
 20
253.5875806407
 30
0.0
 10
90.8314481972
 20
253.5305610452
 30
0.0
  0
SPLINE
  5
389
100
AcDbEntity
  8
0
100
AcDbSpline
 62
7
  6
CONTINUOUS
 70
0
 71
3
 72
17
 73
13
 74
0
 42
0.0000001
 43
0.0000001
 44
0.0000000001
 40
0.0
 40
0.0
 40
0.0
 40
0.0
 40
0.0428583514
 40
0.0874867632
 40
0.1353205869
 40
0.1872858865
 40
0.3045494199
 40
0.4382200143
 40
0.5825658202
 40
0.7297200337
 40
0.8713089174
 40
1.0
 40
1.0
 40
1.0
 40
1.0
 10
94.6724242458
 20
252.5711548302
 30
0.0
 10
94.672430698
 20
252.5071051671
 30
0.0
 10
94.6552835437
 20
252.3758051659
 30
0.0
 10
94.5800001972
 20
252.1862154698
 30
0.0
 10
94.4578120107
 20
252.0064646004
 30
0.0
 10
94.2277597593
 20
251.7756261868
 30
0.0
 10
93.8358143368
 20
251.5370053845
 30
0.0
 10
93.2722246564
 20
251.348775284
 30
0.0
 10
92.6397740018
 20
251.2598995305
 30
0.0
 10
91.9897157275
 20
251.277889654
 30
0.0
 10
91.3751138914
 20
251.4008586247
 30
0.0
 10
90.9980052138
 20
251.5564459228
 30
0.0
 10
90.8314481972
 20
251.6526054858
 30
0.0
  0
SPLINE
  5
38A
100
AcDbEntity
  8
0
100
AcDbSpline
 62
7
  6
CONTINUOUS
 70
0
 71
3
 72
14
 73
10
 74
0
 42
0.0000001
 43
0.0000001
 44
0.0000000001
 40
0.0
 40
0.0
 40
0.0
 40
0.0
 40
0.2892820218
 40
0.4225404569
 40
0.548498011
 40
0.6678964344
 40
0.7818698289
 40
0.8919530438
 40
1.0
 40
1.0
 40
1.0
 40
1.0
 10
85.139204017
 20
274.8207450256
 30
0.0
 10
85.5562164126
 20
274.5799882534
 30
0.0
 10
86.1402119468
 20
274.177911369
 30
0.0
 10
86.80092943
 20
273.545561078
 30
0.0
 10
87.2030505178
 20
273.0581264536
 30
0.0
 10
87.5209563029
 20
272.5492592807
 30
0.0
 10
87.7510814945
 20
272.0234627643
 30
0.0
 10
87.8904553515
 20
271.4860889015
 30
0.0
 10
87.9217155227
 20
271.1222741387
 30
0.0
 10
87.921707201
 20
270.942425577
 30
0.0
  0
SPLINE
  5
38B
100
AcDbEntity
  8
0
100
AcDbSpline
 62
7
  6
CONTINUOUS
 70
0
 71
3
 72
15
 73
11
 74
0
 42
0.0000001
 43
0.0000001
 44
0.0000000001
 40
0.0
 40
0.0
 40
0.0
 40
0.0
 40
0.1141570308
 40
0.2373234948
 40
0.3669733493
 40
0.499997873
 40
0.633024052
 40
0.7626747981
 40
0.8858462081
 40
1.0
 40
1.0
 40
1.0
 40
1.0
 10
229.5665081607
 20
115.2991451044
 30
0.0
 10
229.881161863
 20
115.4808094197
 30
0.0
 10
230.502644645
 20
115.9164542923
 30
0.0
 10
231.3577502205
 20
116.7165097815
 30
0.0
 10
232.1458021306
 20
117.6621969947
 30
0.0
 10
232.8370863207
 20
118.7181086494
 30
0.0
 10
233.4058840526
 20
119.8447396463
 30
0.0
 10
233.8308589912
 20
121.0000787777
 30
0.0
 10
234.0961342142
 20
122.1406677636
 30
0.0
 10
234.1626729787
 20
122.8967143066
 30
0.0
 10
234.1626696834
 20
123.2600342553
 30
0.0
  0
SPLINE
  5
38C
100
AcDbEntity
  8
0
100
AcDbSpline
 62
7
  6
CONTINUOUS
 70
0
 71
3
 72
17
 73
13
 74
0
 42
0.0000001
 43
0.0000001
 44
0.0000000001
 40
0.0
 40
0.0
 40
0.0
 40
0.0
 40
0.1286890167
 40
0.2702764127
 40
0.4174313733
 40
0.5617800349
 40
0.695451499
 40
0.8127141218
 40
0.8646787142
 40
0.9125122476
 40
0.9571409188
 40
1.0
 40
1.0
 40
1.0
 40
1.0
 10
215.4242989379
 20
138.1609599313
 30
0.0
 10
215.2392385676
 20
138.2678021688
 30
0.0
 10
214.8202348533
 20
138.4406750302
 30
0.0
 10
214.1373494004
 20
138.5773108591
 30
0.0
 10
213.4150589094
 20
138.5973001491
 30
0.0
 10
212.712328091
 20
138.4985509605
 30
0.0
 10
212.0861134349
 20
138.2894036225
 30
0.0
 10
211.6506189922
 20
138.0242705628
 30
0.0
 10
211.3950091689
 20
137.7677845156
 30
0.0
 10
211.2592424397
 20
137.5680642995
 30
0.0
 10
211.1755942089
 20
137.357407574
 30
0.0
 10
211.1565422265
 20
137.2115170471
 30
0.0
 10
211.1565493212
 20
137.140349547
 30
0.0
  0
SPLINE
  5
38D
100
AcDbEntity
  8
0
100
AcDbSpline
 62
7
  6
CONTINUOUS
 70
0
 71
3
 72
11
 73
7
 74
0
 42
0.0000001
 43
0.0000001
 44
0.0000000001
 40
0.0
 40
0.0
 40
0.0
 40
0.0
 40
0.2662299508
 40
0.5190218853
 40
0.7620774572
 40
1.0
 40
1.0
 40
1.0
 40
1.0
 10
213.9683740021
 20
138.5706726046
 30
0.0
 10
213.8953871705
 20
138.7493202509
 30
0.0
 10
213.7296887034
 20
139.0887853638
 30
0.0
 10
213.4131853737
 20
139.5443782765
 30
0.0
 10
213.0390391416
 20
139.9260697661
 30
0.0
 10
212.7524937363
 20
140.1286461742
 30
0.0
 10
212.6031396852
 20
140.2148830411
 30
0.0
  0
SPLINE
  5
38E
100
AcDbEntity
  8
0
100
AcDbSpline
 62
7
  6
CONTINUOUS
 70
0
 71
3
 72
23
 73
19
 74
0
 42
0.0000001
 43
0.0000001
 44
0.0000000001
 40
0.0
 40
0.0
 40
0.0
 40
0.0
 40
0.0428143019
 40
0.0873961152
 40
0.135178868
 40
0.1870881092
 40
0.2435348785
 40
0.3044926302
 40
0.3695909219
 40
0.4381992925
 40
0.5094972386
 40
0.5825332086
 40
0.6562765409
 40
0.7296653287
 40
0.8016532595
 40
0.8712570838
 40
0.9376068536
 40
1.0
 40
1.0
 40
1.0
 40
1.0
 10
203.3961834349
 20
125.9006246614
 30
0.0
 10
203.1866283855
 20
126.0216215139
 30
0.0
 10
202.7893725778
 20
126.325655712
 30
0.0
 10
202.3113226525
 20
126.9301552166
 30
0.0
 10
201.954099114
 20
127.6694258799
 30
0.0
 10
201.7227960334
 20
128.5254281362
 30
0.0
 10
201.6198099268
 20
129.4801122836
 30
0.0
 10
201.646117949
 20
130.5138549292
 30
0.0
 10
201.8006124616
 20
131.6053262063
 30
0.0
 10
202.0798344479
 20
132.7317174748
 30
0.0
 10
202.4778012099
 20
133.8692621122
 30
0.0
 10
202.9860354249
 20
134.9938070473
 30
0.0
 10
203.5937026269
 20
136.0813917868
 30
0.0
 10
204.2878430043
 20
137.108819699
 30
0.0
 10
205.0536454069
 20
138.0541714838
 30
0.0
 10
205.8748970096
 20
138.8973765228
 30
0.0
 10
206.7340348756
 20
139.6203971304
 30
0.0
 10
207.3407158872
 20
140.0258283469
 30
0.0
 10
207.6461066811
 20
140.2021447515
 30
0.0
  0
SPLINE
  5
38F
100
AcDbEntity
  8
0
100
AcDbSpline
 62
7
  6
CONTINUOUS
 70
0
 71
3
 72
14
 73
10
 74
0
 42
0.0000001
 43
0.0000001
 44
0.0000000001
 40
0.0
 40
0.0
 40
0.0
 40
0.0
 40
0.2892795933
 40
0.4225374294
 40
0.548494845
 40
0.6678935757
 40
0.7818676656
 40
0.891951877
 40
1.0
 40
1.0
 40
1.0
 40
1.0
 10
207.6461066811
 20
140.2021447515
 30
0.0
 10
208.0192125847
 20
140.4175562595
 30
0.0
 10
208.5920195681
 20
140.690183744
 30
0.0
 10
209.3775758239
 20
140.9192424293
 30
0.0
 10
209.9351598004
 20
141.0127613119
 30
0.0
 10
210.4716771809
 20
141.0314392783
 30
0.0
 10
210.9820438304
 20
140.974528364
 30
0.0
 10
211.4607839914
 20
140.8421211474
 30
0.0
 10
211.7566751834
 20
140.7035870247
 30
0.0
 10
211.8960299274
 20
140.6231237504
 30
0.0
  0
SPLINE
  5
390
100
AcDbEntity
  8
0
100
AcDbSpline
 62
7
  6
CONTINUOUS
 70
0
 71
3
 72
11
 73
7
 74
0
 42
0.0000001
 43
0.0000001
 44
0.0000000001
 40
0.0
 40
0.0
 40
0.0
 40
0.0
 40
0.2288984565
 40
0.4672179204
 40
0.722612601
 40
1.0
 40
1.0
 40
1.0
 40
1.0
 10
204.1032931273
 20
125.4923838616
 30
0.0
 10
204.3125250065
 20
125.3715736017
 30
0.0
 10
204.7736690513
 20
125.1798147138
 30
0.0
 10
205.5348837059
 20
125.0678295202
 30
0.0
 10
206.3520937643
 20
125.1273184064
 30
0.0
 10
206.8987648803
 20
125.2720407529
 30
0.0
 10
207.1754071123
 20
125.3679192672
 30
0.0
  0
SPLINE
  5
391
100
AcDbEntity
  8
0
100
AcDbSpline
 62
7
  6
CONTINUOUS
 70
0
 71
3
 72
11
 73
7
 74
0
 42
0.0000001
 43
0.0000001
 44
0.0000000001
 40
0.0
 40
0.0
 40
0.0
 40
0.0
 40
0.2177679687
 40
0.4509386846
 40
0.7102092654
 40
1.0
 40
1.0
 40
1.0
 40
1.0
 10
226.7631752458
 20
131.0167382285
 30
0.0
 10
226.7631657537
 20
131.1119545686
 30
0.0
 10
226.7280307364
 20
131.3104520376
 30
0.0
 10
226.5775229815
 20
131.586928032
 30
0.0
 10
226.3397307254
 20
131.8369704429
 30
0.0
 10
226.1406772636
 20
131.973995988
 30
0.0
 10
226.0309448151
 20
132.0373486135
 30
0.0
  0
SPLINE
  5
392
100
AcDbEntity
  8
0
100
AcDbSpline
 62
7
  6
CONTINUOUS
 70
0
 71
3
 72
16
 73
12
 74
0
 42
0.0000001
 43
0.0000001
 44
0.0000000001
 40
0.0
 40
0.0
 40
0.0
 40
0.0
 40
0.0992134392
 40
0.1542130389
 40
0.2126434384
 40
0.3384381239
 40
0.4731073354
 40
0.6117978283
 40
0.7491622952
 40
0.8800101443
 40
1.0
 40
1.0
 40
1.0
 40
1.0
 10
226.8912759297
 20
117.8818942138
 30
0.0
 10
226.8031638791
 20
118.0973798821
 30
0.0
 10
226.7218025643
 20
118.4560309612
 30
0.0
 10
226.695813629
 20
118.9545935379
 30
0.0
 10
226.7250913554
 20
119.5162182698
 30
0.0
 10
226.8701990592
 20
120.2543125049
 30
0.0
 10
227.190956204
 20
121.1376529114
 30
0.0
 10
227.6449045133
 20
121.9913125041
 30
0.0
 10
228.2066841181
 20
122.7673488801
 30
0.0
 10
228.8444706005
 20
123.4222644687
 30
0.0
 10
229.3226730945
 20
123.7724682044
 30
0.0
 10
229.5665081607
 20
123.9132456051
 30
0.0
  0
SPLINE
  5
393
100
AcDbEntity
  8
0
100
AcDbSpline
 62
7
  6
CONTINUOUS
 70
0
 71
3
 72
14
 73
10
 74
0
 42
0.0000001
 43
0.0000001
 44
0.0000000001
 40
0.0
 40
0.0
 40
0.0
 40
0.0
 40
0.2892707544
 40
0.4225372455
 40
0.5484966612
 40
0.6678939361
 40
0.7818682813
 40
0.8919523447
 40
1.0
 40
1.0
 40
1.0
 40
1.0
 10
234.1626801584
 20
123.6682878628
 30
0.0
 10
234.1626775946
 20
124.0230835289
 30
0.0
 10
234.1212404083
 20
124.5438781544
 30
0.0
 10
233.9611438855
 20
125.1984749492
 30
0.0
 10
233.7982377812
 20
125.6346715593
 30
0.0
 10
233.5906361881
 20
126.0250187802
 30
0.0
 10
233.3398743656
 20
126.3655722156
 30
0.0
 10
233.0483116095
 20
126.6525005477
 30
0.0
 10
232.8276624011
 20
126.8064834588
 30
0.0
 10
232.7128939135
 20
126.8727433047
 30
0.0
  0
SPLINE
  5
394
100
AcDbEntity
  8
0
100
AcDbSpline
 62
7
  6
CONTINUOUS
 70
0
 71
3
 72
14
 73
10
 74
0
 42
0.0000001
 43
0.0000001
 44
0.0000000001
 40
0.0
 40
0.0
 40
0.0
 40
0.0
 40
0.1080482432
 40
0.2181322873
 40
0.3321068339
 40
0.4515071146
 40
0.5774612857
 40
0.7107200697
 40
1.0
 40
1.0
 40
1.0
 40
1.0
 10
225.7130126828
 20
114.7483190813
 30
0.0
 10
225.8277787485
 20
114.6820606335
 30
0.0
 10
226.0714529311
 20
114.5679722839
 30
0.0
 10
226.4657124675
 20
114.4589413511
 30
0.0
 10
226.8860149095
 20
114.412055323
 30
0.0
 10
227.3278512582
 20
114.4274560668
 30
0.0
 10
227.7870382443
 20
114.5044597722
 30
0.0
 10
228.4339645861
 20
114.6930995319
 30
0.0
 10
228.905689189
 20
114.9176163159
 30
0.0
 10
229.2129532981
 20
115.0950142731
 30
0.0
  0
SPLINE
  5
395
100
AcDbEntity
  8
0
100
AcDbSpline
 62
7
  6
CONTINUOUS
 70
0
 71
3
 72
14
 73
10
 74
0
 42
0.0000001
 43
0.0000001
 44
0.0000000001
 40
0.0
 40
0.0
 40
0.0
 40
0.0
 40
0.1080475558
 40
0.2181313655
 40
0.332105354
 40
0.4515042826
 40
0.5774618133
 40
0.7107200407
 40
1.0
 40
1.0
 40
1.0
 40
1.0
 10
212.6031396852
 20
140.2148830411
 30
0.0
 10
212.4637856816
 20
140.2953458916
 30
0.0
 10
212.1678955863
 20
140.4338788954
 30
0.0
 10
211.689157264
 20
140.5662862446
 30
0.0
 10
211.1787911978
 20
140.6231986224
 30
0.0
 10
210.6422735408
 20
140.6045201362
 30
0.0
 10
210.0846883441
 20
140.5110025725
 30
0.0
 10
209.2991308225
 20
140.2819434718
 30
0.0
 10
208.7263227625
 20
140.0093157663
 30
0.0
 10
208.3532164063
 20
139.793903997
 30
0.0
  0
SPLINE
  5
396
100
AcDbEntity
  8
0
100
AcDbSpline
 62
7
  6
CONTINUOUS
 70
0
 71
3
 72
17
 73
13
 74
0
 42
0.0000001
 43
0.0000001
 44
0.0000000001
 40
0.0
 40
0.0
 40
0.0
 40
0.0
 40
0.1286890167
 40
0.2702764127
 40
0.4174313733
 40
0.5617800349
 40
0.695451499
 40
0.8127141218
 40
0.8646787142
 40
0.9125122476
 40
0.9571409188
 40
1.0
 40
1.0
 40
1.0
 40
1.0
 10
222.4954256291
 20
129.9961278441
 30
0.0
 10
222.6804859993
 20
129.8892856066
 30
0.0
 10
223.0994897137
 20
129.7164127453
 30
0.0
 10
223.7823751666
 20
129.5797769163
 30
0.0
 10
224.5046656575
 20
129.5597876264
 30
0.0
 10
225.207396476
 20
129.658536815
 30
0.0
 10
225.833611132
 20
129.8676841529
 30
0.0
 10
226.2691055747
 20
130.1328172126
 30
0.0
 10
226.5247153981
 20
130.3893032598
 30
0.0
 10
226.6604821273
 20
130.5890234759
 30
0.0
 10
226.7441303581
 20
130.7996802014
 30
0.0
 10
226.7631823404
 20
130.9455707284
 30
0.0
 10
226.7631752458
 20
131.0167382285
 30
0.0
  0
SPLINE
  5
397
100
AcDbEntity
  8
0
100
AcDbSpline
 62
7
  6
CONTINUOUS
 70
0
 71
3
 72
15
 73
11
 74
0
 42
0.0000001
 43
0.0000001
 44
0.0000000001
 40
0.0
 40
0.0
 40
0.0
 40
0.0
 40
0.1514586206
 40
0.290722028
 40
0.4184570247
 40
0.5368510465
 40
0.6494869958
 40
0.7610740778
 40
0.8765317853
 40
1.0
 40
1.0
 40
1.0
 40
1.0
 10
229.5665081607
 20
117.2995760264
 30
0.0
 10
229.4282678159
 20
117.2197634025
 30
0.0
 10
229.1528679376
 20
117.0828388376
 30
0.0
 10
228.7309441901
 20
116.9479133017
 30
0.0
 10
228.3254676924
 20
116.8956658376
 30
0.0
 10
227.945403153
 20
116.9289078061
 30
0.0
 10
227.6005967188
 20
117.0490704446
 30
0.0
 10
227.3018503271
 20
117.2538895216
 30
0.0
 10
227.0581897044
 20
117.5363309899
 30
0.0
 10
226.9405262606
 20
117.7614482545
 30
0.0
 10
226.8912759297
 20
117.8818942138
 30
0.0
  0
SPLINE
  5
398
100
AcDbEntity
  8
0
100
AcDbSpline
 62
7
  6
CONTINUOUS
 70
0
 71
3
 72
23
 73
19
 74
0
 42
0.0000001
 43
0.0000001
 44
0.0000000001
 40
0.0
 40
0.0
 40
0.0
 40
0.0
 40
0.0623929899
 40
0.1287423661
 40
0.198345887
 40
0.2703336247
 40
0.3437225368
 40
0.4174661558
 40
0.490502321
 40
0.5618003338
 40
0.6304087604
 40
0.6955071367
 40
0.756464968
 40
0.8129118028
 40
0.8648211189
 40
0.9126039454
 40
0.9571857674
 40
1.0
 40
1.0
 40
1.0
 40
1.0
 10
208.3532164063
 20
139.793903997
 30
0.0
 10
208.0478263735
 20
139.6175880318
 30
0.0
 10
207.4411477688
 20
139.2121588054
 30
0.0
 10
206.582013383
 20
138.4891415778
 30
0.0
 10
205.7607641063
 20
137.6459413026
 30
0.0
 10
204.9949620454
 20
136.7005919161
 30
0.0
 10
204.3008196899
 20
135.6731638261
 30
0.0
 10
203.6931499441
 20
134.5855765359
 30
0.0
 10
203.1849137268
 20
133.4610290741
 30
0.0
 10
202.7869457693
 20
132.3234829258
 30
0.0
 10
202.5077229478
 20
131.1970906346
 30
0.0
 10
202.3532277816
 20
130.1056181695
 30
0.0
 10
202.3269193393
 20
129.0718742126
 30
0.0
 10
202.4299053022
 20
128.1171887749
 30
0.0
 10
202.6612085887
 20
127.2611852875
 30
0.0
 10
203.0184326484
 20
126.5219138453
 30
0.0
 10
203.4964828445
 20
125.9174144384
 30
0.0
 10
203.893738416
 20
125.6133805244
 30
0.0
 10
204.1032931273
 20
125.4923838616
 30
0.0
  0
SPLINE
  5
399
100
AcDbEntity
  8
0
100
AcDbSpline
 62
7
  6
CONTINUOUS
 70
0
 71
3
 72
11
 73
7
 74
0
 42
0.0000001
 43
0.0000001
 44
0.0000000001
 40
0.0
 40
0.0
 40
0.0
 40
0.0
 40
0.2850359784
 40
0.5447133711
 40
0.7810780081
 40
1.0
 40
1.0
 40
1.0
 40
1.0
 10
227.851858202
 20
119.4326106303
 30
0.0
 10
227.7525825335
 20
119.3752941385
 30
0.0
 10
227.5549437679
 20
119.2784732698
 30
0.0
 10
227.2517676964
 20
119.189556912
 30
0.0
 10
226.9627839594
 20
119.166805726
 30
0.0
 10
226.7798119903
 20
119.1985292906
 30
0.0
 10
226.6961405715
 20
119.2259317106
 30
0.0
  0
SPLINE
  5
39A
100
AcDbEntity
  8
0
100
AcDbSpline
 62
7
  6
CONTINUOUS
 70
0
 71
3
 72
14
 73
10
 74
0
 42
0.0000001
 43
0.0000001
 44
0.0000000001
 40
0.0
 40
0.0
 40
0.0
 40
0.0
 40
0.2892790064
 40
0.4225379356
 40
0.5484925163
 40
0.6678924675
 40
0.7818658697
 40
0.8919501133
 40
1.0
 40
1.0
 40
1.0
 40
1.0
 10
208.3532164063
 20
138.5691503713
 30
0.0
 10
208.6604794172
 20
138.7465476944
 30
0.0
 10
209.1322029937
 20
138.9710638053
 30
0.0
 10
209.7791285106
 20
139.1597039525
 30
0.0
 10
210.2383157582
 20
139.2367069181
 30
0.0
 10
210.6801504749
 20
139.2521079466
 30
0.0
 10
211.100451563
 20
139.2052239622
 30
0.0
 10
211.4947110308
 20
139.0961902965
 30
0.0
 10
211.7383877523
 20
138.9821023932
 30
0.0
 10
211.8531554496
 20
138.9158428405
 30
0.0
  0
SPLINE
  5
39B
100
AcDbEntity
  8
0
100
AcDbSpline
 62
7
  6
CONTINUOUS
 70
0
 71
3
 72
22
 73
18
 74
0
 42
0.0000001
 43
0.0000001
 44
0.0000000001
 40
0.0
 40
0.0
 40
0.0
 40
0.0
 40
0.0624002863
 40
0.1287598616
 40
0.198371778
 40
0.2703697238
 40
0.4173878314
 40
0.4904336723
 40
0.5617412658
 40
0.6303588829
 40
0.6954659213
 40
0.756431874
 40
0.8128862891
 40
0.8648026495
 40
0.9125920112
 40
0.957179933
 40
1.0
 40
1.0
 40
1.0
 40
1.0
 10
229.2129532981
 20
126.5260481129
 30
0.0
 10
228.9614597919
 20
126.3808491361
 30
0.0
 10
228.461839659
 20
126.0469601384
 30
0.0
 10
227.7543303878
 20
125.4515543493
 30
0.0
 10
227.0779456246
 20
124.7570963702
 30
0.0
 10
226.2316787082
 20
123.7122664031
 30
0.0
 10
225.5157677256
 20
122.5475427706
 30
0.0
 10
224.9567242609
 20
121.3108123272
 30
0.0
 10
224.6289661405
 20
120.3739216639
 30
0.0
 10
224.3990219634
 20
119.446326742
 30
0.0
 10
224.2717881979
 20
118.5474617886
 30
0.0
 10
224.2501210108
 20
117.696144708
 30
0.0
 10
224.3349307435
 20
116.909931866
 30
0.0
 10
224.5254140046
 20
116.2049862788
 30
0.0
 10
224.8195964312
 20
115.596170242
 30
0.0
 10
225.2132873118
 20
115.0983493307
 30
0.0
 10
225.5404329508
 20
114.8479553725
 30
0.0
 10
225.7130126828
 20
114.7483190813
 30
0.0
  0
SPLINE
  5
39C
100
AcDbEntity
  8
0
100
AcDbSpline
 62
7
  6
CONTINUOUS
 70
0
 71
3
 72
11
 73
7
 74
0
 42
0.0000001
 43
0.0000001
 44
0.0000000001
 40
0.0
 40
0.0
 40
0.0
 40
0.0
 40
0.240758434
 40
0.5010693093
 40
0.7608157854
 40
1.0
 40
1.0
 40
1.0
 40
1.0
 10
226.9242438389
 20
120.1938549878
 30
0.0
 10
227.1544316962
 20
120.3532979127
 30
0.0
 10
227.5869438991
 20
120.7537038599
 30
0.0
 10
228.1006102798
 20
121.4807275345
 30
0.0
 10
228.4640855227
 20
122.2913133996
 30
0.0
 10
228.5870383194
 20
122.8653563303
 30
0.0
 10
228.6057647696
 20
123.1429095813
 30
0.0
  0
SPLINE
  5
39D
100
AcDbEntity
  8
0
100
AcDbSpline
 62
7
  6
CONTINUOUS
 70
0
 71
3
 72
11
 73
7
 74
0
 42
0.0000001
 43
0.0000001
 44
0.0000000001
 40
0.0
 40
0.0
 40
0.0
 40
0.0
 40
0.2177679687
 40
0.4509386846
 40
0.7102092654
 40
1.0
 40
1.0
 40
1.0
 40
1.0
 10
211.1565493212
 20
137.140349547
 30
0.0
 10
211.1565588133
 20
137.0451332069
 30
0.0
 10
211.1916938306
 20
136.8466357378
 30
0.0
 10
211.3422015855
 20
136.5701597435
 30
0.0
 10
211.5799938415
 20
136.3201173326
 30
0.0
 10
211.7790473033
 20
136.1830917874
 30
0.0
 10
211.8887797519
 20
136.1197391619
 30
0.0
  0
SPLINE
  5
39E
100
AcDbEntity
  8
0
100
AcDbSpline
 62
7
  6
CONTINUOUS
 70
0
 71
3
 72
11
 73
7
 74
0
 42
0.0000001
 43
0.0000001
 44
0.0000000001
 40
0.0
 40
0.0
 40
0.0
 40
0.0
 40
0.2395745514
 40
0.4833497281
 40
0.7353113905
 40
1.0
 40
1.0
 40
1.0
 40
1.0
 10
211.1565393451
 20
135.3220887015
 30
0.0
 10
211.1565388777
 20
135.2038671936
 30
0.0
 10
211.1888479534
 20
134.9641619793
 30
0.0
 10
211.3326439389
 20
134.6264321948
 30
0.0
 10
211.5685137961
 20
134.3290242611
 30
0.0
 10
211.7756637227
 20
134.1751007853
 30
0.0
 10
211.8887797519
 20
134.1097946929
 30
0.0
  0
SPLINE
  5
39F
100
AcDbEntity
  8
0
100
AcDbSpline
 62
7
  6
CONTINUOUS
 70
0
 71
3
 72
23
 73
19
 74
0
 42
0.0000001
 43
0.0000001
 44
0.0000000001
 40
0.0
 40
0.0
 40
0.0
 40
0.0
 40
0.0490305528
 40
0.094636479
 40
0.139132878
 40
0.1851317509
 40
0.2348467176
 40
0.2896607684
 40
0.3500869894
 40
0.4159253773
 40
0.4864461849
 40
0.5605450981
 40
0.6368696432
 40
0.7139241134
 40
0.7901696154
 40
0.8641162154
 40
0.9344256998
 40
1.0
 40
1.0
 40
1.0
 40
1.0
 10
230.5883250356
 20
124.2855243474
 30
0.0
 10
230.7358517239
 20
124.3056274771
 30
0.0
 10
231.026530634
 20
124.3139659959
 30
0.0
 10
231.4422672669
 20
124.2109570706
 30
0.0
 10
231.800794198
 20
123.9924386301
 30
0.0
 10
232.085959367
 20
123.6685161564
 30
0.0
 10
232.2897871551
 20
123.254462175
 30
0.0
 10
232.4095542453
 20
122.7647928395
 30
0.0
 10
232.4441365933
 20
122.2136404461
 30
0.0
 10
232.3935938747
 20
121.6163772842
 30
0.0
 10
232.2597604071
 20
120.9899304023
 30
0.0
 10
232.0466402472
 20
120.3523820633
 30
0.0
 10
231.7604941433
 20
119.7223596336
 30
0.0
 10
231.4097426494
 20
119.1183689909
 30
0.0
 10
231.004709604
 20
118.5582114179
 30
0.0
 10
230.5572544068
 20
118.0582867435
 30
0.0
 10
230.0805794431
 20
117.633380508
 30
0.0
 10
229.7389584606
 20
117.3991396591
 30
0.0
 10
229.5665081607
 20
117.2995760264
 30
0.0
  0
SPLINE
  5
3A0
100
AcDbEntity
  8
0
100
AcDbSpline
 62
7
  6
CONTINUOUS
 70
0
 71
3
 72
26
 73
22
 74
0
 42
0.0000001
 43
0.0000001
 44
0.0000000001
 40
0.0
 40
0.0
 40
0.0
 40
0.0
 40
0.0664781131
 40
0.1381068683
 40
0.2135025701
 40
0.2909579129
 40
0.368612936
 40
0.4445895738
 40
0.5171384488
 40
0.5847890855
 40
0.6465275235
 40
0.7020168277
 40
0.7518650249
 40
0.7752518692
 40
0.7979969163
 40
0.8204856744
 40
0.8431260234
 40
0.8663127079
 40
0.8903952729
 40
0.9421928748
 40
1.0
 40
1.0
 40
1.0
 40
1.0
 10
229.5665081607
 20
125.9136765271
 30
0.0
 10
229.260208312
 20
125.7368352826
 30
0.0
 10
228.6548158194
 20
125.3145224386
 30
0.0
 10
227.8192076857
 20
124.540888329
 30
0.0
 10
227.0458188594
 20
123.6271816386
 30
0.0
 10
226.3623674672
 20
122.605939651
 30
0.0
 10
225.7930284648
 20
121.5134574857
 30
0.0
 10
225.3581102181
 20
120.388625362
 30
0.0
 10
225.0730758677
 20
119.2712641456
 30
0.0
 10
224.9480834126
 20
118.2004850432
 30
0.0
 10
224.9884340143
 20
117.2127554028
 30
0.0
 10
225.1945255305
 20
116.3414833827
 30
0.0
 10
225.5115284285
 20
115.7238891408
 30
0.0
 10
225.8421503781
 20
115.332249787
 30
0.0
 10
226.1200214638
 20
115.0929330477
 30
0.0
 10
226.4302405407
 20
114.9048444306
 30
0.0
 10
226.7694704565
 20
114.7698607363
 30
0.0
 10
227.1341638387
 20
114.6893360779
 30
0.0
 10
227.6618183958
 20
114.6542619772
 30
0.0
 10
228.3736444169
 20
114.7584874915
 30
0.0
 10
228.9216276975
 20
114.9695833095
 30
0.0
 10
229.198400122
 20
115.1036918424
 30
0.0
  0
SPLINE
  5
3A1
100
AcDbEntity
  8
0
100
AcDbSpline
 62
7
  6
CONTINUOUS
 70
0
 71
3
 72
18
 73
14
 74
0
 42
0.0000001
 43
0.0000001
 44
0.0000000001
 40
0.0
 40
0.0
 40
0.0
 40
0.0
 40
0.1400474479
 40
0.2659591118
 40
0.3245824612
 40
0.38102147
 40
0.4360597185
 40
0.4905885465
 40
0.5455413977
 40
0.6018174796
 40
0.7211022604
 40
0.8532220929
 40
1.0
 40
1.0
 40
1.0
 40
1.0
 10
234.1463022421
 20
123.6981604084
 30
0.0
 10
234.1235322045
 20
123.9956489278
 30
0.0
 10
234.0336958703
 20
124.5589175179
 30
0.0
 10
233.7786049359
 20
125.2095910017
 30
0.0
 10
233.497398746
 20
125.6409892712
 30
0.0
 10
233.2566657589
 20
125.9137110833
 30
0.0
 10
232.9832761368
 20
126.1404032614
 30
0.0
 10
232.6797095494
 20
126.3186446834
 30
0.0
 10
232.3490039764
 20
126.446744961
 30
0.0
 10
231.8673466253
 20
126.5511778207
 30
0.0
 10
231.202983302
 20
126.5438521495
 30
0.0
 10
230.3760617517
 20
126.3289631008
 30
0.0
 10
229.8373123814
 20
126.0700244836
 30
0.0
 10
229.5665081607
 20
125.9136765271
 30
0.0
  0
SPLINE
  5
3A2
100
AcDbEntity
  8
0
100
AcDbSpline
 62
7
  6
CONTINUOUS
 70
0
 71
3
 72
17
 73
13
 74
0
 42
0.0000001
 43
0.0000001
 44
0.0000000001
 40
0.0
 40
0.0
 40
0.0
 40
0.0
 40
0.0435786036
 40
0.0900039961
 40
0.1401365979
 40
0.1944096642
 40
0.3151228324
 40
0.4496806076
 40
0.5924477987
 40
0.7364002249
 40
0.874319848
 40
1.0
 40
1.0
 40
1.0
 40
1.0
 10
229.3513350586
 20
123.7596478215
 30
0.0
 10
229.4043079831
 20
123.7086199787
 30
0.0
 10
229.5014037666
 20
123.5898752507
 30
0.0
 10
229.6105003689
 20
123.3784539372
 30
0.0
 10
229.6853370905
 20
123.1338747578
 30
0.0
 10
229.7399663198
 20
122.7566643033
 30
0.0
 10
229.7104201212
 20
122.2298750852
 30
0.0
 10
229.5416224876
 20
121.5762561659
 30
0.0
 10
229.2506440493
 20
120.924072622
 30
0.0
 10
228.8583419586
 20
120.3206171922
 30
0.0
 10
228.3934887001
 20
119.8095600454
 30
0.0
 10
228.0355637003
 20
119.5386724161
 30
0.0
 10
227.851858202
 20
119.4326106303
 30
0.0
  0
SPLINE
  5
3A3
100
AcDbEntity
  8
0
100
AcDbSpline
 62
7
  6
CONTINUOUS
 70
0
 71
3
 72
14
 73
10
 74
0
 42
0.0000001
 43
0.0000001
 44
0.0000000001
 40
0.0
 40
0.0
 40
0.0
 40
0.0
 40
0.1080482432
 40
0.2181322873
 40
0.3321068339
 40
0.4515071146
 40
0.5774612857
 40
0.7107200697
 40
1.0
 40
1.0
 40
1.0
 40
1.0
 10
232.7128939135
 20
126.8727433047
 30
0.0
 10
232.5981278477
 20
126.9390017525
 30
0.0
 10
232.3544536652
 20
127.0530901021
 30
0.0
 10
231.9601941287
 20
127.1621210349
 30
0.0
 10
231.5398916867
 20
127.209007063
 30
0.0
 10
231.0980553381
 20
127.1936063193
 30
0.0
 10
230.638868352
 20
127.1166026138
 30
0.0
 10
229.9919420102
 20
126.9279628541
 30
0.0
 10
229.5202174072
 20
126.7034460701
 30
0.0
 10
229.2129532981
 20
126.5260481129
 30
0.0
  0
SPLINE
  5
3A4
100
AcDbEntity
  8
0
100
AcDbSpline
 62
7
  6
CONTINUOUS
 70
0
 71
3
 72
13
 73
9
 74
0
 42
0.0000001
 43
0.0000001
 44
0.0000000001
 40
0.0
 40
0.0
 40
0.0
 40
0.0
 40
0.3242789748
 40
0.5946150031
 40
0.7100475348
 40
0.8141101805
 40
0.9094744455
 40
1.0
 40
1.0
 40
1.0
 40
1.0
 10
226.030959535
 20
128.3631315083
 30
0.0
 10
226.1391756505
 20
128.4256097388
 30
0.0
 10
226.3321481251
 20
128.5500483392
 30
0.0
 10
226.5395010794
 20
128.7314668306
 30
0.0
 10
226.6570828786
 20
128.8798065495
 30
0.0
 10
226.7177306586
 20
128.9855475374
 30
0.0
 10
226.7547571911
 20
129.091731504
 30
0.0
 10
226.7631849866
 20
129.1635943898
 30
0.0
 10
226.7631852219
 20
129.1984773284
 30
0.0
  0
SPLINE
  5
3A5
100
AcDbEntity
  8
0
100
AcDbSpline
 62
7
  6
CONTINUOUS
 70
0
 71
3
 72
15
 73
11
 74
0
 42
0.0000001
 43
0.0000001
 44
0.0000000001
 40
0.0
 40
0.0
 40
0.0
 40
0.0
 40
0.1127416547
 40
0.2327855647
 40
0.3594985961
 40
0.4911064907
 40
0.6248947564
 40
0.7572758333
 40
0.8838758619
 40
1.0
 40
1.0
 40
1.0
 40
1.0
 10
222.4954256291
 20
127.9861833751
 30
0.0
 10
222.6156099603
 20
127.9167964888
 30
0.0
 10
222.8819939993
 20
127.8038128748
 30
0.0
 10
223.3180687287
 20
127.7161915652
 30
0.0
 10
223.7852388243
 20
127.7001623273
 30
0.0
 10
224.2667269459
 20
127.746844974
 30
0.0
 10
224.7470514768
 20
127.8457782512
 30
0.0
 10
225.210342243
 20
127.9861376253
 30
0.0
 10
225.6398450814
 20
128.1569499021
 30
0.0
 10
225.9071699399
 20
128.2916619789
 30
0.0
 10
226.030959535
 20
128.3631315083
 30
0.0
  0
SPLINE
  5
3A6
100
AcDbEntity
  8
0
100
AcDbSpline
 62
7
  6
CONTINUOUS
 70
0
 71
3
 72
23
 73
19
 74
0
 42
0.0000001
 43
0.0000001
 44
0.0000000001
 40
0.0
 40
0.0
 40
0.0
 40
0.0
 40
0.0428149388
 40
0.0873974283
 40
0.1351808413
 40
0.1870905489
 40
0.2435375147
 40
0.3044952235
 40
0.3695932965
 40
0.438201361
 40
0.5094990298
 40
0.5825348334
 40
0.6562782743
 40
0.7296665408
 40
0.8016536988
 40
0.8712563245
 40
0.9376075876
 40
1.0
 40
1.0
 40
1.0
 40
1.0
 10
204.853277363
 20
126.7914240622
 30
0.0
 10
204.6806954184
 20
126.891061876
 30
0.0
 10
204.353546627
 20
127.1414603867
 30
0.0
 10
203.9598544328
 20
127.6392892714
 30
0.0
 10
203.6656735835
 20
128.2481122223
 30
0.0
 10
203.4751935705
 20
128.9530623427
 30
0.0
 10
203.3903873931
 20
129.7392761908
 30
0.0
 10
203.4120579022
 20
130.5905928889
 30
0.0
 10
203.5392922817
 20
131.4894480978
 30
0.0
 10
203.7692416255
 20
132.4170598251
 30
0.0
 10
204.0969799961
 20
133.353856864
 30
0.0
 10
204.5155257798
 20
134.2799507371
 30
0.0
 10
205.0159586601
 20
135.1756045852
 30
0.0
 10
205.5875980608
 20
136.0217186659
 30
0.0
 10
206.2182561658
 20
136.8002302394
 30
0.0
 10
206.8945725322
 20
137.4946392482
 30
0.0
 10
207.6021011451
 20
138.0900606761
 30
0.0
 10
208.1017211361
 20
138.423950376
 30
0.0
 10
208.3532164063
 20
138.5691503713
 30
0.0
  0
SPLINE
  5
3A7
100
AcDbEntity
  8
0
100
AcDbSpline
 62
7
  6
CONTINUOUS
 70
0
 71
3
 72
15
 73
11
 74
0
 42
0.0000001
 43
0.0000001
 44
0.0000000001
 40
0.0
 40
0.0
 40
0.0
 40
0.0
 40
0.0869298402
 40
0.1863860949
 40
0.3037618506
 40
0.4375644025
 40
0.5820633422
 40
0.7293780517
 40
0.8711704672
 40
1.0
 40
1.0
 40
1.0
 40
1.0
 10
52.9817732724
 20
270.9484777755
 30
0.0
 10
52.9817731816
 20
270.9773154411
 30
0.0
 10
52.9643781289
 20
271.0397158165
 30
0.0
 10
52.8963619195
 20
271.1170575766
 30
0.0
 10
52.7959780941
 20
271.1782324536
 30
0.0
 10
52.6706455059
 20
271.2201177664
 30
0.0
 10
52.5301406699
 20
271.2398520431
 30
0.0
 10
52.3856599628
 20
271.2358794876
 30
0.0
 10
52.2490712539
 20
271.2085400207
 30
0.0
 10
52.1652526235
 20
271.1739667656
 30
0.0
 10
52.1282410174
 20
271.1525982324
 30
0.0
  0
SPLINE
  5
3A8
100
AcDbEntity
  8
0
100
AcDbSpline
 62
7
  6
CONTINUOUS
 70
0
 71
3
 72
11
 73
7
 74
0
 42
0.0000001
 43
0.0000001
 44
0.0000000001
 40
0.0
 40
0.0
 40
0.0
 40
0.0
 40
0.2905619462
 40
0.5495933702
 40
0.7820866284
 40
1.0
 40
1.0
 40
1.0
 40
1.0
 10
70.249453066
 20
256.0997043306
 30
0.0
 10
70.1655118194
 20
256.1481667356
 30
0.0
 10
70.013673404
 20
256.2532040571
 30
0.0
 10
69.8340849279
 20
256.4459016049
 30
0.0
 10
69.723975103
 20
256.659419642
 30
0.0
 10
69.7028879407
 20
256.8118541523
 30
0.0
 10
69.7059898005
 20
256.8844800849
 30
0.0
  0
SPLINE
  5
3A9
100
AcDbEntity
  8
0
100
AcDbSpline
 62
7
  6
CONTINUOUS
 70
0
 71
3
 72
11
 73
7
 74
0
 42
0.0000001
 43
0.0000001
 44
0.0000000001
 40
0.0
 40
0.0
 40
0.0
 40
0.0
 40
0.2905614579
 40
0.5495927057
 40
0.7820861619
 40
1.0
 40
1.0
 40
1.0
 40
1.0
 10
44.4506042997
 20
255.8546968453
 30
0.0
 10
44.3311861356
 20
255.7857511476
 30
0.0
 10
44.1151748188
 20
255.6363186439
 30
0.0
 10
43.8596855561
 20
255.3621763436
 30
0.0
 10
43.7030394919
 20
255.0584143544
 30
0.0
 10
43.6730402707
 20
254.8415533996
 30
0.0
 10
43.6774531375
 20
254.7382320274
 30
0.0
  0
SPLINE
  5
3AA
100
AcDbEntity
  8
0
100
AcDbSpline
 62
7
  6
CONTINUOUS
 70
0
 71
3
 72
11
 73
7
 74
0
 42
0.0000001
 43
0.0000001
 44
0.0000000001
 40
0.0
 40
0.0
 40
0.0
 40
0.0
 40
0.2905614579
 40
0.5495927057
 40
0.7820861619
 40
1.0
 40
1.0
 40
1.0
 40
1.0
 10
44.4505742712
 20
260.0187698781
 30
0.0
 10
44.3311561071
 20
259.9498241804
 30
0.0
 10
44.1151447903
 20
259.8003916767
 30
0.0
 10
43.8596555277
 20
259.5262493764
 30
0.0
 10
43.7030094634
 20
259.2224873872
 30
0.0
 10
43.6730102422
 20
259.0056264324
 30
0.0
 10
43.6774231091
 20
258.9023050602
 30
0.0
  0
SPLINE
  5
3AB
100
AcDbEntity
  8
0
100
AcDbSpline
 62
7
  6
CONTINUOUS
 70
0
 71
3
 72
12
 73
8
 74
0
 42
0.0000001
 43
0.0000001
 44
0.0000000001
 40
0.0
 40
0.0
 40
0.0
 40
0.0
 40
0.0986140254
 40
0.2010878856
 40
0.4282837485
 40
0.6954086473
 40
1.0
 40
1.0
 40
1.0
 40
1.0
 10
53.7317916187
 20
266.0494633548
 30
0.0
 10
53.7317942394
 20
266.0840839607
 30
0.0
 10
53.7227817246
 20
266.1549637564
 30
0.0
 10
53.6682557623
 20
266.2964225284
 30
0.0
 10
53.5297484103
 20
266.4608446972
 30
0.0
 10
53.2904813859
 20
266.6122212749
 30
0.0
 10
53.0999001532
 20
266.6801428695
 30
0.0
 10
52.9964272355
 20
266.7071265018
 30
0.0
  0
SPLINE
  5
3AC
100
AcDbEntity
  8
0
100
AcDbSpline
 62
7
  6
CONTINUOUS
 70
0
 71
3
 72
17
 73
13
 74
0
 42
0.0000001
 43
0.0000001
 44
0.0000000001
 40
0.0
 40
0.0
 40
0.0
 40
0.0
 40
0.0428584629
 40
0.08748393
 40
0.135317815
 40
0.1872795469
 40
0.3045398917
 40
0.4382057949
 40
0.5825481992
 40
0.7297130515
 40
0.8713063844
 40
1.0
 40
1.0
 40
1.0
 40
1.0
 10
58.1403384245
 20
272.5477724867
 30
0.0
 10
58.1403411181
 20
272.5833556626
 30
0.0
 10
58.1308029949
 20
272.656295248
 30
0.0
 10
58.0889930074
 20
272.7616254271
 30
0.0
 10
58.0210994525
 20
272.8614732838
 30
0.0
 10
57.8933145499
 20
272.9897283651
 30
0.0
 10
57.6755622455
 20
273.1222755107
 30
0.0
 10
57.3624749354
 20
273.2268584162
 30
0.0
 10
57.011111032
 20
273.2762423679
 30
0.0
 10
56.6499595054
 20
273.2662449315
 30
0.0
 10
56.3084964034
 20
273.197942912
 30
0.0
 10
56.0989884777
 20
273.1114970311
 30
0.0
 10
56.0064555293
 20
273.0580734274
 30
0.0
  0
SPLINE
  5
3AD
100
AcDbEntity
  8
0
100
AcDbSpline
 62
7
  6
CONTINUOUS
 70
0
 71
3
 72
15
 73
11
 74
0
 42
0.0000001
 43
0.0000001
 44
0.0000000001
 40
0.0
 40
0.0
 40
0.0
 40
0.0
 40
0.0869258731
 40
0.1863900355
 40
0.3037775758
 40
0.4375856292
 40
0.582082136
 40
0.7293904368
 40
0.8711742898
 40
1.0
 40
1.0
 40
1.0
 40
1.0
 10
52.3988420736
 20
267.9613857378
 30
0.0
 10
52.3988425993
 20
267.9902220948
 30
0.0
 10
52.3814433778
 20
268.0526228647
 30
0.0
 10
52.3134251435
 20
268.1299690952
 30
0.0
 10
52.2130323716
 20
268.1911467698
 30
0.0
 10
52.0876941031
 20
268.2330303054
 30
0.0
 10
51.9471898856
 20
268.2527615144
 30
0.0
 10
51.8027151069
 20
268.2487857024
 30
0.0
 10
51.6661327961
 20
268.2214463879
 30
0.0
 10
51.5823182892
 20
268.186874032
 30
0.0
 10
51.5453077718
 20
268.1655061274
 30
0.0
  0
SPLINE
  5
3AE
100
AcDbEntity
  8
0
100
AcDbSpline
 62
7
  6
CONTINUOUS
 70
0
 71
3
 72
17
 73
13
 74
0
 42
0.0000001
 43
0.0000001
 44
0.0000000001
 40
0.0
 40
0.0
 40
0.0
 40
0.0
 40
0.0428584629
 40
0.08748393
 40
0.135317815
 40
0.1872795469
 40
0.3045398917
 40
0.4382057949
 40
0.5825481992
 40
0.7297130515
 40
0.8713063844
 40
1.0
 40
1.0
 40
1.0
 40
1.0
 10
58.8121501044
 20
269.1055032412
 30
0.0
 10
58.812152798
 20
269.1410864171
 30
0.0
 10
58.8026146748
 20
269.2140260025
 30
0.0
 10
58.7608046873
 20
269.3193561815
 30
0.0
 10
58.6929111325
 20
269.4192040383
 30
0.0
 10
58.5651262298
 20
269.5474591196
 30
0.0
 10
58.3473739254
 20
269.6800062652
 30
0.0
 10
58.0342866153
 20
269.7845891706
 30
0.0
 10
57.682922712
 20
269.8339731224
 30
0.0
 10
57.3217711853
 20
269.823975686
 30
0.0
 10
56.9803080833
 20
269.7556736664
 30
0.0
 10
56.7708001576
 20
269.6692277856
 30
0.0
 10
56.6782672093
 20
269.6158041819
 30
0.0
  0
SPLINE
  5
3AF
100
AcDbEntity
  8
0
100
AcDbSpline
 62
7
  6
CONTINUOUS
 70
0
 71
3
 72
17
 73
13
 74
0
 42
0.0000001
 43
0.0000001
 44
0.0000000001
 40
0.0
 40
0.0
 40
0.0
 40
0.0
 40
0.0428584629
 40
0.08748393
 40
0.135317815
 40
0.1872795469
 40
0.3045398917
 40
0.4382057949
 40
0.5825481992
 40
0.7297130515
 40
0.8713063844
 40
1.0
 40
1.0
 40
1.0
 40
1.0
 10
63.0547731277
 20
271.5549681644
 30
0.0
 10
63.0547758213
 20
271.5905513403
 30
0.0
 10
63.0452376981
 20
271.6634909257
 30
0.0
 10
63.0034277106
 20
271.7688211048
 30
0.0
 10
62.9355341557
 20
271.8686689615
 30
0.0
 10
62.8077492531
 20
271.9969240428
 30
0.0
 10
62.5899969487
 20
272.1294711884
 30
0.0
 10
62.2769096386
 20
272.2340540939
 30
0.0
 10
61.9255457352
 20
272.2834380456
 30
0.0
 10
61.5643942086
 20
272.2734406092
 30
0.0
 10
61.2229311066
 20
272.2051385897
 30
0.0
 10
61.0134231809
 20
272.1186927089
 30
0.0
 10
60.9208902326
 20
272.0652691051
 30
0.0
  0
SPLINE
  5
3B0
100
AcDbEntity
  8
0
100
AcDbSpline
 62
7
  6
CONTINUOUS
 70
0
 71
3
 72
15
 73
11
 74
0
 42
0.0000001
 43
0.0000001
 44
0.0000000001
 40
0.0
 40
0.0
 40
0.0
 40
0.0
 40
0.0869258731
 40
0.1863900355
 40
0.3037775758
 40
0.4375856292
 40
0.582082136
 40
0.7293904368
 40
0.8711742898
 40
1.0
 40
1.0
 40
1.0
 40
1.0
 10
56.0804830118
 20
265.8358374374
 30
0.0
 10
56.0804835374
 20
265.8646737944
 30
0.0
 10
56.063084316
 20
265.9270745643
 30
0.0
 10
55.9950660817
 20
266.0044207948
 30
0.0
 10
55.8946733098
 20
266.0655984694
 30
0.0
 10
55.7693350413
 20
266.107482005
 30
0.0
 10
55.6288308238
 20
266.127213214
 30
0.0
 10
55.4843560451
 20
266.123237402
 30
0.0
 10
55.3477737343
 20
266.0958980875
 30
0.0
 10
55.2639592274
 20
266.0613257316
 30
0.0
 10
55.22694871
 20
266.039957827
 30
0.0
  0
SPLINE
  5
3B1
100
AcDbEntity
  8
0
100
AcDbSpline
 62
7
  6
CONTINUOUS
 70
0
 71
3
 72
9
 73
5
 74
0
 42
0.0000001
 43
0.0000001
 44
0.0000000001
 40
0.0
 40
0.0
 40
0.0
 40
0.0
 40
0.5035409473
 40
1.0
 40
1.0
 40
1.0
 40
1.0
 10
45.9822135755
 20
259.6408842441
 30
0.0
 10
45.9263552271
 20
259.4534046273
 30
0.0
 10
45.8410466913
 20
259.0728671321
 30
0.0
 10
45.8121760311
 20
258.6838445458
 30
0.0
 10
45.8121671053
 20
258.4909718075
 30
0.0
  0
SPLINE
  5
3B2
100
AcDbEntity
  8
0
100
AcDbSpline
 62
7
  6
CONTINUOUS
 70
0
 71
3
 72
9
 73
5
 74
0
 42
0.0000001
 43
0.0000001
 44
0.0000000001
 40
0.0
 40
0.0
 40
0.0
 40
0.0
 40
0.5078021578
 40
1.0
 40
1.0
 40
1.0
 40
1.0
 10
46.4386481802
 20
268.7492023568
 30
0.0
 10
46.3170441239
 20
268.4816046182
 30
0.0
 10
46.1276940915
 20
267.9297106574
 30
0.0
 10
46.062179893
 20
267.3491470384
 30
0.0
 10
46.062166807
 20
267.064247187
 30
0.0
  0
SPLINE
  5
3B3
100
AcDbEntity
  8
0
100
AcDbSpline
 62
7
  6
CONTINUOUS
 70
0
 71
3
 72
23
 73
19
 74
0
 42
0.0000001
 43
0.0000001
 44
0.0000000001
 40
0.0
 40
0.0
 40
0.0
 40
0.0
 40
0.0623921821
 40
0.1287433132
 40
0.1983464336
 40
0.2703343575
 40
0.3437240578
 40
0.4174689059
 40
0.4905058649
 40
0.5618044537
 40
0.6304130064
 40
0.6955110947
 40
0.7564683747
 40
0.8129145292
 40
0.8648231189
 40
0.9126052214
 40
0.9571863559
 40
1.0
 40
1.0
 40
1.0
 40
1.0
 10
65.3402965751
 20
274.820942557
 30
0.0
 10
64.9450937441
 20
275.0491078561
 30
0.0
 10
64.0981537894
 20
275.4666845836
 30
0.0
 10
62.7319420203
 20
275.9617139642
 30
0.0
 10
61.2555388879
 20
276.3365002593
 30
0.0
 10
59.7005448268
 20
276.5830741096
 30
0.0
 10
58.0999163194
 20
276.6962150817
 30
0.0
 10
56.4878142412
 20
276.6735292532
 30
0.0
 10
54.8986294983
 20
276.5154857569
 30
0.0
 10
53.3662331486
 20
276.2254550705
 30
0.0
 10
51.9231780894
 20
275.8095626673
 30
0.0
 10
50.5999697986
 20
275.2764841374
 30
0.0
 10
49.424405726
 20
274.6371008761
 30
0.0
 10
48.4211039094
 20
273.9039721577
 30
0.0
 10
47.6114233237
 20
273.0908889239
 30
0.0
 10
47.0140373407
 20
272.212213872
 30
0.0
 10
46.6458816889
 20
271.2853275872
 30
0.0
 10
46.5621589115
 20
270.643397176
 30
0.0
 10
46.5621591873
 20
270.3302568648
 30
0.0
  0
SPLINE
  5
3B4
100
AcDbEntity
  8
0
100
AcDbSpline
 62
7
  6
CONTINUOUS
 70
0
 71
3
 72
22
 73
18
 74
0
 42
0.0000001
 43
0.0000001
 44
0.0000000001
 40
0.0
 40
0.0
 40
0.0
 40
0.0
 40
0.0623990858
 40
0.1287612932
 40
0.1983726619
 40
0.2703705519
 40
0.4173906053
 40
0.4904374903
 40
0.5617459069
 40
0.6303639194
 40
0.695470839
 40
0.7564362235
 40
0.8128897769
 40
0.8648051399
 40
0.9125935186
 40
0.9571805446
 40
1.0
 40
1.0
 40
1.0
 40
1.0
 10
64.1029193233
 20
266.5540298851
 30
0.0
 10
63.7705977861
 20
266.3621651014
 30
0.0
 10
63.0583860393
 20
266.0110182498
 30
0.0
 10
61.9095559845
 20
265.5947348984
 30
0.0
 10
60.6679217417
 20
265.2795404139
 30
0.0
 10
58.9130974521
 20
265.0013975191
 30
0.0
 10
57.1071824972
 20
264.9516600181
 30
0.0
 10
55.322501767
 20
265.1290039935
 30
0.0
 10
54.0337727128
 20
265.372924419
 30
0.0
 10
52.8203143279
 20
265.7226404035
 30
0.0
 10
51.7076040646
 20
266.1709158062
 30
0.0
 10
50.7190623955
 20
266.7085825602
 30
0.0
 10
49.8753780245
 20
267.3250811217
 30
0.0
 10
49.1945134164
 20
268.0088123025
 30
0.0
 10
48.6921644049
 20
268.7476993252
 30
0.0
 10
48.3825862652
 20
269.527126451
 30
0.0
 10
48.3121537537
 20
270.0669329564
 30
0.0
 10
48.3121708933
 20
270.3302567603
 30
0.0
  0
SPLINE
  5
3B5
100
AcDbEntity
  8
0
100
AcDbSpline
 62
7
  6
CONTINUOUS
 70
0
 71
3
 72
17
 73
13
 74
0
 42
0.0000001
 43
0.0000001
 44
0.0000000001
 40
0.0
 40
0.0
 40
0.0
 40
0.0
 40
0.0428584629
 40
0.08748393
 40
0.135317815
 40
0.1872795469
 40
0.3045398917
 40
0.4382057949
 40
0.5825481992
 40
0.7297130515
 40
0.8713063844
 40
1.0
 40
1.0
 40
1.0
 40
1.0
 10
64.7744261606
 20
268.7176667949
 30
0.0
 10
64.7744288542
 20
268.7532499708
 30
0.0
 10
64.764890731
 20
268.8261895563
 30
0.0
 10
64.7230807435
 20
268.9315197353
 30
0.0
 10
64.6551871887
 20
269.0313675921
 30
0.0
 10
64.527402286
 20
269.1596226733
 30
0.0
 10
64.3096499816
 20
269.292169819
 30
0.0
 10
63.9965626715
 20
269.3967527244
 30
0.0
 10
63.6451987682
 20
269.4461366761
 30
0.0
 10
63.2840472415
 20
269.4361392398
 30
0.0
 10
62.9425841395
 20
269.3678372202
 30
0.0
 10
62.7330762138
 20
269.2813913394
 30
0.0
 10
62.6405432655
 20
269.2279677357
 30
0.0
  0
SPLINE
  5
3B6
100
AcDbEntity
  8
0
100
AcDbSpline
 62
7
  6
CONTINUOUS
 70
0
 71
3
 72
15
 73
11
 74
0
 42
0.0000001
 43
0.0000001
 44
0.0000000001
 40
0.0
 40
0.0
 40
0.0
 40
0.0
 40
0.0869258731
 40
0.1863900355
 40
0.3037775758
 40
0.4375856292
 40
0.582082136
 40
0.7293904368
 40
0.8711742898
 40
1.0
 40
1.0
 40
1.0
 40
1.0
 10
61.2543474155
 20
266.1724141652
 30
0.0
 10
61.2543479411
 20
266.2012505222
 30
0.0
 10
61.2369487197
 20
266.2636512921
 30
0.0
 10
61.1689304854
 20
266.3409975226
 30
0.0
 10
61.0685377135
 20
266.4021751972
 30
0.0
 10
60.943199445
 20
266.4440587328
 30
0.0
 10
60.8026952275
 20
266.4637899418
 30
0.0
 10
60.6582204488
 20
266.4598141298
 30
0.0
 10
60.521638138
 20
266.4324748153
 30
0.0
 10
60.4378236311
 20
266.3979024594
 30
0.0
 10
60.4008131137
 20
266.3765345548
 30
0.0
  0
SPLINE
  5
3B7
100
AcDbEntity
  8
0
100
AcDbSpline
 62
7
  6
CONTINUOUS
 70
0
 71
3
 72
11
 73
7
 74
0
 42
0.0000001
 43
0.0000001
 44
0.0000000001
 40
0.0
 40
0.0
 40
0.0
 40
0.0
 40
0.2895468475
 40
0.5491384346
 40
0.782278826
 40
1.0
 40
1.0
 40
1.0
 40
1.0
 10
60.4008131137
 20
266.3765345548
 30
0.0
 10
60.3788860697
 20
266.3638750456
 30
0.0
 10
60.3390952497
 20
266.3364378749
 30
0.0
 10
60.2914967532
 20
266.2864679142
 30
0.0
 10
60.2613892156
 20
266.2311465209
 30
0.0
 10
60.254388884
 20
266.191452598
 30
0.0
 10
60.254388537
 20
266.1724141898
 30
0.0
  0
SPLINE
  5
3B8
100
AcDbEntity
  8
0
100
AcDbSpline
 62
7
  6
CONTINUOUS
 70
0
 71
3
 72
11
 73
7
 74
0
 42
0.0000001
 43
0.0000001
 44
0.0000000001
 40
0.0
 40
0.0
 40
0.0
 40
0.0
 40
0.2897031353
 40
0.5490914015
 40
0.7822201129
 40
1.0
 40
1.0
 40
1.0
 40
1.0
 10
62.6405432655
 20
269.2279677357
 30
0.0
 10
62.5856951932
 20
269.1963013754
 30
0.0
 10
62.4861863945
 20
269.1277629268
 30
0.0
 10
62.3672572538
 20
269.0027778698
 30
0.0
 10
62.2920281401
 20
268.8645104475
 30
0.0
 10
62.2744382872
 20
268.7652764041
 30
0.0
 10
62.2744346832
 20
268.7176667901
 30
0.0
  0
SPLINE
  5
3B9
100
AcDbEntity
  8
0
100
AcDbSpline
 62
7
  6
CONTINUOUS
 70
0
 71
3
 72
11
 73
7
 74
0
 42
0.0000001
 43
0.0000001
 44
0.0000000001
 40
0.0
 40
0.0
 40
0.0
 40
0.0
 40
0.2895468475
 40
0.5491384346
 40
0.782278826
 40
1.0
 40
1.0
 40
1.0
 40
1.0
 10
55.22694871
 20
266.039957827
 30
0.0
 10
55.205021666
 20
266.0272983178
 30
0.0
 10
55.165230846
 20
265.9998611471
 30
0.0
 10
55.1176323495
 20
265.9498911864
 30
0.0
 10
55.0875248119
 20
265.8945697931
 30
0.0
 10
55.0805244803
 20
265.8548758702
 30
0.0
 10
55.0805241333
 20
265.835837462
 30
0.0
  0
SPLINE
  5
3BA
100
AcDbEntity
  8
0
100
AcDbSpline
 62
7
  6
CONTINUOUS
 70
0
 71
3
 72
11
 73
7
 74
0
 42
0.0000001
 43
0.0000001
 44
0.0000000001
 40
0.0
 40
0.0
 40
0.0
 40
0.0
 40
0.2897031353
 40
0.5490914015
 40
0.7822201129
 40
1.0
 40
1.0
 40
1.0
 40
1.0
 10
60.9208902326
 20
272.0652691051
 30
0.0
 10
60.8660421603
 20
272.0336027449
 30
0.0
 10
60.7665333616
 20
271.9650642963
 30
0.0
 10
60.6476042209
 20
271.8400792392
 30
0.0
 10
60.5723751072
 20
271.7018118169
 30
0.0
 10
60.5547852543
 20
271.6025777736
 30
0.0
 10
60.5547816503
 20
271.5549681596
 30
0.0
  0
SPLINE
  5
3BB
100
AcDbEntity
  8
0
100
AcDbSpline
 62
7
  6
CONTINUOUS
 70
0
 71
3
 72
11
 73
7
 74
0
 42
0.0000001
 43
0.0000001
 44
0.0000000001
 40
0.0
 40
0.0
 40
0.0
 40
0.0
 40
0.2897031353
 40
0.5490914015
 40
0.7822201129
 40
1.0
 40
1.0
 40
1.0
 40
1.0
 10
56.6782672093
 20
269.6158041819
 30
0.0
 10
56.623419137
 20
269.5841378216
 30
0.0
 10
56.5239103383
 20
269.515599373
 30
0.0
 10
56.4049811976
 20
269.390614316
 30
0.0
 10
56.3297520839
 20
269.2523468937
 30
0.0
 10
56.312162231
 20
269.1531128503
 30
0.0
 10
56.312158627
 20
269.1055032364
 30
0.0
  0
SPLINE
  5
3BC
100
AcDbEntity
  8
0
100
AcDbSpline
 62
7
  6
CONTINUOUS
 70
0
 71
3
 72
11
 73
7
 74
0
 42
0.0000001
 43
0.0000001
 44
0.0000000001
 40
0.0
 40
0.0
 40
0.0
 40
0.0
 40
0.2895468475
 40
0.5491384346
 40
0.782278826
 40
1.0
 40
1.0
 40
1.0
 40
1.0
 10
51.5453077718
 20
268.1655061274
 30
0.0
 10
51.5233807278
 20
268.1528466182
 30
0.0
 10
51.4835899078
 20
268.1254094474
 30
0.0
 10
51.4359914114
 20
268.0754394868
 30
0.0
 10
51.4058838738
 20
268.0201180935
 30
0.0
 10
51.3988835422
 20
267.9804241706
 30
0.0
 10
51.3988831952
 20
267.9613857624
 30
0.0
  0
SPLINE
  5
3BD
100
AcDbEntity
  8
0
100
AcDbSpline
 62
7
  6
CONTINUOUS
 70
0
 71
3
 72
11
 73
7
 74
0
 42
0.0000001
 43
0.0000001
 44
0.0000000001
 40
0.0
 40
0.0
 40
0.0
 40
0.0
 40
0.2897031353
 40
0.5490914015
 40
0.7822201129
 40
1.0
 40
1.0
 40
1.0
 40
1.0
 10
56.0064555293
 20
273.0580734274
 30
0.0
 10
55.9516074571
 20
273.0264070671
 30
0.0
 10
55.8520986584
 20
272.9578686185
 30
0.0
 10
55.7331695177
 20
272.8328835615
 30
0.0
 10
55.657940404
 20
272.6946161392
 30
0.0
 10
55.6403505511
 20
272.5953820959
 30
0.0
 10
55.6403469471
 20
272.5477724819
 30
0.0
  0
SPLINE
  5
3BE
100
AcDbEntity
  8
0
100
AcDbSpline
 62
7
  6
CONTINUOUS
 70
0
 71
3
 72
11
 73
7
 74
0
 42
0.0000001
 43
0.0000001
 44
0.0000000001
 40
0.0
 40
0.0
 40
0.0
 40
0.0
 40
0.2895519988
 40
0.5491419995
 40
0.7822793255
 40
1.0
 40
1.0
 40
1.0
 40
1.0
 10
52.1282410174
 20
271.1525982324
 30
0.0
 10
52.1063135646
 20
271.1399384872
 30
0.0
 10
52.0665223485
 20
271.1125012071
 30
0.0
 10
52.0189241203
 20
271.0625308869
 30
0.0
 10
51.9888166982
 20
271.0072098398
 30
0.0
 10
51.9818166908
 20
270.9675162436
 30
0.0
 10
51.9818159399
 20
270.9484778628
 30
0.0
  0
SPLINE
  5
3BF
100
AcDbEntity
  8
0
100
AcDbSpline
 62
7
  6
CONTINUOUS
 70
0
 71
3
 72
14
 73
10
 74
0
 42
0.0000001
 43
0.0000001
 44
0.0000000001
 40
0.0
 40
0.0
 40
0.0
 40
0.0
 40
0.2895104053
 40
0.4306322487
 40
0.5637385318
 40
0.6863576239
 40
0.7981565909
 40
0.9013569757
 40
1.0
 40
1.0
 40
1.0
 40
1.0
 10
71.0266233504
 20
245.0569355322
 30
0.0
 10
71.353967334
 20
245.1051531482
 30
0.0
 10
71.8539693504
 20
245.1105542353
 30
0.0
 10
72.4880443383
 20
244.9883972845
 30
0.0
 10
72.9176547797
 20
244.8366720238
 30
0.0
 10
73.2854927848
 20
244.6285911983
 30
0.0
 10
73.5750030723
 20
244.3675050374
 30
0.0
 10
73.7667046386
 20
244.057696797
 30
0.0
 10
73.8128686331
 20
243.8250490266
 30
0.0
 10
73.8128686331
 20
243.7123117196
 30
0.0
  0
SPLINE
  5
3C0
100
AcDbEntity
  8
0
100
AcDbSpline
 62
7
  6
CONTINUOUS
 70
0
 71
3
 72
14
 73
10
 74
0
 42
0.0000001
 43
0.0000001
 44
0.0000000001
 40
0.0
 40
0.0
 40
0.0
 40
0.0
 40
0.1080475079
 40
0.218129458
 40
0.3321012995
 40
0.4515009845
 40
0.5774519083
 40
0.7107147531
 40
1.0
 40
1.0
 40
1.0
 40
1.0
 10
66.8121378381
 20
270.3302569686
 30
0.0
 10
66.81212644
 20
270.1551427104
 30
0.0
 10
66.7817424572
 20
269.8009040616
 30
0.0
 10
66.6459838843
 20
269.2776940369
 30
0.0
 10
66.4219673153
 20
268.7657249598
 30
0.0
 10
66.1124100246
 20
268.2702795025
 30
0.0
 10
65.7209016052
 20
267.7956626997
 30
0.0
 10
65.0775819363
 20
267.1799541286
 30
0.0
 10
64.5089551178
 20
266.7884533611
 30
0.0
 10
64.1029193233
 20
266.5540298851
 30
0.0
  0
SPLINE
  5
3C1
100
AcDbEntity
  8
0
100
AcDbSpline
 62
7
  6
CONTINUOUS
 70
0
 71
3
 72
14
 73
10
 74
0
 42
0.0000001
 43
0.0000001
 44
0.0000000001
 40
0.0
 40
0.0
 40
0.0
 40
0.0
 40
0.1080477053
 40
0.2181300025
 40
0.3321016202
 40
0.4515004859
 40
0.5774546212
 40
0.7107147396
 40
1.0
 40
1.0
 40
1.0
 40
1.0
 10
68.5621495441
 20
270.3302568641
 30
0.0
 10
68.5621493608
 20
270.5385039728
 30
0.0
 10
68.5259540719
 20
270.959762334
 30
0.0
 10
68.3645640176
 20
271.5819771882
 30
0.0
 10
68.0981304596
 20
272.1908017326
 30
0.0
 10
67.7300097284
 20
272.7799941498
 30
0.0
 10
67.2644160523
 20
273.3444034546
 30
0.0
 10
66.4993700406
 20
274.0765997444
 30
0.0
 10
65.8231583499
 20
274.542168488
 30
0.0
 10
65.3402965751
 20
274.820942557
 30
0.0
  0
SPLINE
  5
3C2
100
AcDbEntity
  8
0
100
AcDbSpline
 62
7
  6
CONTINUOUS
 70
0
 71
3
 72
11
 73
7
 74
0
 42
0.0000001
 43
0.0000001
 44
0.0000000001
 40
0.0
 40
0.0
 40
0.0
 40
0.0
 40
0.2179133716
 40
0.4504066298
 40
0.7094380538
 40
1.0
 40
1.0
 40
1.0
 40
1.0
 10
71.4468856232
 20
254.7382860771
 30
0.0
 10
71.4512985338
 20
254.8416085238
 30
0.0
 10
71.4212985444
 20
255.0584719222
 30
0.0
 10
71.2646490378
 20
255.3622367788
 30
0.0
 10
71.009154615
 20
255.6363810326
 30
0.0
 10
70.7931392605
 20
255.785814061
 30
0.0
 10
70.6737189011
 20
255.8547598779
 30
0.0
  0
SPLINE
  5
3C3
100
AcDbEntity
  8
0
100
AcDbSpline
 62
7
  6
CONTINUOUS
 70
0
 71
3
 72
11
 73
7
 74
0
 42
0.0000001
 43
0.0000001
 44
0.0000000001
 40
0.0
 40
0.0
 40
0.0
 40
0.0
 40
0.2179138381
 40
0.4504072943
 40
0.7094385421
 40
1.0
 40
1.0
 40
1.0
 40
1.0
 10
45.4183189303
 20
256.8844127778
 30
0.0
 10
45.4214207594
 20
256.8117876004
 30
0.0
 10
45.400334137
 20
256.6593548077
 30
0.0
 10
45.2902267317
 20
256.4458387861
 30
0.0
 10
45.1106418828
 20
256.2531426114
 30
0.0
 10
44.9588063055
 20
256.1481056587
 30
0.0
 10
44.874866602
 20
256.0996433376
 30
0.0
  0
SPLINE
  5
3C4
100
AcDbEntity
  8
0
100
AcDbSpline
 62
7
  6
CONTINUOUS
 70
0
 71
3
 72
11
 73
7
 74
0
 42
0.0000001
 43
0.0000001
 44
0.0000000001
 40
0.0
 40
0.0
 40
0.0
 40
0.0
 40
0.2179133716
 40
0.4504066298
 40
0.7094380538
 40
1.0
 40
1.0
 40
1.0
 40
1.0
 10
71.4468555948
 20
258.9023591099
 30
0.0
 10
71.4512685054
 20
259.0056815566
 30
0.0
 10
71.421268516
 20
259.222544955
 30
0.0
 10
71.2646190094
 20
259.5263098116
 30
0.0
 10
71.0091245865
 20
259.8004540654
 30
0.0
 10
70.793109232
 20
259.9498870938
 30
0.0
 10
70.6736888726
 20
260.0188329107
 30
0.0
  0
SPLINE
  5
3C5
100
AcDbEntity
  8
0
100
AcDbSpline
 62
7
  6
CONTINUOUS
 70
0
 71
3
 72
9
 73
5
 74
0
 42
0.0000001
 43
0.0000001
 44
0.0000000001
 40
0.0
 40
0.0
 40
0.0
 40
0.0
 40
0.4916754483
 40
1.0
 40
1.0
 40
1.0
 40
1.0
 10
69.0621419244
 20
267.0642472048
 30
0.0
 10
69.0621554713
 20
267.3591803478
 30
0.0
 10
68.9917316714
 20
267.9609447993
 30
0.0
 10
68.7889681542
 20
268.5309017718
 30
0.0
 10
68.6590227141
 20
268.806746816
 30
0.0
  0
SPLINE
  5
3C6
100
AcDbEntity
  8
0
100
AcDbSpline
 62
7
  6
CONTINUOUS
 70
0
 71
3
 72
11
 73
7
 74
0
 42
0.0000001
 43
0.0000001
 44
0.0000000001
 40
0.0
 40
0.0
 40
0.0
 40
0.0
 40
0.2306873806
 40
0.4695292945
 40
0.7241992333
 40
1.0
 40
1.0
 40
1.0
 40
1.0
 10
55.3122126562
 20
235.6290774729
 30
0.0
 10
55.3122126562
 20
235.7278413379
 30
0.0
 10
55.3471014814
 20
235.9302595154
 30
0.0
 10
55.4948986346
 20
236.2076228247
 30
0.0
 10
55.7223739072
 20
236.4499741632
 30
0.0
 10
55.9103792977
 20
236.5801375254
 30
0.0
 10
56.0126381674
 20
236.6391763589
 30
0.0
  0
SPLINE
  5
3C7
100
AcDbEntity
  8
0
100
AcDbSpline
 62
7
  6
CONTINUOUS
 70
0
 71
3
 72
17
 73
13
 74
0
 42
0.0000001
 43
0.0000001
 44
0.0000000001
 40
0.0
 40
0.0
 40
0.0
 40
0.0
 40
0.1273471029
 40
0.2655725476
 40
0.4085598247
 40
0.5488708564
 40
0.6797873935
 40
0.7404205781
 40
0.7975478401
 40
0.9021972366
 40
0.9514958125
 40
1.0
 40
1.0
 40
1.0
 40
1.0
 10
56.0126381674
 20
236.6391763589
 30
0.0
 10
56.1781409503
 20
236.7347288649
 30
0.0
 10
56.5501201212
 20
236.8886092186
 30
0.0
 10
57.15440803
 20
237.0085687414
 30
0.0
 10
57.7899617577
 20
237.0238363515
 30
0.0
 10
58.4079070517
 20
236.9331143785
 30
0.0
 10
58.8825183595
 20
236.7694651068
 30
0.0
 10
59.2090247016
 20
236.5864584492
 30
0.0
 10
59.4761509662
 20
236.3856700531
 30
0.0
 10
59.6844008681
 20
236.135285158
 30
0.0
 10
59.7937140705
 20
235.8492580905
 30
0.0
 10
59.8122126562
 20
235.7018662103
 30
0.0
 10
59.8122126562
 20
235.6290774729
 30
0.0
  0
SPLINE
  5
3C8
100
AcDbEntity
  8
0
100
AcDbSpline
 62
7
  6
CONTINUOUS
 70
0
 71
3
 72
9
 73
5
 74
0
 42
0.0000001
 43
0.0000001
 44
0.0000000001
 40
0.0
 40
0.0
 40
0.0
 40
0.0
 40
0.495257018
 40
1.0
 40
1.0
 40
1.0
 40
1.0
 10
69.3121416261
 20
258.4909718246
 30
0.0
 10
69.312152006
 20
258.7152619882
 30
0.0
 10
69.2728604246
 20
259.1689577761
 30
0.0
 10
69.1576679519
 20
259.6093005315
 30
0.0
 10
69.0826392849
 20
259.8252225518
 30
0.0
  0
SPLINE
  5
3C9
100
AcDbEntity
  8
0
100
AcDbSpline
 62
7
  6
CONTINUOUS
 70
0
 71
3
 72
11
 73
7
 74
0
 42
0.0000001
 43
0.0000001
 44
0.0000000001
 40
0.0
 40
0.0
 40
0.0
 40
0.0
 40
0.2306873806
 40
0.4695292945
 40
0.7241992333
 40
1.0
 40
1.0
 40
1.0
 40
1.0
 10
41.3114400983
 20
243.7122444124
 30
0.0
 10
41.3114400983
 20
243.8110082774
 30
0.0
 10
41.3463289235
 20
244.0134264549
 30
0.0
 10
41.4941260767
 20
244.2907897642
 30
0.0
 10
41.7216013493
 20
244.5331411027
 30
0.0
 10
41.9096067397
 20
244.6633044649
 30
0.0
 10
42.0118656095
 20
244.7223432984
 30
0.0
  0
SPLINE
  5
3CA
100
AcDbEntity
  8
0
100
AcDbSpline
 62
7
  6
CONTINUOUS
 70
0
 71
3
 72
11
 73
7
 74
0
 42
0.0000001
 43
0.0000001
 44
0.0000000001
 40
0.0
 40
0.0
 40
0.0
 40
0.0
 40
0.230931314
 40
0.4802076677
 40
0.7399293875
 40
1.0
 40
1.0
 40
1.0
 40
1.0
 10
42.0118656095
 20
244.7223432984
 30
0.0
 10
42.1551269137
 20
244.8050547573
 30
0.0
 10
42.4731805262
 20
244.9430217471
 30
0.0
 10
42.9909696447
 20
245.0659126943
 30
0.0
 10
43.5421580423
 20
245.1095304545
 30
0.0
 10
43.9152848194
 20
245.083867015
 30
0.0
 10
44.0995745257
 20
245.0565922935
 30
0.0
  0
SPLINE
  5
3CB
100
AcDbEntity
  8
0
100
AcDbSpline
 62
7
  6
CONTINUOUS
 70
0
 71
3
 72
11
 73
7
 74
0
 42
0.0000001
 43
0.0000001
 44
0.0000000001
 40
0.0
 40
0.0
 40
0.0
 40
0.0
 40
0.2889228682
 40
0.5484192683
 40
0.782234259
 40
1.0
 40
1.0
 40
1.0
 40
1.0
 10
44.8748556654
 20
257.616229633
 30
0.0
 10
44.9539555038
 20
257.5705623532
 30
0.0
 10
45.0978565703
 20
257.4719672533
 30
0.0
 10
45.2714904863
 20
257.2930637634
 30
0.0
 10
45.3846227031
 20
257.0956076308
 30
0.0
 10
45.4153813816
 20
256.9531915469
 30
0.0
 10
45.4183189303
 20
256.8844127778
 30
0.0
  0
SPLINE
  5
3CC
100
AcDbEntity
  8
0
100
AcDbSpline
 62
7
  6
CONTINUOUS
 70
0
 71
3
 72
14
 73
10
 74
0
 42
0.0000001
 43
0.0000001
 44
0.0000000001
 40
0.0
 40
0.0
 40
0.0
 40
0.0
 40
0.2892820265
 40
0.4225404649
 40
0.548498026
 40
0.6678964531
 40
0.7818698434
 40
0.8919530505
 40
1.0
 40
1.0
 40
1.0
 40
1.0
 10
49.2536842784
 20
252.0610981738
 30
0.0
 10
48.7379057806
 20
252.3588762917
 30
0.0
 10
48.0155955014
 20
252.8561819221
 30
0.0
 10
47.1983922782
 20
253.6382994123
 30
0.0
 10
46.7010319808
 20
254.2411791126
 30
0.0
 10
46.3078327147
 20
254.8705674716
 30
0.0
 10
46.0232042186
 20
255.5208947358
 30
0.0
 10
45.850820765
 20
256.1855413166
 30
0.0
 10
45.8121568914
 20
256.6355227057
 30
0.0
 10
45.8121671821
 20
256.8579669654
 30
0.0
  0
SPLINE
  5
3CD
100
AcDbEntity
  8
0
100
AcDbSpline
 62
7
  6
CONTINUOUS
 70
0
 71
3
 72
15
 73
11
 74
0
 42
0.0000001
 43
0.0000001
 44
0.0000000001
 40
0.0
 40
0.0
 40
0.0
 40
0.0
 40
0.0869258731
 40
0.1863900355
 40
0.3037775758
 40
0.4375856292
 40
0.582082136
 40
0.7293904368
 40
0.8711742898
 40
1.0
 40
1.0
 40
1.0
 40
1.0
 10
55.0805241333
 20
265.835837462
 30
0.0
 10
55.0805236077
 20
265.807001105
 30
0.0
 10
55.0979228292
 20
265.7446003351
 30
0.0
 10
55.1659410634
 20
265.6672541046
 30
0.0
 10
55.2663338354
 20
265.60607643
 30
0.0
 10
55.3916721039
 20
265.5641928944
 30
0.0
 10
55.5321763213
 20
265.5444616854
 30
0.0
 10
55.6766511
 20
265.5484374974
 30
0.0
 10
55.8132334108
 20
265.5757768119
 30
0.0
 10
55.8970479177
 20
265.6103491678
 30
0.0
 10
55.9340584351
 20
265.6317170725
 30
0.0
  0
SPLINE
  5
3CE
100
AcDbEntity
  8
0
100
AcDbSpline
 62
7
  6
CONTINUOUS
 70
0
 71
3
 72
11
 73
7
 74
0
 42
0.0000001
 43
0.0000001
 44
0.0000000001
 40
0.0
 40
0.0
 40
0.0
 40
0.0
 40
0.2602431929
 40
0.5216769552
 40
0.7718138644
 40
1.0
 40
1.0
 40
1.0
 40
1.0
 10
70.9074321559
 20
242.4696365838
 30
0.0
 10
71.1047533741
 20
242.4349618767
 30
0.0
 10
71.5066561903
 20
242.3982625503
 30
0.0
 10
72.1019795961
 20
242.4353315591
 30
0.0
 10
72.6600083146
 20
242.5605290661
 30
0.0
 10
73.0017340625
 20
242.7059374114
 30
0.0
 10
73.1538655147
 20
242.7937700219
 30
0.0
  0
SPLINE
  5
3CF
100
AcDbEntity
  8
0
100
AcDbSpline
 62
7
  6
CONTINUOUS
 70
0
 71
3
 72
13
 73
9
 74
0
 42
0.0000001
 43
0.0000001
 44
0.0000000001
 40
0.0
 40
0.0
 40
0.0
 40
0.0
 40
0.1142466307
 40
0.237544229
 40
0.5000005226
 40
0.7624565301
 40
0.8857537943
 40
1.0
 40
1.0
 40
1.0
 40
1.0
 10
55.9712290225
 20
234.7105281267
 30
0.0
 10
56.0801357437
 20
234.6476522244
 30
0.0
 10
56.3183211207
 20
234.5367319933
 30
0.0
 10
56.8461944402
 20
234.3764108633
 30
0.0
 10
57.5622217726
 20
234.2985297513
 30
0.0
 10
58.2782484164
 20
234.3764141739
 30
0.0
 10
58.8061197577
 20
234.5367379007
 30
0.0
 10
59.0443036753
 20
234.6476593215
 30
0.0
 10
59.1532095378
 20
234.7105357753
 30
0.0
  0
SPLINE
  5
3D0
100
AcDbEntity
  8
0
100
AcDbSpline
 62
7
  6
CONTINUOUS
 70
0
 71
3
 72
11
 73
7
 74
0
 42
0.0000001
 43
0.0000001
 44
0.0000000001
 40
0.0
 40
0.0
 40
0.0
 40
0.0
 40
0.2897733512
 40
0.5490657165
 40
0.7822241652
 40
1.0
 40
1.0
 40
1.0
 40
1.0
 10
59.1532095378
 20
234.7105357753
 30
0.0
 10
59.2519608068
 20
234.7675495067
 30
0.0
 10
59.4310987683
 20
234.8908800835
 30
0.0
 10
59.6451241032
 20
235.1159005139
 30
0.0
 10
59.7805535386
 20
235.3647417763
 30
0.0
 10
59.812202146
 20
235.5433810589
 30
0.0
 10
59.8122021449
 20
235.6290774729
 30
0.0
  0
SPLINE
  5
3D1
100
AcDbEntity
  8
0
100
AcDbSpline
 62
7
  6
CONTINUOUS
 70
0
 71
3
 72
20
 73
16
 74
0
 42
0.0000001
 43
0.0000001
 44
0.0000000001
 40
0.0
 40
0.0
 40
0.0
 40
0.0
 40
0.0590395611
 40
0.1118671376
 40
0.1596656523
 40
0.2048278659
 40
0.2505611575
 40
0.2998866508
 40
0.3547801814
 40
0.415989624
 40
0.4832531899
 40
0.5555821273
 40
0.7089677721
 40
0.8619154977
 40
1.0
 40
1.0
 40
1.0
 40
1.0
 10
56.0496523292
 20
236.5912436563
 30
0.0
 10
55.9650352926
 20
236.5378199566
 30
0.0
 10
55.8123898046
 20
236.4230784407
 30
0.0
 10
55.6341263456
 20
236.2160913226
 30
0.0
 10
55.5271978068
 20
235.9891828567
 30
0.0
 10
55.4999640693
 20
235.751062186
 30
0.0
 10
55.5554871221
 20
235.5154587884
 30
0.0
 10
55.688019638
 20
235.2947090227
 30
0.0
 10
55.889004512
 20
235.0959138238
 30
0.0
 10
56.1501097257
 20
234.9243465393
 30
0.0
 10
56.4620448936
 20
234.785061884
 30
0.0
 10
56.9400109951
 20
234.6460378452
 30
0.0
 10
57.5848529049
 20
234.580997462
 30
0.0
 10
58.3382127185
 20
234.6666041677
 30
0.0
 10
58.8090940984
 20
234.8384599646
 30
0.0
 10
59.0117875928
 20
234.9554844096
 30
0.0
  0
SPLINE
  5
3D2
100
AcDbEntity
  8
0
100
AcDbSpline
 62
7
  6
CONTINUOUS
 70
0
 71
3
 72
21
 73
17
 74
0
 42
0.0000001
 43
0.0000001
 44
0.0000000001
 40
0.0
 40
0.0
 40
0.0
 40
0.0
 40
0.0604054146
 40
0.1144564078
 40
0.1630589123
 40
0.2084539708
 40
0.2538474127
 40
0.3024539839
 40
0.3564958933
 40
0.416906795
 40
0.4835286246
 40
0.5554124705
 40
0.7084478395
 40
0.8614856265
 40
0.9333823193
 40
1.0
 40
1.0
 40
1.0
 40
1.0
 10
59.0117875928
 20
234.9554844096
 30
0.0
 10
59.1017623489
 20
235.0074310492
 30
0.0
 10
59.2649781457
 20
235.1198171768
 30
0.0
 10
59.459979111
 20
235.3247748323
 30
0.0
 10
59.5833675379
 20
235.5516955528
 30
0.0
 10
59.626120885
 20
235.7923743128
 30
0.0
 10
59.5833726586
 20
236.0330678742
 30
0.0
 10
59.4599763383
 20
236.2599546744
 30
0.0
 10
59.2649411388
 20
236.4649703228
 30
0.0
 10
59.0069818284
 20
236.64260101
 30
0.0
 10
58.6956159991
 20
236.7875899568
 30
0.0
 10
58.2145587933
 20
236.9336969517
 30
0.0
 10
57.5622542042
 20
237.0046480652
 30
0.0
 10
56.9098467077
 20
236.9336984117
 30
0.0
 10
56.4288868612
 20
236.7876239812
 30
0.0
 10
56.2118657377
 20
236.6865604841
 30
0.0
 10
56.1126377197
 20
236.6292715031
 30
0.0
  0
SPLINE
  5
3D3
100
AcDbEntity
  8
0
100
AcDbSpline
 62
7
  6
CONTINUOUS
 70
0
 71
3
 72
11
 73
7
 74
0
 42
0.0000001
 43
0.0000001
 44
0.0000000001
 40
0.0
 40
0.0
 40
0.0
 40
0.0
 40
0.2281866977
 40
0.4783239285
 40
0.7397575564
 40
1.0
 40
1.0
 40
1.0
 40
1.0
 10
41.9704564646
 20
242.7936950662
 30
0.0
 10
42.1225900066
 20
242.7058627118
 30
0.0
 10
42.4643197993
 20
242.5604554097
 30
0.0
 10
43.0223538872
 20
242.4352605922
 30
0.0
 10
43.6176813642
 20
242.3981954817
 30
0.0
 10
44.019586105
 20
242.434898166
 30
0.0
 10
44.2169078498
 20
242.469574774
 30
0.0
  0
SPLINE
  5
3D4
100
AcDbEntity
  8
0
100
AcDbSpline
 62
7
  6
CONTINUOUS
 70
0
 71
3
 72
19
 73
15
 74
0
 42
0.0000001
 43
0.0000001
 44
0.0000000001
 40
0.0
 40
0.0
 40
0.0
 40
0.0
 40
0.0608678301
 40
0.1162859727
 40
0.166896955
 40
0.2141472367
 40
0.2601448032
 40
0.3073159918
 40
0.3577984924
 40
0.4130382331
 40
0.5394430273
 40
0.6852335338
 40
0.8423556572
 40
1.0
 40
1.0
 40
1.0
 40
1.0
 10
42.0488797713
 20
244.6744105958
 30
0.0
 10
41.976546753
 20
244.6287425175
 30
0.0
 10
41.8441357328
 20
244.5315674795
 30
0.0
 10
41.6813949645
 20
244.3606701212
 30
0.0
 10
41.5684151958
 20
244.1749285216
 30
0.0
 10
41.5096865637
 20
243.9788368154
 30
0.0
 10
41.5087452798
 20
243.7787111009
 30
0.0
 10
41.5656366413
 20
243.582368838
 30
0.0
 10
41.67693251
 20
243.3962174879
 30
0.0
 10
41.9019101404
 20
243.1571809111
 30
0.0
 10
42.3027138137
 20
242.9154932363
 30
0.0
 10
42.8833640642
 20
242.7370708781
 30
0.0
 10
43.5311087287
 20
242.6716529869
 30
0.0
 10
43.9750809832
 20
242.7088486173
 30
0.0
 10
44.1928645344
 20
242.7495389127
 30
0.0
  0
SPLINE
  5
3D5
100
AcDbEntity
  8
0
100
AcDbSpline
 62
7
  6
CONTINUOUS
 70
0
 71
3
 72
11
 73
7
 74
0
 42
0.0000001
 43
0.0000001
 44
0.0000000001
 40
0.0
 40
0.0
 40
0.0
 40
0.0
 40
0.2610080061
 40
0.5222851752
 40
0.7719705141
 40
1.0
 40
1.0
 40
1.0
 40
1.0
 10
44.1067379189
 20
245.0164468371
 30
0.0
 10
43.9304475501
 20
245.0445236298
 30
0.0
 10
43.5726784359
 20
245.0724681545
 30
0.0
 10
43.0440939747
 20
245.0345550109
 30
0.0
 10
42.5496406409
 20
244.9202897387
 30
0.0
 10
42.2469281414
 20
244.7904166248
 30
0.0
 10
42.1118651618
 20
244.7124384426
 30
0.0
  0
SPLINE
  5
3D6
100
AcDbEntity
  8
0
100
AcDbSpline
 62
7
  6
CONTINUOUS
 70
0
 71
3
 72
17
 73
13
 74
0
 42
0.0000001
 43
0.0000001
 44
0.0000000001
 40
0.0
 40
0.0
 40
0.0
 40
0.0
 40
0.0428584629
 40
0.08748393
 40
0.135317815
 40
0.1872795469
 40
0.3045398917
 40
0.4382057949
 40
0.5825481992
 40
0.7297130515
 40
0.8713063844
 40
1.0
 40
1.0
 40
1.0
 40
1.0
 10
62.2744346832
 20
268.7176667901
 30
0.0
 10
62.2744319896
 20
268.6820836142
 30
0.0
 10
62.2839701128
 20
268.6091440288
 30
0.0
 10
62.3257801003
 20
268.5038138497
 30
0.0
 10
62.3936736552
 20
268.403965993
 30
0.0
 10
62.5214585578
 20
268.2757109117
 30
0.0
 10
62.7392108622
 20
268.1431637661
 30
0.0
 10
63.0522981723
 20
268.0385808606
 30
0.0
 10
63.4036620757
 20
267.9891969089
 30
0.0
 10
63.7648136023
 20
267.9991943453
 30
0.0
 10
64.1062767043
 20
268.0674963648
 30
0.0
 10
64.31578463
 20
268.1539422457
 30
0.0
 10
64.4083175784
 20
268.2073658494
 30
0.0
  0
SPLINE
  5
3D7
100
AcDbEntity
  8
0
100
AcDbSpline
 62
7
  6
CONTINUOUS
 70
0
 71
3
 72
23
 73
19
 74
0
 42
0.0000001
 43
0.0000001
 44
0.0000000001
 40
0.0
 40
0.0
 40
0.0
 40
0.0
 40
0.0623934684
 40
0.1287433239
 40
0.1983472907
 40
0.2703354259
 40
0.3437246704
 40
0.4174685401
 40
0.4905048679
 40
0.5618029521
 40
0.6304113567
 40
0.6955096173
 40
0.7564672408
 40
0.8129137769
 40
0.8648227057
 40
0.9126050623
 40
0.9571863459
 40
1.0
 40
1.0
 40
1.0
 40
1.0
 10
49.2536842784
 20
253.6941030081
 30
0.0
 10
49.6758415613
 20
253.450375901
 30
0.0
 10
50.5805256877
 20
253.0043228637
 30
0.0
 10
52.0398992707
 20
252.4755518928
 30
0.0
 10
53.616961392
 20
252.0751985973
 30
0.0
 10
55.2779847804
 20
251.8118226126
 30
0.0
 10
56.9877370637
 20
251.690960474
 30
0.0
 10
58.7097395975
 20
251.715195253
 30
0.0
 10
60.4072620537
 20
251.8840086672
 30
0.0
 10
62.0441309611
 20
252.1938101935
 30
0.0
 10
63.5855738092
 20
252.6380546721
 30
0.0
 10
64.9990048946
 20
253.2074781248
 30
0.0
 10
66.2547286389
 20
253.8904573848
 30
0.0
 10
67.3264448173
 20
254.6735764397
 30
0.0
 10
68.191337088
 20
255.5421031505
 30
0.0
 10
68.8294536083
 20
256.480693639
 30
0.0
 10
69.2227192098
 20
257.4707811252
 30
0.0
 10
69.3121261464
 20
258.1564808798
 30
0.0
 10
69.3121416261
 20
258.4909718246
 30
0.0
  0
SPLINE
  5
3D8
100
AcDbEntity
  8
0
100
AcDbSpline
 62
7
  6
CONTINUOUS
 70
0
 71
3
 72
14
 73
10
 74
0
 42
0.0000001
 43
0.0000001
 44
0.0000000001
 40
0.0
 40
0.0
 40
0.0
 40
0.0
 40
0.289280379
 40
0.4225387331
 40
0.5484964493
 40
0.6678946053
 40
0.7818677127
 40
0.8919517501
 40
1.0
 40
1.0
 40
1.0
 40
1.0
 10
49.4304602377
 20
253.7961640465
 30
0.0
 10
48.9256586273
 20
254.0876047989
 30
0.0
 10
48.2187195718
 20
254.5743272657
 30
0.0
 10
47.4189046236
 20
255.3398003705
 30
0.0
 10
46.9321260333
 20
255.9298519585
 30
0.0
 10
46.5472914223
 20
256.5458472184
 30
0.0
 10
46.2687165679
 20
257.182337482
 30
0.0
 10
46.100000378
 20
257.8328462915
 30
0.0
 10
46.0621566808
 20
258.2732577719
 30
0.0
 10
46.0621670447
 20
258.4909717947
 30
0.0
  0
SPLINE
  5
3D9
100
AcDbEntity
  8
0
100
AcDbSpline
 62
7
  6
CONTINUOUS
 70
0
 71
3
 72
17
 73
13
 74
0
 42
0.0000001
 43
0.0000001
 44
0.0000000001
 40
0.0
 40
0.0
 40
0.0
 40
0.0
 40
0.0428584629
 40
0.08748393
 40
0.135317815
 40
0.1872795469
 40
0.3045398917
 40
0.4382057949
 40
0.5825481992
 40
0.7297130515
 40
0.8713063844
 40
1.0
 40
1.0
 40
1.0
 40
1.0
 10
55.6403469471
 20
272.5477724819
 30
0.0
 10
55.6403442535
 20
272.5121893059
 30
0.0
 10
55.6498823767
 20
272.4392497205
 30
0.0
 10
55.6916923642
 20
272.3339195415
 30
0.0
 10
55.759585919
 20
272.2340716847
 30
0.0
 10
55.8873708217
 20
272.1058166035
 30
0.0
 10
56.1051231261
 20
271.9732694578
 30
0.0
 10
56.4182104362
 20
271.8686865524
 30
0.0
 10
56.7695743395
 20
271.8193026007
 30
0.0
 10
57.1307258662
 20
271.829300037
 30
0.0
 10
57.4721889682
 20
271.8976020566
 30
0.0
 10
57.6816968939
 20
271.9840479374
 30
0.0
 10
57.7742298422
 20
272.0374715411
 30
0.0
  0
SPLINE
  5
3DA
100
AcDbEntity
  8
0
100
AcDbSpline
 62
7
  6
CONTINUOUS
 70
0
 71
3
 72
23
 73
19
 74
0
 42
0.0000001
 43
0.0000001
 44
0.0000000001
 40
0.0
 40
0.0
 40
0.0
 40
0.0
 40
0.0623931507
 40
0.1287428623
 40
0.1983468673
 40
0.2703348026
 40
0.3437247836
 40
0.4174695398
 40
0.4905066381
 40
0.5618054579
 40
0.630413519
 40
0.6955107838
 40
0.7564677918
 40
0.8129141746
 40
0.8648230602
 40
0.9126053043
 40
0.9571864534
 40
1.0
 40
1.0
 40
1.0
 40
1.0
 10
49.4304602377
 20
262.3694394264
 30
0.0
 10
49.8436333413
 20
262.1308992203
 30
0.0
 10
50.7290653843
 20
261.6943376883
 30
0.0
 10
52.1573852106
 20
261.1768177241
 30
0.0
 10
53.700890251
 20
260.7849821243
 30
0.0
 10
55.3265768327
 20
260.5272078711
 30
0.0
 10
56.9999623142
 20
260.4089165309
 30
0.0
 10
58.6853448096
 20
260.4326372305
 30
0.0
 10
60.3467677608
 20
260.5978634571
 30
0.0
 10
61.9488175063
 20
260.9010800898
 30
0.0
 10
63.4574579135
 20
261.3358757634
 30
0.0
 10
64.840800636
 20
261.8931816913
 30
0.0
 10
66.0697937328
 20
262.561625159
 30
0.0
 10
67.1187014341
 20
263.3280797297
 30
0.0
 10
67.9651890054
 20
264.1781265054
 30
0.0
 10
68.5897262689
 20
265.096745834
 30
0.0
 10
68.9746225199
 20
266.0657653976
 30
0.0
 10
69.0621268875
 20
266.7368739149
 30
0.0
 10
69.0621419244
 20
267.0642472048
 30
0.0
  0
SPLINE
  5
3DB
100
AcDbEntity
  8
0
100
AcDbSpline
 62
7
  6
CONTINUOUS
 70
0
 71
3
 72
14
 73
10
 74
0
 42
0.0000001
 43
0.0000001
 44
0.0000000001
 40
0.0
 40
0.0
 40
0.0
 40
0.0
 40
0.2892813285
 40
0.4225408356
 40
0.5484954049
 40
0.6678948454
 40
0.7818674214
 40
0.8919509063
 40
1.0
 40
1.0
 40
1.0
 40
1.0
 10
49.7840121563
 20
262.5735615033
 30
0.0
 10
49.3011569417
 20
262.8523317849
 30
0.0
 10
48.6249525267
 20
263.3178950783
 30
0.0
 10
47.8599091802
 20
264.0500825877
 30
0.0
 10
47.3943124335
 20
264.6144904161
 30
0.0
 10
47.0261875948
 20
265.2036847137
 30
0.0
 10
46.7597488597
 20
265.8125127838
 30
0.0
 10
46.5983561425
 20
266.4347341411
 30
0.0
 10
46.5621601395
 20
266.8559974106
 30
0.0
 10
46.5621594665
 20
267.0642471962
 30
0.0
  0
SPLINE
  5
3DC
100
AcDbEntity
  8
0
100
AcDbSpline
 62
7
  6
CONTINUOUS
 70
0
 71
3
 72
23
 73
19
 74
0
 42
0.0000001
 43
0.0000001
 44
0.0000000001
 40
0.0
 40
0.0
 40
0.0
 40
0.0
 40
0.0623921821
 40
0.1287433132
 40
0.1983464336
 40
0.2703343575
 40
0.3437240578
 40
0.4174689059
 40
0.4905058649
 40
0.5618044537
 40
0.6304130064
 40
0.6955110947
 40
0.7564683747
 40
0.8129145292
 40
0.8648231189
 40
0.9126052214
 40
0.9571863559
 40
1.0
 40
1.0
 40
1.0
 40
1.0
 10
49.7840121563
 20
265.8395711719
 30
0.0
 10
50.1792149873
 20
265.6114058728
 30
0.0
 10
51.026154942
 20
265.1938291453
 30
0.0
 10
52.3923667111
 20
264.6987997647
 30
0.0
 10
53.8687698435
 20
264.3240134696
 30
0.0
 10
55.4237639046
 20
264.0774396193
 30
0.0
 10
57.024392412
 20
263.9642986472
 30
0.0
 10
58.6364944902
 20
263.9869844757
 30
0.0
 10
60.2256792331
 20
264.145027972
 30
0.0
 10
61.7580755828
 20
264.4350586584
 30
0.0
 10
63.201130642
 20
264.8509510616
 30
0.0
 10
64.5243389328
 20
265.3840295915
 30
0.0
 10
65.6999030054
 20
266.0234128528
 30
0.0
 10
66.703204822
 20
266.7565415712
 30
0.0
 10
67.5128854077
 20
267.569624805
 30
0.0
 10
68.1102713907
 20
268.4482998569
 30
0.0
 10
68.4784270425
 20
269.3751861417
 30
0.0
 10
68.5621498199
 20
270.0171165529
 30
0.0
 10
68.5621495441
 20
270.3302568641
 30
0.0
  0
SPLINE
  5
3DD
100
AcDbEntity
  8
0
100
AcDbSpline
 62
7
  6
CONTINUOUS
 70
0
 71
3
 72
22
 73
18
 74
0
 42
0.0000001
 43
0.0000001
 44
0.0000000001
 40
0.0
 40
0.0
 40
0.0
 40
0.0
 40
0.0623990858
 40
0.1287612932
 40
0.1983726619
 40
0.2703705519
 40
0.4173906053
 40
0.4904374903
 40
0.5617459069
 40
0.6303639194
 40
0.695470839
 40
0.7564362235
 40
0.8128897769
 40
0.8648051399
 40
0.9125935186
 40
0.9571805446
 40
1.0
 40
1.0
 40
1.0
 40
1.0
 10
51.0213894081
 20
274.1064838438
 30
0.0
 10
51.3537109454
 20
274.2983486275
 30
0.0
 10
52.0659226921
 20
274.6494954791
 30
0.0
 10
53.2147527469
 20
275.0657788305
 30
0.0
 10
54.4563869897
 20
275.380973315
 30
0.0
 10
56.2112112793
 20
275.6591162098
 30
0.0
 10
58.0171262342
 20
275.7088537108
 30
0.0
 10
59.8018069644
 20
275.5315097354
 30
0.0
 10
61.0905360186
 20
275.2875893099
 30
0.0
 10
62.3039944035
 20
274.9378733254
 30
0.0
 10
63.4167046669
 20
274.4895979227
 30
0.0
 10
64.4052463359
 20
273.9519311687
 30
0.0
 10
65.2489307069
 20
273.3354326072
 30
0.0
 10
65.929795315
 20
272.6517014264
 30
0.0
 10
66.4321443265
 20
271.9128144037
 30
0.0
 10
66.7417224662
 20
271.1333872779
 30
0.0
 10
66.8121549777
 20
270.5935807725
 30
0.0
 10
66.8121378381
 20
270.3302569686
 30
0.0
  0
SPLINE
  5
3DE
100
AcDbEntity
  8
0
100
AcDbSpline
 62
7
  6
CONTINUOUS
 70
0
 71
3
 72
15
 73
11
 74
0
 42
0.0000001
 43
0.0000001
 44
0.0000000001
 40
0.0
 40
0.0
 40
0.0
 40
0.0
 40
0.0869258731
 40
0.1863900355
 40
0.3037775758
 40
0.4375856292
 40
0.582082136
 40
0.7293904368
 40
0.8711742898
 40
1.0
 40
1.0
 40
1.0
 40
1.0
 10
60.254388537
 20
266.1724141898
 30
0.0
 10
60.2543880114
 20
266.1435778328
 30
0.0
 10
60.2717872329
 20
266.0811770629
 30
0.0
 10
60.3398054671
 20
266.0038308324
 30
0.0
 10
60.4401982391
 20
265.9426531578
 30
0.0
 10
60.5655365076
 20
265.9007696222
 30
0.0
 10
60.7060407251
 20
265.8810384132
 30
0.0
 10
60.8505155037
 20
265.8850142252
 30
0.0
 10
60.9870978145
 20
265.9123535397
 30
0.0
 10
61.0709123214
 20
265.9469258956
 30
0.0
 10
61.1079228388
 20
265.9682938003
 30
0.0
  0
SPLINE
  5
3DF
100
AcDbEntity
  8
0
100
AcDbSpline
 62
7
  6
CONTINUOUS
 70
0
 71
3
 72
9
 73
5
 74
0
 42
0.0000001
 43
0.0000001
 44
0.0000000001
 40
0.0
 40
0.0
 40
0.0
 40
0.0
 40
0.2581074888
 40
1.0
 40
1.0
 40
1.0
 40
1.0
 10
56.2921036923
 20
265.3820984051
 30
0.0
 10
56.2723023445
 20
265.3883282689
 30
0.0
 10
56.1960458826
 20
265.4138848954
 30
0.0
 10
56.1216689327
 20
265.4452120958
 30
0.0
 10
56.0683823329
 20
265.4720567529
 30
0.0
  0
SPLINE
  5
3E0
100
AcDbEntity
  8
0
100
AcDbSpline
 62
7
  6
CONTINUOUS
 70
0
 71
3
 72
11
 73
7
 74
0
 42
0.0000001
 43
0.0000001
 44
0.0000000001
 40
0.0
 40
0.0
 40
0.0
 40
0.0
 40
0.2895468475
 40
0.5491384346
 40
0.782278826
 40
1.0
 40
1.0
 40
1.0
 40
1.0
 10
61.1079228388
 20
265.9682938003
 30
0.0
 10
61.1298498829
 20
265.9809533095
 30
0.0
 10
61.1696407028
 20
266.0083904802
 30
0.0
 10
61.2172391993
 20
266.0583604408
 30
0.0
 10
61.2473467369
 20
266.1136818341
 30
0.0
 10
61.2543470685
 20
266.153375757
 30
0.0
 10
61.2543474155
 20
266.1724141652
 30
0.0
  0
SPLINE
  5
3E1
100
AcDbEntity
  8
0
100
AcDbSpline
 62
7
  6
CONTINUOUS
 70
0
 71
3
 72
11
 73
7
 74
0
 42
0.0000001
 43
0.0000001
 44
0.0000000001
 40
0.0
 40
0.0
 40
0.0
 40
0.0
 40
0.2897031353
 40
0.5490914015
 40
0.7822201129
 40
1.0
 40
1.0
 40
1.0
 40
1.0
 10
64.4083175784
 20
268.2073658494
 30
0.0
 10
64.4631656506
 20
268.2390322097
 30
0.0
 10
64.5626744493
 20
268.3075706583
 30
0.0
 10
64.68160359
 20
268.4325557153
 30
0.0
 10
64.7568327037
 20
268.5708231376
 30
0.0
 10
64.7744225566
 20
268.6700571809
 30
0.0
 10
64.7744261606
 20
268.7176667949
 30
0.0
  0
SPLINE
  5
3E2
100
AcDbEntity
  8
0
100
AcDbSpline
 62
7
  6
CONTINUOUS
 70
0
 71
3
 72
11
 73
7
 74
0
 42
0.0000001
 43
0.0000001
 44
0.0000000001
 40
0.0
 40
0.0
 40
0.0
 40
0.0
 40
0.2594898894
 40
0.5210570094
 40
0.7716326248
 40
1.0
 40
1.0
 40
1.0
 40
1.0
 10
70.9193634351
 20
242.751888892
 30
0.0
 10
71.1021321062
 20
242.7170098311
 30
0.0
 10
71.4757058156
 20
242.6784606962
 30
0.0
 10
72.0304287862
 20
242.7082835243
 30
0.0
 10
72.5514555335
 20
242.8220421262
 30
0.0
 10
72.8706311387
 20
242.9568436998
 30
0.0
 10
73.0124435696
 20
243.0387186563
 30
0.0
  0
SPLINE
  5
3E3
100
AcDbEntity
  8
0
100
AcDbSpline
 62
7
  6
CONTINUOUS
 70
0
 71
3
 72
11
 73
7
 74
0
 42
0.0000001
 43
0.0000001
 44
0.0000000001
 40
0.0
 40
0.0
 40
0.0
 40
0.0
 40
0.2895468475
 40
0.5491384346
 40
0.782278826
 40
1.0
 40
1.0
 40
1.0
 40
1.0
 10
55.9340584351
 20
265.6317170725
 30
0.0
 10
55.9559854792
 20
265.6443765817
 30
0.0
 10
55.9957762991
 20
265.6718137524
 30
0.0
 10
56.0433747956
 20
265.7217837131
 30
0.0
 10
56.0734823332
 20
265.7771051063
 30
0.0
 10
56.0804826648
 20
265.8167990292
 30
0.0
 10
56.0804830118
 20
265.8358374374
 30
0.0
  0
SPLINE
  5
3E4
100
AcDbEntity
  8
0
100
AcDbSpline
 62
7
  6
CONTINUOUS
 70
0
 71
3
 72
20
 73
16
 74
0
 42
0.0000001
 43
0.0000001
 44
0.0000000001
 40
0.0
 40
0.0
 40
0.0
 40
0.0
 40
0.062543892
 40
0.1196254743
 40
0.1716195437
 40
0.2197760316
 40
0.2660395707
 40
0.3128122995
 40
0.3623705262
 40
0.4163772144
 40
0.4757116294
 40
0.5405426823
 40
0.6844970909
 40
0.8411849668
 40
1.0
 40
1.0
 40
1.0
 40
1.0
 10
73.0124435696
 20
243.0387186563
 30
0.0
 10
73.0882343629
 20
243.08247623
 30
0.0
 10
73.2278599516
 20
243.1761619218
 30
0.0
 10
73.4031878606
 20
243.3421735269
 30
0.0
 10
73.5301420935
 20
243.5240979427
 30
0.0
 10
73.6041182521
 20
243.7176954659
 30
0.0
 10
73.6211258845
 20
243.9172893262
 30
0.0
 10
73.5800316755
 20
244.1152351727
 30
0.0
 10
73.4834725504
 20
244.3045460045
 30
0.0
 10
73.3358000256
 20
244.480285077
 30
0.0
 10
73.14175405
 20
244.6387341715
 30
0.0
 10
72.8169022972
 20
244.828777666
 30
0.0
 10
72.3279465203
 20
244.9955493689
 30
0.0
 10
71.6869502053
 20
245.0774375492
 30
0.0
 10
71.2430022726
 20
245.0519997378
 30
0.0
 10
71.0234801878
 20
245.0174487683
 30
0.0
  0
SPLINE
  5
3E5
100
AcDbEntity
  8
0
100
AcDbSpline
 62
7
  6
CONTINUOUS
 70
0
 71
3
 72
11
 73
7
 74
0
 42
0.0000001
 43
0.0000001
 44
0.0000000001
 40
0.0
 40
0.0
 40
0.0
 40
0.0
 40
0.2897031353
 40
0.5490914015
 40
0.7822201129
 40
1.0
 40
1.0
 40
1.0
 40
1.0
 10
62.6886645454
 20
271.0446672188
 30
0.0
 10
62.7435126177
 20
271.0763335791
 30
0.0
 10
62.8430214164
 20
271.1448720277
 30
0.0
 10
62.9619505571
 20
271.2698570848
 30
0.0
 10
63.0371796708
 20
271.4081245071
 30
0.0
 10
63.0547695237
 20
271.5073585504
 30
0.0
 10
63.0547731277
 20
271.5549681644
 30
0.0
  0
SPLINE
  5
3E6
100
AcDbEntity
  8
0
100
AcDbSpline
 62
7
  6
CONTINUOUS
 70
0
 71
3
 72
11
 73
7
 74
0
 42
0.0000001
 43
0.0000001
 44
0.0000000001
 40
0.0
 40
0.0
 40
0.0
 40
0.0
 40
0.2897031353
 40
0.5490914015
 40
0.7822201129
 40
1.0
 40
1.0
 40
1.0
 40
1.0
 10
58.4460415221
 20
268.5952022956
 30
0.0
 10
58.5008895944
 20
268.6268686559
 30
0.0
 10
58.6003983931
 20
268.6954071045
 30
0.0
 10
58.7193275338
 20
268.8203921615
 30
0.0
 10
58.7945566475
 20
268.9586595838
 30
0.0
 10
58.8121465004
 20
269.0578936272
 30
0.0
 10
58.8121501044
 20
269.1055032412
 30
0.0
  0
SPLINE
  5
3E7
100
AcDbEntity
  8
0
100
AcDbSpline
 62
7
  6
CONTINUOUS
 70
0
 71
3
 72
15
 73
11
 74
0
 42
0.0000001
 43
0.0000001
 44
0.0000000001
 40
0.0
 40
0.0
 40
0.0
 40
0.0
 40
0.0869258731
 40
0.1863900355
 40
0.3037775758
 40
0.4375856292
 40
0.582082136
 40
0.7293904368
 40
0.8711742898
 40
1.0
 40
1.0
 40
1.0
 40
1.0
 10
51.3988831952
 20
267.9613857624
 30
0.0
 10
51.3988826695
 20
267.9325494054
 30
0.0
 10
51.416281891
 20
267.8701486355
 30
0.0
 10
51.4843001253
 20
267.792802405
 30
0.0
 10
51.5846928972
 20
267.7316247304
 30
0.0
 10
51.7100311657
 20
267.6897411948
 30
0.0
 10
51.8505353832
 20
267.6700099858
 30
0.0
 10
51.9950101619
 20
267.6739857978
 30
0.0
 10
52.1315924727
 20
267.7013251123
 30
0.0
 10
52.2154069796
 20
267.7358974682
 30
0.0
 10
52.252417497
 20
267.7572653728
 30
0.0
  0
SPLINE
  5
3E8
100
AcDbEntity
  8
0
100
AcDbSpline
 62
7
  6
CONTINUOUS
 70
0
 71
3
 72
11
 73
7
 74
0
 42
0.0000001
 43
0.0000001
 44
0.0000000001
 40
0.0
 40
0.0
 40
0.0
 40
0.0
 40
0.2177227832
 40
0.4508712161
 40
0.7104668615
 40
1.0
 40
1.0
 40
1.0
 40
1.0
 10
52.9817740333
 20
266.0494633162
 30
0.0
 10
52.9817747685
 20
266.0304248108
 30
0.0
 10
52.9747734597
 20
265.9907300232
 30
0.0
 10
52.9446656839
 20
265.9354076878
 30
0.0
 10
52.897066432
 20
265.885438745
 30
0.0
 10
52.8572766983
 20
265.858001856
 30
0.0
 10
52.8353507426
 20
265.8453429751
 30
0.0
  0
SPLINE
  5
3E9
100
AcDbEntity
  8
0
100
AcDbSpline
 62
7
  6
CONTINUOUS
 70
0
 71
3
 72
11
 73
7
 74
0
 42
0.0000001
 43
0.0000001
 44
0.0000000001
 40
0.0
 40
0.0
 40
0.0
 40
0.0
 40
0.2895468475
 40
0.5491384346
 40
0.782278826
 40
1.0
 40
1.0
 40
1.0
 40
1.0
 10
52.252417497
 20
267.7572653728
 30
0.0
 10
52.274344541
 20
267.769924882
 30
0.0
 10
52.314135361
 20
267.7973620527
 30
0.0
 10
52.3617338574
 20
267.8473320134
 30
0.0
 10
52.391841395
 20
267.9026534067
 30
0.0
 10
52.3988417266
 20
267.9423473296
 30
0.0
 10
52.3988420736
 20
267.9613857378
 30
0.0
  0
SPLINE
  5
3EA
100
AcDbEntity
  8
0
100
AcDbSpline
 62
7
  6
CONTINUOUS
 70
0
 71
3
 72
11
 73
7
 74
0
 42
0.0000001
 43
0.0000001
 44
0.0000000001
 40
0.0
 40
0.0
 40
0.0
 40
0.0
 40
0.2897031353
 40
0.5490914015
 40
0.7822201129
 40
1.0
 40
1.0
 40
1.0
 40
1.0
 10
57.7742298422
 20
272.0374715411
 30
0.0
 10
57.8290779145
 20
272.0691379014
 30
0.0
 10
57.9285867132
 20
272.13767635
 30
0.0
 10
58.0475158539
 20
272.262661407
 30
0.0
 10
58.1227449676
 20
272.4009288293
 30
0.0
 10
58.1403348205
 20
272.5001628727
 30
0.0
 10
58.1403384245
 20
272.5477724867
 30
0.0
  0
SPLINE
  5
3EB
100
AcDbEntity
  8
0
100
AcDbSpline
 62
7
  6
CONTINUOUS
 70
0
 71
3
 72
9
 73
5
 74
0
 42
0.0000001
 43
0.0000001
 44
0.0000000001
 40
0.0
 40
0.0
 40
0.0
 40
0.0
 40
0.2556822957
 40
1.0
 40
1.0
 40
1.0
 40
1.0
 10
53.3656830364
 20
265.5391624092
 30
0.0
 10
53.3744903097
 20
265.5442472605
 30
0.0
 10
53.4086736381
 20
265.5645843845
 30
0.0
 10
53.4417819957
 20
265.5867442975
 30
0.0
 10
53.465615966
 20
265.6043058821
 30
0.0
  0
SPLINE
  5
3EC
100
AcDbEntity
  8
0
100
AcDbSpline
 62
7
  6
CONTINUOUS
 70
0
 71
3
 72
11
 73
7
 74
0
 42
0.0000001
 43
0.0000001
 44
0.0000000001
 40
0.0
 40
0.0
 40
0.0
 40
0.0
 40
0.2826299124
 40
0.539370972
 40
0.7754803459
 40
1.0
 40
1.0
 40
1.0
 40
1.0
 10
53.465615966
 20
265.6043058821
 30
0.0
 10
53.5063550418
 20
265.6343236558
 30
0.0
 10
53.5799470079
 20
265.6977583311
 30
0.0
 10
53.6659968435
 20
265.8080898367
 30
0.0
 10
53.7194837635
 20
265.9263655838
 30
0.0
 10
53.7317885757
 20
266.0092640168
 30
0.0
 10
53.7317916187
 20
266.0494633548
 30
0.0
  0
SPLINE
  5
3ED
100
AcDbEntity
  8
0
100
AcDbSpline
 62
7
  6
CONTINUOUS
 70
0
 71
3
 72
14
 73
10
 74
0
 42
0.0000001
 43
0.0000001
 44
0.0000000001
 40
0.0
 40
0.0
 40
0.0
 40
0.0
 40
0.1080475079
 40
0.218129458
 40
0.3321012995
 40
0.4515009845
 40
0.5774519083
 40
0.7107147531
 40
1.0
 40
1.0
 40
1.0
 40
1.0
 10
48.3121708933
 20
270.3302567603
 30
0.0
 10
48.3121822914
 20
270.5053710185
 30
0.0
 10
48.3425662742
 20
270.8596096673
 30
0.0
 10
48.4783248471
 20
271.382819692
 30
0.0
 10
48.7023414161
 20
271.8947887691
 30
0.0
 10
49.0118987068
 20
272.3902342264
 30
0.0
 10
49.4034071262
 20
272.8648510292
 30
0.0
 10
50.0467267951
 20
273.4805596003
 30
0.0
 10
50.6153536136
 20
273.8720603678
 30
0.0
 10
51.0213894081
 20
274.1064838438
 30
0.0
  0
SPLINE
  5
3EE
100
AcDbEntity
  8
0
100
AcDbSpline
 62
7
  6
CONTINUOUS
 70
0
 71
3
 72
11
 73
7
 74
0
 42
0.0000001
 43
0.0000001
 44
0.0000000001
 40
0.0
 40
0.0
 40
0.0
 40
0.0
 40
0.2889223968
 40
0.5484186271
 40
0.7822338033
 40
1.0
 40
1.0
 40
1.0
 40
1.0
 10
70.6737044317
 20
257.8612371184
 30
0.0
 10
70.7862349418
 20
257.9262062508
 30
0.0
 10
70.9909541518
 20
258.066473568
 30
0.0
 10
71.2379721726
 20
258.32099152
 30
0.0
 10
71.3989180943
 20
258.6019028559
 30
0.0
 10
71.4426764928
 20
258.804510983
 30
0.0
 10
71.4468555948
 20
258.9023591099
 30
0.0
  0
SPLINE
  5
3EF
100
AcDbEntity
  8
0
100
AcDbSpline
 62
7
  6
CONTINUOUS
 70
0
 71
3
 72
11
 73
7
 74
0
 42
0.0000001
 43
0.0000001
 44
0.0000000001
 40
0.0
 40
0.0
 40
0.0
 40
0.0
 40
0.2895417814
 40
0.5491287434
 40
0.7822661886
 40
1.0
 40
1.0
 40
1.0
 40
1.0
 10
52.8353507426
 20
270.7443574779
 30
0.0
 10
52.8572773851
 20
270.7570167553
 30
0.0
 10
52.897067244
 20
270.7844537515
 30
0.0
 10
52.9446656422
 20
270.8344218162
 30
0.0
 10
52.9747753481
 20
270.889742926
 30
0.0
 10
52.9817733324
 20
270.9294382777
 30
0.0
 10
52.9817732724
 20
270.9484777755
 30
0.0
  0
SPLINE
  5
3F0
100
AcDbEntity
  8
0
100
AcDbSpline
 62
7
  6
CONTINUOUS
 70
0
 71
3
 72
9
 73
5
 74
0
 42
0.0000001
 43
0.0000001
 44
0.0000000001
 40
0.0
 40
0.0
 40
0.0
 40
0.0
 40
0.2568746305
 40
1.0
 40
1.0
 40
1.0
 40
1.0
 10
55.6215109078
 20
267.7950339496
 30
0.0
 10
55.3869875383
 20
267.7659814633
 30
0.0
 10
54.4768453322
 20
267.6317849845
 30
0.0
 10
53.5783908602
 20
267.4126050898
 30
0.0
 10
52.9299568884
 20
267.1960152737
 30
0.0
  0
SPLINE
  5
3F1
100
AcDbEntity
  8
0
100
AcDbSpline
 62
7
  6
CONTINUOUS
 70
0
 71
3
 72
15
 73
11
 74
0
 42
0.0000001
 43
0.0000001
 44
0.0000000001
 40
0.0
 40
0.0
 40
0.0
 40
0.0
 40
0.0869233004
 40
0.1863854529
 40
0.303771217
 40
0.4375798636
 40
0.5820876121
 40
0.7294125433
 40
0.8711853342
 40
1.0
 40
1.0
 40
1.0
 40
1.0
 10
51.9818159399
 20
270.9484778628
 30
0.0
 10
51.9818148026
 20
270.9196423496
 30
0.0
 10
51.999214252
 20
270.8572431448
 30
0.0
 10
52.0672296325
 20
270.7798976432
 30
0.0
 10
52.1676210742
 20
270.7187195203
 30
0.0
 10
52.2929621152
 20
270.6768334587
 30
0.0
 10
52.4334759959
 20
270.6571019641
 30
0.0
 10
52.5779565097
 20
270.661078224
 30
0.0
 10
52.7145366244
 20
270.6884200653
 30
0.0
 10
52.7983433857
 20
270.722991398
 30
0.0
 10
52.8353507426
 20
270.7443574779
 30
0.0
  0
SPLINE
  5
3F2
100
AcDbEntity
  8
0
100
AcDbSpline
 62
7
  6
CONTINUOUS
 70
0
 71
3
 72
16
 73
12
 74
0
 42
0.0000001
 43
0.0000001
 44
0.0000000001
 40
0.0
 40
0.0
 40
0.0
 40
0.0
 40
0.0434179124
 40
0.0880206985
 40
0.184316514
 40
0.29441916
 40
0.4192827627
 40
0.556804507
 40
0.7029319534
 40
0.8525117199
 40
1.0
 40
1.0
 40
1.0
 40
1.0
 10
73.8128532576
 20
241.8343561602
 30
0.0
 10
73.8128528655
 20
241.7828616638
 30
0.0
 10
73.8019556304
 20
241.6781612169
 30
0.0
 10
73.7357737758
 20
241.4684792362
 30
0.0
 10
73.5662522421
 20
241.2162872534
 30
0.0
 10
73.2604726061
 20
240.9637079546
 30
0.0
 10
72.8651641147
 20
240.7604099969
 30
0.0
 10
72.4005980232
 20
240.6158999449
 30
0.0
 10
71.8910890334
 20
240.5371821226
 30
0.0
 10
71.3640190951
 20
240.5284296335
 30
0.0
 10
71.0128142033
 20
240.5704257026
 30
0.0
 10
70.8411390315
 20
240.603982215
 30
0.0
  0
SPLINE
  5
3F3
100
AcDbEntity
  8
0
100
AcDbSpline
 62
7
  6
CONTINUOUS
 70
0
 71
3
 72
11
 73
7
 74
0
 42
0.0000001
 43
0.0000001
 44
0.0000000001
 40
0.0
 40
0.0
 40
0.0
 40
0.0
 40
0.2897733512
 40
0.5490657165
 40
0.7822241652
 40
1.0
 40
1.0
 40
1.0
 40
1.0
 10
73.1538655147
 20
242.7937700219
 30
0.0
 10
73.2526167837
 20
242.8507837534
 30
0.0
 10
73.4317547452
 20
242.9741143302
 30
0.0
 10
73.6457800801
 20
243.1991347606
 30
0.0
 10
73.7812095154
 20
243.4479760229
 30
0.0
 10
73.8128581229
 20
243.6266153055
 30
0.0
 10
73.8128581218
 20
243.7123117196
 30
0.0
  0
SPLINE
  5
3F4
100
AcDbEntity
  8
0
100
AcDbSpline
 62
7
  6
CONTINUOUS
 70
0
 71
3
 72
14
 73
10
 74
0
 42
0.0000001
 43
0.0000001
 44
0.0000000001
 40
0.0
 40
0.0
 40
0.0
 40
0.0
 40
0.1060325596
 40
0.2144234179
 40
0.3272821638
 40
0.4462939424
 40
0.5726383038
 40
0.7069994564
 40
1.0
 40
1.0
 40
1.0
 40
1.0
 10
68.5621492649
 20
267.0642471957
 30
0.0
 10
68.5621499978
 20
266.8374856691
 30
0.0
 10
68.5190938151
 20
266.3778364136
 30
0.0
 10
68.3273916215
 20
265.7010531939
 30
0.0
 10
68.0117015889
 20
265.0417838061
 30
0.0
 10
67.5767657108
 20
264.4078789802
 30
0.0
 10
67.0283182725
 20
263.8058428981
 30
0.0
 10
66.1290023047
 20
263.0321768234
 30
0.0
 10
65.3412412742
 20
262.5537230606
 30
0.0
 10
64.7812689953
 20
262.2725231927
 30
0.0
  0
SPLINE
  5
3F5
100
AcDbEntity
  8
0
100
AcDbSpline
 62
7
  6
CONTINUOUS
 70
0
 71
3
 72
9
 73
5
 74
0
 42
0.0000001
 43
0.0000001
 44
0.0000000001
 40
0.0
 40
0.0
 40
0.0
 40
0.0
 40
0.4860980831
 40
1.0
 40
1.0
 40
1.0
 40
1.0
 10
64.7812689953
 20
262.2725231927
 30
0.0
 10
64.3561329982
 20
262.0590337205
 30
0.0
 10
63.4538945214
 20
261.6737158511
 30
0.0
 10
62.5166740202
 20
261.3858089734
 30
0.0
 10
62.029512791
 20
261.2608183925
 30
0.0
  0
SPLINE
  5
3F6
100
AcDbEntity
  8
0
100
AcDbSpline
 62
7
  6
CONTINUOUS
 70
0
 71
3
 72
11
 73
7
 74
0
 42
0.0000001
 43
0.0000001
 44
0.0000000001
 40
0.0
 40
0.0
 40
0.0
 40
0.0
 40
0.2440451995
 40
0.4949336385
 40
0.748391108
 40
1.0
 40
1.0
 40
1.0
 40
1.0
 10
62.029512791
 20
261.2608183925
 30
0.0
 10
61.4762781711
 20
261.1188754128
 30
0.0
 10
60.3382897325
 20
260.8906423866
 30
0.0
 10
58.5932213677
 20
260.7138440159
 30
0.0
 10
56.8216146227
 20
260.700331208
 30
0.0
 10
55.6418147444
 20
260.8014527073
 30
0.0
 10
55.0582503848
 20
260.8802130447
 30
0.0
  0
SPLINE
  5
3F7
100
AcDbEntity
  8
0
100
AcDbSpline
 62
7
  6
CONTINUOUS
 70
0
 71
3
 72
9
 73
5
 74
0
 42
0.0000001
 43
0.0000001
 44
0.0000000001
 40
0.0
 40
0.0
 40
0.0
 40
0.0
 40
0.5217013438
 40
1.0
 40
1.0
 40
1.0
 40
1.0
 10
54.3161952171
 20
260.9962841568
 30
0.0
 10
53.491621128
 20
261.1433041655
 30
0.0
 10
51.9285301833
 20
261.5382873056
 30
0.0
 10
50.4490336473
 20
262.1896198525
 30
0.0
 10
49.7840121563
 20
262.5735615033
 30
0.0
  0
SPLINE
  5
3F8
100
AcDbEntity
  8
0
100
AcDbSpline
 62
7
  6
CONTINUOUS
 70
0
 71
3
 72
11
 73
7
 74
0
 42
0.0000001
 43
0.0000001
 44
0.0000000001
 40
0.0
 40
0.0
 40
0.0
 40
0.0
 40
0.2889223968
 40
0.5484186271
 40
0.7822338033
 40
1.0
 40
1.0
 40
1.0
 40
1.0
 10
70.6737344602
 20
253.6971640856
 30
0.0
 10
70.7862649703
 20
253.762133218
 30
0.0
 10
70.9909841802
 20
253.9024005352
 30
0.0
 10
71.238002201
 20
254.1569184872
 30
0.0
 10
71.3989481227
 20
254.4378298231
 30
0.0
 10
71.4427065213
 20
254.6404379502
 30
0.0
 10
71.4468856232
 20
254.7382860771
 30
0.0
  0
SPLINE
  5
3F9
100
AcDbEntity
  8
0
100
AcDbSpline
 62
7
  6
CONTINUOUS
 70
0
 71
3
 72
11
 73
7
 74
0
 42
0.0000001
 43
0.0000001
 44
0.0000000001
 40
0.0
 40
0.0
 40
0.0
 40
0.0
 40
0.2177661967
 40
0.4515813729
 40
0.7110776032
 40
1.0
 40
1.0
 40
1.0
 40
1.0
 10
70.8045437585
 20
239.7238015205
 30
0.0
 10
70.8013808179
 20
239.6497454631
 30
0.0
 10
70.768262407
 20
239.496402118
 30
0.0
 10
70.6464509754
 20
239.2837952274
 30
0.0
 10
70.4594961372
 20
239.0911640891
 30
0.0
 10
70.3045550255
 20
238.9850031965
 30
0.0
 10
70.219386651
 20
238.935831506
 30
0.0
  0
SPLINE
  5
3FA
100
AcDbEntity
  8
0
100
AcDbSpline
 62
7
  6
CONTINUOUS
 70
0
 71
3
 72
17
 73
13
 74
0
 42
0.0000001
 43
0.0000001
 44
0.0000000001
 40
0.0
 40
0.0
 40
0.0
 40
0.0
 40
0.0428584629
 40
0.08748393
 40
0.135317815
 40
0.1872795469
 40
0.3045398917
 40
0.4382057949
 40
0.5825481992
 40
0.7297130515
 40
0.8713063844
 40
1.0
 40
1.0
 40
1.0
 40
1.0
 10
56.312158627
 20
269.1055032364
 30
0.0
 10
56.3121559334
 20
269.0699200604
 30
0.0
 10
56.3216940566
 20
268.996980475
 30
0.0
 10
56.3635040441
 20
268.891650296
 30
0.0
 10
56.431397599
 20
268.7918024392
 30
0.0
 10
56.5591825016
 20
268.6635473579
 30
0.0
 10
56.776934806
 20
268.5310002123
 30
0.0
 10
57.0900221161
 20
268.4264173069
 30
0.0
 10
57.4413860194
 20
268.3770333552
 30
0.0
 10
57.8025375461
 20
268.3870307915
 30
0.0
 10
58.1440006481
 20
268.4553328111
 30
0.0
 10
58.3535085738
 20
268.5417786919
 30
0.0
 10
58.4460415221
 20
268.5952022956
 30
0.0
  0
SPLINE
  5
3FB
100
AcDbEntity
  8
0
100
AcDbSpline
 62
7
  6
CONTINUOUS
 70
0
 71
3
 72
13
 73
9
 74
0
 42
0.0000001
 43
0.0000001
 44
0.0000000001
 40
0.0
 40
0.0
 40
0.0
 40
0.0
 40
0.1142487484
 40
0.2375477548
 40
0.5000005226
 40
0.7624530043
 40
0.8857516767
 40
1.0
 40
1.0
 40
1.0
 40
1.0
 10
59.2998940584
 20
249.2881182408
 30
0.0
 10
59.4278032901
 20
249.2142714821
 30
0.0
 10
59.7075484195
 20
249.084000221
 30
0.0
 10
60.3275164869
 20
248.8957114814
 30
0.0
 10
61.1684564656
 20
248.8042473478
 30
0.0
 10
62.0093956356
 20
248.8957153696
 30
0.0
 10
62.6293613798
 20
249.0840071589
 30
0.0
 10
62.909104795
 20
249.2142798174
 30
0.0
 10
63.0370130183
 20
249.2881272237
 30
0.0
  0
SPLINE
  5
3FC
100
AcDbEntity
  8
0
100
AcDbSpline
 62
7
  6
CONTINUOUS
 70
0
 71
3
 72
11
 73
7
 74
0
 42
0.0000001
 43
0.0000001
 44
0.0000000001
 40
0.0
 40
0.0
 40
0.0
 40
0.0
 40
0.217765741
 40
0.4515807317
 40
0.7110771318
 40
1.0
 40
1.0
 40
1.0
 40
1.0
 10
43.6774231091
 20
258.9023050602
 30
0.0
 10
43.6816022597
 20
258.8044558423
 30
0.0
 10
43.7253615866
 20
258.6018453188
 30
0.0
 10
43.8863109475
 20
258.320931188
 30
0.0
 10
44.1333340201
 20
258.0664112716
 30
0.0
 10
44.3380571779
 20
257.9261433731
 30
0.0
 10
44.4505898303
 20
257.8611740857
 30
0.0
  0
SPLINE
  5
3FD
100
AcDbEntity
  8
0
100
AcDbSpline
 62
7
  6
CONTINUOUS
 70
0
 71
3
 72
14
 73
10
 74
0
 42
0.0000001
 43
0.0000001
 44
0.0000000001
 40
0.0
 40
0.0
 40
0.0
 40
0.0
 40
0.1080477053
 40
0.2181300025
 40
0.3321016202
 40
0.4515004859
 40
0.5774546212
 40
0.7107147396
 40
1.0
 40
1.0
 40
1.0
 40
1.0
 10
46.5621591873
 20
270.3302568648
 30
0.0
 10
46.5621593706
 20
270.1220097561
 30
0.0
 10
46.5983546595
 20
269.7007513949
 30
0.0
 10
46.7597447138
 20
269.0785365407
 30
0.0
 10
47.0261782718
 20
268.4697119963
 30
0.0
 10
47.394299003
 20
267.8805195791
 30
0.0
 10
47.8598926791
 20
267.3161102743
 30
0.0
 10
48.6249386908
 20
266.5839139845
 30
0.0
 10
49.3011503815
 20
266.1183452409
 30
0.0
 10
49.7840121563
 20
265.8395711719
 30
0.0
  0
SPLINE
  5
3FE
100
AcDbEntity
  8
0
100
AcDbSpline
 62
7
  6
CONTINUOUS
 70
0
 71
3
 72
11
 73
7
 74
0
 42
0.0000001
 43
0.0000001
 44
0.0000000001
 40
0.0
 40
0.0
 40
0.0
 40
0.0
 40
0.217765741
 40
0.4515807317
 40
0.7110771318
 40
1.0
 40
1.0
 40
1.0
 40
1.0
 10
43.6774531375
 20
254.7382320274
 30
0.0
 10
43.6816322882
 20
254.6403828095
 30
0.0
 10
43.725391615
 20
254.437772286
 30
0.0
 10
43.8863409759
 20
254.1568581552
 30
0.0
 10
44.1333640485
 20
253.9023382388
 30
0.0
 10
44.3380872063
 20
253.7620703403
 30
0.0
 10
44.4506198588
 20
253.6971010529
 30
0.0
  0
SPLINE
  5
3FF
100
AcDbEntity
  8
0
100
AcDbSpline
 62
7
  6
CONTINUOUS
 70
0
 71
3
 72
23
 73
19
 74
0
 42
0.0000001
 43
0.0000001
 44
0.0000000001
 40
0.0
 40
0.0
 40
0.0
 40
0.0
 40
0.0428142606
 40
0.0873961484
 40
0.135178974
 40
0.1870875766
 40
0.2435334401
 40
0.3044907176
 40
0.3695889494
 40
0.4381973629
 40
0.5094953081
 40
0.5825313298
 40
0.6562748184
 40
0.7296638441
 40
0.8016520764
 40
0.8712562805
 40
0.9376064277
 40
1.0
 40
1.0
 40
1.0
 40
1.0
 10
69.0621416867
 20
258.4909718374
 30
0.0
 10
69.0621261024
 20
258.1635930851
 30
0.0
 10
68.9746197978
 20
257.4924732603
 30
0.0
 10
68.5897112291
 20
256.5234413736
 30
0.0
 10
67.9651637782
 20
255.6048193436
 30
0.0
 10
67.1186719492
 20
254.7547792987
 30
0.0
 10
66.069764626
 20
253.9883314296
 30
0.0
 10
64.8407648052
 20
253.3198887911
 30
0.0
 10
63.4574090507
 20
252.7625824924
 30
0.0
 10
61.9487638546
 20
252.3277909794
 30
0.0
 10
60.3467251408
 20
252.0245821297
 30
0.0
 10
58.6853264861
 20
251.859361215
 30
0.0
 10
56.9999692762
 20
251.835641729
 30
0.0
 10
55.3265984659
 20
251.9539308039
 30
0.0
 10
53.7009149522
 20
252.2117019836
 30
0.0
 10
52.1574022876
 20
252.6035367402
 30
0.0
 10
50.7290745053
 20
253.1210585841
 30
0.0
 10
49.8436361374
 20
253.5576222262
 30
0.0
 10
49.4304602377
 20
253.7961640465
 30
0.0
  0
SPLINE
  5
400
100
AcDbEntity
  8
0
100
AcDbSpline
 62
7
  6
CONTINUOUS
 70
0
 71
3
 72
11
 73
7
 74
0
 42
0.0000001
 43
0.0000001
 44
0.0000000001
 40
0.0
 40
0.0
 40
0.0
 40
0.0
 40
0.2177661967
 40
0.4515813729
 40
0.7110776032
 40
1.0
 40
1.0
 40
1.0
 40
1.0
 10
69.7059898005
 20
256.8844800849
 30
0.0
 10
69.7089273149
 20
256.9532580872
 30
0.0
 10
69.7396853409
 20
257.0956724866
 30
0.0
 10
69.8528151403
 20
257.2931266547
 30
0.0
 10
70.0264455054
 20
257.4720287638
 30
0.0
 10
70.1703437969
 20
257.5706234551
 30
0.0
 10
70.2494421294
 20
257.616290626
 30
0.0
  0
SPLINE
  5
401
100
AcDbEntity
  8
0
100
AcDbSpline
 62
7
  6
CONTINUOUS
 70
0
 71
3
 72
11
 73
7
 74
0
 42
0.0000001
 43
0.0000001
 44
0.0000000001
 40
0.0
 40
0.0
 40
0.0
 40
0.0
 40
0.2372279391
 40
0.4999994739
 40
0.762771295
 40
1.0
 40
1.0
 40
1.0
 40
1.0
 10
56.2487861526
 20
249.5330563794
 30
0.0
 10
56.4352453771
 20
249.6407080203
 30
0.0
 10
56.8688721328
 20
249.7978146604
 30
0.0
 10
57.562205123
 20
249.8730723903
 30
0.0
 10
58.2555391593
 20
249.7978178244
 30
0.0
 10
58.6891676205
 20
249.6407133374
 30
0.0
 10
58.8756282233
 20
249.5330626935
 30
0.0
  0
SPLINE
  5
402
100
AcDbEntity
  8
0
100
AcDbSpline
 62
7
  6
CONTINUOUS
 70
0
 71
3
 72
11
 73
7
 74
0
 42
0.0000001
 43
0.0000001
 44
0.0000000001
 40
0.0
 40
0.0
 40
0.0
 40
0.0
 40
0.2889228682
 40
0.5484192683
 40
0.782234259
 40
1.0
 40
1.0
 40
1.0
 40
1.0
 10
44.9049638847
 20
238.9357706576
 30
0.0
 10
44.8197938888
 20
238.9849424653
 30
0.0
 10
44.6648497891
 20
239.0911037979
 30
0.0
 10
44.4778911275
 20
239.2837364229
 30
0.0
 10
44.356077093
 20
239.4963454289
 30
0.0
 10
44.3229579795
 20
239.6496905877
 30
0.0
 10
44.319795002
 20
239.7237474709
 30
0.0
  0
SPLINE
  5
403
100
AcDbEntity
  8
0
100
AcDbSpline
 62
7
  6
CONTINUOUS
 70
0
 71
3
 72
11
 73
7
 74
0
 42
0.0000001
 43
0.0000001
 44
0.0000000001
 40
0.0
 40
0.0
 40
0.0
 40
0.0
 40
0.2177753738
 40
0.4509336309
 40
0.7102261693
 40
1.0
 40
1.0
 40
1.0
 40
1.0
 10
55.3122231675
 20
235.6290774729
 30
0.0
 10
55.3122231686
 20
235.5433801363
 30
0.0
 10
55.3438724987
 20
235.3647387926
 30
0.0
 10
55.4793048639
 20
235.1158951208
 30
0.0
 10
55.6933345456
 20
234.8908730225
 30
0.0
 10
55.8724759068
 20
234.7675419748
 30
0.0
 10
55.9712290225
 20
234.7105281267
 30
0.0
  0
SPLINE
  5
404
100
AcDbEntity
  8
0
100
AcDbSpline
 62
7
  6
CONTINUOUS
 70
0
 71
3
 72
14
 73
10
 74
0
 42
0.0000001
 43
0.0000001
 44
0.0000000001
 40
0.0
 40
0.0
 40
0.0
 40
0.0
 40
0.1080463613
 40
0.2181291605
 40
0.3321024386
 40
0.4515010471
 40
0.577458788
 40
0.7107176033
 40
1.0
 40
1.0
 40
1.0
 40
1.0
 10
46.062166807
 20
267.064247187
 30
0.0
 10
46.0621568071
 20
266.8465369755
 30
0.0
 10
46.0999980321
 20
266.4061317085
 30
0.0
 10
46.2687126292
 20
265.7556286825
 30
0.0
 10
46.5472832631
 20
265.1191380437
 30
0.0
 10
46.9321170625
 20
264.5031406363
 30
0.0
 10
47.4188948596
 20
263.9130860026
 30
0.0
 10
48.2187121141
 20
263.1476079385
 30
0.0
 10
48.9256551201
 20
262.6608822037
 30
0.0
 10
49.4304602377
 20
262.3694394264
 30
0.0
  0
SPLINE
  5
405
100
AcDbEntity
  8
0
100
AcDbSpline
 62
7
  6
CONTINUOUS
 70
0
 71
3
 72
17
 73
13
 74
0
 42
0.0000001
 43
0.0000001
 44
0.0000000001
 40
0.0
 40
0.0
 40
0.0
 40
0.0
 40
0.0428572827
 40
0.0874860934
 40
0.1353200924
 40
0.1872833297
 40
0.3045486557
 40
0.4382179215
 40
0.582562828
 40
0.7297192441
 40
0.8713072941
 40
1.0
 40
1.0
 40
1.0
 40
1.0
 10
59.8121972808
 20
233.7511219136
 30
0.0
 10
59.8121967931
 20
233.6870739157
 30
0.0
 10
59.795081895
 20
233.5557721694
 30
0.0
 10
59.719777637
 20
233.3661861542
 30
0.0
 10
59.597581593
 20
233.1864484133
 30
0.0
 10
59.3675602921
 20
232.9555786976
 30
0.0
 10
58.9755868964
 20
232.7169989829
 30
0.0
 10
58.4120164071
 20
232.5287377103
 30
0.0
 10
57.7795614474
 20
232.4398619731
 30
0.0
 10
57.1295058064
 20
232.4578701033
 30
0.0
 10
56.5148963449
 20
232.5808196591
 30
0.0
 10
56.1377879619
 20
232.7364118943
 30
0.0
 10
55.9712290225
 20
232.8325725673
 30
0.0
  0
SPLINE
  5
406
100
AcDbEntity
  8
0
100
AcDbSpline
 62
7
  6
CONTINUOUS
 70
0
 71
3
 72
13
 73
9
 74
0
 42
0.0000001
 43
0.0000001
 44
0.0000000001
 40
0.0
 40
0.0
 40
0.0
 40
0.0
 40
0.1142487484
 40
0.2375477548
 40
0.5000005226
 40
0.7624530043
 40
0.8857516767
 40
1.0
 40
1.0
 40
1.0
 40
1.0
 10
52.0874048904
 20
249.2881009041
 30
0.0
 10
52.215314122
 20
249.2142541454
 30
0.0
 10
52.4950592514
 20
249.0839828843
 30
0.0
 10
53.1150273189
 20
248.8956941447
 30
0.0
 10
53.9559672976
 20
248.8042300111
 30
0.0
 10
54.7969064676
 20
248.8956980329
 30
0.0
 10
55.4168722117
 20
249.0839898222
 30
0.0
 10
55.696615627
 20
249.2142624807
 30
0.0
 10
55.8245238502
 20
249.2881098871
 30
0.0
  0
SPLINE
  5
407
100
AcDbEntity
  8
0
100
AcDbSpline
 62
7
  6
CONTINUOUS
 70
0
 71
3
 72
17
 73
13
 74
0
 42
0.0000001
 43
0.0000001
 44
0.0000000001
 40
0.0
 40
0.0
 40
0.0
 40
0.0
 40
0.0428584629
 40
0.08748393
 40
0.135317815
 40
0.1872795469
 40
0.3045398917
 40
0.4382057949
 40
0.5825481992
 40
0.7297130515
 40
0.8713063844
 40
1.0
 40
1.0
 40
1.0
 40
1.0
 10
60.5547816503
 20
271.5549681596
 30
0.0
 10
60.5547789567
 20
271.5193849837
 30
0.0
 10
60.5643170799
 20
271.4464453983
 30
0.0
 10
60.6061270674
 20
271.3411152192
 30
0.0
 10
60.6740206222
 20
271.2412673625
 30
0.0
 10
60.8018055249
 20
271.1130122812
 30
0.0
 10
61.0195578293
 20
270.9804651355
 30
0.0
 10
61.3326451394
 20
270.8758822301
 30
0.0
 10
61.6840090427
 20
270.8264982784
 30
0.0
 10
62.0451605694
 20
270.8364957147
 30
0.0
 10
62.3866236714
 20
270.9047977343
 30
0.0
 10
62.5961315971
 20
270.9912436151
 30
0.0
 10
62.6886645454
 20
271.0446672188
 30
0.0
  0
SPLINE
  5
408
100
AcDbEntity
  8
0
100
AcDbSpline
 62
7
  6
CONTINUOUS
 70
0
 71
3
 72
23
 73
19
 74
0
 42
0.0000001
 43
0.0000001
 44
0.0000000001
 40
0.0
 40
0.0
 40
0.0
 40
0.0
 40
0.042813724
 40
0.0873949992
 40
0.1351772824
 40
0.1870861369
 40
0.2435326081
 40
0.3044901526
 40
0.3695883295
 40
0.4381966788
 40
0.5094946971
 40
0.5825308308
 40
0.6562744134
 40
0.7296635316
 40
0.8016518575
 40
0.8712561261
 40
0.9376063745
 40
1.0
 40
1.0
 40
1.0
 40
1.0
 10
69.3121415493
 20
256.8579669982
 30
0.0
 10
69.3121260751
 20
256.5234755131
 30
0.0
 10
69.2227189617
 20
255.8377752731
 30
0.0
 10
68.8294530481
 20
254.8476880362
 30
0.0
 10
68.1913370915
 20
253.9090987042
 30
0.0
 10
67.326446139
 20
253.0405730856
 30
0.0
 10
66.2547315885
 20
252.257454747
 30
0.0
 10
64.9990096865
 20
251.5744758893
 30
0.0
 10
63.585580456
 20
251.0050524768
 30
0.0
 10
62.0441393888
 20
250.5608077091
 30
0.0
 10
60.4072730949
 20
250.2510058025
 30
0.0
 10
58.7097550339
 20
250.0821917481
 30
0.0
 10
56.9877573216
 20
250.057955699
 30
0.0
 10
55.2780066561
 20
250.1788156018
 30
0.0
 10
53.616980208
 20
250.4421903364
 30
0.0
 10
52.0399108126
 20
250.8425431188
 30
0.0
 10
50.5805307897
 20
251.3713159146
 30
0.0
 10
49.6758426173
 20
251.8173704571
 30
0.0
 10
49.2536842784
 20
252.0610981738
 30
0.0
  0
SPLINE
  5
409
100
AcDbEntity
  8
0
100
AcDbSpline
 62
7
  6
CONTINUOUS
 70
0
 71
3
 72
11
 73
7
 74
0
 42
0.0000001
 43
0.0000001
 44
0.0000000001
 40
0.0
 40
0.0
 40
0.0
 40
0.0
 40
0.2897766779
 40
0.5490706103
 40
0.7822286453
 40
1.0
 40
1.0
 40
1.0
 40
1.0
 10
41.9704564646
 20
240.9157395068
 30
0.0
 10
41.8717025443
 20
240.9727538195
 30
0.0
 10
41.6925603909
 20
241.0960861891
 30
0.0
 10
41.4785311361
 20
241.3211100991
 30
0.0
 10
41.3431009039
 20
241.5699534355
 30
0.0
 10
41.3114548212
 20
241.7485932418
 30
0.0
 10
41.3114554738
 20
241.834288853
 30
0.0
  0
SPLINE
  5
40A
100
AcDbEntity
  8
0
100
AcDbSpline
 62
7
  6
CONTINUOUS
 70
0
 71
3
 72
11
 73
7
 74
0
 42
0.0000001
 43
0.0000001
 44
0.0000000001
 40
0.0
 40
0.0
 40
0.0
 40
0.0
 40
0.2177753738
 40
0.4509336309
 40
0.7102261693
 40
1.0
 40
1.0
 40
1.0
 40
1.0
 10
41.3114506096
 20
243.7122444124
 30
0.0
 10
41.3114506107
 20
243.6265470758
 30
0.0
 10
41.3430999408
 20
243.4479057321
 30
0.0
 10
41.478532306
 20
243.1990620603
 30
0.0
 10
41.6925619877
 20
242.974039962
 30
0.0
 10
41.8717033489
 20
242.8507089143
 30
0.0
 10
41.9704564646
 20
242.7936950662
 30
0.0
  0
SPLINE
  5
40B
100
AcDbEntity
  8
0
100
AcDbSpline
 62
7
  6
CONTINUOUS
 70
0
 71
3
 72
11
 73
7
 74
0
 42
0.0000001
 43
0.0000001
 44
0.0000000001
 40
0.0
 40
0.0
 40
0.0
 40
0.0
 40
0.23614603
 40
0.497695455
 40
0.7604898556
 40
1.0
 40
1.0
 40
1.0
 40
1.0
 10
62.5826652091
 20
234.5267946442
 30
0.0
 10
62.3869213888
 20
234.4137825715
 30
0.0
 10
61.9326877753
 20
234.2471164635
 30
0.0
 10
61.2045553941
 20
234.1620919784
 30
0.0
 10
60.4715795157
 20
234.2322381462
 30
0.0
 10
60.0095249364
 20
234.3888839522
 30
0.0
 10
59.8074706406
 20
234.4971769491
 30
0.0
  0
SPLINE
  5
40C
100
AcDbEntity
  8
0
100
AcDbSpline
 62
7
  6
CONTINUOUS
 70
0
 71
3
 72
11
 73
7
 74
0
 42
0.0000001
 43
0.0000001
 44
0.0000000001
 40
0.0
 40
0.0
 40
0.0
 40
0.0
 40
0.2590104209
 40
0.5206584756
 40
0.7715118421
 40
1.0
 40
1.0
 40
1.0
 40
1.0
 10
44.2991069073
 20
240.6070713178
 30
0.0
 10
44.0965407936
 20
240.5664887744
 30
0.0
 10
43.6815610536
 20
240.5205921187
 30
0.0
 10
43.0643848828
 20
240.5505302325
 30
0.0
 10
42.4839452606
 20
240.6751072727
 30
0.0
 10
42.1282872131
 20
240.8246179432
 30
0.0
 10
41.9704564646
 20
240.9157395068
 30
0.0
  0
SPLINE
  5
40D
100
AcDbEntity
  8
0
100
AcDbSpline
 62
7
  6
CONTINUOUS
 70
0
 71
3
 72
14
 73
10
 74
0
 42
0.0000001
 43
0.0000001
 44
0.0000000001
 40
0.0
 40
0.0
 40
0.0
 40
0.0
 40
0.1080463821
 40
0.2181291861
 40
0.3321024731
 40
0.4515010961
 40
0.5774587717
 40
0.7107176015
 40
1.0
 40
1.0
 40
1.0
 40
1.0
 10
45.8121671053
 20
258.4909718075
 30
0.0
 10
45.8121568109
 20
258.2685287272
 30
0.0
 10
45.8508212564
 20
257.8185494268
 30
0.0
 10
46.0232032833
 20
257.153904963
 30
0.0
 10
46.30782962
 20
256.5035773964
 30
0.0
 10
46.7010296879
 20
255.8741890692
 30
0.0
 10
47.1983892469
 20
255.271307
 30
0.0
 10
48.0155938449
 20
254.4891882676
 30
0.0
 10
48.7379051439
 20
253.9918814936
 30
0.0
 10
49.2536842784
 20
253.6941030081
 30
0.0
  0
SPLINE
  5
40E
100
AcDbEntity
  8
0
100
AcDbSpline
 62
7
  6
CONTINUOUS
 70
0
 71
3
 72
11
 73
7
 74
0
 42
0.0000001
 43
0.0000001
 44
0.0000000001
 40
0.0
 40
0.0
 40
0.0
 40
0.0
 40
0.2395089728
 40
0.5023030954
 40
0.7638530268
 40
1.0
 40
1.0
 40
1.0
 40
1.0
 10
55.31695404
 20
234.4971715836
 30
0.0
 10
55.1149012934
 20
234.388876105
 30
0.0
 10
54.6528474365
 20
234.2322257056
 30
0.0
 10
53.9198699481
 20
234.1620741811
 30
0.0
 10
53.1917329346
 20
234.2470946143
 30
0.0
 10
52.737495126
 20
234.4137589386
 30
0.0
 10
52.5417489163
 20
234.5267705088
 30
0.0
  0
SPLINE
  5
40F
100
AcDbEntity
  8
0
100
AcDbSpline
 62
7
  6
CONTINUOUS
 70
0
 71
3
 72
11
 73
7
 74
0
 42
0.0000001
 43
0.0000001
 44
0.0000000001
 40
0.0
 40
0.0
 40
0.0
 40
0.0
 40
0.2897766779
 40
0.5490706103
 40
0.7822286453
 40
1.0
 40
1.0
 40
1.0
 40
1.0
 10
55.9712290225
 20
232.8325725673
 30
0.0
 10
55.8724751022
 20
232.88958688
 30
0.0
 10
55.6933329488
 20
233.0129192496
 30
0.0
 10
55.479303694
 20
233.2379431596
 30
0.0
 10
55.3438734618
 20
233.486786496
 30
0.0
 10
55.3122273791
 20
233.6654263023
 30
0.0
 10
55.3122280317
 20
233.7511219135
 30
0.0
  0
SPLINE
  5
410
100
AcDbEntity
  8
0
100
AcDbSpline
 62
7
  6
CONTINUOUS
 70
0
 71
3
 72
11
 73
7
 74
0
 42
0.0000001
 43
0.0000001
 44
0.0000000001
 40
0.0
 40
0.0
 40
0.0
 40
0.0
 40
0.2375347386
 40
0.4973873292
 40
0.758741283
 40
1.0
 40
1.0
 40
1.0
 40
1.0
 10
33.5714633541
 20
229.3155262255
 30
0.0
 10
33.2917548518
 20
229.1707362676
 30
0.0
 10
32.7625196015
 20
228.7569386106
 30
0.0
 10
32.1477305522
 20
227.9502018958
 30
0.0
 10
31.7266102554
 20
227.0221016087
 30
0.0
 10
31.6072974534
 20
226.3547859764
 30
0.0
 10
31.6072974534
 20
226.0348862574
 30
0.0
  0
SPLINE
  5
411
100
AcDbEntity
  8
0
100
AcDbSpline
 62
7
  6
CONTINUOUS
 70
0
 71
3
 72
11
 73
7
 74
0
 42
0.0000001
 43
0.0000001
 44
0.0000000001
 40
0.0
 40
0.0
 40
0.0
 40
0.0
 40
0.2686418689
 40
0.5215931983
 40
0.7636604372
 40
1.0
 40
1.0
 40
1.0
 40
1.0
 10
31.6072974534
 20
226.0348862574
 30
0.0
 10
31.6072974534
 20
225.8938421692
 30
0.0
 10
31.6293775836
 20
225.6191462711
 30
0.0
 10
31.7418126498
 20
225.2308454732
 30
0.0
 10
31.9382468776
 20
224.8956851334
 30
0.0
 10
32.1259377631
 20
224.7217710304
 30
0.0
 10
32.2291840103
 20
224.6529438463
 30
0.0
  0
SPLINE
  5
412
100
AcDbEntity
  8
0
100
AcDbSpline
 62
7
  6
CONTINUOUS
 70
0
 71
3
 72
13
 73
9
 74
0
 42
0.0000001
 43
0.0000001
 44
0.0000000001
 40
0.0
 40
0.0
 40
0.0
 40
0.0
 40
0.1142494128
 40
0.2375488016
 40
0.500001607
 40
0.7624535328
 40
0.8857518943
 40
1.0
 40
1.0
 40
1.0
 40
1.0
 10
32.8133934727
 20
237.2617794471
 30
0.0
 10
32.8133934727
 20
237.5412396269
 30
0.0
 10
32.8645780136
 20
238.1228841288
 30
0.0
 10
33.1425604589
 20
239.3169160531
 30
0.0
 10
33.7882545799
 20
240.7814353407
 30
0.0
 10
34.733710366
 20
242.0728856321
 30
0.0
 10
35.6287733187
 20
242.9106384091
 30
0.0
 10
36.1068954514
 20
243.2457844364
 30
0.0
 10
36.3489126587
 20
243.3855123021
 30
0.0
  0
SPLINE
  5
413
100
AcDbEntity
  8
0
100
AcDbSpline
 62
7
  6
CONTINUOUS
 70
0
 71
3
 72
9
 73
5
 74
0
 42
0.0000001
 43
0.0000001
 44
0.0000000001
 40
0.0
 40
0.0
 40
0.0
 40
0.0
 40
0.2470021932
 40
1.0
 40
1.0
 40
1.0
 40
1.0
 10
31.9112684298
 20
189.1532556333
 30
0.0
 10
31.7864578331
 20
189.2825348404
 30
0.0
 10
31.2909627089
 20
189.815333667
 30
0.0
 10
30.8351396948
 20
190.384815369
 30
0.0
 10
30.5153236655
 20
190.8295813006
 30
0.0
  0
SPLINE
  5
414
100
AcDbEntity
  8
0
100
AcDbSpline
 62
7
  6
CONTINUOUS
 70
0
 71
3
 72
9
 73
5
 74
0
 42
0.0000001
 43
0.0000001
 44
0.0000000001
 40
0.0
 40
0.0
 40
0.0
 40
0.0
 40
0.2342030627
 40
1.0
 40
1.0
 40
1.0
 40
1.0
 10
33.6485970346
 20
228.4342256628
 30
0.0
 10
33.756715554
 20
228.4717061158
 30
0.0
 10
34.2110335597
 20
228.6528120604
 30
0.0
 10
34.6331516269
 20
228.9092491254
 30
0.0
 10
34.9347226481
 20
229.1307323089
 30
0.0
  0
SPLINE
  5
415
100
AcDbEntity
  8
0
100
AcDbSpline
 62
7
  6
CONTINUOUS
 70
0
 71
3
 72
9
 73
5
 74
0
 42
0.0000001
 43
0.0000001
 44
0.0000000001
 40
0.0
 40
0.0
 40
0.0
 40
0.0
 40
0.5390737069
 40
1.0
 40
1.0
 40
1.0
 40
1.0
 10
33.2986619087
 20
228.0801072462
 30
0.0
 10
33.3380213808
 20
228.1621644608
 30
0.0
 10
33.4343725611
 20
228.3035640236
 30
0.0
 10
33.5750741062
 20
228.4087381452
 30
0.0
 10
33.6485970346
 20
228.4342256628
 30
0.0
  0
SPLINE
  5
416
100
AcDbEntity
  8
0
100
AcDbSpline
 62
7
  6
CONTINUOUS
 70
0
 71
3
 72
9
 73
5
 74
0
 42
0.0000001
 43
0.0000001
 44
0.0000000001
 40
0.0
 40
0.0
 40
0.0
 40
0.0
 40
0.4787874828
 40
1.0
 40
1.0
 40
1.0
 40
1.0
 10
30.5153236655
 20
202.5442431104
 30
0.0
 10
30.2674202937
 20
204.0764393242
 30
0.0
 10
30.0435147008
 20
207.3269240527
 30
0.0
 10
30.2940858661
 20
210.5693151231
 30
0.0
 10
30.52526065
 20
212.243079992
 30
0.0
  0
SPLINE
  5
417
100
AcDbEntity
  8
0
100
AcDbSpline
 62
7
  6
CONTINUOUS
 70
0
 71
3
 72
9
 73
5
 74
0
 42
0.0000001
 43
0.0000001
 44
0.0000000001
 40
0.0
 40
0.0
 40
0.0
 40
0.0
 40
0.2430753139
 40
1.0
 40
1.0
 40
1.0
 40
1.0
 10
32.2325234708
 20
224.6515056955
 30
0.0
 10
32.2019807325
 20
224.672523321
 30
0.0
 10
32.0815508673
 20
224.7665437022
 30
0.0
 10
31.9849605218
 20
224.8894995203
 30
0.0
 10
31.9275918474
 20
224.9896888584
 30
0.0
  0
SPLINE
  5
418
100
AcDbEntity
  8
0
100
AcDbSpline
 62
7
  6
CONTINUOUS
 70
0
 71
3
 72
9
 73
5
 74
0
 42
0.0000001
 43
0.0000001
 44
0.0000000001
 40
0.0
 40
0.0
 40
0.0
 40
0.0
 40
0.2269581367
 40
1.0
 40
1.0
 40
1.0
 40
1.0
 10
31.9275918474
 20
224.9896888584
 30
0.0
 10
31.8933442477
 20
225.0494992753
 30
0.0
 10
31.7650483997
 20
225.3260922539
 30
0.0
 10
31.7244559185
 20
225.6368348804
 30
0.0
 10
31.7244559185
 20
225.8715885959
 30
0.0
  0
SPLINE
  5
419
100
AcDbEntity
  8
0
100
AcDbSpline
 62
7
  6
CONTINUOUS
 70
0
 71
3
 72
11
 73
7
 74
0
 42
0.0000001
 43
0.0000001
 44
0.0000000001
 40
0.0
 40
0.0
 40
0.0
 40
0.0
 40
0.2367452473
 40
0.4989694841
 40
0.7617664305
 40
1.0
 40
1.0
 40
1.0
 40
1.0
 10
31.7244559185
 20
225.8715885959
 30
0.0
 10
31.7244559185
 20
226.1867930063
 30
0.0
 10
31.8414370992
 20
226.8515774813
 30
0.0
 10
32.2503829279
 20
227.7877624826
 30
0.0
 10
32.8501846211
 20
228.6172118539
 30
0.0
 10
33.3644401251
 20
229.0582974812
 30
0.0
 10
33.6368584206
 20
229.2207635218
 30
0.0
  0
SPLINE
  5
41A
100
AcDbEntity
  8
0
100
AcDbSpline
 62
7
  6
CONTINUOUS
 70
0
 71
3
 72
9
 73
5
 74
0
 42
0.0000001
 43
0.0000001
 44
0.0000000001
 40
0.0
 40
0.0
 40
0.0
 40
0.0
 40
0.2319083353
 40
1.0
 40
1.0
 40
1.0
 40
1.0
 10
37.1841456603
 20
226.3930218902
 30
0.0
 10
37.1731455739
 20
226.3892085913
 30
0.0
 10
37.1265784446
 20
226.3702812825
 30
0.0
 10
37.0837325936
 20
226.3428975665
 30
0.0
 10
37.053336015
 20
226.3191718205
 30
0.0
  0
SPLINE
  5
41B
100
AcDbEntity
  8
0
100
AcDbSpline
 62
7
  6
CONTINUOUS
 70
0
 71
3
 72
9
 73
5
 74
0
 42
0.0000001
 43
0.0000001
 44
0.0000000001
 40
0.0
 40
0.0
 40
0.0
 40
0.0
 40
0.2441103843
 40
1.0
 40
1.0
 40
1.0
 40
1.0
 10
37.053336015
 20
226.3191718205
 30
0.0
 10
37.0479149755
 20
226.3149404823
 30
0.0
 10
37.0260115986
 20
226.2972191691
 30
0.0
 10
37.0053068787
 20
226.2780299233
 30
0.0
 10
36.9903391926
 20
226.2628833071
 30
0.0
  0
SPLINE
  5
41C
100
AcDbEntity
  8
0
100
AcDbSpline
 62
7
  6
CONTINUOUS
 70
0
 71
3
 72
18
 73
14
 74
0
 42
0.0000001
 43
0.0000001
 44
0.0000000001
 40
0.0
 40
0.0
 40
0.0
 40
0.0
 40
0.1309177414
 40
0.2605254543
 40
0.3884354198
 40
0.5140760459
 40
0.636586617
 40
0.6963328335
 40
0.7548641629
 40
0.8121956484
 40
0.8690582287
 40
0.9287930682
 40
1.0
 40
1.0
 40
1.0
 40
1.0
 10
38.2788780965
 20
238.1888638992
 30
0.0
 10
38.0171797809
 20
238.225443227
 30
0.0
 10
37.4957285457
 20
238.2935823013
 30
0.0
 10
36.7160714159
 20
238.3768871329
 30
0.0
 10
35.9446546767
 20
238.4345753638
 30
0.0
 10
35.1856753134
 20
238.4565738135
 30
0.0
 10
34.563642292
 20
238.4315591591
 30
0.0
 10
34.0814991223
 20
238.3673147426
 30
0.0
 10
33.7349438751
 20
238.2898657557
 30
0.0
 10
33.4061279805
 20
238.1700502025
 30
0.0
 10
33.1039344903
 20
237.9835940762
 30
0.0
 10
32.8618171932
 20
237.6771765023
 30
0.0
 10
32.8133934727
 20
237.405502457
 30
0.0
 10
32.8133934727
 20
237.2617794471
 30
0.0
  0
SPLINE
  5
41D
100
AcDbEntity
  8
0
100
AcDbSpline
 62
7
  6
CONTINUOUS
 70
0
 71
3
 72
18
 73
14
 74
0
 42
0.0000001
 43
0.0000001
 44
0.0000000001
 40
0.0
 40
0.0
 40
0.0
 40
0.0
 40
0.1309185173
 40
0.2605269088
 40
0.3884374214
 40
0.5140784109
 40
0.6365890666
 40
0.6963351737
 40
0.754866253
 40
0.8121973079
 40
0.8690592549
 40
0.9287934021
 40
1.0
 40
1.0
 40
1.0
 40
1.0
 10
38.2788780965
 20
238.1888638992
 30
0.0
 10
38.1163462739
 20
238.3972054517
 30
0.0
 10
37.7966024205
 20
238.8147135502
 30
0.0
 10
37.3346173836
 20
239.4482454875
 30
0.0
 10
36.898937104
 20
240.0874492765
 30
0.0
 10
36.5003836469
 20
240.7337267377
 30
0.0
 10
36.2110195665
 20
241.284915017
 30
0.0
 10
36.0255763249
 20
241.7345733049
 30
0.0
 10
35.9193648235
 20
242.0734141398
 30
0.0
 10
35.8587133543
 20
242.4180756507
 30
0.0
 10
35.8690852538
 20
242.7730025157
 30
0.0
 10
36.0133860667
 20
243.1358841612
 30
0.0
 10
36.2244471393
 20
243.3136525299
 30
0.0
 10
36.3489126587
 20
243.3855123021
 30
0.0
  0
SPLINE
  5
41E
100
AcDbEntity
  8
0
100
AcDbSpline
 62
7
  6
CONTINUOUS
 70
0
 71
3
 72
9
 73
5
 74
0
 42
0.0000001
 43
0.0000001
 44
0.0000000001
 40
0.0
 40
0.0
 40
0.0
 40
0.0
 40
0.254665055
 40
1.0
 40
1.0
 40
1.0
 40
1.0
 10
38.4702712738
 20
227.0895285363
 30
0.0
 10
38.4349145541
 20
227.0635614563
 30
0.0
 10
38.2950093028
 20
226.9630638423
 30
0.0
 10
38.1507944834
 20
226.8685318114
 30
0.0
 10
38.0409723338
 20
226.8020271567
 30
0.0
  0
SPLINE
  5
41F
100
AcDbEntity
  8
0
100
AcDbSpline
 62
7
  6
CONTINUOUS
 70
0
 71
3
 72
9
 73
5
 74
0
 42
0.0000001
 43
0.0000001
 44
0.0000000001
 40
0.0
 40
0.0
 40
0.0
 40
0.0
 40
0.2553764961
 40
1.0
 40
1.0
 40
1.0
 40
1.0
 10
38.0409723338
 20
226.8020271567
 30
0.0
 10
38.0053175673
 20
226.7804358116
 30
0.0
 10
37.8647243499
 20
226.6975187418
 30
0.0
 10
37.7201775344
 20
226.6212540693
 30
0.0
 10
37.6104939203
 20
226.5688997912
 30
0.0
  0
SPLINE
  5
420
100
AcDbEntity
  8
0
100
AcDbSpline
 62
7
  6
CONTINUOUS
 70
0
 71
3
 72
9
 73
5
 74
0
 42
0.0000001
 43
0.0000001
 44
0.0000000001
 40
0.0
 40
0.0
 40
0.0
 40
0.0
 40
0.2558776365
 40
1.0
 40
1.0
 40
1.0
 40
1.0
 10
37.6104939203
 20
226.5688997912
 30
0.0
 10
37.574983532
 20
226.5519499418
 30
0.0
 10
37.4353507245
 20
226.4875223951
 30
0.0
 10
37.2922628631
 20
226.4305018868
 30
0.0
 10
37.1841456603
 20
226.3930218902
 30
0.0
  0
SPLINE
  5
421
100
AcDbEntity
  8
0
100
AcDbSpline
 62
7
  6
CONTINUOUS
 70
0
 71
3
 72
9
 73
5
 74
0
 42
0.0000001
 43
0.0000001
 44
0.0000000001
 40
0.0
 40
0.0
 40
0.0
 40
0.0
 40
0.5390737069
 40
1.0
 40
1.0
 40
1.0
 40
1.0
 10
36.8342105344
 20
226.0389034736
 30
0.0
 10
36.8735700065
 20
226.1209606882
 30
0.0
 10
36.9699211868
 20
226.262360251
 30
0.0
 10
37.110622732
 20
226.3675343726
 30
0.0
 10
37.1841456603
 20
226.3930218902
 30
0.0
  0
LINE
  5
422
100
AcDbEntity
  8
0
100
AcDbLine
 62
7
  6
CONTINUOUS
 10
103.3212164299
 20
237.6037127623
 11
96.3403699192
 21
250.5541652473
  0
SPLINE
  5
423
100
AcDbEntity
  8
0
100
AcDbSpline
 62
7
  6
CONTINUOUS
 70
0
 71
3
 72
9
 73
5
 74
0
 42
0.0000001
 43
0.0000001
 44
0.0000000001
 40
0.0
 40
0.0
 40
0.0
 40
0.0
 40
0.4999217045
 40
1.0
 40
1.0
 40
1.0
 40
1.0
 10
56.5717602033
 20
175.0771709475
 30
0.0
 10
57.8574923762
 20
174.5308892945
 30
0.0
 10
60.4304401892
 20
173.4407009899
 30
0.0
 10
63.0032042917
 20
172.3500789176
 30
0.0
 10
64.2903611267
 20
171.8060376528
 30
0.0
  0
SPLINE
  5
424
100
AcDbEntity
  8
0
100
AcDbSpline
 62
7
  6
CONTINUOUS
 70
0
 71
3
 72
12
 73
8
 74
0
 42
0.0000001
 43
0.0000001
 44
0.0000000001
 40
0.0
 40
0.0
 40
0.0
 40
0.0
 40
0.2406301837
 40
0.4853046085
 40
0.736261212
 40
0.8656732218
 40
1.0
 40
1.0
 40
1.0
 40
1.0
 10
56.5717602033
 20
175.0771709475
 30
0.0
 10
56.4578322021
 20
175.1255766561
 30
0.0
 10
56.2283394541
 20
175.2238663599
 30
0.0
 10
55.8814708583
 20
175.3759405853
 30
0.0
 10
55.5883931918
 20
175.5083061144
 30
0.0
 10
55.3495732168
 20
175.6225397374
 30
0.0
 10
55.2283884121
 20
175.6838087073
 30
0.0
 10
55.1684755303
 20
175.7182369424
 30
0.0
  0
SPLINE
  5
425
100
AcDbEntity
  8
0
100
AcDbSpline
 62
7
  6
CONTINUOUS
 70
0
 71
3
 72
9
 73
5
 74
0
 42
0.0000001
 43
0.0000001
 44
0.0000000001
 40
0.0
 40
0.0
 40
0.0
 40
0.0
 40
0.2342030627
 40
1.0
 40
1.0
 40
1.0
 40
1.0
 10
37.1841456603
 20
226.3930218902
 30
0.0
 10
37.2922641798
 20
226.4305023432
 30
0.0
 10
37.7465821854
 20
226.6116082878
 30
0.0
 10
38.1687002526
 20
226.8680453528
 30
0.0
 10
38.4702712738
 20
227.0895285363
 30
0.0
  0
SPLINE
  5
426
100
AcDbEntity
  8
0
100
AcDbSpline
 62
7
  6
CONTINUOUS
 70
0
 71
3
 72
11
 73
7
 74
0
 42
0.0000001
 43
0.0000001
 44
0.0000000001
 40
0.0
 40
0.0
 40
0.0
 40
0.0
 40
0.2372446848
 40
0.5000016179
 40
0.7627576706
 40
1.0
 40
1.0
 40
1.0
 40
1.0
 10
38.4702712738
 20
237.670114288
 30
0.0
 10
38.4702712738
 20
237.7280748978
 30
0.0
 10
38.4920165253
 20
237.8503069648
 30
0.0
 10
38.5677852954
 20
238.0220637704
 30
0.0
 10
38.6786455346
 20
238.1735599653
 30
0.0
 10
38.7736282554
 20
238.2535076861
 30
0.0
 10
38.8238231924
 20
238.2824875735
 30
0.0
  0
SPLINE
  5
427
100
AcDbEntity
  8
0
100
AcDbSpline
 62
7
  6
CONTINUOUS
 70
0
 71
3
 72
9
 73
5
 74
0
 42
0.0000001
 43
0.0000001
 44
0.0000000001
 40
0.0
 40
0.0
 40
0.0
 40
0.0
 40
0.2470021932
 40
1.0
 40
1.0
 40
1.0
 40
1.0
 10
35.4468170555
 20
187.1120518607
 30
0.0
 10
35.3220064589
 20
187.2413310677
 30
0.0
 10
34.8265113347
 20
187.7741298944
 30
0.0
 10
34.3706883206
 20
188.3436115964
 30
0.0
 10
34.0508722912
 20
188.788377528
 30
0.0
  0
SPLINE
  5
428
100
AcDbEntity
  8
0
100
AcDbSpline
 62
7
  6
CONTINUOUS
 70
0
 71
3
 72
9
 73
5
 74
0
 42
0.0000001
 43
0.0000001
 44
0.0000000001
 40
0.0
 40
0.0
 40
0.0
 40
0.0
 40
0.4787874828
 40
1.0
 40
1.0
 40
1.0
 40
1.0
 10
34.0508722912
 20
200.5030393378
 30
0.0
 10
33.8029689194
 20
202.0352355516
 30
0.0
 10
33.5790633265
 20
205.2857202801
 30
0.0
 10
33.8296344918
 20
208.5281113505
 30
0.0
 10
34.0608092757
 20
210.2018762194
 30
0.0
  0
SPLINE
  5
429
100
AcDbEntity
  8
0
100
AcDbSpline
 62
7
  6
CONTINUOUS
 70
0
 71
3
 72
9
 73
5
 74
0
 42
0.0000001
 43
0.0000001
 44
0.0000000001
 40
0.0
 40
0.0
 40
0.0
 40
0.0
 40
0.5697649023
 40
1.0
 40
1.0
 40
1.0
 40
1.0
 10
96.2593858499
 20
250.4375239379
 30
0.0
 10
96.2573901112
 20
250.460608288
 30
0.0
 10
96.2552691796
 20
250.5006472046
 30
0.0
 10
96.2741640767
 20
250.543026326
 30
0.0
 10
96.2893917288
 20
250.5516424222
 30
0.0
  0
SPLINE
  5
42A
100
AcDbEntity
  8
0
100
AcDbSpline
 62
7
  6
CONTINUOUS
 70
0
 71
3
 72
9
 73
5
 74
0
 42
0.0000001
 43
0.0000001
 44
0.0000000001
 40
0.0
 40
0.0
 40
0.0
 40
0.0
 40
0.2150866958
 40
1.0
 40
1.0
 40
1.0
 40
1.0
 10
96.2893917288
 20
250.5516424222
 30
0.0
 10
96.2926277171
 20
250.5534734062
 30
0.0
 10
96.3088254651
 20
250.5600457483
 30
0.0
 10
96.327330168
 20
250.5579134999
 30
0.0
 10
96.3403704117
 20
250.5541648903
 30
0.0
  0
SPLINE
  5
42B
100
AcDbEntity
  8
0
100
AcDbSpline
 62
7
  6
CONTINUOUS
 70
0
 71
3
 72
8
 73
4
 74
0
 42
0.0000001
 43
0.0000001
 44
0.0000000001
 40
0.0
 40
0.0
 40
0.0
 40
0.0
 40
1.0
 40
1.0
 40
1.0
 40
1.0
 10
65.1185995403
 20
171.4778695313
 30
0.0
 10
65.1290165574
 20
171.468180442
 30
0.0
 10
65.1407301165
 20
171.4597128063
 30
0.0
 10
65.1532399678
 20
171.4529381241
 30
0.0
  0
SPLINE
  5
42C
100
AcDbEntity
  8
0
100
AcDbSpline
 62
7
  6
CONTINUOUS
 70
0
 71
3
 72
9
 73
5
 74
0
 42
0.0000001
 43
0.0000001
 44
0.0000000001
 40
0.0
 40
0.0
 40
0.0
 40
0.0
 40
0.254578277
 40
1.0
 40
1.0
 40
1.0
 40
1.0
 10
62.3451982816
 20
193.8722460386
 30
0.0
 10
62.3052956671
 20
193.5833408506
 30
0.0
 10
62.1605104005
 20
192.4468999883
 30
0.0
 10
62.0641614289
 20
191.3041582464
 30
0.0
 10
62.0227478703
 20
190.4511993992
 30
0.0
  0
SPLINE
  5
42D
100
AcDbEntity
  8
0
100
AcDbSpline
 62
7
  6
CONTINUOUS
 70
0
 71
3
 72
12
 73
8
 74
0
 42
0.0000001
 43
0.0000001
 44
0.0000000001
 40
0.0
 40
0.0
 40
0.0
 40
0.0
 40
0.1315346401
 40
0.2592230793
 40
0.508170474
 40
0.7541281837
 40
1.0
 40
1.0
 40
1.0
 40
1.0
 10
94.2552708232
 20
237.6261254407
 30
0.0
 10
94.5383974399
 20
238.1286212746
 30
0.0
 10
95.0352148257
 20
239.1546858099
 30
0.0
 10
95.7731160538
 20
241.2611484757
 30
0.0
 10
96.293667968
 20
243.9558543256
 30
0.0
 10
96.4601862582
 20
247.2063222556
 30
0.0
 10
96.3522482087
 20
249.3634017256
 30
0.0
 10
96.2593858499
 20
250.4375239379
 30
0.0
  0
SPLINE
  5
42E
100
AcDbEntity
  8
0
100
AcDbSpline
 62
7
  6
CONTINUOUS
 70
0
 71
3
 72
8
 73
4
 74
0
 42
0.0000001
 43
0.0000001
 44
0.0000000001
 40
0.0
 40
0.0
 40
0.0
 40
0.0
 40
1.0
 40
1.0
 40
1.0
 40
1.0
 10
56.6711336243
 20
227.6512577058
 30
0.0
 10
61.1540438204
 20
224.5630899517
 30
0.0
 10
65.6368581113
 20
221.4747829637
 30
0.0
 10
70.1195001355
 20
218.3862259565
 30
0.0
  0
SPLINE
  5
42F
100
AcDbEntity
  8
0
100
AcDbSpline
 62
7
  6
CONTINUOUS
 70
0
 71
3
 72
11
 73
7
 74
0
 42
0.0000001
 43
0.0000001
 44
0.0000000001
 40
0.0
 40
0.0
 40
0.0
 40
0.0
 40
0.2467377961
 40
0.4970976394
 40
0.7485211801
 40
1.0
 40
1.0
 40
1.0
 40
1.0
 10
79.2054165388
 20
228.9371398846
 30
0.0
 10
77.4062994152
 20
228.5992413628
 30
0.0
 10
73.744792762
 20
228.112220475
 30
0.0
 10
68.2004618976
 20
227.7593453222
 30
0.0
 10
62.6112057541
 20
227.6644682015
 30
0.0
 10
58.8800961691
 20
227.7262390085
 30
0.0
 10
57.0151228845
 20
227.779973398
 30
0.0
  0
SPLINE
  5
430
100
AcDbEntity
  8
0
100
AcDbSpline
 62
7
  6
CONTINUOUS
 70
0
 71
3
 72
10
 73
6
 74
0
 42
0.0000001
 43
0.0000001
 44
0.0000000001
 40
0.0
 40
0.0
 40
0.0
 40
0.0
 40
0.5165032546
 40
0.7645315954
 40
1.0
 40
1.0
 40
1.0
 40
1.0
 10
56.6711336243
 20
227.6512577058
 30
0.0
 10
56.5840122052
 20
227.6593074266
 30
0.0
 10
56.4539906297
 20
227.6657835852
 30
0.0
 10
56.2852583614
 20
227.6508095505
 30
0.0
 10
56.2046576401
 20
227.6304212316
 30
0.0
 10
56.168619506
 20
227.6133268171
 30
0.0
  0
SPLINE
  5
431
100
AcDbEntity
  8
0
100
AcDbSpline
 62
7
  6
CONTINUOUS
 70
0
 71
3
 72
10
 73
6
 74
0
 42
0.0000001
 43
0.0000001
 44
0.0000000001
 40
0.0
 40
0.0
 40
0.0
 40
0.0
 40
0.2498402483
 40
0.5005469999
 40
1.0
 40
1.0
 40
1.0
 40
1.0
 10
56.6711346278
 20
227.651257642
 30
0.0
 10
56.6893792624
 20
227.6771935528
 30
0.0
 10
56.7372082504
 20
227.7217128416
 30
0.0
 10
56.8543475862
 20
227.7741184239
 30
0.0
 10
56.9517576116
 20
227.7817991047
 30
0.0
 10
57.0151228845
 20
227.779973398
 30
0.0
  0
SPLINE
  5
432
100
AcDbEntity
  8
0
100
AcDbSpline
 62
7
  6
CONTINUOUS
 70
0
 71
3
 72
9
 73
5
 74
0
 42
0.0000001
 43
0.0000001
 44
0.0000000001
 40
0.0
 40
0.0
 40
0.0
 40
0.0
 40
0.2627500549
 40
1.0
 40
1.0
 40
1.0
 40
1.0
 10
56.168619506
 20
227.6133268171
 30
0.0
 10
56.1652648795
 20
227.6005461205
 30
0.0
 10
56.153860048
 20
227.5515747149
 30
0.0
 10
56.1480144025
 20
227.5011714963
 30
0.0
 10
56.1480144025
 20
227.464095425
 30
0.0
  0
SPLINE
  5
433
100
AcDbEntity
  8
0
100
AcDbSpline
 62
7
  6
CONTINUOUS
 70
0
 71
3
 72
9
 73
5
 74
0
 42
0.0000001
 43
0.0000001
 44
0.0000000001
 40
0.0
 40
0.0
 40
0.0
 40
0.0
 40
0.2608427578
 40
1.0
 40
1.0
 40
1.0
 40
1.0
 10
56.1480144025
 20
221.1619058076
 30
0.0
 10
56.1513852264
 20
221.1776000606
 30
0.0
 10
56.1628958569
 20
221.238049807
 30
0.0
 10
56.168619506
 20
221.2996962666
 30
0.0
 10
56.168619506
 20
221.3451837271
 30
0.0
  0
SPLINE
  5
434
100
AcDbEntity
  8
0
100
AcDbSpline
 62
7
  6
CONTINUOUS
 70
0
 71
3
 72
23
 73
19
 74
0
 42
0.0000001
 43
0.0000001
 44
0.0000000001
 40
0.0
 40
0.0
 40
0.0
 40
0.0
 40
0.0166739811
 40
0.0331120492
 40
0.0654155176
 40
0.0972835128
 40
0.1289081784
 40
0.1603816728
 40
0.1917540045
 40
0.2543029902
 40
0.3166885137
 40
0.378973567
 40
0.4411921357
 40
0.5033643397
 40
0.6276160935
 40
0.7517883665
 40
0.8759108398
 40
1.0
 40
1.0
 40
1.0
 40
1.0
 10
56.1480144025
 20
221.1619058076
 30
0.0
 10
56.186018287
 20
221.0891725481
 30
0.0
 10
56.2766281948
 20
220.9528885554
 30
0.0
 10
56.4747540594
 20
220.6991874359
 30
0.0
 10
56.7375315194
 20
220.4015307793
 30
0.0
 10
57.0602744338
 20
220.0578779338
 30
0.0
 10
57.3862598483
 20
219.7228900813
 30
0.0
 10
57.7140157577
 20
219.3931086659
 30
0.0
 10
58.1521649323
 20
218.9584765183
 30
0.0
 10
58.7022747544
 20
218.4207086036
 30
0.0
 10
59.3646078837
 20
217.7801223549
 30
0.0
 10
60.0279159631
 20
217.1428918654
 30
0.0
 10
60.6918809773
 20
216.5078650204
 30
0.0
 10
61.5775705916
 20
215.6634276242
 30
0.0
 10
62.6857166052
 20
214.6104437415
 30
0.0
 10
64.0165068049
 20
213.3491419694
 30
0.0
 10
65.3477518994
 20
212.0894844421
 30
0.0
 10
66.2355539816
 20
211.2503530703
 30
0.0
 10
66.6794772969
 20
210.8309303424
 30
0.0
  0
SPLINE
  5
435
100
AcDbEntity
  8
0
100
AcDbSpline
 62
7
  6
CONTINUOUS
 70
0
 71
3
 72
8
 73
4
 74
0
 42
0.0000001
 43
0.0000001
 44
0.0000000001
 40
0.0
 40
0.0
 40
0.0
 40
0.0
 40
1.0
 40
1.0
 40
1.0
 40
1.0
 10
64.2818222965
 20
172.3270196603
 30
0.0
 10
61.0667706572
 20
173.6385973263
 30
0.0
 10
57.8519858324
 20
174.9508291993
 30
0.0
 10
54.6374524604
 20
176.2636765693
 30
0.0
  0
SPLINE
  5
436
100
AcDbEntity
  8
0
100
AcDbSpline
 62
7
  6
CONTINUOUS
 70
0
 71
3
 72
9
 73
5
 74
0
 42
0.0000001
 43
0.0000001
 44
0.0000000001
 40
0.0
 40
0.0
 40
0.0
 40
0.0
 40
0.2558758255
 40
1.0
 40
1.0
 40
1.0
 40
1.0
 10
66.7546602797
 20
210.7598983554
 30
0.0
 10
66.711557767
 20
210.7282425229
 30
0.0
 10
66.5415323268
 20
210.606695085
 30
0.0
 10
66.3651155884
 20
210.4940104342
 30
0.0
 10
66.2304290308
 20
210.4162495781
 30
0.0
  0
SPLINE
  5
437
100
AcDbEntity
  8
0
100
AcDbSpline
 62
7
  6
CONTINUOUS
 70
0
 71
3
 72
9
 73
5
 74
0
 42
0.0000001
 43
0.0000001
 44
0.0000000001
 40
0.0
 40
0.0
 40
0.0
 40
0.0
 40
0.2394442502
 40
1.0
 40
1.0
 40
1.0
 40
1.0
 10
70.1195001355
 20
217.1523557186
 30
0.0
 10
70.1195001355
 20
217.0552740787
 30
0.0
 10
70.1080307553
 20
216.6498554501
 30
0.0
 10
70.0536325156
 20
216.2461054417
 30
0.0
 10
69.9930958917
 20
215.9437419085
 30
0.0
  0
SPLINE
  5
438
100
AcDbEntity
  8
0
100
AcDbSpline
 62
7
  6
CONTINUOUS
 70
0
 71
3
 72
9
 73
5
 74
0
 42
0.0000001
 43
0.0000001
 44
0.0000000001
 40
0.0
 40
0.0
 40
0.0
 40
0.0
 40
0.2457672944
 40
1.0
 40
1.0
 40
1.0
 40
1.0
 10
69.9930958917
 20
215.9437419085
 30
0.0
 10
69.980842179
 20
215.8825380355
 30
0.0
 10
69.9277431164
 20
215.6341622067
 30
0.0
 10
69.8620276073
 20
215.3885137518
 30
0.0
 10
69.8061118859
 20
215.205300973
 30
0.0
  0
SPLINE
  5
439
100
AcDbEntity
  8
0
100
AcDbSpline
 62
7
  6
CONTINUOUS
 70
0
 71
3
 72
9
 73
5
 74
0
 42
0.0000001
 43
0.0000001
 44
0.0000000001
 40
0.0
 40
0.0
 40
0.0
 40
0.0
 40
0.2449764273
 40
1.0
 40
1.0
 40
1.0
 40
1.0
 10
69.8061118859
 20
215.205300973
 30
0.0
 10
69.7590921512
 20
215.0512366767
 30
0.0
 10
69.5487061509
 20
214.4280757278
 30
0.0
 10
69.2687271172
 20
213.8287904889
 30
0.0
 10
69.0245432024
 20
213.3965423333
 30
0.0
  0
SPLINE
  5
43A
100
AcDbEntity
  8
0
100
AcDbSpline
 62
7
  6
CONTINUOUS
 70
0
 71
3
 72
9
 73
5
 74
0
 42
0.0000001
 43
0.0000001
 44
0.0000000001
 40
0.0
 40
0.0
 40
0.0
 40
0.0
 40
0.2551869134
 40
1.0
 40
1.0
 40
1.0
 40
1.0
 10
67.2897834308
 20
211.1977211055
 30
0.0
 10
67.2461473706
 20
211.1582688105
 30
0.0
 10
67.0733089673
 20
211.0057244208
 30
0.0
 10
66.8930454987
 20
210.8615327854
 30
0.0
 10
66.7546602797
 20
210.7598983554
 30
0.0
  0
SPLINE
  5
43B
100
AcDbEntity
  8
0
100
AcDbSpline
 62
7
  6
CONTINUOUS
 70
0
 71
3
 72
9
 73
5
 74
0
 42
0.0000001
 43
0.0000001
 44
0.0000000001
 40
0.0
 40
0.0
 40
0.0
 40
0.0
 40
0.2446736887
 40
1.0
 40
1.0
 40
1.0
 40
1.0
 10
79.2054165388
 20
228.9371398846
 30
0.0
 10
78.7552805269
 20
228.5277572751
 30
0.0
 10
76.9452484723
 20
226.8220896167
 30
0.0
 10
75.2524772517
 20
224.9929016174
 30
0.0
 10
74.0414841567
 20
223.5570485732
 30
0.0
  0
LINE
  5
43C
100
AcDbEntity
  8
0
100
AcDbLine
 62
7
  6
CONTINUOUS
 10
74.0414841567
 20
223.5570485732
 11
73.9664616613
 21
223.4679230474
  0
LINE
  5
43D
100
AcDbEntity
  8
0
100
AcDbLine
 62
7
  6
CONTINUOUS
 10
103.2862531286
 20
237.583669336
 11
103.2848397615
 21
237.5841035301
  0
SPLINE
  5
43E
100
AcDbEntity
  8
0
100
AcDbSpline
 62
7
  6
CONTINUOUS
 70
0
 71
3
 72
9
 73
5
 74
0
 42
0.0000001
 43
0.0000001
 44
0.0000000001
 40
0.0
 40
0.0
 40
0.0
 40
0.0
 40
0.2399843562
 40
1.0
 40
1.0
 40
1.0
 40
1.0
 10
99.4192032053
 20
238.2087940382
 30
0.0
 10
99.0029554471
 20
238.2216929844
 30
0.0
 10
97.2665564574
 20
238.2092301095
 30
0.0
 10
95.5361814902
 20
237.9402423924
 30
0.0
 10
94.2552708232
 20
237.6261254407
 30
0.0
  0
SPLINE
  5
43F
100
AcDbEntity
  8
0
100
AcDbSpline
 62
7
  6
CONTINUOUS
 70
0
 71
3
 72
14
 73
10
 74
0
 42
0.0000001
 43
0.0000001
 44
0.0000000001
 40
0.0
 40
0.0
 40
0.0
 40
0.0
 40
0.2892799713
 40
0.4225377465
 40
0.5484975384
 40
0.6678947397
 40
0.7818683892
 40
0.8919527711
 40
1.0
 40
1.0
 40
1.0
 40
1.0
 10
231.3341058356
 20
144.0803561812
 30
0.0
 10
231.3341058356
 20
145.6009775308
 30
0.0
 10
231.1565786534
 20
147.8329990137
 30
0.0
 10
230.470380291
 20
150.6384373314
 30
0.0
 10
229.7722788263
 20
152.5078593444
 30
0.0
 10
228.8824852466
 20
154.1807640905
 30
0.0
 10
227.8078359499
 20
155.6403300029
 30
0.0
 10
226.5582865346
 20
156.870069582
 30
0.0
 10
225.6125848384
 20
157.5299310776
 30
0.0
 10
225.1207155
 20
157.813904732
 30
0.0
  0
SPLINE
  5
440
100
AcDbEntity
  8
0
100
AcDbSpline
 62
7
  6
CONTINUOUS
 70
0
 71
3
 72
24
 73
20
 74
0
 42
0.0000001
 43
0.0000001
 44
0.0000000001
 40
0.0
 40
0.0
 40
0.0
 40
0.0
 40
0.0623889728
 40
0.1287322391
 40
0.1983305846
 40
0.2703122955
 40
0.3436951792
 40
0.4174324558
 40
0.4904622581
 40
0.561753977
 40
0.6303562822
 40
0.6954487974
 40
0.7564011097
 40
0.8128428559
 40
0.8647475518
 40
0.9125261949
 40
0.9571041777
 40
0.9786663501
 40
1.0
 40
1.0
 40
1.0
 40
1.0
 10
191.7362909516
 20
121.2186835644
 30
0.0
 10
191.7362909516
 20
122.297338224
 30
0.0
 10
191.8824109855
 20
124.5245010613
 30
0.0
 10
192.4837341275
 20
127.9061444385
 30
0.0
 10
193.4613131991
 20
131.3712296399
 30
0.0
 10
194.7943119559
 20
134.8456690852
 30
0.0
 10
196.4543072509
 20
138.2558108495
 30
0.0
 10
198.4059185725
 20
141.5288919692
 30
0.0
 10
200.6075026377
 20
144.5951006292
 30
0.0
 10
203.0121630597
 20
147.3890903992
 30
0.0
 10
205.5688873718
 20
149.8514665016
 30
0.0
 10
208.2238592692
 20
151.930042173
 30
0.0
 10
210.9219925528
 20
153.5807441349
 30
0.0
 10
213.6083416695
 20
154.7681096645
 30
0.0
 10
216.2298939027
 20
155.4644079081
 30
0.0
 10
218.7336444323
 20
155.6493983521
 30
0.0
 10
220.7019958737
 20
155.3596217584
 30
0.0
 10
222.1344484133
 20
154.8642345673
 30
0.0
 10
222.8013236211
 20
154.534204742
 30
0.0
 10
223.1207519887
 20
154.34978795
 30
0.0
  0
SPLINE
  5
441
100
AcDbEntity
  8
0
100
AcDbSpline
 62
7
  6
CONTINUOUS
 70
0
 71
3
 72
11
 73
7
 74
0
 42
0.0000001
 43
0.0000001
 44
0.0000000001
 40
0.0
 40
0.0
 40
0.0
 40
0.0
 40
0.289777178
 40
0.5490714024
 40
0.7822268829
 40
1.0
 40
1.0
 40
1.0
 40
1.0
 10
232.3947468716
 20
171.2290071969
 30
0.0
 10
232.3947468716
 20
171.4317331295
 30
0.0
 10
232.3640941955
 20
171.8171779926
 30
0.0
 10
232.2078850352
 20
172.346727932
 30
0.0
 10
231.9451331342
 20
172.7764334954
 30
0.0
 10
231.6982247083
 20
172.9839513947
 30
0.0
 10
231.5662828873
 20
173.0601263241
 30
0.0
  0
SPLINE
  5
442
100
AcDbEntity
  8
0
100
AcDbSpline
 62
7
  6
CONTINUOUS
 70
0
 71
3
 72
9
 73
5
 74
0
 42
0.0000001
 43
0.0000001
 44
0.0000000001
 40
0.0
 40
0.0
 40
0.0
 40
0.0
 40
0.5213658848
 40
1.0
 40
1.0
 40
1.0
 40
1.0
 10
232.7389806914
 20
142.0569133299
 30
0.0
 10
232.9713060912
 20
143.7403580029
 30
0.0
 10
233.2217716577
 20
147.0007362695
 30
0.0
 10
232.9917165806
 20
150.2689327845
 30
0.0
 10
232.7389806914
 20
151.8084406406
 30
0.0
  0
SPLINE
  5
443
100
AcDbEntity
  8
0
100
AcDbSpline
 62
7
  6
CONTINUOUS
 70
0
 71
3
 72
14
 73
10
 74
0
 42
0.0000001
 43
0.0000001
 44
0.0000000001
 40
0.0
 40
0.0
 40
0.0
 40
0.0
 40
0.3061083981
 40
0.4498475487
 40
0.5830975942
 40
0.7039136347
 40
0.8119921403
 40
0.9092077857
 40
1.0
 40
1.0
 40
1.0
 40
1.0
 10
188.2283001948
 20
101.1715117544
 30
0.0
 10
188.404864034
 20
101.4773309922
 30
0.0
 10
188.71502373
 20
101.9013009032
 30
0.0
 10
189.2073230233
 20
102.3618547393
 30
0.0
 10
189.5845867541
 20
102.6263851361
 30
0.0
 10
189.9639432872
 20
102.8069081325
 30
0.0
 10
190.3329981785
 20
102.8959075896
 30
0.0
 10
190.6791132485
 20
102.8872462716
 30
0.0
 10
190.887558233
 20
102.8115769876
 30
0.0
 10
190.9782631172
 20
102.7592051756
 30
0.0
  0
SPLINE
  5
444
100
AcDbEntity
  8
0
100
AcDbSpline
 62
7
  6
CONTINUOUS
 70
0
 71
3
 72
21
 73
17
 74
0
 42
0.0000001
 43
0.0000001
 44
0.0000000001
 40
0.0
 40
0.0
 40
0.0
 40
0.0
 40
0.0453833678
 40
0.0940119665
 40
0.1480473643
 40
0.2084583137
 40
0.2750783996
 40
0.3469599258
 40
0.4999930821
 40
0.6530262388
 40
0.7249089579
 40
0.7915325658
 40
0.8519473537
 40
0.9059855708
 40
0.9546163426
 40
1.0
 40
1.0
 40
1.0
 40
1.0
 10
186.4783074808
 20
142.3080299294
 30
0.0
 10
186.3876263482
 20
142.3603862027
 30
0.0
 10
186.2179040237
 20
142.5031218788
 30
0.0
 10
186.0372135354
 20
142.7984738963
 30
0.0
 10
185.9298691366
 20
143.1626781841
 30
0.0
 10
185.8964945721
 20
143.5814570948
 30
0.0
 10
185.9369179524
 20
144.0404321001
 30
0.0
 10
186.089846789
 20
144.6972697564
 30
0.0
 10
186.4448939544
 20
145.5026956597
 30
0.0
 10
186.9648680251
 20
146.2129086497
 30
0.0
 10
187.4572383178
 20
146.6737871859
 30
0.0
 10
187.8345170382
 20
146.9383072851
 30
0.0
 10
188.2138933626
 20
147.1188165199
 30
0.0
 10
188.5829957063
 20
147.2079626829
 30
0.0
 10
188.929136052
 20
147.1991548062
 30
0.0
 10
189.1376143202
 20
147.1235328675
 30
0.0
 10
189.2282960314
 20
147.0711762602
 30
0.0
  0
SPLINE
  5
445
100
AcDbEntity
  8
0
100
AcDbSpline
 62
7
  6
CONTINUOUS
 70
0
 71
3
 72
14
 73
10
 74
0
 42
0.0000001
 43
0.0000001
 44
0.0000000001
 40
0.0
 40
0.0
 40
0.0
 40
0.0
 40
0.3061083981
 40
0.4498475487
 40
0.5830975942
 40
0.7039136347
 40
0.8119921403
 40
0.9092077857
 40
1.0
 40
1.0
 40
1.0
 40
1.0
 10
227.4781367811
 20
169.1546002932
 30
0.0
 10
227.6547006203
 20
169.460419531
 30
0.0
 10
227.9648603163
 20
169.884389442
 30
0.0
 10
228.4571596096
 20
170.3449432781
 30
0.0
 10
228.8344233404
 20
170.6094736749
 30
0.0
 10
229.2137798735
 20
170.7899966713
 30
0.0
 10
229.5828347648
 20
170.8789961284
 30
0.0
 10
229.9289498348
 20
170.8703348104
 30
0.0
 10
230.1373948193
 20
170.7946655264
 30
0.0
 10
230.2280997035
 20
170.7422937144
 30
0.0
  0
SPLINE
  5
446
100
AcDbEntity
  8
0
100
AcDbSpline
 62
7
  6
CONTINUOUS
 70
0
 71
3
 72
14
 73
10
 74
0
 42
0.0000001
 43
0.0000001
 44
0.0000000001
 40
0.0
 40
0.0
 40
0.0
 40
0.0
 40
0.0907888917
 40
0.1880011957
 40
0.2960775683
 40
0.4168945032
 40
0.5501478666
 40
0.6938912952
 40
1.0
 40
1.0
 40
1.0
 40
1.0
 10
186.4783331091
 20
94.9649731883
 30
0.0
 10
186.3876297328
 20
95.0173441296
 30
0.0
 10
186.2178665624
 20
95.1600087579
 30
0.0
 10
186.0373088762
 20
95.4554229038
 30
0.0
 10
185.9298504801
 20
95.8195320919
 30
0.0
 10
185.896496645
 20
96.2383361395
 30
0.0
 10
185.9369471376
 20
96.697341387
 30
0.0
 10
186.0896501256
 20
97.3539850569
 30
0.0
 10
186.3017399386
 20
97.8345929832
 30
0.0
 10
186.4783074808
 20
98.1404186348
 30
0.0
  0
SPLINE
  5
447
100
AcDbEntity
  8
0
100
AcDbSpline
 62
7
  6
CONTINUOUS
 70
0
 71
3
 72
11
 73
7
 74
0
 42
0.0000001
 43
0.0000001
 44
0.0000000001
 40
0.0
 40
0.0
 40
0.0
 40
0.0
 40
0.2177731171
 40
0.4509285976
 40
0.710222822
 40
1.0
 40
1.0
 40
1.0
 40
1.0
 10
179.1297172615
 20
95.3006845749
 30
0.0
 10
178.9977754405
 20
95.3768595044
 30
0.0
 10
178.7508670146
 20
95.5843774037
 30
0.0
 10
178.4881151136
 20
96.014082967
 30
0.0
 10
178.3319059533
 20
96.5436329064
 30
0.0
 10
178.3012532773
 20
96.9290777695
 30
0.0
 10
178.3012532773
 20
97.1318037021
 30
0.0
  0
SPLINE
  5
448
100
AcDbEntity
  8
0
100
AcDbSpline
 62
7
  6
CONTINUOUS
 70
0
 71
3
 72
11
 73
7
 74
0
 42
0.0000001
 43
0.0000001
 44
0.0000000001
 40
0.0
 40
0.0
 40
0.0
 40
0.0
 40
0.2177745347
 40
0.4509306045
 40
0.7102242968
 40
1.0
 40
1.0
 40
1.0
 40
1.0
 10
185.1401499253
 20
91.8306381615
 30
0.0
 10
185.2720873783
 20
91.7544657538
 30
0.0
 10
185.5752477856
 20
91.6444038863
 30
0.0
 10
186.0787405026
 20
91.6317094266
 30
0.0
 10
186.615426466
 20
91.7611977887
 30
0.0
 10
186.9645430688
 20
91.9273662545
 30
0.0
 10
187.1401012899
 20
92.0287242357
 30
0.0
  0
SPLINE
  5
449
100
AcDbEntity
  8
0
100
AcDbSpline
 62
7
  6
CONTINUOUS
 70
0
 71
3
 72
13
 73
9
 74
0
 42
0.0000001
 43
0.0000001
 44
0.0000000001
 40
0.0
 40
0.0
 40
0.0
 40
0.0
 40
0.1142494128
 40
0.2375488016
 40
0.500001607
 40
0.7624535328
 40
0.8857518943
 40
1.0
 40
1.0
 40
1.0
 40
1.0
 10
178.3012532773
 20
146.938451147
 30
0.0
 10
178.3012532773
 20
147.1620192909
 30
0.0
 10
178.34220091
 20
147.6273348924
 30
0.0
 10
178.5645868663
 20
148.5825604318
 30
0.0
 10
179.0811421631
 20
149.7541758619
 30
0.0
 10
179.837506792
 20
150.787336095
 30
0.0
 10
180.5535571541
 20
151.4575383166
 30
0.0
 10
180.9360548603
 20
151.7256551385
 30
0.0
 10
181.1296686261
 20
151.837437431
 30
0.0
  0
SPLINE
  5
44A
100
AcDbEntity
  8
0
100
AcDbSpline
 62
7
  6
CONTINUOUS
 70
0
 71
3
 72
9
 73
5
 74
0
 42
0.0000001
 43
0.0000001
 44
0.0000000001
 40
0.0
 40
0.0
 40
0.0
 40
0.0
 40
0.507844654
 40
1.0
 40
1.0
 40
1.0
 40
1.0
 10
206.2758987775
 20
176.5616373638
 30
0.0
 10
206.9252207472
 20
176.5382026168
 30
0.0
 10
208.2025268596
 20
176.4152502401
 30
0.0
 10
209.4532794675
 20
176.1254584092
 30
0.0
 10
210.055241915
 20
175.9407221207
 30
0.0
  0
SPLINE
  5
44B
100
AcDbEntity
  8
0
100
AcDbSpline
 62
7
  6
CONTINUOUS
 70
0
 71
3
 72
9
 73
5
 74
0
 42
0.0000001
 43
0.0000001
 44
0.0000000001
 40
0.0
 40
0.0
 40
0.0
 40
0.0
 40
0.2521101897
 40
1.0
 40
1.0
 40
1.0
 40
1.0
 10
176.9525824414
 20
156.8290068443
 30
0.0
 10
177.2494980236
 20
157.2629738197
 30
0.0
 10
178.447888794
 20
158.9700573108
 30
0.0
 10
179.7287922903
 20
160.619389771
 30
0.0
 10
180.7319255789
 20
161.8139055936
 30
0.0
  0
SPLINE
  5
44C
100
AcDbEntity
  8
0
100
AcDbSpline
 62
7
  6
CONTINUOUS
 70
0
 71
3
 72
14
 73
10
 74
0
 42
0.0000001
 43
0.0000001
 44
0.0000000001
 40
0.0
 40
0.0
 40
0.0
 40
0.0
 40
0.0907888917
 40
0.1880011957
 40
0.2960775683
 40
0.4168945032
 40
0.5501478666
 40
0.6938912952
 40
1.0
 40
1.0
 40
1.0
 40
1.0
 10
225.7281696954
 20
162.9480617271
 30
0.0
 10
225.6374663191
 20
163.0004326684
 30
0.0
 10
225.4677031487
 20
163.1430972967
 30
0.0
 10
225.2871454625
 20
163.4385114426
 30
0.0
 10
225.1796870664
 20
163.8026206307
 30
0.0
 10
225.1463332313
 20
164.2214246783
 30
0.0
 10
225.1867837239
 20
164.6804299258
 30
0.0
 10
225.3394867119
 20
165.3370735957
 30
0.0
 10
225.5515765249
 20
165.817681522
 30
0.0
 10
225.7281440671
 20
166.1235071736
 30
0.0
  0
SPLINE
  5
44D
100
AcDbEntity
  8
0
100
AcDbSpline
 62
7
  6
CONTINUOUS
 70
0
 71
3
 72
13
 73
9
 74
0
 42
0.0000001
 43
0.0000001
 44
0.0000000001
 40
0.0
 40
0.0
 40
0.0
 40
0.0
 40
0.3036258362
 40
0.5828973073
 40
0.7052735088
 40
0.8139615425
 40
0.9106849882
 40
1.0
 40
1.0
 40
1.0
 40
1.0
 10
171.8897429194
 20
148.0598628831
 30
0.0
 10
171.9201244591
 20
148.1232166724
 30
0.0
 10
171.9933561614
 20
148.2381331679
 30
0.0
 10
172.1138277184
 20
148.3519492575
 30
0.0
 10
172.218071503
 20
148.4088446478
 30
0.0
 10
172.2915385246
 20
148.4305132933
 30
0.0
 10
172.3607730304
 20
148.4314413826
 30
0.0
 10
172.4025313738
 20
148.4170459492
 30
0.0
 10
172.4204402164
 20
148.4067282843
 30
0.0
  0
SPLINE
  5
44E
100
AcDbEntity
  8
0
100
AcDbSpline
 62
7
  6
CONTINUOUS
 70
0
 71
3
 72
9
 73
5
 74
0
 42
0.0000001
 43
0.0000001
 44
0.0000000001
 40
0.0
 40
0.0
 40
0.0
 40
0.0
 40
0.4786341152
 40
1.0
 40
1.0
 40
1.0
 40
1.0
 10
169.118147893
 20
122.4718821071
 30
0.0
 10
168.8654120039
 20
124.0113899632
 30
0.0
 10
168.6353569268
 20
127.2795864781
 30
0.0
 10
168.8858224932
 20
130.5399647447
 30
0.0
 10
169.118147893
 20
132.2234094178
 30
0.0
  0
SPLINE
  5
44F
100
AcDbEntity
  8
0
100
AcDbSpline
 62
7
  6
CONTINUOUS
 70
0
 71
3
 72
21
 73
17
 74
0
 42
0.0000001
 43
0.0000001
 44
0.0000000001
 40
0.0
 40
0.0
 40
0.0
 40
0.0
 40
0.0452712636
 40
0.0937007999
 40
0.1474688947
 40
0.2075027481
 40
0.2736727162
 40
0.3450819334
 40
0.4973462346
 40
0.6502266916
 40
0.7223566249
 40
0.7894467055
 40
0.8505023183
 40
0.9052469939
 40
0.9544301491
 40
1.0
 40
1.0
 40
1.0
 40
1.0
 10
172.5102175994
 20
148.3516025407
 30
0.0
 10
172.6574341998
 20
148.2676006892
 30
0.0
 10
172.9946766213
 20
148.1460438934
 30
0.0
 10
173.5539948479
 20
148.1313171604
 30
0.0
 10
174.1502835994
 20
148.2727941364
 30
0.0
 10
174.7636031148
 20
148.5607908931
 30
0.0
 10
175.3743551781
 20
148.9834726929
 30
0.0
 10
176.173677025
 20
149.7216089061
 30
0.0
 10
177.022935954
 20
150.8632886578
 30
0.0
 10
177.6108420029
 20
152.1617197625
 30
0.0
 10
177.8743667987
 20
153.2259332338
 30
0.0
 10
177.9538401477
 20
153.9743358705
 30
0.0
 10
177.9156126037
 20
154.6615750135
 30
0.0
 10
177.7590064844
 20
155.2644194172
 30
0.0
 10
177.4852536165
 20
155.7605747582
 30
0.0
 10
177.2216611298
 20
156.0091169766
 30
0.0
 10
177.0791796733
 20
156.1029694592
 30
0.0
  0
SPLINE
  5
450
100
AcDbEntity
  8
0
100
AcDbSpline
 62
7
  6
CONTINUOUS
 70
0
 71
3
 72
13
 73
9
 74
0
 42
0.0000001
 43
0.0000001
 44
0.0000000001
 40
0.0
 40
0.0
 40
0.0
 40
0.0
 40
0.0893148173
 40
0.18603838
 40
0.2947267022
 40
0.4171032701
 40
0.6963752391
 40
1.0
 40
1.0
 40
1.0
 40
1.0
 10
176.9175420555
 20
156.1959656045
 30
0.0
 10
176.8996517836
 20
156.2063160983
 30
0.0
 10
176.8663047677
 20
156.2352822228
 30
0.0
 10
176.8324898341
 20
156.2957058239
 30
0.0
 10
176.8145208801
 20
156.3701658432
 30
0.0
 10
176.8116707452
 20
156.4888937037
 30
0.0
 10
176.8500019153
 20
156.6501364051
 30
0.0
 10
176.912906907
 20
156.7710177299
 30
0.0
 10
176.9525824414
 20
156.8290068443
 30
0.0
  0
SPLINE
  5
451
100
AcDbEntity
  8
0
100
AcDbSpline
 62
7
  6
CONTINUOUS
 70
0
 71
3
 72
17
 73
13
 74
0
 42
0.0000001
 43
0.0000001
 44
0.0000000001
 40
0.0
 40
0.0
 40
0.0
 40
0.0
 40
0.0470435923
 40
0.0947299195
 40
0.143658513
 40
0.1943529163
 40
0.302471348
 40
0.4214128127
 40
0.5517422449
 40
0.6927861802
 40
0.8429531896
 40
1.0
 40
1.0
 40
1.0
 40
1.0
 10
195.1212659383
 20
105.8521583981
 30
0.0
 10
195.5384002539
 20
105.6113319291
 30
0.0
 10
196.4148629523
 20
105.1867454524
 30
0.0
 10
197.8209511304
 20
104.7396413408
 30
0.0
 10
199.3118263544
 20
104.4827608302
 30
0.0
 10
201.4420009534
 20
104.3937121544
 30
0.0
 10
204.2829421316
 20
104.7947598736
 30
0.0
 10
207.7533599617
 20
106.0107858254
 30
0.0
 10
211.2761809383
 20
107.9286639517
 30
0.0
 10
214.7606772835
 20
110.4948228538
 30
0.0
 10
218.1162866056
 20
113.6393482646
 30
0.0
 10
220.1744626951
 20
116.0264936847
 30
0.0
 10
221.1637494291
 20
117.2940892633
 30
0.0
  0
SPLINE
  5
452
100
AcDbEntity
  8
0
100
AcDbSpline
 62
7
  6
CONTINUOUS
 70
0
 71
3
 72
11
 73
7
 74
0
 42
0.0000001
 43
0.0000001
 44
0.0000000001
 40
0.0
 40
0.0
 40
0.0
 40
0.0
 40
0.2659835856
 40
0.5230452825
 40
0.7684553126
 40
1.0
 40
1.0
 40
1.0
 40
1.0
 10
228.2151029412
 20
129.4941116455
 30
0.0
 10
228.7151658273
 20
130.7264709167
 30
0.0
 10
229.6009909194
 20
133.1909914423
 30
0.0
 10
230.5847704667
 20
136.9105346122
 30
0.0
 10
231.1883512312
 20
140.5363319522
 30
0.0
 10
231.3341058356
 20
142.9226031026
 30
0.0
 10
231.3341058356
 20
144.0803561812
 30
0.0
  0
SPLINE
  5
453
100
AcDbEntity
  8
0
100
AcDbSpline
 62
7
  6
CONTINUOUS
 70
0
 71
3
 72
14
 73
10
 74
0
 42
0.0000001
 43
0.0000001
 44
0.0000000001
 40
0.0
 40
0.0
 40
0.0
 40
0.0
 40
0.1080467732
 40
0.2181307248
 40
0.3321041835
 40
0.4515015274
 40
0.5774615197
 40
0.7107196141
 40
1.0
 40
1.0
 40
1.0
 40
1.0
 10
197.1212294496
 20
109.3162751802
 30
0.0
 10
196.6949441797
 20
109.5623840731
 30
0.0
 10
195.8753407733
 20
110.1342635837
 30
0.0
 10
194.7923983929
 20
111.2000308733
 30
0.0
 10
193.861036021
 20
112.4649858248
 30
0.0
 10
193.0898813215
 20
113.9148369891
 30
0.0
 10
192.4848549536
 20
115.5350039996
 30
0.0
 10
191.890148908
 20
117.9663881395
 30
0.0
 10
191.7362909516
 20
119.9008098886
 30
0.0
 10
191.7362909516
 20
121.2186835644
 30
0.0
  0
SPLINE
  5
454
100
AcDbEntity
  8
0
100
AcDbSpline
 62
7
  6
CONTINUOUS
 70
0
 71
3
 72
11
 73
7
 74
0
 42
0.0000001
 43
0.0000001
 44
0.0000000001
 40
0.0
 40
0.0
 40
0.0
 40
0.0
 40
0.2897757032
 40
0.5490693955
 40
0.7822254653
 40
1.0
 40
1.0
 40
1.0
 40
1.0
 10
223.5558988589
 20
176.3320866633
 30
0.0
 10
223.7314570801
 20
176.4334446445
 30
0.0
 10
224.0805736829
 20
176.5996131103
 30
0.0
 10
224.6172596462
 20
176.7291014725
 30
0.0
 10
225.1207523632
 20
176.7164070128
 30
0.0
 10
225.4239127706
 20
176.6063451452
 30
0.0
 10
225.5558502236
 20
176.5301727376
 30
0.0
  0
SPLINE
  5
455
100
AcDbEntity
  8
0
100
AcDbSpline
 62
7
  6
CONTINUOUS
 70
0
 71
3
 72
14
 73
10
 74
0
 42
0.0000001
 43
0.0000001
 44
0.0000000001
 40
0.0
 40
0.0
 40
0.0
 40
0.0
 40
0.2892799713
 40
0.4225377465
 40
0.5484975384
 40
0.6678947397
 40
0.7818683892
 40
0.8919527711
 40
1.0
 40
1.0
 40
1.0
 40
1.0
 10
188.9078756027
 20
119.5857069489
 30
0.0
 10
188.9078756027
 20
118.0650855993
 30
0.0
 10
189.0854027849
 20
115.8330641165
 30
0.0
 10
189.7716011473
 20
113.0276257987
 30
0.0
 10
190.469702612
 20
111.1582037857
 30
0.0
 10
191.3594961917
 20
109.4852990397
 30
0.0
 10
192.4341454884
 20
108.0257331272
 30
0.0
 10
193.6836949037
 20
106.7959935481
 30
0.0
 10
194.6293965999
 20
106.1361320525
 30
0.0
 10
195.1212659383
 20
105.8521583981
 30
0.0
  0
SPLINE
  5
456
100
AcDbEntity
  8
0
100
AcDbSpline
 62
7
  6
CONTINUOUS
 70
0
 71
3
 72
11
 73
7
 74
0
 42
0.0000001
 43
0.0000001
 44
0.0000000001
 40
0.0
 40
0.0
 40
0.0
 40
0.0
 40
0.2177745347
 40
0.4509306045
 40
0.7102242968
 40
1.0
 40
1.0
 40
1.0
 40
1.0
 10
231.5662828873
 20
173.0601263241
 30
0.0
 10
231.4343454343
 20
173.1362987318
 30
0.0
 10
231.1311850269
 20
173.2463605993
 30
0.0
 10
230.62769231
 20
173.259055059
 30
0.0
 10
230.0910063466
 20
173.1295666968
 30
0.0
 10
229.7418897438
 20
172.9633982311
 30
0.0
 10
229.5663315227
 20
172.8620402499
 30
0.0
  0
SPLINE
  5
457
100
AcDbEntity
  8
0
100
AcDbSpline
 62
7
  6
CONTINUOUS
 70
0
 71
3
 72
21
 73
17
 74
0
 42
0.0000001
 43
0.0000001
 44
0.0000000001
 40
0.0
 40
0.0
 40
0.0
 40
0.0
 40
0.0453833678
 40
0.0940119665
 40
0.1480473643
 40
0.2084583137
 40
0.2750783996
 40
0.3469599258
 40
0.4999930821
 40
0.6530262388
 40
0.7249089579
 40
0.7915325658
 40
0.8519473537
 40
0.9059855708
 40
0.9546163426
 40
1.0
 40
1.0
 40
1.0
 40
1.0
 10
190.9782887455
 20
146.0607886077
 30
0.0
 10
191.0689698781
 20
146.0084323344
 30
0.0
 10
191.2386922026
 20
145.8656966583
 30
0.0
 10
191.4193826909
 20
145.5703446409
 30
0.0
 10
191.5267270897
 20
145.206140353
 30
0.0
 10
191.5601016541
 20
144.7873614423
 30
0.0
 10
191.5196782739
 20
144.328386437
 30
0.0
 10
191.3667494373
 20
143.6715487807
 30
0.0
 10
191.0117022718
 20
142.8661228774
 30
0.0
 10
190.4917282011
 20
142.1559098874
 30
0.0
 10
189.9993579084
 20
141.6950313512
 30
0.0
 10
189.6220791881
 20
141.430511252
 30
0.0
 10
189.2427028637
 20
141.2500020172
 30
0.0
 10
188.87360052
 20
141.1608558542
 30
0.0
 10
188.5274601742
 20
141.1696637309
 30
0.0
 10
188.318981906
 20
141.2452856696
 30
0.0
 10
188.2283001948
 20
141.2976422769
 30
0.0
  0
SPLINE
  5
458
100
AcDbEntity
  8
0
100
AcDbSpline
 62
7
  6
CONTINUOUS
 70
0
 71
3
 72
12
 73
8
 74
0
 42
0.0000001
 43
0.0000001
 44
0.0000000001
 40
0.0
 40
0.0
 40
0.0
 40
0.0
 40
0.2863488681
 40
0.5458559386
 40
0.7812500618
 40
0.8921589441
 40
1.0
 40
1.0
 40
1.0
 40
1.0
 10
226.0308064487
 20
143.8762222065
 30
0.0
 10
226.0308064487
 20
145.0542620991
 30
0.0
 10
225.8700322952
 20
147.3060394544
 30
0.0
 10
225.0663834969
 20
150.4381008964
 30
0.0
 10
223.9173227144
 20
152.6816112024
 30
0.0
 10
222.7425387321
 20
154.1411475614
 30
0.0
 10
222.0813081958
 20
154.75730716
 30
0.0
 10
221.7348850375
 20
155.0344780921
 30
0.0
  0
SPLINE
  5
459
100
AcDbEntity
  8
0
100
AcDbSpline
 62
7
  6
CONTINUOUS
 70
0
 71
3
 72
14
 73
10
 74
0
 42
0.0000001
 43
0.0000001
 44
0.0000000001
 40
0.0
 40
0.0
 40
0.0
 40
0.0
 40
0.3061083981
 40
0.4498475487
 40
0.5830975942
 40
0.7039136347
 40
0.8119921403
 40
0.9092077857
 40
1.0
 40
1.0
 40
1.0
 40
1.0
 10
228.4781326177
 20
164.5357551483
 30
0.0
 10
228.3015687786
 20
164.2299359105
 30
0.0
 10
227.9914090826
 20
163.8059659996
 30
0.0
 10
227.4991097892
 20
163.3454121634
 30
0.0
 10
227.1218460585
 20
163.0808817666
 30
0.0
 10
226.7424895253
 20
162.9003587703
 30
0.0
 10
226.3734346341
 20
162.8113593131
 30
0.0
 10
226.0273195641
 20
162.8200206311
 30
0.0
 10
225.8188745796
 20
162.8956899152
 30
0.0
 10
225.7281696954
 20
162.9480617271
 30
0.0
  0
SPLINE
  5
45A
100
AcDbEntity
  8
0
100
AcDbSpline
 62
7
  6
CONTINUOUS
 70
0
 71
3
 72
25
 73
21
 74
0
 42
0.0000001
 43
0.0000001
 44
0.0000000001
 40
0.0
 40
0.0
 40
0.0
 40
0.0
 40
0.021332067
 40
0.0428926335
 40
0.0648978953
 40
0.0875427634
 40
0.1353178011
 40
0.1872186298
 40
0.2436561435
 40
0.3046038104
 40
0.3696913373
 40
0.4382884115
 40
0.5095746477
 40
0.582598745
 40
0.6563301579
 40
0.7297073454
 40
0.8016837145
 40
0.8712769659
 40
0.9376155407
 40
1.0
 40
1.0
 40
1.0
 40
1.0
 10
225.1207155
 20
157.813904732
 30
0.0
 10
224.7521440978
 20
158.0266941048
 30
0.0
 10
223.9827596846
 20
158.4075324805
 30
0.0
 10
222.7560084261
 20
158.8314818775
 30
0.0
 10
221.4609463971
 20
159.1077707443
 30
0.0
 10
219.6214988925
 20
159.280289074
 30
0.0
 10
217.1689598649
 20
159.1002731814
 30
0.0
 10
214.1450831889
 20
158.2964999677
 30
0.0
 10
211.0451484371
 20
156.9265678961
 30
0.0
 10
207.932009903
 20
155.0218801391
 30
0.0
 10
204.8685568572
 20
152.6235348194
 30
0.0
 10
201.9185013289
 20
149.7823318968
 30
0.0
 10
199.1438949042
 20
146.5585038414
 30
0.0
 10
196.6036121315
 20
143.0205806568
 30
0.0
 10
194.351757212
 20
139.2439608966
 30
0.0
 10
192.4363779339
 20
135.3091898584
 30
0.0
 10
190.89829863
 20
131.3002205567
 30
0.0
 10
189.7703154981
 20
127.3020353873
 30
0.0
 10
189.0764773611
 20
123.4001259941
 30
0.0
 10
188.9078756027
 20
120.8303124369
 30
0.0
 10
188.9078756027
 20
119.5857069489
 30
0.0
  0
SPLINE
  5
45B
100
AcDbEntity
  8
0
100
AcDbSpline
 62
7
  6
CONTINUOUS
 70
0
 71
3
 72
10
 73
6
 74
0
 42
0.0000001
 43
0.0000001
 44
0.0000000001
 40
0.0
 40
0.0
 40
0.0
 40
0.0
 40
0.2334226772
 40
0.4790523995
 40
1.0
 40
1.0
 40
1.0
 40
1.0
 10
228.5056904867
 20
142.4473795657
 30
0.0
 10
228.5056904867
 20
141.5988523128
 30
0.0
 10
228.4155394923
 20
139.8564428904
 30
0.0
 10
227.9014050244
 20
136.2546113622
 30
0.0
 10
227.1638491177
 20
133.5520284988
 30
0.0
 10
226.5407440825
 20
131.7637520952
 30
0.0
  0
SPLINE
  5
45C
100
AcDbEntity
  8
0
100
AcDbSpline
 62
7
  6
CONTINUOUS
 70
0
 71
3
 72
17
 73
13
 74
0
 42
0.0000001
 43
0.0000001
 44
0.0000000001
 40
0.0
 40
0.0
 40
0.0
 40
0.0
 40
0.1570518086
 40
0.3068941644
 40
0.447484647
 40
0.5774216858
 40
0.6961922634
 40
0.8044656374
 40
0.8553641399
 40
0.9045712837
 40
0.9525920339
 40
1.0
 40
1.0
 40
1.0
 40
1.0
 10
219.1034505975
 20
118.4963402132
 30
0.0
 10
218.2528770019
 20
117.455289989
 30
0.0
 10
216.4915234041
 20
115.4991961237
 30
0.0
 10
213.637853884
 20
112.932799447
 30
0.0
 10
210.6911965778
 20
110.8511747541
 30
0.0
 10
207.72391556
 20
109.3081481846
 30
0.0
 10
204.8083063809
 20
108.3448503666
 30
0.0
 10
202.4272383944
 20
108.0468122615
 30
0.0
 10
200.6420984617
 20
108.143341565
 30
0.0
 10
199.3910230225
 20
108.3710567034
 30
0.0
 10
198.2099342546
 20
108.754360748
 30
0.0
 10
197.4726705507
 20
109.1133763552
 30
0.0
 10
197.1212294496
 20
109.3162751802
 30
0.0
  0
SPLINE
  5
45D
100
AcDbEntity
  8
0
100
AcDbSpline
 62
7
  6
CONTINUOUS
 70
0
 71
3
 72
14
 73
10
 74
0
 42
0.0000001
 43
0.0000001
 44
0.0000000001
 40
0.0
 40
0.0
 40
0.0
 40
0.0
 40
0.1080467509
 40
0.2181307398
 40
0.3321042356
 40
0.4515015225
 40
0.5774613933
 40
0.7107194663
 40
1.0
 40
1.0
 40
1.0
 40
1.0
 10
193.3534917821
 20
106.8727605584
 30
0.0
 10
192.861624303
 20
107.1567323681
 30
0.0
 10
191.9159280151
 20
107.8165933902
 30
0.0
 10
190.6663789231
 20
109.0463251053
 30
0.0
 10
189.591730151
 20
110.5058886975
 30
0.0
 10
188.7019362821
 20
112.1787930533
 30
0.0
 10
188.0038294897
 20
114.0482156234
 30
0.0
 10
187.3176298921
 20
116.8536587953
 30
0.0
 10
187.1401012899
 20
119.085684583
 30
0.0
 10
187.1401012899
 20
120.6063088352
 30
0.0
  0
SPLINE
  5
45E
100
AcDbEntity
  8
0
100
AcDbSpline
 62
7
  6
CONTINUOUS
 70
0
 71
3
 72
15
 73
11
 74
0
 42
0.0000001
 43
0.0000001
 44
0.0000000001
 40
0.0
 40
0.0
 40
0.0
 40
0.0
 40
0.0955372882
 40
0.1973276955
 40
0.307766201
 40
0.4280640287
 40
0.5583915922
 40
0.6980914019
 40
0.8458770389
 40
1.0
 40
1.0
 40
1.0
 40
1.0
 10
196.0570933233
 20
110.090866484
 30
0.0
 10
196.7797705976
 20
109.8305266512
 30
0.0
 10
198.3478450477
 20
109.4866847021
 30
0.0
 10
200.8398563762
 20
109.5265512452
 30
0.0
 10
203.4674207403
 20
110.0951634872
 30
0.0
 10
206.17482262
 20
111.173019116
 30
0.0
 10
208.9079141597
 20
112.7331318752
 30
0.0
 10
211.6100931091
 20
114.7409109764
 30
0.0
 10
214.2240205665
 20
117.1524023557
 30
0.0
 10
215.8443446063
 20
118.9653570922
 30
0.0
 10
216.6283880407
 20
119.924964557
 30
0.0
  0
SPLINE
  5
45F
100
AcDbEntity
  8
0
100
AcDbSpline
 62
7
  6
CONTINUOUS
 70
0
 71
3
 72
9
 73
5
 74
0
 42
0.0000001
 43
0.0000001
 44
0.0000000001
 40
0.0
 40
0.0
 40
0.0
 40
0.0
 40
0.521136734
 40
1.0
 40
1.0
 40
1.0
 40
1.0
 10
224.0861872412
 20
133.2510761381
 30
0.0
 10
224.7029759366
 20
135.0299381253
 30
0.0
 10
225.6535534996
 20
138.5301433295
 30
0.0
 10
226.0308064487
 20
142.1461892623
 30
0.0
 10
226.0308064487
 20
143.8762222065
 30
0.0
  0
SPLINE
  5
460
100
AcDbEntity
  8
0
100
AcDbSpline
 62
7
  6
CONTINUOUS
 70
0
 71
3
 72
14
 73
10
 74
0
 42
0.0000001
 43
0.0000001
 44
0.0000000001
 40
0.0
 40
0.0
 40
0.0
 40
0.0
 40
0.1080467732
 40
0.2181307248
 40
0.3321041835
 40
0.4515015274
 40
0.5774615197
 40
0.7107196141
 40
1.0
 40
1.0
 40
1.0
 40
1.0
 10
223.1207519887
 20
154.34978795
 30
0.0
 10
223.5470372586
 20
154.103679057
 30
0.0
 10
224.366640665
 20
153.5317995464
 30
0.0
 10
225.4495830454
 20
152.4660322568
 30
0.0
 10
226.3809454173
 20
151.2010773053
 30
0.0
 10
227.1521001168
 20
149.751226141
 30
0.0
 10
227.7571264847
 20
148.1310591305
 30
0.0
 10
228.3518325303
 20
145.6996749907
 30
0.0
 10
228.5056904867
 20
143.7652532416
 30
0.0
 10
228.5056904867
 20
142.4473795657
 30
0.0
  0
SPLINE
  5
461
100
AcDbEntity
  8
0
100
AcDbSpline
 62
7
  6
CONTINUOUS
 70
0
 71
3
 72
11
 73
7
 74
0
 42
0.0000001
 43
0.0000001
 44
0.0000000001
 40
0.0
 40
0.0
 40
0.0
 40
0.0
 40
0.289777178
 40
0.5490714024
 40
0.7822268829
 40
1.0
 40
1.0
 40
1.0
 40
1.0
 10
184.311685941
 20
93.6617572887
 30
0.0
 10
184.311685941
 20
93.4590313561
 30
0.0
 10
184.3423386171
 20
93.073586493
 30
0.0
 10
184.4985477774
 20
92.5440365536
 30
0.0
 10
184.7612996784
 20
92.1143309902
 30
0.0
 10
185.0082081043
 20
91.9068130909
 30
0.0
 10
185.1401499253
 20
91.8306381615
 30
0.0
  0
SPLINE
  5
462
100
AcDbEntity
  8
0
100
AcDbSpline
 62
7
  6
CONTINUOUS
 70
0
 71
3
 72
14
 73
10
 74
0
 42
0.0000001
 43
0.0000001
 44
0.0000000001
 40
0.0
 40
0.0
 40
0.0
 40
0.0
 40
0.0907888917
 40
0.1880011957
 40
0.2960775683
 40
0.4168945032
 40
0.5501478666
 40
0.6938912952
 40
1.0
 40
1.0
 40
1.0
 40
1.0
 10
230.2280997035
 20
170.7422937144
 30
0.0
 10
230.3188030798
 20
170.6899227732
 30
0.0
 10
230.4885662502
 20
170.5472581448
 30
0.0
 10
230.6691239363
 20
170.2518439989
 30
0.0
 10
230.7765823325
 20
169.8877348108
 30
0.0
 10
230.8099361676
 20
169.4689307632
 30
0.0
 10
230.7694856749
 20
169.0099255157
 30
0.0
 10
230.616782687
 20
168.3532818458
 30
0.0
 10
230.404692874
 20
167.8726739196
 30
0.0
 10
230.2281253318
 20
167.5668482679
 30
0.0
  0
SPLINE
  5
463
100
AcDbEntity
  8
0
100
AcDbSpline
 62
7
  6
CONTINUOUS
 70
0
 71
3
 72
9
 73
5
 74
0
 42
0.0000001
 43
0.0000001
 44
0.0000000001
 40
0.0
 40
0.0
 40
0.0
 40
0.0
 40
0.5213658848
 40
1.0
 40
1.0
 40
1.0
 40
1.0
 10
183.9674521211
 20
123.6503535728
 30
0.0
 10
183.7351267213
 20
121.9669088998
 30
0.0
 10
183.4846611548
 20
118.7065306332
 30
0.0
 10
183.714716232
 20
115.4383341183
 30
0.0
 10
183.9674521211
 20
113.8988262621
 30
0.0
  0
SPLINE
  5
464
100
AcDbEntity
  8
0
100
AcDbSpline
 62
7
  6
CONTINUOUS
 70
0
 71
3
 72
14
 73
10
 74
0
 42
0.0000001
 43
0.0000001
 44
0.0000000001
 40
0.0
 40
0.0
 40
0.0
 40
0.0
 40
0.0907888917
 40
0.1880011957
 40
0.2960775683
 40
0.4168945032
 40
0.5501478666
 40
0.6938912952
 40
1.0
 40
1.0
 40
1.0
 40
1.0
 10
190.9782631172
 20
102.7592051756
 30
0.0
 10
191.0689664935
 20
102.7068342344
 30
0.0
 10
191.2387296639
 20
102.564169606
 30
0.0
 10
191.41928735
 20
102.2687554601
 30
0.0
 10
191.5267457462
 20
101.904646272
 30
0.0
 10
191.5600995813
 20
101.4858422244
 30
0.0
 10
191.5196490886
 20
101.0268369769
 30
0.0
 10
191.3669461007
 20
100.370193307
 30
0.0
 10
191.1548562876
 20
99.8895853808
 30
0.0
 10
190.9782887455
 20
99.5837597291
 30
0.0
  0
SPLINE
  5
465
100
AcDbEntity
  8
0
100
AcDbSpline
 62
7
  6
CONTINUOUS
 70
0
 71
3
 72
25
 73
21
 74
0
 42
0.0000001
 43
0.0000001
 44
0.0000000001
 40
0.0
 40
0.0
 40
0.0
 40
0.0
 40
0.0623842911
 40
0.128722567
 40
0.1983156101
 40
0.2702919116
 40
0.3436692619
 40
0.4174009174
 40
0.4904251877
 40
0.561711556
 40
0.6303087822
 40
0.695396441
 40
0.7563441461
 40
0.8127816033
 40
0.8646823585
 40
0.9124573531
 40
0.9351022052
 40
0.9571074442
 40
0.9786679761
 40
1.0
 40
1.0
 40
1.0
 40
1.0
 10
187.1401012899
 20
120.6063088352
 30
0.0
 10
187.1401012899
 20
121.8509109631
 30
0.0
 10
187.3087015518
 20
124.4207152252
 30
0.0
 10
188.002536056
 20
128.3226114857
 30
0.0
 10
189.13051217
 20
132.3207866443
 30
0.0
 10
190.6685876366
 20
136.3297550063
 30
0.0
 10
192.5839667278
 20
140.2645336341
 30
0.0
 10
194.8358256416
 20
144.0411644944
 30
0.0
 10
197.3761137233
 20
147.5790973414
 30
0.0
 10
200.1507257434
 20
150.8029326332
 30
0.0
 10
203.1007874312
 20
153.6441411619
 30
0.0
 10
206.1642462469
 20
156.0424895844
 30
0.0
 10
209.2773876843
 20
157.9471769967
 30
0.0
 10
212.3773216676
 20
159.3171062175
 30
0.0
 10
215.4011955408
 20
160.1208765357
 30
0.0
 10
217.8537319719
 20
160.3008903802
 30
0.0
 10
219.6931778056
 20
160.1283716719
 30
0.0
 10
220.9882381694
 20
159.852082119
 30
0.0
 10
222.2149874569
 20
159.4281331133
 30
0.0
 10
222.9843701239
 20
159.047294853
 30
0.0
 10
223.3529410304
 20
158.8345063443
 30
0.0
  0
SPLINE
  5
466
100
AcDbEntity
  8
0
100
AcDbSpline
 62
7
  6
CONTINUOUS
 70
0
 71
3
 72
13
 73
9
 74
0
 42
0.0000001
 43
0.0000001
 44
0.0000000001
 40
0.0
 40
0.0
 40
0.0
 40
0.0
 40
0.1142481057
 40
0.2375464672
 40
0.499998393
 40
0.7624511984
 40
0.8857505872
 40
1.0
 40
1.0
 40
1.0
 40
1.0
 10
187.1401012899
 20
148.3673910176
 30
0.0
 10
186.946487524
 20
148.2556087251
 30
0.0
 10
186.5639898178
 20
147.9874919032
 30
0.0
 10
185.8479394557
 20
147.3172896816
 30
0.0
 10
185.0915748268
 20
146.2841294485
 30
0.0
 10
184.57501953
 20
145.1125140184
 30
0.0
 10
184.3526335737
 20
144.157288479
 30
0.0
 10
184.311685941
 20
143.6919728775
 30
0.0
 10
184.311685941
 20
143.4684047336
 30
0.0
  0
SPLINE
  5
467
100
AcDbEntity
  8
0
100
AcDbSpline
 62
7
  6
CONTINUOUS
 70
0
 71
3
 72
14
 73
10
 74
0
 42
0.0000001
 43
0.0000001
 44
0.0000000001
 40
0.0
 40
0.0
 40
0.0
 40
0.0
 40
0.3061083981
 40
0.4498475487
 40
0.5830975942
 40
0.7039136347
 40
0.8119921403
 40
0.9092077857
 40
1.0
 40
1.0
 40
1.0
 40
1.0
 10
189.2282960314
 20
96.5526666095
 30
0.0
 10
189.0517321923
 20
96.2468473717
 30
0.0
 10
188.7415724963
 20
95.8228774608
 30
0.0
 10
188.2492732029
 20
95.3623236246
 30
0.0
 10
187.8720094722
 20
95.0977932278
 30
0.0
 10
187.492652939
 20
94.9172702315
 30
0.0
 10
187.1235980478
 20
94.8282707743
 30
0.0
 10
186.7774829778
 20
94.8369320923
 30
0.0
 10
186.5690379933
 20
94.9126013764
 30
0.0
 10
186.4783331091
 20
94.9649731883
 30
0.0
  0
SPLINE
  5
468
100
AcDbEntity
  8
0
100
AcDbSpline
 62
7
  6
CONTINUOUS
 70
0
 71
3
 72
9
 73
5
 74
0
 42
0.0000001
 43
0.0000001
 44
0.0000000001
 40
0.0
 40
0.0
 40
0.0
 40
0.0
 40
0.4786159706
 40
1.0
 40
1.0
 40
1.0
 40
1.0
 10
62.3451982816
 20
184.1124679749
 30
0.0
 10
62.0920219318
 20
185.6531887147
 30
0.0
 10
61.8615855688
 20
188.9241847578
 30
0.0
 10
62.1124841133
 20
192.187335631
 30
0.0
 10
62.3451982816
 20
193.8722460386
 30
0.0
  0
SPLINE
  5
469
100
AcDbEntity
  8
0
100
AcDbSpline
 62
7
  6
CONTINUOUS
 70
0
 71
3
 72
9
 73
5
 74
0
 42
0.0000001
 43
0.0000001
 44
0.0000000001
 40
0.0
 40
0.0
 40
0.0
 40
0.0
 40
0.2564699519
 40
1.0
 40
1.0
 40
1.0
 40
1.0
 10
99.5023302803
 20
238.2059912964
 30
0.0
 10
99.8303459769
 20
238.1941528476
 30
0.0
 10
101.1074597061
 20
238.1095326849
 30
0.0
 10
102.3752158173
 20
237.8635025996
 30
0.0
 10
103.2848398678
 20
237.5841038764
 30
0.0
  0
SPLINE
  5
46A
100
AcDbEntity
  8
0
100
AcDbSpline
 62
7
  6
CONTINUOUS
 70
0
 71
3
 72
9
 73
5
 74
0
 42
0.0000001
 43
0.0000001
 44
0.0000000001
 40
0.0
 40
0.0
 40
0.0
 40
0.0
 40
0.252111208
 40
1.0
 40
1.0
 40
1.0
 40
1.0
 10
70.1758474942
 20
218.4687323202
 30
0.0
 10
70.4729930824
 20
218.9031152243
 30
0.0
 10
71.6723289247
 20
220.6118181785
 30
0.0
 10
72.9543265587
 20
222.2626752905
 30
0.0
 10
73.9583570817
 20
223.4582595261
 30
0.0
  0
SPLINE
  5
46B
100
AcDbEntity
  8
0
100
AcDbSpline
 62
7
  6
CONTINUOUS
 70
0
 71
3
 72
9
 73
5
 74
0
 42
0.0000001
 43
0.0000001
 44
0.0000000001
 40
0.0
 40
0.0
 40
0.0
 40
0.0
 40
0.4609276237
 40
1.0
 40
1.0
 40
1.0
 40
1.0
 10
70.0441399522
 20
217.9886165726
 30
0.0
 10
70.0294517922
 20
218.0650339033
 30
0.0
 10
70.050184193
 20
218.2394729174
 30
0.0
 10
70.1244637292
 20
218.3936168551
 30
0.0
 10
70.1758474942
 20
218.4687323202
 30
0.0
  0
SPLINE
  5
46C
100
AcDbEntity
  8
0
100
AcDbSpline
 62
7
  6
CONTINUOUS
 70
0
 71
3
 72
15
 73
11
 74
0
 42
0.0000001
 43
0.0000001
 44
0.0000000001
 40
0.0
 40
0.0
 40
0.0
 40
0.0
 40
0.1085537261
 40
0.2304721863
 40
0.3625268872
 40
0.4999981157
 40
0.6374696243
 40
0.7695251357
 40
0.8914448192
 40
1.0
 40
1.0
 40
1.0
 40
1.0
 10
65.4685346662
 20
210.0633917093
 30
0.0
 10
65.8020051637
 20
210.1789928607
 30
0.0
 10
66.4767254629
 20
210.5228643681
 30
0.0
 10
67.4050516095
 20
211.2579255404
 30
0.0
 10
68.2651917814
 20
212.2029185878
 30
0.0
 10
69.007449776
 20
213.3036554923
 30
0.0
 10
69.5895820297
 20
214.4968435098
 30
0.0
 10
69.9778974583
 20
215.7142518525
 30
0.0
 10
70.1503162406
 20
216.8857477444
 30
0.0
 10
70.1107598391
 20
217.6420169071
 30
0.0
 10
70.0441399522
 20
217.9886165726
 30
0.0
  0
SPLINE
  5
46D
100
AcDbEntity
  8
0
100
AcDbSpline
 62
7
  6
CONTINUOUS
 70
0
 71
3
 72
9
 73
5
 74
0
 42
0.0000001
 43
0.0000001
 44
0.0000000001
 40
0.0
 40
0.0
 40
0.0
 40
0.0
 40
0.5390737069
 40
1.0
 40
1.0
 40
1.0
 40
1.0
 10
65.1185995403
 20
209.7092732928
 30
0.0
 10
65.1579590124
 20
209.7913305074
 30
0.0
 10
65.2543101927
 20
209.9327300702
 30
0.0
 10
65.3950117379
 20
210.0379041918
 30
0.0
 10
65.4685346662
 20
210.0633917093
 30
0.0
  0
SPLINE
  5
46E
100
AcDbEntity
  8
0
100
AcDbSpline
 62
7
  6
CONTINUOUS
 70
0
 71
3
 72
9
 73
5
 74
0
 42
0.0000001
 43
0.0000001
 44
0.0000000001
 40
0.0
 40
0.0
 40
0.0
 40
0.0
 40
0.2553818704
 40
1.0
 40
1.0
 40
1.0
 40
1.0
 10
168.7957239113
 20
128.7945894256
 30
0.0
 10
168.7823318367
 20
128.5168072195
 30
0.0
 10
168.7425627676
 20
127.4285425722
 30
0.0
 10
168.754380543
 20
126.3382181147
 30
0.0
 10
168.7957239113
 20
125.5284011763
 30
0.0
  0
SPLINE
  5
46F
100
AcDbEntity
  8
0
100
AcDbSpline
 62
7
  6
CONTINUOUS
 70
0
 71
3
 72
9
 73
5
 74
0
 42
0.0000001
 43
0.0000001
 44
0.0000000001
 40
0.0
 40
0.0
 40
0.0
 40
0.0
 40
0.2545398449
 40
1.0
 40
1.0
 40
1.0
 40
1.0
 10
168.8462115357
 20
124.7434230052
 30
0.0
 10
168.8612953125
 20
124.5495438189
 30
0.0
 10
168.9282438392
 20
123.7884863982
 30
0.0
 10
169.0264195712
 20
123.0300988336
 30
0.0
 10
169.1187667788
 20
122.4681140423
 30
0.0
  0
SPLINE
  5
470
100
AcDbEntity
  8
0
100
AcDbSpline
 62
7
  6
CONTINUOUS
 70
0
 71
3
 72
8
 73
4
 74
0
 42
0.0000001
 43
0.0000001
 44
0.0000000001
 40
0.0
 40
0.0
 40
0.0
 40
0.0
 40
1.0
 40
1.0
 40
1.0
 40
1.0
 10
172.2421031634
 20
148.4190377768
 30
0.0
 10
172.2288094728
 20
148.4144293753
 30
0.0
 10
172.2157892545
 20
148.408978791
 30
0.0
 10
172.2031012897
 20
148.4028980738
 30
0.0
  0
SPLINE
  5
471
100
AcDbEntity
  8
0
100
AcDbSpline
 62
7
  6
CONTINUOUS
 70
0
 71
3
 72
9
 73
5
 74
0
 42
0.0000001
 43
0.0000001
 44
0.0000000001
 40
0.0
 40
0.0
 40
0.0
 40
0.0
 40
0.2382513267
 40
1.0
 40
1.0
 40
1.0
 40
1.0
 10
172.2031012897
 20
148.4028980738
 30
0.0
 10
172.1953276755
 20
148.3991725631
 30
0.0
 10
172.1631899303
 20
148.3825194232
 30
0.0
 10
172.1330330185
 20
148.3621552966
 30
0.0
 10
172.1113062977
 20
148.3451976819
 30
0.0
  0
SPLINE
  5
472
100
AcDbEntity
  8
0
100
AcDbSpline
 62
7
  6
CONTINUOUS
 70
0
 71
3
 72
9
 73
5
 74
0
 42
0.0000001
 43
0.0000001
 44
0.0000000001
 40
0.0
 40
0.0
 40
0.0
 40
0.0
 40
0.2394747993
 40
1.0
 40
1.0
 40
1.0
 40
1.0
 10
172.0894489448
 20
148.3273036065
 30
0.0
 10
172.0694749387
 20
148.3101801528
 30
0.0
 10
171.9905152053
 20
148.2335803554
 30
0.0
 10
171.9283030671
 20
148.1402542091
 30
0.0
 10
171.8921680375
 20
148.0649193602
 30
0.0
  0
SPLINE
  5
473
100
AcDbEntity
  8
0
100
AcDbSpline
 62
7
  6
CONTINUOUS
 70
0
 71
3
 72
15
 73
11
 74
0
 42
0.0000001
 43
0.0000001
 44
0.0000000001
 40
0.0
 40
0.0
 40
0.0
 40
0.0
 40
0.1093684876
 40
0.231312149
 40
0.3627628993
 40
0.499317053
 40
0.6359710653
 40
0.7677112801
 40
0.8900945967
 40
1.0
 40
1.0
 40
1.0
 40
1.0
 10
176.839201635
 20
156.2216432854
 30
0.0
 10
176.8933303405
 20
155.8807393097
 30
0.0
 10
176.9153936946
 20
155.1442258855
 30
0.0
 10
176.7344626973
 20
154.0088094622
 30
0.0
 10
176.3532418265
 20
152.8338319453
 30
0.0
 10
175.7918026036
 20
151.6823674733
 30
0.0
 10
175.0804930647
 20
150.6158545286
 30
0.0
 10
174.2570861006
 20
149.6915749235
 30
0.0
 10
173.366019821
 20
148.9587650415
 30
0.0
 10
172.717407461
 20
148.6029015075
 30
0.0
 10
172.3947363484
 20
148.4756164412
 30
0.0
  0
SPLINE
  5
474
100
AcDbEntity
  8
0
100
AcDbSpline
 62
7
  6
CONTINUOUS
 70
0
 71
3
 72
9
 73
5
 74
0
 42
0.0000001
 43
0.0000001
 44
0.0000000001
 40
0.0
 40
0.0
 40
0.0
 40
0.0
 40
0.2569903553
 40
1.0
 40
1.0
 40
1.0
 40
1.0
 10
176.9494159914
 20
156.8243783876
 30
0.0
 10
176.9331999999
 20
156.8006730063
 30
0.0
 10
176.8749507924
 20
156.7053147401
 30
0.0
 10
176.8343118506
 20
156.5983574513
 30
0.0
 10
176.8197794154
 20
156.5166005478
 30
0.0
  0
SPLINE
  5
475
100
AcDbEntity
  8
0
100
AcDbSpline
 62
7
  6
CONTINUOUS
 70
0
 71
3
 72
9
 73
5
 74
0
 42
0.0000001
 43
0.0000001
 44
0.0000000001
 40
0.0
 40
0.0
 40
0.0
 40
0.0
 40
0.2636324668
 40
1.0
 40
1.0
 40
1.0
 40
1.0
 10
176.8162623358
 20
156.4944900322
 30
0.0
 10
176.8147647885
 20
156.4838004984
 30
0.0
 10
176.8102027182
 20
156.4431187722
 30
0.0
 10
176.8101526086
 20
156.4018235334
 30
0.0
 10
176.8135326007
 20
156.3718644467
 30
0.0
  0
ELLIPSE
  5
476
100
AcDbEntity
  8
0
100
AcDbEllipse
 62
7
  6
CONTINUOUS
 10
66.2598618286
 20
209.1262117194
 30
0.0
 11
1.1463525428
 21
-1.0355620121
 31
0.0
 40
0.2522977138
 41
2.8630670344
 42
3.756158382
  0
ELLIPSE
  5
477
100
AcDbEntity
  8
0
100
AcDbEllipse
 62
7
  6
CONTINUOUS
 10
53.8957686215
 20
222.0282712756
 30
0.0
 11
12.6098779713
 21
-11.3911821334
 31
0.0
 40
0.2522977138
 41
-0.2785256192
 42
-0.0813438267
  0
ELLIPSE
  5
478
100
AcDbEntity
  8
0
100
AcDbEllipse
 62
7
  6
CONTINUOUS
 10
288.2934734275
 20
86.7011486498
 30
0.0
 11
258.0769414546
 21
-112.8333823661
 31
0.0
 40
0.0888900236
 41
-2.7250404204
 42
-2.6626052628
  0
ENDSEC
  0
SECTION
  2
OBJECTS
  0
DICTIONARY
  5
C
100
AcDbDictionary
280
0
281
1
  3
ACAD_GROUP
350
D
  3
ACAD_MLINESTYLE
350
17
  3
ACAD_LAYOUT
350
1A
  3
ACAD_PLOTSETTINGS
350
19
  3
ACAD_PLOTSTYLENAME
350
E
  0
DICTIONARY
  5
D
102
{ACAD_REACTORS
330
C
102
}
100
AcDbDictionary
280
0
281
1
  0
ACDBDICTIONARYWDFLT
  5
E
102
{ACAD_REACTORS
330
C
102
}
100
AcDbDictionary
281
1
  3
Normal
350
F
100
AcDbDictionaryWithDefault
340
F
  0
DICTIONARY
  5
17
102
{ACAD_REACTORS
330
C
102
}
100
AcDbDictionary
280
0
281
1
  3
Standard
350
18
  0
DICTIONARY
  5
19
102
{ACAD_REACTORS
330
C
102
}
100
AcDbDictionary
281
1
  0
DICTIONARY
  5
1A
102
{ACAD_REACTORS
330
C
102
}
100
AcDbDictionary
281
1
  3
Model
350
479
  3
Layout1
350
47A
  0
ACDBPLACEHOLDER
  5
F
102
{ACAD_REACTORS
330
E
102
}
  0
MLINESTYLE
  5
18
102
{ACAD_REACTORS
330
17
102
}
100
AcDbMlineStyle
  2
STANDARD
 70
0
  3

 62
256
 51
90.0
 52
90.0
 71
2
 49
0.5
 62
256
  6
BYLAYER
 49
-0.5
 62
256
  6
BYLAYER
  0
LAYOUT
  5
479
102
{ACAD_REACTORS
330
1A
102
}
100
AcDbPlotSettings
  1

  2
none_device
  4

  6

 40
0.0
 41
0.0
 42
0.0
 43
0.0
 44
210.0
 45
297.0
 46
0.0
 47
0.0
 48
0.0
 49
0.0
140
0.0
141
0.0
142
1.0
143
1.0
 70
1024
 72
1
 73
0
 74
0
  7

 75
0
147
1.0
148
0.0
149
0.0
100
AcDbLayout
  1
Model
 70
0
 71
0
 10
0.0
 20
0.0
 11
210.0
 21
297.0
 12
0.0
 22
0.0
 32
0.0
 14
0.0
 24
0.0
 34
0.0
 15
0.0
 25
0.0
 35
0.0
146
0.0
 13
0.0
 23
0.0
 33
0.0
 16
1.0
 26
0.0
 36
0.0
 17
0.0
 27
1.0
 37
0.0
 76
0
330
210
345
0
346
0
  0
LAYOUT
  5
47A
102
{ACAD_REACTORS
330
1A
102
}
100
AcDbPlotSettings
  1

  2
none_device
  4

  6

 40
0.0
 41
0.0
 42
0.0
 43
0.0
 44
210.0
 45
297.0
 46
0.0
 47
0.0
 48
0.0
 49
0.0
140
0.0
141
0.0
142
1.0
143
1.0
 70
0
 72
1
 73
0
 74
0
  7

 75
0
147
1.0
148
0.0
149
0.0
100
AcDbLayout
  1
Layout1
 70
0
 71
1
 10
0.0
 20
0.0
 11
210.0
 21
297.0
 12
0.0
 22
0.0
 32
0.0
 14
0.0
 24
0.0
 34
0.0
 15
0.0
 25
0.0
 35
0.0
146
0.0
 13
0.0
 23
0.0
 33
0.0
 16
1.0
 26
0.0
 36
0.0
 17
0.0
 27
1.0
 37
0.0
 76
0
330
211
345
0
346
0
  0
ENDSEC
  0
EOF
