999
DXF file: C:\Users\sesa63760\Dev\_Creo\CAD\MCADID0000313_3D-CAD\drw0001_1.dxf
999
Pro/ENGINEER 2019471 by Parametric Technology Corporation
  0
SECTION
  2
HEADER
  9
$ACADVER
  1
AC1024
  9
$DWGCODEPAGE
  3
ANSI_1252
  9
$EXTMAX
 10
206.2857677
 20
291.7470143186
 30
0.0
  9
$EXTMIN
 10
0.0
 20
0.0
 30
0.0
  9
$LIMMIN
 10
0.0
 20
0.0
  9
$LIMMAX
 10
206.2857677
 20
291.7470143186
  9
$VIEWCTR
 10
103.14288385
 20
145.8735071593
  9
$VIEWSIZE
 40
291.7470143186
  9
$CLAYER
  8
0
  9
$LTSCALE
 40
19.0175831556
  9
$CELTYPE
  6
BYLAYER
  9
$DIMSCALE
 40
1.0
  9
$DIMASZ
 40
2.4557829488
  9
$DIMEXO
 40
1.0
  9
$DIMDLI
 40
13.1394210893
  9
$DIMEXE
 40
1.0
  9
$DIMCEN
 40
3.1119681527
  9
$DIMLFAC
 40
1.0
  9
$DIMBLK
  1
_FILLED
  9
$DIMALT
 70
0
  9
$DIMALTF
 40
0.0393700787
  9
$DIMTXT
 40
3.4380961283
  9
$DIMTOL
 70
1
  9
$DIMLIM
 70
0
  9
$DIMTFAC
 40
1.0
  9
$DIMTP
 40
0.01
  9
$DIMTM
 40
0.01
  9
$DIMGAP
 40
0.625
  9
$DIMDSEP
 70
46
  9
$AUNITS
 70
0
  9
$PDMODE
 70
3
  9
$PDSIZE
 40
0.3125
  9
$HANDSEED
  5
3C5
  9
$TILEMODE
 70
1
  9
$MEASUREMENT
 70
1
  9
$INSUNITS
 70
4
  0
ENDSEC
  0
SECTION
  2
CLASSES
  0
CLASS
  1
ACDBDICTIONARYWDFLT
  2
AcDbDictionaryWithDefault
  3
AutoCAD 2000
 90
0
 91
1
280
0
281
0
  0
CLASS
  1
ACDBPLACEHOLDER
  2
AcDbPlaceHolder
  3
AutoCAD 2000
 90
0
 91
1
280
0
281
0
  0
CLASS
  1
LAYOUT
  2
AcDbLayout
  3
AutoCAD 2000
 90
0
 91
0
280
0
281
0
  0
ENDSEC
  0
SECTION
  2
TABLES
  0
TABLE
  2
VPORT
  5
8
100
AcDbSymbolTable
 70
2
  0
VPORT
  5
1F4
100
AcDbSymbolTableRecord
100
AcDbViewportTableRecord
  2
*ACTIVE
 70
0
 10
0.0
 20
0.0
 11
1.0
 21
1.0
 12
103.14288385
 22
145.8735071593
 13
0.0
 23
0.0
 14
1.0
 24
1.0
 15
0.0
 25
0.0
 16
0.0
 26
0.0
 36
1.0
 17
0.0
 27
0.0
 37
0.0
 40
291.7470143186
 41
0.7070707071
 42
50.0
 43
0.0
 44
0.0
 50
0.0
 51
0.0
 71
0
 72
100
 73
1
 74
1
 75
0
 76
0
 77
0
 78
0
  0
ENDTAB
  0
TABLE
  2
LTYPE
  5
5
100
AcDbSymbolTable
 70
6
  0
LTYPE
  5
14
100
AcDbSymbolTableRecord
100
AcDbLinetypeTableRecord
  2
BYBLOCK
 70
0
  3

 72
65
 73
0
 40
0.0
  0
LTYPE
  5
15
100
AcDbSymbolTableRecord
100
AcDbLinetypeTableRecord
  2
BYLAYER
 70
0
  3

 72
65
 73
0
 40
0.0
  0
LTYPE
  5
16
100
AcDbSymbolTableRecord
100
AcDbLinetypeTableRecord
  2
CONTINUOUS
 70
64
  3
Solid line
 72
65
 73
0
 40
0.0
  0
LTYPE
  5
1F5
100
AcDbSymbolTableRecord
100
AcDbLinetypeTableRecord
  2
CENTER
 70
64
  3
____ _ ____ _ ____ _ ____ _ ____ _ ____ _ ____
 72
65
 73
4
 40
0.6
 49
0.375
 74
0
 49
-0.075
 74
0
 49
0.075
 74
0
 49
-0.075
 74
0
  0
LTYPE
  5
1F6
100
AcDbSymbolTableRecord
100
AcDbLinetypeTableRecord
  2
HIDDEN
 70
64
  3
- - - - - - - - - - - - - - - - - - - -
 72
65
 73
2
 40
0.2
 49
0.1
 74
0
 49
-0.1
 74
0
  0
LTYPE
  5
1F7
100
AcDbSymbolTableRecord
100
AcDbLinetypeTableRecord
  2
PHANTOM
 70
64
  3
_____ _ _ _____ _ _ _____ _ _ _____
 72
65
 73
6
 40
0.8
 49
0.45
 74
0
 49
-0.05
 74
0
 49
0.1
 74
0
 49
-0.05
 74
0
 49
0.1
 74
0
 49
-0.05
 74
0
  0
LTYPE
  5
1F8
100
AcDbSymbolTableRecord
100
AcDbLinetypeTableRecord
  2
DOT
 70
64
  3
. . . . . . . . . . . . . . . . . . . .
 72
65
 73
2
 40
0.2
 49
0.1
 74
0
 49
-0.1
 74
0
  0
LTYPE
  5
1F9
100
AcDbSymbolTableRecord
100
AcDbLinetypeTableRecord
  2
DASHED
 70
64
  3
- - - - - - - - - - - - - - - - - - - -
 72
65
 73
2
 40
0.2
 49
0.1
 74
0
 49
-0.1
 74
0
  0
ENDTAB
  0
TABLE
  2
LAYER
  5
2
100
AcDbSymbolTable
 70
36
  0
LAYER
  5
10
100
AcDbSymbolTableRecord
100
AcDbLayerTableRecord
  2
0
 70
0
 62
7
  6
CONTINUOUS
370
-3
390
F
  0
LAYER
  5
1FA
100
AcDbSymbolTableRecord
100
AcDbLayerTableRecord
  2
DEFAULT_1
 70
0
 62
7
  6
CENTER
370
-3
390
F
  0
LAYER
  5
1FB
100
AcDbSymbolTableRecord
100
AcDbLayerTableRecord
  2
DEFAULT_2
 70
0
 62
8
  6
HIDDEN
370
-3
390
F
  0
LAYER
  5
1FC
100
AcDbSymbolTableRecord
100
AcDbLayerTableRecord
  2
DEFAULT_3
 70
0
 62
7
  6
PHANTOM
370
-3
390
F
  0
LAYER
  5
1FD
100
AcDbSymbolTableRecord
100
AcDbLayerTableRecord
  2
00_COMPONENTS
 70
0
 62
7
  6
CONTINUOUS
370
-3
390
F
  0
LAYER
  5
1FE
100
AcDbSymbolTableRecord
100
AcDbLayerTableRecord
  2
01_1_DEFAULT_DATUMS
 70
0
 62
7
  6
CONTINUOUS
370
-3
390
F
  0
LAYER
  5
1FF
100
AcDbSymbolTableRecord
100
AcDbLayerTableRecord
  2
01_PLANES
 70
0
 62
7
  6
CONTINUOUS
370
-3
390
F
  0
LAYER
  5
200
100
AcDbSymbolTableRecord
100
AcDbLayerTableRecord
  2
02_COORD_SYS
 70
0
 62
7
  6
CONTINUOUS
370
-3
390
F
  0
LAYER
  5
201
100
AcDbSymbolTableRecord
100
AcDbLayerTableRecord
  2
03_AXES
 70
0
 62
7
  6
CONTINUOUS
370
-3
390
F
  0
LAYER
  5
202
100
AcDbSymbolTableRecord
100
AcDbLayerTableRecord
  2
04_POINTS
 70
0
 62
7
  6
CONTINUOUS
370
-3
390
F
  0
LAYER
  5
203
100
AcDbSymbolTableRecord
100
AcDbLayerTableRecord
  2
05_CURVES
 70
0
 62
7
  6
CONTINUOUS
370
-3
390
F
  0
LAYER
  5
204
100
AcDbSymbolTableRecord
100
AcDbLayerTableRecord
  2
06_SURFS
 70
0
 62
7
  6
CONTINUOUS
370
-3
390
F
  0
LAYER
  5
205
100
AcDbSymbolTableRecord
100
AcDbLayerTableRecord
  2
07_COSMETICS
 70
0
 62
7
  6
CONTINUOUS
370
-3
390
F
  0
LAYER
  5
206
100
AcDbSymbolTableRecord
100
AcDbLayerTableRecord
  2
10_NOTES
 70
0
 62
7
  6
CONTINUOUS
370
-3
390
F
  0
LAYER
  5
207
100
AcDbSymbolTableRecord
100
AcDbLayerTableRecord
  2
11_NOTES_PUB
 70
0
 62
7
  6
CONTINUOUS
370
-3
390
F
  0
LAYER
  5
208
100
AcDbSymbolTableRecord
100
AcDbLayerTableRecord
  2
13_REF_GTOL
 70
0
 62
7
  6
CONTINUOUS
370
-3
390
F
  0
LAYER
  5
209
100
AcDbSymbolTableRecord
100
AcDbLayerTableRecord
  2
16_MISC
 70
0
 62
7
  6
CONTINUOUS
370
-3
390
F
  0
LAYER
  5
20A
100
AcDbSymbolTableRecord
100
AcDbLayerTableRecord
  2
17_NO_PRINT
 70
0
 62
7
  6
CONTINUOUS
370
-3
390
F
  0
LAYER
  5
20B
100
AcDbSymbolTableRecord
100
AcDbLayerTableRecord
  2
18_DATUM_CAMS_JOINTS
 70
0
 62
7
  6
CONTINUOUS
370
-3
390
F
  0
LAYER
  5
20C
100
AcDbSymbolTableRecord
100
AcDbLayerTableRecord
  2
19_DATUM_FUNCTIONAL
 70
0
 62
7
  6
CONTINUOUS
370
-3
390
F
  0
LAYER
  5
20D
100
AcDbSymbolTableRecord
100
AcDbLayerTableRecord
  2
20_DATUM_KINEMATIC_SCHEME
 70
0
 62
7
  6
CONTINUOUS
370
-3
390
F
  0
ENDTAB
  0
TABLE
  2
STYLE
  5
3
100
AcDbSymbolTable
 70
1
  0
STYLE
  5
11
100
AcDbSymbolTableRecord
100
AcDbTextStyleTableRecord
  2
STANDARD
 70
0
 40
0.0
 41
0.8
 50
0.0
 71
0
 42
0.2
  3
txt
  4

  0
STYLE
  5
20E
100
AcDbSymbolTableRecord
100
AcDbTextStyleTableRecord
  2
TEXTSTYLE_1
 70
0
 40
0.0
 41
0.8
 50
0.0
 71
0
 42
0.2
  3
gdt
  4

  0
ENDTAB
  0
TABLE
  2
VIEW
  5
6
100
AcDbSymbolTable
 70
0
  0
ENDTAB
  0
TABLE
  2
UCS
  5
7
100
AcDbSymbolTable
 70
0
  0
ENDTAB
  0
TABLE
  2
APPID
  5
9
100
AcDbSymbolTable
 70
1
  0
APPID
  5
20F
100
AcDbSymbolTableRecord
100
AcDbRegAppTableRecord
  2
ACAD
 70
0
  0
ENDTAB
  0
TABLE
  2
BLOCK_RECORD
  5
1
100
AcDbSymbolTable
 70
0
  0
BLOCK_RECORD
  5
210
100
AcDbSymbolTableRecord
100
AcDbBlockTableRecord
  2
*Model_Space
  0
BLOCK_RECORD
  5
211
100
AcDbSymbolTableRecord
100
AcDbBlockTableRecord
  2
*Paper_Space
  0
BLOCK_RECORD
  5
212
100
AcDbSymbolTableRecord
100
AcDbBlockTableRecord
  2
_FILLED
  0
ENDTAB
  0
TABLE
  2
DIMSTYLE
  5
A
100
AcDbSymbolTable
 70
1
100
AcDbDimStyleTable
 71
0
  0
DIMSTYLE
105
213
100
AcDbSymbolTableRecord
100
AcDbDimStyleTableRecord
  2
STANDARD
 70
0
  3

  4

 40
1.0
 41
2.4557829488
 42
1.0
 43
0.38
 44
1.0
 45
0.0
 46
0.0
 47
0.01
 48
0.01
140
3.4380961283
141
0.09
142
0.0
143
25.4
144
1.0
145
0.0
146
1.0
147
0.625
 71
1
 72
0
 73
0
 74
0
 75
0
 76
0
 77
1
 78
8
 79
2
170
0
171
1
172
0
173
0
174
0
175
0
176
0
177
0
178
0
270
2
179
2
271
2
272
2
273
2
274
2
275
0
280
0
281
0
282
0
283
1
284
8
285
0
286
0
287
3
288
0
340
11
278
46
341
212
342
212
343
212
344
212
  0
ENDTAB
  0
ENDSEC
  0
SECTION
  2
BLOCKS
  0
BLOCK
  5
20
100
AcDbEntity
  8
0
100
AcDbBlockBegin
  2
*Model_Space
 70
0
 10
0.0
 20
0.0
 30
0.0
  3
*Model_Space
  1

  0
ENDBLK
  5
21
100
AcDbEntity
  8
0
100
AcDbBlockEnd
  0
BLOCK
  5
1C
100
AcDbEntity
  8
0
100
AcDbBlockBegin
  2
*Paper_Space
 70
0
 10
0.0
 20
0.0
 30
0.0
  3
*Paper_Space
  1

  0
ENDBLK
  5
1D
100
AcDbEntity
  8
0
100
AcDbBlockEnd
  0
BLOCK
  5
214
100
AcDbEntity
  8
0
100
AcDbBlockBegin
  2
_FILLED
 70
64
 10
0.0
 20
0.0
  3
_FILLED
  1

  0
SOLID
  5
215
100
AcDbEntity
  8
0
  6
BYBLOCK
 62
0
100
AcDbTrace
 10
0.0
 20
0.0
 11
-1.0
 21
0.25
 12
-1.0
 22
-0.25
 13
-1.0
 23
-0.25
  0
ENDBLK
  5
216
100
AcDbEntity
  8
0
  6
BYBLOCK
 62
0
100
AcDbBlockEnd
  0
ENDSEC
  0
SECTION
  2
ENTITIES
  0
LINE
  5
217
100
AcDbEntity
  8
0
100
AcDbLine
 62
7
  6
CONTINUOUS
 10
23.9840519817
 20
162.759474936
 11
23.9840519817
 21
185.2132914071
  0
LINE
  5
218
100
AcDbEntity
  8
0
100
AcDbLine
 62
7
  6
CONTINUOUS
 10
35.9600200798
 20
204.8998558312
 11
34.3484399854
 21
203.9694151838
  0
LINE
  5
219
100
AcDbEntity
  8
0
100
AcDbLine
 62
7
  6
CONTINUOUS
 10
34.7727323161
 20
200.0502886433
 11
34.3484700138
 21
199.805342151
  0
LINE
  5
21A
100
AcDbEntity
  8
0
100
AcDbLine
 62
7
  6
CONTINUOUS
 10
28.9338200577
 20
182.3556061254
 11
28.9338200577
 21
159.9017896544
  0
LINE
  5
21B
100
AcDbEntity
  8
0
100
AcDbLine
 62
7
  6
CONTINUOUS
 10
30.4894543876
 20
186.1931694743
 11
30.4894602755
 21
181.6207734472
  0
LINE
  5
21C
100
AcDbEntity
  8
0
100
AcDbLine
 62
7
  6
CONTINUOUS
 10
31.2093058125
 20
187.6628897182
 11
31.2093058125
 21
185.7849341588
  0
LINE
  5
21D
100
AcDbEntity
  8
0
100
AcDbLine
 62
7
  6
CONTINUOUS
 10
32.8440453982
 20
192.7780453802
 11
33.8044546436
 21
193.3325346067
  0
LINE
  5
21E
100
AcDbEntity
  8
0
100
AcDbLine
 62
7
  6
CONTINUOUS
 10
23.9840519817
 20
185.2132914071
 11
33.906721119
 21
190.9421129081
  0
LINE
  5
21F
100
AcDbEntity
  8
0
100
AcDbLine
 62
7
  6
CONTINUOUS
 10
26.151319553
 20
150.0245450478
 11
24.4221329549
 21
158.2730963132
  0
LINE
  5
220
100
AcDbEntity
  8
0
100
AcDbLine
 62
7
  6
CONTINUOUS
 10
34.2176470702
 20
183.6743926012
 11
33.5753008217
 21
198.6888771015
  0
LINE
  5
221
100
AcDbEntity
  8
0
100
AcDbLine
 62
7
  6
CONTINUOUS
 10
33.7343793722
 20
199.1338760376
 11
33.5752707932
 21
202.8529501343
  0
LINE
  5
222
100
AcDbEntity
  8
0
100
AcDbLine
 62
7
  6
CONTINUOUS
 10
34.8028295989
 20
182.8864159634
 11
34.3484855729
 21
197.6477463587
  0
LINE
  5
223
100
AcDbEntity
  8
0
100
AcDbLine
 62
7
  6
CONTINUOUS
 10
34.4091355442
 20
199.8403672022
 11
34.3484555445
 21
201.8118193915
  0
LINE
  5
224
100
AcDbEntity
  8
0
100
AcDbLine
 62
7
  6
CONTINUOUS
 10
34.7727213796
 20
201.5668749388
 11
34.8183825094
 21
200.0833756838
  0
LINE
  5
225
100
AcDbEntity
  8
0
100
AcDbLine
 62
7
  6
CONTINUOUS
 10
32.8440453982
 20
192.7780453802
 11
32.8440453982
 21
190.3285804569
  0
LINE
  5
226
100
AcDbEntity
  8
0
100
AcDbLine
 62
7
  6
CONTINUOUS
 10
35.7100200798
 20
202.4416171218
 11
35.7100200798
 21
200.8086122875
  0
LINE
  5
227
100
AcDbEntity
  8
0
100
AcDbLine
 62
7
  6
CONTINUOUS
 10
35.9600200798
 20
211.0148925017
 11
35.9600200798
 21
202.4416171218
  0
LINE
  5
228
100
AcDbEntity
  8
0
100
AcDbLine
 62
7
  6
CONTINUOUS
 10
36.4600200798
 20
214.2809021702
 11
36.4600200798
 21
211.0148925017
  0
LINE
  5
229
100
AcDbEntity
  8
0
100
AcDbLine
 62
7
  6
CONTINUOUS
 10
31.2093058125
 20
186.6087734075
 11
30.4894543876
 21
186.1931694743
  0
LINE
  5
22A
100
AcDbEntity
  8
0
100
AcDbLine
 62
7
  6
CONTINUOUS
 10
45.7223895644
 20
193.2387551928
 11
46.1466518667
 21
193.4837016851
  0
LINE
  5
22B
100
AcDbEntity
  8
0
100
AcDbLine
 62
7
  6
CONTINUOUS
 10
60.1473078436
 20
201.5669359318
 11
60.5715701459
 21
201.8118824241
  0
LINE
  5
22C
100
AcDbEntity
  8
0
100
AcDbLine
 62
7
  6
CONTINUOUS
 10
30.4894602755
 20
183.2537500627
 11
28.9338200577
 21
182.3556061254
  0
LINE
  5
22D
100
AcDbEntity
  8
0
100
AcDbLine
 62
7
  6
CONTINUOUS
 10
52.9348787324
 20
193.2387725295
 11
60.5716001743
 21
197.6478093913
  0
LINE
  5
22E
100
AcDbEntity
  8
0
100
AcDbLine
 62
7
  6
CONTINUOUS
 10
29.3719010309
 20
155.4154110316
 11
31.1010876291
 21
147.1668597661
  0
LINE
  5
22F
100
AcDbEntity
  8
0
100
AcDbLine
 62
7
  6
CONTINUOUS
 10
41.9852706045
 20
193.2387462099
 11
42.4396146305
 21
178.4774158146
  0
LINE
  5
230
100
AcDbEntity
  8
0
100
AcDbLine
 62
7
  6
CONTINUOUS
 10
41.2967283485
 20
211.9120310558
 11
41.2967283485
 21
210.3115961063
  0
LINE
  5
231
100
AcDbEntity
  8
0
100
AcDbLine
 62
7
  6
CONTINUOUS
 10
41.8796615942
 20
214.8991231609
 11
41.8796615942
 21
212.182525429
  0
LINE
  5
232
100
AcDbEntity
  8
0
100
AcDbLine
 62
7
  6
CONTINUOUS
 10
42.2967283485
 20
211.9120310558
 11
42.2967283485
 21
209.926250949
  0
LINE
  5
233
100
AcDbEntity
  8
0
100
AcDbLine
 62
7
  6
CONTINUOUS
 10
42.8796615942
 20
214.8991231609
 11
42.8796615942
 21
210.0001086581
  0
LINE
  5
234
100
AcDbEntity
  8
0
100
AcDbLine
 62
7
  6
CONTINUOUS
 10
43.6296615942
 20
210.0001086581
 11
43.6296615942
 21
209.4655065575
  0
LINE
  5
235
100
AcDbEntity
  8
0
100
AcDbLine
 62
7
  6
CONTINUOUS
 10
44.9783692867
 20
209.7864827554
 11
44.9783692867
 21
209.2003346287
  0
LINE
  5
236
100
AcDbEntity
  8
0
100
AcDbLine
 62
7
  6
CONTINUOUS
 10
45.2100783704
 20
179.5797227787
 11
45.2100783704
 21
177.7017672193
  0
LINE
  5
237
100
AcDbEntity
  8
0
100
AcDbLine
 62
7
  6
CONTINUOUS
 10
45.5382083999
 20
216.49841779
 11
45.5382083999
 21
210.0591748334
  0
LINE
  5
238
100
AcDbEntity
  8
0
100
AcDbLine
 62
7
  6
CONTINUOUS
 10
45.9783692867
 20
209.7864827554
 11
45.9783692867
 21
209.0785349633
  0
LINE
  5
239
100
AcDbEntity
  8
0
100
AcDbLine
 62
7
  6
CONTINUOUS
 10
46.2100200798
 20
213.0561485445
 11
46.2100200798
 21
209.0503199742
  0
LINE
  5
23A
100
AcDbEntity
  8
0
100
AcDbLine
 62
7
  6
CONTINUOUS
 10
46.7529839539
 20
175.987147212
 11
46.7529839539
 21
172.2312360932
  0
LINE
  5
23B
100
AcDbEntity
  8
0
100
AcDbLine
 62
7
  6
CONTINUOUS
 10
45.3116597311
 20
179.8945295875
 11
45.7223895644
 21
193.2387551928
  0
LINE
  5
23C
100
AcDbEntity
  8
0
100
AcDbLine
 62
7
  6
CONTINUOUS
 10
46.1466518667
 20
193.4837016851
 11
45.7452631915
 21
180.4429615105
  0
LINE
  5
23D
100
AcDbEntity
  8
0
100
AcDbLine
 62
7
  6
CONTINUOUS
 10
26.2469505304
 20
149.8772915328
 11
26.151319553
 21
150.0245450478
  0
LINE
  5
23E
100
AcDbEntity
  8
0
100
AcDbLine
 62
7
  6
CONTINUOUS
 10
31.1010876291
 20
147.1668597661
 11
31.1967186064
 21
147.0196062512
  0
LINE
  5
23F
100
AcDbEntity
  8
0
100
AcDbLine
 62
7
  6
CONTINUOUS
 10
49.1755198443
 20
180.4221579433
 11
48.7734939375
 21
193.4837079993
  0
LINE
  5
240
100
AcDbEntity
  8
0
100
AcDbLine
 62
7
  6
CONTINUOUS
 10
49.1977597726
 20
193.2387635465
 11
49.6099104073
 21
179.8482679216
  0
LINE
  5
241
100
AcDbEntity
  8
0
100
AcDbLine
 62
7
  6
CONTINUOUS
 10
48.0257826367
 20
171.3331057534
 11
48.0257826367
 21
148.8792892823
  0
LINE
  5
242
100
AcDbEntity
  8
0
100
AcDbLine
 62
7
  6
CONTINUOUS
 10
48.0382083999
 20
216.49841779
 11
48.0382083999
 21
213.6687333246
  0
LINE
  5
243
100
AcDbEntity
  8
0
100
AcDbLine
 62
7
  6
CONTINUOUS
 10
48.1671975162
 20
175.9871506113
 11
48.1671975162
 21
172.2312394925
  0
LINE
  5
244
100
AcDbEntity
  8
0
100
AcDbLine
 62
7
  6
CONTINUOUS
 10
48.7100200798
 20
213.0561485445
 11
48.7100200798
 21
209.0626979098
  0
LINE
  5
245
100
AcDbEntity
  8
0
100
AcDbLine
 62
7
  6
CONTINUOUS
 10
49.7100783704
 20
179.5797227787
 11
49.7100783704
 21
177.7017672193
  0
LINE
  5
246
100
AcDbEntity
  8
0
100
AcDbLine
 62
7
  6
CONTINUOUS
 10
50.1522336904
 20
210.1230594832
 11
50.1522336904
 21
209.1774509296
  0
LINE
  5
247
100
AcDbEntity
  8
0
100
AcDbLine
 62
7
  6
CONTINUOUS
 10
50.4526431031
 20
215.5056134677
 11
50.4526431031
 21
210.3720321342
  0
LINE
  5
248
100
AcDbEntity
  8
0
100
AcDbLine
 62
7
  6
CONTINUOUS
 10
51.1522336904
 20
210.1230594832
 11
51.1522336904
 21
209.4597503319
  0
LINE
  5
249
100
AcDbEntity
  8
0
100
AcDbLine
 62
7
  6
CONTINUOUS
 10
52.1722961361
 20
212.6683120983
 11
52.1722961361
 21
209.7477133506
  0
LINE
  5
24A
100
AcDbEntity
  8
0
100
AcDbLine
 62
7
  6
CONTINUOUS
 10
52.9526431031
 20
215.5056134677
 11
52.9526431031
 21
213.3159533598
  0
LINE
  5
24B
100
AcDbEntity
  8
0
100
AcDbLine
 62
7
  6
CONTINUOUS
 10
52.4805309232
 20
178.4774399499
 11
52.9348787324
 21
193.2387725295
  0
LINE
  5
24C
100
AcDbEntity
  8
0
100
AcDbLine
 62
7
  6
CONTINUOUS
 10
48.4638636098
 20
153.8715172211
 11
50.193050208
 21
164.1167492638
  0
LINE
  5
24D
100
AcDbEntity
  8
0
100
AcDbLine
 62
7
  6
CONTINUOUS
 10
48.1671975162
 20
175.9871506113
 11
64.4305857721
 21
185.3767661504
  0
LINE
  5
24E
100
AcDbEntity
  8
0
100
AcDbLine
 62
7
  6
CONTINUOUS
 10
69.0974710978
 20
186.7647736985
 11
85.3608593537
 21
196.1543892376
  0
LINE
  5
24F
100
AcDbEntity
  8
0
100
AcDbLine
 62
7
  6
CONTINUOUS
 10
85.3608593537
 20
193.7048819862
 11
69.0974710978
 21
184.3152664471
  0
LINE
  5
250
100
AcDbEntity
  8
0
100
AcDbLine
 62
7
  6
CONTINUOUS
 10
64.4305857721
 20
181.6208550316
 11
48.1671975162
 21
172.2312394925
  0
LINE
  5
251
100
AcDbEntity
  8
0
100
AcDbLine
 62
7
  6
CONTINUOUS
 10
50.193050208
 20
136.1443593941
 11
50.2886811854
 21
135.9971058792
  0
LINE
  5
252
100
AcDbEntity
  8
0
100
AcDbLine
 62
7
  6
CONTINUOUS
 10
48.4638636098
 20
144.3929106595
 11
50.193050208
 21
136.1443593941
  0
LINE
  5
253
100
AcDbEntity
  8
0
100
AcDbLine
 62
7
  6
CONTINUOUS
 10
54.6722961361
 20
212.6683120983
 11
54.6722961361
 21
210.9628248733
  0
LINE
  5
254
100
AcDbEntity
  8
0
100
AcDbLine
 62
7
  6
CONTINUOUS
 10
55.0799469605
 20
171.1386521171
 11
55.0799469605
 21
172.6233953996
  0
LINE
  5
255
100
AcDbEntity
  8
0
100
AcDbLine
 62
7
  6
CONTINUOUS
 10
58.4600200798
 20
214.2809021702
 11
58.4600200798
 21
211.0148925017
  0
LINE
  5
256
100
AcDbEntity
  8
0
100
AcDbLine
 62
7
  6
CONTINUOUS
 10
58.9600200798
 20
211.0148925017
 11
58.9600200798
 21
202.4416171218
  0
LINE
  5
257
100
AcDbEntity
  8
0
100
AcDbLine
 62
7
  6
CONTINUOUS
 10
59.2100200798
 20
202.4416171218
 11
59.2100200798
 21
200.8086122875
  0
LINE
  5
258
100
AcDbEntity
  8
0
100
AcDbLine
 62
7
  6
CONTINUOUS
 10
60.1016468087
 20
200.083451896
 11
60.1473078436
 21
201.5669359318
  0
LINE
  5
259
100
AcDbEntity
  8
0
100
AcDbLine
 62
7
  6
CONTINUOUS
 10
60.5715701459
 20
201.8118824241
 11
60.5108901461
 21
199.8404463589
  0
LINE
  5
25A
100
AcDbEntity
  8
0
100
AcDbLine
 62
7
  6
CONTINUOUS
 10
60.5716001743
 20
197.6478093913
 11
60.1172523651
 21
182.8864768118
  0
LINE
  5
25B
100
AcDbEntity
  8
0
100
AcDbLine
 62
7
  6
CONTINUOUS
 10
61.1856348166
 20
199.1340249308
 11
61.344739338
 21
202.853004184
  0
LINE
  5
25C
100
AcDbEntity
  8
0
100
AcDbLine
 62
7
  6
CONTINUOUS
 10
60.702423118
 20
183.6744466509
 11
61.3447693665
 21
198.6889311512
  0
LINE
  5
25D
100
AcDbEntity
  8
0
100
AcDbLine
 62
7
  6
CONTINUOUS
 10
86.9164936835
 20
193.7865342163
 11
48.0257826367
 21
171.3331057534
  0
LINE
  5
25E
100
AcDbEntity
  8
0
100
AcDbLine
 62
7
  6
CONTINUOUS
 10
147.7031508984
 20
71.2694689022
 11
141.339163372
 21
74.9436356929
  0
LINE
  5
25F
100
AcDbEntity
  8
0
100
AcDbLine
 62
7
  6
CONTINUOUS
 10
62.3734613493
 20
211.6518010664
 11
62.3734613493
 21
210.7573480134
  0
LINE
  5
260
100
AcDbEntity
  8
0
100
AcDbLine
 62
7
  6
CONTINUOUS
 10
63.3734613493
 20
211.6518010664
 11
63.3734613493
 21
210.3317060424
  0
LINE
  5
261
100
AcDbEntity
  8
0
100
AcDbLine
 62
7
  6
CONTINUOUS
 10
63.7107343472
 20
187.6629570253
 11
63.7107343472
 21
185.7850014659
  0
LINE
  5
262
100
AcDbEntity
  8
0
100
AcDbLine
 62
7
  6
CONTINUOUS
 10
64.4305857721
 20
181.6208550316
 11
64.4305798842
 21
186.1932510588
  0
LINE
  5
263
100
AcDbEntity
  8
0
100
AcDbLine
 62
7
  6
CONTINUOUS
 10
64.5553055321
 20
213.5118810867
 11
64.5553055321
 21
209.9622872505
  0
LINE
  5
264
100
AcDbEntity
  8
0
100
AcDbLine
 62
7
  6
CONTINUOUS
 10
65.5553055321
 20
213.5118810867
 11
65.5553055321
 21
209.7610296485
  0
LINE
  5
265
100
AcDbEntity
  8
0
100
AcDbLine
 62
7
  6
CONTINUOUS
 10
66.1403519519
 20
190.3573458659
 11
66.1403519519
 21
188.4793903065
  0
LINE
  5
266
100
AcDbEntity
  8
0
100
AcDbLine
 62
7
  6
CONTINUOUS
 10
66.3700204114
 20
209.9736582685
 11
66.3700204114
 21
209.5970620857
  0
LINE
  5
267
100
AcDbEntity
  8
0
100
AcDbLine
 62
7
  6
CONTINUOUS
 10
66.8915885048
 20
194.2195481414
 11
66.8915885048
 21
191.3909628365
  0
LINE
  5
268
100
AcDbEntity
  8
0
100
AcDbLine
 62
7
  6
CONTINUOUS
 10
67.3338240681
 20
212.0503714229
 11
67.3338240681
 21
210.0613105255
  0
LINE
  5
269
100
AcDbEntity
  8
0
100
AcDbLine
 62
7
  6
CONTINUOUS
 10
67.3700204114
 20
209.9736582685
 11
67.3700204114
 21
209.5280872643
  0
LINE
  5
26A
100
AcDbEntity
  8
0
100
AcDbLine
 62
7
  6
CONTINUOUS
 10
67.6832575354
 20
186.7647702992
 11
67.6832575354
 21
184.3152630478
  0
LINE
  5
26B
100
AcDbEntity
  8
0
100
AcDbLine
 62
7
  6
CONTINUOUS
 10
68.2976277249
 20
214.1270845773
 11
68.2976277249
 21
212.1380236799
  0
LINE
  5
26C
100
AcDbEntity
  8
0
100
AcDbLine
 62
7
  6
CONTINUOUS
 10
68.3338240681
 20
212.0503714229
 11
68.3338240681
 21
209.5079539354
  0
LINE
  5
26D
100
AcDbEntity
  8
0
100
AcDbLine
 62
7
  6
CONTINUOUS
 10
50.538637018
 20
164.6383547686
 11
51.7212037337
 21
165.3211059048
  0
LINE
  5
26E
100
AcDbEntity
  8
0
100
AcDbLine
 62
7
  6
CONTINUOUS
 10
146.6675892947
 20
73.5583996413
 11
140.3036017684
 21
77.232566432
  0
LINE
  5
26F
100
AcDbEntity
  8
0
100
AcDbLine
 62
7
  6
CONTINUOUS
 10
31.1417724659
 20
146.9318744658
 11
140.3036017684
 21
83.9086887078
  0
LINE
  5
270
100
AcDbEntity
  8
0
100
AcDbLine
 62
7
  6
CONTINUOUS
 10
26.2469106048
 20
149.8772224943
 11
140.3036017684
 21
84.0280508554
  0
LINE
  5
271
100
AcDbEntity
  8
0
100
AcDbLine
 62
7
  6
CONTINUOUS
 10
140.3036017684
 20
84.120185138
 11
26.151319553
 21
150.0245450478
  0
LINE
  5
272
100
AcDbEntity
  8
0
100
AcDbLine
 62
7
  6
CONTINUOUS
 10
69.0974710978
 20
186.7647736985
 11
69.0974710978
 21
184.3152664471
  0
LINE
  5
273
100
AcDbEntity
  8
0
100
AcDbLine
 62
7
  6
CONTINUOUS
 10
69.2976277249
 20
214.1270845773
 11
69.2976277249
 21
209.4878206064
  0
LINE
  5
274
100
AcDbEntity
  8
0
100
AcDbLine
 62
7
  6
CONTINUOUS
 10
69.8890937594
 20
194.2059591337
 11
69.8890937594
 21
191.3532726775
  0
LINE
  5
275
100
AcDbEntity
  8
0
100
AcDbLine
 62
7
  6
CONTINUOUS
 10
69.9670365047
 20
210.5301199065
 11
69.9670365047
 21
209.5623468322
  0
LINE
  5
276
100
AcDbEntity
  8
0
100
AcDbLine
 62
7
  6
CONTINUOUS
 10
70.6403519519
 20
190.3573458659
 11
70.6403519519
 21
188.4793903065
  0
LINE
  5
277
100
AcDbEntity
  8
0
100
AcDbLine
 62
7
  6
CONTINUOUS
 10
70.9308401614
 20
212.606833061
 11
70.9308401614
 21
210.6177721635
  0
LINE
  5
278
100
AcDbEntity
  8
0
100
AcDbLine
 62
7
  6
CONTINUOUS
 10
70.9670365047
 20
210.5301199065
 11
70.9670365047
 21
209.7176228075
  0
LINE
  5
279
100
AcDbEntity
  8
0
100
AcDbLine
 62
7
  6
CONTINUOUS
 10
71.9308401614
 20
212.606833061
 11
71.9308401614
 21
209.8672783604
  0
LINE
  5
27A
100
AcDbEntity
  8
0
100
AcDbLine
 62
7
  6
CONTINUOUS
 10
73.5485916091
 20
211.188604482
 11
73.5485916091
 21
210.3999004959
  0
LINE
  5
27B
100
AcDbEntity
  8
0
100
AcDbLine
 62
7
  6
CONTINUOUS
 10
74.5485916091
 20
211.188604482
 11
74.5485916091
 21
210.7631901871
  0
LINE
  5
27C
100
AcDbEntity
  8
0
100
AcDbLine
 62
7
  6
CONTINUOUS
 10
24.5889501582
 20
155.15220911
 11
25.1434977322
 21
154.8320481619
  0
LINE
  5
27D
100
AcDbEntity
  8
0
100
AcDbLine
 62
7
  6
CONTINUOUS
 10
24.4221329549
 20
158.2730963132
 11
140.3036017684
 21
91.3704126405
  0
LINE
  5
27E
100
AcDbEntity
  8
0
100
AcDbLine
 62
7
  6
CONTINUOUS
 10
79.6402936614
 20
214.933895285
 11
79.6402936614
 21
212.4843880336
  0
LINE
  5
27F
100
AcDbEntity
  8
0
100
AcDbLine
 62
7
  6
CONTINUOUS
 10
79.7922181855
 20
199.5612081525
 11
79.7922181855
 21
195.6973254439
  0
LINE
  5
280
100
AcDbEntity
  8
0
100
AcDbLine
 62
7
  6
CONTINUOUS
 10
79.8902936614
 20
212.4843880336
 11
79.8902936614
 21
204.3193638623
  0
LINE
  5
281
100
AcDbEntity
  8
0
100
AcDbLine
 62
7
  6
CONTINUOUS
 10
80.1402936614
 20
204.3193638623
 11
80.1402936614
 21
200.8900537103
  0
LINE
  5
282
100
AcDbEntity
  8
0
100
AcDbLine
 62
7
  6
CONTINUOUS
 10
80.1410079288
 20
198.4405801125
 11
80.1410079288
 21
196.5626245531
  0
LINE
  5
283
100
AcDbEntity
  8
0
100
AcDbLine
 62
7
  6
CONTINUOUS
 10
156.1131144884
 20
85.8358122244
 11
157.5273339387
 21
85.0193307154
  0
LINE
  5
284
100
AcDbEntity
  8
0
100
AcDbLine
 62
7
  6
CONTINUOUS
 10
48.0257826367
 20
148.8792892823
 11
23.9840519817
 21
162.759474936
  0
LINE
  5
285
100
AcDbEntity
  8
0
100
AcDbLine
 62
7
  6
CONTINUOUS
 10
140.3036017684
 20
100.8490192022
 11
48.4638636098
 21
153.8715172211
  0
LINE
  5
286
100
AcDbEntity
  8
0
100
AcDbLine
 62
7
  6
CONTINUOUS
 10
84.6410079288
 20
198.4405801125
 11
84.6410079288
 21
196.5626245531
  0
LINE
  5
287
100
AcDbEntity
  8
0
100
AcDbLine
 62
7
  6
CONTINUOUS
 10
85.3608593537
 20
193.7048819862
 11
85.3608534657
 21
196.970874146
  0
LINE
  5
288
100
AcDbEntity
  8
0
100
AcDbLine
 62
7
  6
CONTINUOUS
 10
86.9164936835
 20
183.0278998549
 11
86.9164936835
 21
193.7865342163
  0
LINE
  5
289
100
AcDbEntity
  8
0
100
AcDbLine
 62
7
  6
CONTINUOUS
 10
50.193050208
 20
164.1167492638
 11
140.3036017684
 21
112.0925750077
  0
LINE
  5
28A
100
AcDbEntity
  8
0
100
AcDbLine
 62
7
  6
CONTINUOUS
 10
140.3036017684
 20
112.8137006365
 11
50.538637018
 21
164.6383547686
  0
LINE
  5
28B
100
AcDbEntity
  8
0
100
AcDbLine
 62
7
  6
CONTINUOUS
 10
177.6516226343
 20
91.2985871874
 11
163.8629829939
 21
99.2592819006
  0
LINE
  5
28C
100
AcDbEntity
  8
0
100
AcDbLine
 62
7
  6
CONTINUOUS
 10
140.3036017684
 20
113.9751752028
 11
146.6675892947
 21
110.3010084121
  0
LINE
  5
28D
100
AcDbEntity
  8
0
100
AcDbLine
 62
7
  6
CONTINUOUS
 10
51.7212037337
 20
165.3211059048
 11
140.3329431574
 21
114.1622516631
  0
LINE
  5
28E
100
AcDbEntity
  8
0
100
AcDbLine
 62
7
  6
CONTINUOUS
 10
48.0257826367
 20
171.3331057534
 11
23.9840519817
 21
185.2132914071
  0
LINE
  5
28F
100
AcDbEntity
  8
0
100
AcDbLine
 62
7
  6
CONTINUOUS
 10
46.7529839539
 20
172.2312360932
 11
30.4894602755
 21
181.6207734472
  0
LINE
  5
290
100
AcDbEntity
  8
0
100
AcDbLine
 62
7
  6
CONTINUOUS
 10
143.6916229051
 20
119.9798345242
 11
55.0799469605
 21
171.1386521171
  0
LINE
  5
291
100
AcDbEntity
  8
0
100
AcDbLine
 62
7
  6
CONTINUOUS
 10
30.4894602755
 20
185.3766845659
 11
46.7529839539
 21
175.987147212
  0
LINE
  5
292
100
AcDbEntity
  8
0
100
AcDbLine
 62
7
  6
CONTINUOUS
 10
150.2031084808
 20
116.4247412671
 11
143.8391209545
 21
120.0989080578
  0
LINE
  5
293
100
AcDbEntity
  8
0
100
AcDbLine
 62
7
  6
CONTINUOUS
 10
182.1515462827
 20
99.0928599026
 11
168.3629066423
 21
107.0535546158
  0
LINE
  5
294
100
AcDbEntity
  8
0
100
AcDbLine
 62
7
  6
CONTINUOUS
 10
55.0799469605
 20
172.6233953996
 11
144.9480941476
 21
120.7391702076
  0
LINE
  5
295
100
AcDbEntity
  8
0
100
AcDbLine
 62
7
  6
CONTINUOUS
 10
145.3863671212
 20
120.9922057164
 11
55.2294710947
 21
173.0431363572
  0
LINE
  5
296
100
AcDbEntity
  8
0
100
AcDbLine
 62
7
  6
CONTINUOUS
 10
151.2710801099
 20
124.3897260641
 11
58.9932609782
 21
177.665144529
  0
LINE
  5
297
100
AcDbEntity
  8
0
100
AcDbLine
 62
7
  6
CONTINUOUS
 10
33.8530998236
 20
192.1954807155
 11
32.8440453982
 21
192.7780453802
  0
LINE
  5
298
100
AcDbEntity
  8
0
100
AcDbLine
 62
7
  6
CONTINUOUS
 10
34.3484855729
 20
197.6477463587
 11
41.9852706045
 21
193.2387462099
  0
LINE
  5
299
100
AcDbEntity
  8
0
100
AcDbLine
 62
7
  6
CONTINUOUS
 10
34.3484555445
 20
201.8118193915
 11
34.7727213796
 21
201.5668749388
  0
LINE
  5
29A
100
AcDbEntity
  8
0
100
AcDbLine
 62
7
  6
CONTINUOUS
 10
48.7734939375
 20
193.4837079993
 11
49.1977597726
 21
193.2387635465
  0
LINE
  5
29B
100
AcDbEntity
  8
0
100
AcDbLine
 62
7
  6
CONTINUOUS
 10
176.1127751478
 20
120.4770242919
 11
177.5269945981
 21
119.6605427829
  0
LINE
  5
29C
100
AcDbEntity
  8
0
100
AcDbLine
 62
7
  6
CONTINUOUS
 10
67.6832575354
 20
184.3152630478
 11
63.7107343472
 21
186.6088446713
  0
LINE
  5
29D
100
AcDbEntity
  8
0
100
AcDbLine
 62
7
  6
CONTINUOUS
 10
60.9997129072
 20
190.6234292949
 11
67.6832575354
 21
186.7647702992
  0
LINE
  5
29E
100
AcDbEntity
  8
0
100
AcDbLine
 62
7
  6
CONTINUOUS
 10
75.949015342
 20
187.4544954407
 11
168.2268344737
 21
134.1790769758
  0
LINE
  5
29F
100
AcDbEntity
  8
0
100
AcDbLine
 62
7
  6
CONTINUOUS
 10
169.869701252
 20
135.1275808907
 11
79.7128052255
 21
187.1785115315
  0
LINE
  5
2A0
100
AcDbEntity
  8
0
100
AcDbLine
 62
7
  6
CONTINUOUS
 10
79.7587731993
 20
187.1603182154
 11
169.8769289484
 21
135.1317537782
  0
LINE
  5
2A1
100
AcDbEntity
  8
0
100
AcDbLine
 62
7
  6
CONTINUOUS
 10
48.1671975162
 20
172.2312394925
 11
46.7529839539
 21
172.2312360932
  0
LINE
  5
2A2
100
AcDbEntity
  8
0
100
AcDbLine
 62
7
  6
CONTINUOUS
 10
46.7529839539
 20
175.987147212
 11
48.1671975162
 21
175.9871506113
  0
LINE
  5
2A3
100
AcDbEntity
  8
0
100
AcDbLine
 62
7
  6
CONTINUOUS
 10
79.7128052255
 20
187.1785115315
 11
79.7587188753
 21
187.1602238627
  0
LINE
  5
2A4
100
AcDbEntity
  8
0
100
AcDbLine
 62
7
  6
CONTINUOUS
 10
60.5715846152
 20
199.8054051836
 11
60.1473187801
 21
200.0503496363
  0
LINE
  5
2A5
100
AcDbEntity
  8
0
100
AcDbLine
 62
7
  6
CONTINUOUS
 10
60.5715545868
 20
203.9694782164
 11
58.9600200798
 21
204.8998770494
  0
LINE
  5
2A6
100
AcDbEntity
  8
0
100
AcDbLine
 62
7
  6
CONTINUOUS
 10
175.6587936291
 20
138.469894982
 11
182.0227811554
 21
134.7957281914
  0
LINE
  5
2A7
100
AcDbEntity
  8
0
100
AcDbLine
 62
7
  6
CONTINUOUS
 10
184.5227387378
 20
135.0433676142
 11
178.1587512115
 21
138.7175344048
  0
LINE
  5
2A8
100
AcDbEntity
  8
0
100
AcDbLine
 62
7
  6
CONTINUOUS
 10
140.3036017684
 20
77.232566432
 11
140.3036017684
 21
113.9751752028
  0
LINE
  5
2A9
100
AcDbEntity
  8
0
100
AcDbLine
 62
7
  6
CONTINUOUS
 10
86.9164936835
 20
193.7865342163
 11
85.3608593537
 21
194.6846597971
  0
LINE
  5
2AA
100
AcDbEntity
  8
0
100
AcDbLine
 62
7
  6
CONTINUOUS
 10
85.3608534657
 20
196.970874146
 11
84.6410079288
 21
197.3864677585
  0
LINE
  5
2AB
100
AcDbEntity
  8
0
100
AcDbLine
 62
7
  6
CONTINUOUS
 10
80.9658572085
 20
199.5082690146
 11
79.9853974657
 21
200.0743249051
  0
LINE
  5
2AC
100
AcDbEntity
  8
0
100
AcDbLine
 62
7
  6
CONTINUOUS
 10
146.6675892947
 20
110.3010084121
 11
146.6675892947
 21
73.5583996413
  0
LINE
  5
2AD
100
AcDbEntity
  8
0
100
AcDbLine
 62
7
  6
CONTINUOUS
 10
143.8391209545
 20
120.0989080578
 11
175.6587936291
 21
138.469894982
  0
LINE
  5
2AE
100
AcDbEntity
  8
0
100
AcDbLine
 62
7
  6
CONTINUOUS
 10
69.0974710978
 20
184.3152664471
 11
67.6832575354
 21
184.3152630478
  0
LINE
  5
2AF
100
AcDbEntity
  8
0
100
AcDbLine
 62
7
  6
CONTINUOUS
 10
67.6832575354
 20
186.7647702992
 11
69.0974710978
 21
186.7647736985
  0
LINE
  5
2B0
100
AcDbEntity
  8
0
100
AcDbLine
 62
7
  6
CONTINUOUS
 10
182.0227811554
 20
134.7957281914
 11
150.2031084808
 21
116.4247412671
  0
LINE
  5
2B1
100
AcDbEntity
  8
0
100
AcDbLine
 62
7
  6
CONTINUOUS
 10
180.255139321
 20
97.1553345732
 11
180.9237332756
 21
97.3989161959
  0
LINE
  5
2B2
100
AcDbEntity
  8
0
100
AcDbLine
 62
7
  6
CONTINUOUS
 10
183.0835546698
 20
96.6246069791
 11
183.0835517258
 21
97.0328528327
  0
LINE
  5
2B3
100
AcDbEntity
  8
0
100
AcDbLine
 62
7
  6
CONTINUOUS
 10
185.5583003415
 20
96.0118281042
 11
185.5583003415
 21
132.7544368751
  0
LINE
  5
2B4
100
AcDbEntity
  8
0
100
AcDbLine
 62
7
  6
CONTINUOUS
 10
180.255139321
 20
91.7255934993
 11
179.9015844585
 21
91.521462668
  0
LINE
  5
2B5
100
AcDbEntity
  8
0
100
AcDbLine
 62
7
  6
CONTINUOUS
 10
150.2031084808
 20
71.517108325
 11
182.0227811554
 21
89.8880952492
  0
ARC
  5
2B6
100
AcDbEntity
  8
0
100
AcDbCircle
 62
7
  6
CONTINUOUS
 10
47.3389408228
 20
222.4945694143
 40
17.8237073084
100
AcDbArc
 50
259.9026294603
 51
262.3172108646
  0
ARC
  5
2B7
100
AcDbEntity
  8
0
100
AcDbCircle
 62
7
  6
CONTINUOUS
 10
68.4055495021
 20
193.6517732912
 40
16.1519153496
100
AcDbArc
 50
84.4004971241
 51
86.8234843354
  0
ARC
  5
2B8
100
AcDbEntity
  8
0
100
AcDbCircle
 62
7
  6
CONTINUOUS
 10
68.3215243862
 20
194.1469437775
 40
15.6538292468
100
AcDbArc
 50
97.2380107725
 51
97.5174862833
  0
ARC
  5
2B9
100
AcDbEntity
  8
0
100
AcDbCircle
 62
7
  6
CONTINUOUS
 10
46.5647485793
 20
199.9530114333
 40
11.8009489856
100
AcDbArc
 50
108.4612473997
 51
111.3044510762
  0
ARC
  5
2BA
100
AcDbEntity
  8
0
100
AcDbCircle
 62
7
  6
CONTINUOUS
 10
171.791527543
 20
113.0569020243
 40
6.0886879195
100
AcDbArc
 50
44.5022397945
 51
53.8756448313
  0
ARC
  5
2BB
100
AcDbEntity
  8
0
100
AcDbCircle
 62
7
  6
CONTINUOUS
 10
28.3847665069
 20
156.1351704276
 40
4.5103209743
100
AcDbArc
 50
151.6781798641
 51
152.2462201556
  0
ARC
  5
2BC
100
AcDbEntity
  8
0
100
AcDbCircle
 62
7
  6
CONTINUOUS
 10
67.8705195015
 20
189.7464297898
 40
1.8601335611
100
AcDbArc
 50
119.9884664753
 51
122.2555767242
  0
ARC
  5
2BD
100
AcDbEntity
  8
0
100
AcDbCircle
 62
7
  6
CONTINUOUS
 10
81.8711754784
 20
197.8296640364
 40
1.8601335611
100
AcDbArc
 50
119.9884664753
 51
122.2555767242
  0
ARC
  5
2BE
100
AcDbEntity
  8
0
100
AcDbCircle
 62
7
  6
CONTINUOUS
 10
46.9401866427
 20
178.9689105785
 40
1.8600139631
100
AcDbArc
 50
119.9884842859
 51
122.2550319343
  0
ARC
  5
2BF
100
AcDbEntity
  8
0
100
AcDbCircle
 62
7
  6
CONTINUOUS
 10
32.9394140847
 20
187.0520775182
 40
1.8600139629
100
AcDbArc
 50
119.9884842857
 51
122.2550319344
  0
ARC
  5
2C0
100
AcDbEntity
  8
0
100
AcDbCircle
 62
7
  6
CONTINUOUS
 10
182.7644906813
 20
95.6140892878
 40
0.9562141818
100
AcDbArc
 50
70.4411665445
 51
72.7846550285
  0
ARC
  5
2C1
100
AcDbEntity
  8
0
100
AcDbCircle
 62
7
  6
CONTINUOUS
 10
182.7733988347
 20
95.6383675423
 40
0.93035464
100
AcDbArc
 50
60.0517902674
 51
70.457572365
  0
ARC
  5
2C2
100
AcDbEntity
  8
0
100
AcDbCircle
 62
7
  6
CONTINUOUS
 10
180.9514795242
 20
92.4833816764
 40
0.9263553278
100
AcDbArc
 50
229.6329486322
 51
239.9720679467
  0
ARC
  5
2C3
100
AcDbEntity
  8
0
100
AcDbCircle
 62
7
  6
CONTINUOUS
 10
42.487143081
 20
210.2227879526
 40
0.4926561337
100
AcDbArc
 50
296.5699240123
 51
299.965803071
  0
ARC
  5
2C4
100
AcDbEntity
  8
0
100
AcDbCircle
 62
7
  6
CONTINUOUS
 10
31.2260111067
 20
147.0777490872
 40
0.1684143391
100
AcDbArc
 50
236.8696912706
 51
239.9946846166
  0
SPLINE
  5
2C5
100
AcDbEntity
  8
0
100
AcDbSpline
 62
7
  6
CONTINUOUS
 70
0
 71
3
 72
15
 73
11
 74
0
 42
0.0000001
 43
0.0000001
 44
0.0000000001
 40
0.0
 40
0.0
 40
0.0
 40
0.0
 40
0.1141570538
 40
0.2373234991
 40
0.3669732838
 40
0.4999978487
 40
0.6330240191
 40
0.7626747485
 40
0.8858461724
 40
1.0
 40
1.0
 40
1.0
 40
1.0
 10
180.255139321
 20
91.7255934993
 30
0.0
 10
180.4487724075
 20
91.8373869466
 30
0.0
 10
180.8312233541
 20
92.1054761098
 30
0.0
 10
181.3574420646
 20
92.5978178698
 30
0.0
 10
181.8423970666
 20
93.1797791265
 30
0.0
 10
182.26780266
 20
93.8295708689
 30
0.0
 10
182.6178320961
 20
94.5228822519
 30
0.0
 10
182.8793551499
 20
95.2338601513
 30
0.0
 10
183.0426014788
 20
95.9357611205
 30
0.0
 10
183.0835484497
 20
96.4010206291
 30
0.0
 10
183.0835464092
 20
96.6246022058
 30
0.0
  0
SPLINE
  5
2C6
100
AcDbEntity
  8
0
100
AcDbSpline
 62
7
  6
CONTINUOUS
 70
0
 71
3
 72
14
 73
10
 74
0
 42
0.0000001
 43
0.0000001
 44
0.0000000001
 40
0.0
 40
0.0
 40
0.0
 40
0.0
 40
0.2892788653
 40
0.4225377757
 40
0.5484922879
 40
0.6678921494
 40
0.7818655142
 40
0.8919499048
 40
1.0
 40
1.0
 40
1.0
 40
1.0
 10
166.1129448181
 20
106.8306791353
 30
0.0
 10
166.3104709417
 20
106.9447202152
 30
0.0
 10
166.6137216904
 20
107.0890519488
 30
0.0
 10
167.029602187
 20
107.2103206171
 30
0.0
 10
167.3247938391
 20
107.2598225612
 30
0.0
 10
167.6088302771
 20
107.2697233017
 30
0.0
 10
167.8790238717
 20
107.2395837845
 30
0.0
 10
168.1324766262
 20
107.1694905885
 30
0.0
 10
168.2891261819
 20
107.0961482457
 30
0.0
 10
168.3629056145
 20
107.0535528356
 30
0.0
  0
SPLINE
  5
2C7
100
AcDbEntity
  8
0
100
AcDbSpline
 62
7
  6
CONTINUOUS
 70
0
 71
3
 72
23
 73
19
 74
0
 42
0.0000001
 43
0.0000001
 44
0.0000000001
 40
0.0
 40
0.0
 40
0.0
 40
0.0
 40
0.0428149553
 40
0.087397446
 40
0.135180855
 40
0.1870905574
 40
0.2435375194
 40
0.3044952232
 40
0.3695932874
 40
0.4382013332
 40
0.5094989826
 40
0.5825347484
 40
0.6562782318
 40
0.7296666151
 40
0.8016537153
 40
0.8712562929
 40
0.937607566
 40
1.0
 40
1.0
 40
1.0
 40
1.0
 10
163.8629840217
 20
99.2592836808
 30
0.0
 10
163.752038358
 20
99.3233364376
 30
0.0
 10
163.5417285148
 20
99.4843071798
 30
0.0
 10
163.2886406467
 20
99.8043400081
 30
0.0
 10
163.0995244128
 20
100.1957261921
 30
0.0
 10
162.9770730007
 20
100.6489083708
 30
0.0
 10
162.9225547468
 20
101.1543315159
 30
0.0
 10
162.9364857823
 20
101.7016064817
 30
0.0
 10
163.0182792962
 20
102.2794418738
 30
0.0
 10
163.1661038028
 20
102.8757635699
 30
0.0
 10
163.3767926935
 20
103.4779900135
 30
0.0
 10
163.6458577021
 20
104.0733360887
 30
0.0
 10
163.9675648157
 20
104.6491138291
 30
0.0
 10
164.3350473334
 20
105.1930446436
 30
0.0
 10
164.7404705098
 20
105.6935163241
 30
0.0
 10
165.1752451116
 20
106.1399219051
 30
0.0
 10
165.6300848808
 20
106.5226928075
 30
0.0
 10
165.9512692318
 20
106.7373362492
 30
0.0
 10
166.1129448181
 20
106.8306791353
 30
0.0
  0
SPLINE
  5
2C8
100
AcDbEntity
  8
0
100
AcDbSpline
 62
7
  6
CONTINUOUS
 70
0
 71
3
 72
14
 73
10
 74
0
 42
0.0000001
 43
0.0000001
 44
0.0000000001
 40
0.0
 40
0.0
 40
0.0
 40
0.0
 40
0.1080482432
 40
0.2181322873
 40
0.3321068339
 40
0.4515071146
 40
0.5774612857
 40
0.7107200697
 40
1.0
 40
1.0
 40
1.0
 40
1.0
 10
177.6516226343
 20
91.2985871875
 30
0.0
 10
177.7254008195
 20
91.2559924711
 30
0.0
 10
177.8820485082
 20
91.1826499606
 30
0.0
 10
178.1355010674
 20
91.1125586467
 30
0.0
 10
178.4056954944
 20
91.0824176286
 30
0.0
 10
178.6897331471
 20
91.0923181067
 30
0.0
 10
178.984924781
 20
91.1418204888
 30
0.0
 10
179.4008060007
 20
91.2630889058
 30
0.0
 10
179.7040575312
 20
91.4074211241
 30
0.0
 10
179.9015844585
 20
91.521462668
 30
0.0
  0
SPLINE
  5
2C9
100
AcDbEntity
  8
0
100
AcDbSpline
 62
7
  6
CONTINUOUS
 70
0
 71
3
 72
16
 73
12
 74
0
 42
0.0000001
 43
0.0000001
 44
0.0000000001
 40
0.0
 40
0.0
 40
0.0
 40
0.0
 40
0.0992140637
 40
0.1542129031
 40
0.2126443474
 40
0.3384381873
 40
0.4731078768
 40
0.6117984981
 40
0.7491623906
 40
0.8800109863
 40
1.0
 40
1.0
 40
1.0
 40
1.0
 10
178.5046733356
 20
93.2088892926
 30
0.0
 10
178.4470146029
 20
93.3498852011
 30
0.0
 10
178.39379915
 20
93.5845629718
 30
0.0
 10
178.3767716674
 20
93.9107829933
 30
0.0
 10
178.3959515129
 20
94.2782648742
 30
0.0
 10
178.4908748332
 20
94.7612197674
 30
0.0
 10
178.7007698713
 20
95.3392044775
 30
0.0
 10
178.9977950763
 20
95.897772285
 30
0.0
 10
179.3653739806
 20
96.405555501
 30
0.0
 10
179.7826972355
 20
96.834074091
 30
0.0
 10
180.0955938542
 20
97.0632215048
 30
0.0
 10
180.255139321
 20
97.1553345732
 30
0.0
  0
SPLINE
  5
2CA
100
AcDbEntity
  8
0
100
AcDbSpline
 62
7
  6
CONTINUOUS
 70
0
 71
3
 72
14
 73
10
 74
0
 42
0.0000001
 43
0.0000001
 44
0.0000000001
 40
0.0
 40
0.0
 40
0.0
 40
0.0
 40
0.2892707544
 40
0.4225372455
 40
0.5484966612
 40
0.6678939361
 40
0.7818682813
 40
0.8919523447
 40
1.0
 40
1.0
 40
1.0
 40
1.0
 10
183.0835517258
 20
97.0328528327
 30
0.0
 10
183.0835500777
 20
97.260935761
 30
0.0
 10
183.0569118865
 20
97.5957323059
 30
0.0
 10
182.9539926932
 20
98.0165445311
 30
0.0
 10
182.8492673404
 20
98.2969566377
 30
0.0
 10
182.7158091735
 20
98.5478941368
 30
0.0
 10
182.5546051447
 20
98.7668213453
 30
0.0
 10
182.3671719443
 20
98.9512752731
 30
0.0
 10
182.2253260247
 20
99.0502642873
 30
0.0
 10
182.1515462826
 20
99.0928599026
 30
0.0
  0
SPLINE
  5
2CB
100
AcDbEntity
  8
0
100
AcDbSpline
 62
7
  6
CONTINUOUS
 70
0
 71
3
 72
26
 73
22
 74
0
 42
0.0000001
 43
0.0000001
 44
0.0000000001
 40
0.0
 40
0.0
 40
0.0
 40
0.0
 40
0.0663907297
 40
0.1378643332
 40
0.2130918311
 40
0.2904311869
 40
0.3680889894
 40
0.4442450931
 40
0.5171909803
 40
0.5854679836
 40
0.6480302662
 40
0.7044453981
 40
0.7551407432
 40
0.778836819
 40
0.8017707638
 40
0.8242992434
 40
0.8468122521
 40
0.869700509
 40
0.8933244418
 40
0.9438182649
 40
1.0
 40
1.0
 40
1.0
 40
1.0
 10
180.255139321
 20
98.2576128363
 30
0.0
 10
180.0698581538
 20
98.1506413431
 30
0.0
 10
179.7035040753
 20
97.8958531836
 30
0.0
 10
179.1968452503
 20
97.4298625264
 30
0.0
 10
178.7266849945
 20
96.87981632
 30
0.0
 10
178.3093357002
 20
96.2646806426
 30
0.0
 10
177.9590903427
 20
95.6056244866
 30
0.0
 10
177.6880484329
 20
94.9253693273
 30
0.0
 10
177.505539595
 20
94.2472572537
 30
0.0
 10
177.4178522798
 20
93.5943283755
 30
0.0
 10
177.4284173958
 20
92.9882084914
 30
0.0
 10
177.5377301302
 20
92.4488552318
 30
0.0
 10
177.7152588991
 20
92.0608261184
 30
0.0
 10
177.9044742646
 20
91.8093708599
 30
0.0
 10
178.0646532987
 20
91.6530805392
 30
0.0
 10
178.2447241202
 20
91.5266516588
 30
0.0
 10
178.4429101785
 20
91.4314199818
 30
0.0
 10
178.6571786692
 20
91.3683139857
 30
0.0
 10
178.9680872259
 20
91.3266675418
 30
0.0
 10
179.3916033558
 20
91.3624796174
 30
0.0
 10
179.7208794699
 20
91.4700676641
 30
0.0
 10
179.8874389692
 20
91.5410282281
 30
0.0
  0
SPLINE
  5
2CC
100
AcDbEntity
  8
0
100
AcDbSpline
 62
7
  6
CONTINUOUS
 70
0
 71
3
 72
9
 73
5
 74
0
 42
0.0000001
 43
0.0000001
 44
0.0000000001
 40
0.0
 40
0.0
 40
0.0
 40
0.0
 40
0.2436931842
 40
1.0
 40
1.0
 40
1.0
 40
1.0
 10
179.8874389692
 20
91.5410282281
 30
0.0
 10
179.9181958174
 20
91.5541317936
 30
0.0
 10
180.0435240677
 20
91.6099634516
 30
0.0
 10
180.1652835369
 20
91.6737155478
 30
0.0
 10
180.255139321
 20
91.7255934993
 30
0.0
  0
SPLINE
  5
2CD
100
AcDbEntity
  8
0
100
AcDbSpline
 62
7
  6
CONTINUOUS
 70
0
 71
3
 72
12
 73
8
 74
0
 42
0.0000001
 43
0.0000001
 44
0.0000000001
 40
0.0
 40
0.0
 40
0.0
 40
0.0
 40
0.2412295734
 40
0.5004021734
 40
0.7592633434
 40
0.8829458261
 40
1.0
 40
1.0
 40
1.0
 40
1.0
 10
178.5613043312
 20
94.8408708698
 30
0.0
 10
178.6926423875
 20
94.9362378334
 30
0.0
 10
178.9393693716
 20
95.1703464091
 30
0.0
 10
179.2348518794
 20
95.5902532623
 30
0.0
 10
179.4153215364
 20
95.9858968506
 30
0.0
 10
179.5064665297
 20
96.3099793672
 30
0.0
 10
179.532669308
 20
96.4703098808
 30
0.0
 10
179.5402287343
 20
96.5487055303
 30
0.0
  0
SPLINE
  5
2CE
100
AcDbEntity
  8
0
100
AcDbSpline
 62
7
  6
CONTINUOUS
 70
0
 71
3
 72
15
 73
11
 74
0
 42
0.0000001
 43
0.0000001
 44
0.0000000001
 40
0.0
 40
0.0
 40
0.0
 40
0.0
 40
0.1514655779
 40
0.2907197849
 40
0.4184589777
 40
0.5368516174
 40
0.6494877996
 40
0.7610745823
 40
0.8765316266
 40
1.0
 40
1.0
 40
1.0
 40
1.0
 10
180.255139321
 20
92.8278717624
 30
0.0
 10
180.1646816652
 20
92.7756463222
 30
0.0
 10
179.9844851837
 20
92.686049456
 30
0.0
 10
179.7084082193
 20
92.5977731188
 30
0.0
 10
179.4431018851
 20
92.5635794658
 30
0.0
 10
179.1944156681
 20
92.585337538
 30
0.0
 10
178.9688045746
 20
92.6639656268
 30
0.0
 10
178.773327352
 20
92.7979786637
 30
0.0
 10
178.6138880991
 20
92.9827799851
 30
0.0
 10
178.5369015303
 20
93.130080006
 30
0.0
 10
178.5046733356
 20
93.2088892926
 30
0.0
  0
SPLINE
  5
2CF
100
AcDbEntity
  8
0
100
AcDbSpline
 62
7
  6
CONTINUOUS
 70
0
 71
3
 72
17
 73
13
 74
0
 42
0.0000001
 43
0.0000001
 44
0.0000000001
 40
0.0
 40
0.0
 40
0.0
 40
0.0
 40
0.0940412457
 40
0.1466939568
 40
0.2032059799
 40
0.2634181606
 40
0.3269693917
 40
0.4618129566
 40
0.6025842167
 40
0.7431341818
 40
0.8773339181
 40
1.0
 40
1.0
 40
1.0
 40
1.0
 10
179.9624574486
 20
96.9329189137
 30
0.0
 10
180.0122717221
 20
96.8561792588
 30
0.0
 10
180.0653685392
 20
96.719912352
 30
0.0
 10
180.0971978768
 20
96.5246600331
 30
0.0
 10
180.1033854199
 20
96.3595214362
 30
0.0
 10
180.0907154279
 20
96.1843069769
 30
0.0
 10
180.0482617458
 20
95.9359875104
 30
0.0
 10
179.9493175651
 20
95.6194806596
 30
0.0
 10
179.7706074117
 20
95.2546237109
 30
0.0
 10
179.5407264036
 20
94.9202025131
 30
0.0
 10
179.2745755046
 20
94.6376781844
 30
0.0
 10
179.0725020833
 20
94.487316643
 30
0.0
 10
178.969151852
 20
94.4276477154
 30
0.0
  0
SPLINE
  5
2D0
100
AcDbEntity
  8
0
100
AcDbSpline
 62
7
  6
CONTINUOUS
 70
0
 71
3
 72
10
 73
6
 74
0
 42
0.0000001
 43
0.0000001
 44
0.0000000001
 40
0.0
 40
0.0
 40
0.0
 40
0.0
 40
0.2786833284
 40
0.5379386828
 40
1.0
 40
1.0
 40
1.0
 40
1.0
 10
178.969151852
 20
94.4276477154
 30
0.0
 10
178.921170129
 20
94.39994562
 30
0.0
 10
178.82538665
 20
94.351490765
 30
0.0
 10
178.6378073799
 20
94.2852526833
 30
0.0
 10
178.4915529609
 20
94.2677478418
 30
0.0
 10
178.400099289
 20
94.2763935055
 30
0.0
  0
SPLINE
  5
2D1
100
AcDbEntity
  8
0
100
AcDbSpline
 62
7
  6
CONTINUOUS
 70
0
 71
3
 72
23
 73
19
 74
0
 42
0.0000001
 43
0.0000001
 44
0.0000000001
 40
0.0
 40
0.0
 40
0.0
 40
0.0
 40
0.062391945
 40
0.1287426496
 40
0.1983452607
 40
0.2703335823
 40
0.3437222874
 40
0.4174657119
 40
0.4905017884
 40
0.5617998499
 40
0.6304082945
 40
0.6955066298
 40
0.7564644329
 40
0.8129113015
 40
0.864820722
 40
0.9126036954
 40
0.9571856569
 40
1.0
 40
1.0
 40
1.0
 40
1.0
 10
179.9015844585
 20
98.8699844221
 30
0.0
 10
179.7399100616
 20
98.7766422228
 30
0.0
 10
179.4187278614
 20
98.5620009476
 30
0.0
 10
178.9638900145
 20
98.1792321248
 30
0.0
 10
178.5291123905
 20
97.7328261682
 30
0.0
 10
178.1236866765
 20
97.2323500222
 30
0.0
 10
177.7562006921
 20
96.688415825
 30
0.0
 10
177.4344932983
 20
96.1126358782
 30
0.0
 10
177.1654274134
 20
95.5172876826
 30
0.0
 10
176.9547380682
 20
94.9150574888
 30
0.0
 10
176.8069136925
 20
94.318732104
 30
0.0
 10
176.7251213317
 20
93.7408939133
 30
0.0
 10
176.7111922373
 20
93.1936177798
 30
0.0
 10
176.7657128248
 20
92.688195446
 30
0.0
 10
176.8881663392
 20
92.2350160908
 30
0.0
 10
177.0772836159
 20
91.8436343645
 30
0.0
 10
177.33037061
 20
91.523606633
 30
0.0
 10
177.5406785209
 20
91.362639089
 30
0.0
 10
177.6516226343
 20
91.2985871875
 30
0.0
  0
SPLINE
  5
2D2
100
AcDbEntity
  8
0
100
AcDbSpline
 62
7
  6
CONTINUOUS
 70
0
 71
3
 72
23
 73
19
 74
0
 42
0.0000001
 43
0.0000001
 44
0.0000000001
 40
0.0
 40
0.0
 40
0.0
 40
0.0
 40
0.0490312358
 40
0.0946369163
 40
0.1391333991
 40
0.185132161
 40
0.2348470693
 40
0.2896610975
 40
0.3500873465
 40
0.4159258285
 40
0.486446765
 40
0.5605458842
 40
0.6368703728
 40
0.7139251841
 40
0.7901701321
 40
0.8641176697
 40
0.9344243062
 40
1.0
 40
1.0
 40
1.0
 40
1.0
 10
180.9237350002
 20
97.3989224047
 30
0.0
 10
181.0202667886
 20
97.4120730119
 30
0.0
 10
181.2104648652
 20
97.4175395504
 30
0.0
 10
181.4824905022
 20
97.3501310047
 30
0.0
 10
181.7170842246
 20
97.2071547346
 30
0.0
 10
181.9036736356
 20
96.9952042307
 30
0.0
 10
182.0370438386
 20
96.7242808754
 30
0.0
 10
182.1154100029
 20
96.4038793339
 30
0.0
 10
182.1380381516
 20
96.0432480191
 30
0.0
 10
182.1049664441
 20
95.6524450711
 30
0.0
 10
182.0173958071
 20
95.2425462469
 30
0.0
 10
181.8779450941
 20
94.8253842693
 30
0.0
 10
181.6907134314
 20
94.4131454805
 30
0.0
 10
181.4612058357
 20
94.0179436938
 30
0.0
 10
181.1961857864
 20
93.651416799
 30
0.0
 10
180.9034034143
 20
93.3243140469
 30
0.0
 10
180.5915094138
 20
93.0462847327
 30
0.0
 10
180.3679797552
 20
92.8930198285
 30
0.0
 10
180.255139321
 20
92.8278717624
 30
0.0
  0
SPLINE
  5
2D3
100
AcDbEntity
  8
0
100
AcDbSpline
 62
7
  6
CONTINUOUS
 70
0
 71
3
 72
9
 73
5
 74
0
 42
0.0000001
 43
0.0000001
 44
0.0000000001
 40
0.0
 40
0.0
 40
0.0
 40
0.0
 40
0.2565185313
 40
1.0
 40
1.0
 40
1.0
 40
1.0
 10
183.0835464092
 20
96.6246022058
 30
0.0
 10
183.0835460879
 20
96.6598091677
 30
0.0
 10
183.0816262454
 20
96.7970465445
 30
0.0
 10
183.0718400537
 20
96.9342135615
 30
0.0
 10
183.059520961
 20
97.0355094512
 30
0.0
  0
SPLINE
  5
2D4
100
AcDbEntity
  8
0
100
AcDbSpline
 62
7
  6
CONTINUOUS
 70
0
 71
3
 72
18
 73
14
 74
0
 42
0.0000001
 43
0.0000001
 44
0.0000000001
 40
0.0
 40
0.0
 40
0.0
 40
0.0
 40
0.1373630304
 40
0.2613592135
 40
0.3194276732
 40
0.3756118539
 40
0.4306914008
 40
0.4855274453
 40
0.5409990325
 40
0.5979383299
 40
0.7187297669
 40
0.8522145253
 40
1.0
 40
1.0
 40
1.0
 40
1.0
 10
183.059520961
 20
97.0355094512
 30
0.0
 10
183.0385621497
 20
97.207846934
 30
0.0
 10
182.9710393769
 20
97.533551951
 30
0.0
 10
182.803229692
 20
97.9055599624
 30
0.0
 10
182.6257061173
 20
98.1499178622
 30
0.0
 10
182.4757173126
 20
98.3036975305
 30
0.0
 10
182.3073159138
 20
98.4304455713
 30
0.0
 10
182.1219601566
 20
98.5289012648
 30
0.0
 10
181.9213854269
 20
98.5982153141
 30
0.0
 10
181.6306425316
 20
98.6521159444
 30
0.0
 10
181.2326206146
 20
98.6397664608
 30
0.0
 10
180.7387665228
 20
98.5065599754
 30
0.0
 10
180.416895561
 20
98.3510022875
 30
0.0
 10
180.255139321
 20
98.2576128363
 30
0.0
  0
SPLINE
  5
2D5
100
AcDbEntity
  8
0
100
AcDbSpline
 62
7
  6
CONTINUOUS
 70
0
 71
3
 72
14
 73
10
 74
0
 42
0.0000001
 43
0.0000001
 44
0.0000000001
 40
0.0
 40
0.0
 40
0.0
 40
0.0
 40
0.1080482432
 40
0.2181322873
 40
0.3321068339
 40
0.4515071146
 40
0.5774612857
 40
0.7107200697
 40
1.0
 40
1.0
 40
1.0
 40
1.0
 10
182.1515462826
 20
99.0928599026
 30
0.0
 10
182.0777680975
 20
99.135454619
 30
0.0
 10
181.9211204087
 20
99.2087971295
 30
0.0
 10
181.6676678496
 20
99.2788884434
 30
0.0
 10
181.3974734226
 20
99.3090294614
 30
0.0
 10
181.1134357699
 20
99.2991289833
 30
0.0
 10
180.8182441359
 20
99.2496266013
 30
0.0
 10
180.4023629162
 20
99.1283581843
 30
0.0
 10
180.0991113857
 20
98.984025966
 30
0.0
 10
179.9015844585
 20
98.8699844221
 30
0.0
  0
SPLINE
  5
2D6
100
AcDbEntity
  8
0
100
AcDbSpline
 62
7
  6
CONTINUOUS
 70
0
 71
3
 72
16
 73
12
 74
0
 42
0.0000001
 43
0.0000001
 44
0.0000000001
 40
0.0
 40
0.0
 40
0.0
 40
0.0
 40
0.0428749215
 40
0.0875218052
 40
0.1869210508
 40
0.3042319763
 40
0.4379526978
 40
0.5823548967
 40
0.7295670544
 40
0.8712583699
 40
1.0
 40
1.0
 40
1.0
 40
1.0
 10
63.3734407886
 20
211.6518010541
 30
0.0
 10
63.373441048
 20
211.6660334564
 30
0.0
 10
63.3696615251
 20
211.6952143329
 30
0.0
 10
63.3465268671
 20
211.7533754141
 30
0.0
 10
63.2880468056
 20
211.8205592493
 30
0.0
 10
63.1876235078
 20
211.8815043426
 30
0.0
 10
63.062295149
 20
211.9234633817
 30
0.0
 10
62.9217879406
 20
211.943171803
 30
0.0
 10
62.7773139941
 20
211.9392023309
 30
0.0
 10
62.6407314674
 20
211.9118613714
 30
0.0
 10
62.5569170042
 20
211.8772893483
 30
0.0
 10
62.5199064867
 20
211.8559214437
 30
0.0
  0
SPLINE
  5
2D7
100
AcDbEntity
  8
0
100
AcDbSpline
 62
7
  6
CONTINUOUS
 70
0
 71
3
 72
16
 73
12
 74
0
 42
0.0000001
 43
0.0000001
 44
0.0000000001
 40
0.0
 40
0.0
 40
0.0
 40
0.0
 40
0.0428749215
 40
0.0875218052
 40
0.1869210508
 40
0.3042319763
 40
0.4379526978
 40
0.5823548967
 40
0.7295670544
 40
0.8712583699
 40
1.0
 40
1.0
 40
1.0
 40
1.0
 10
69.2976071641
 20
214.1270845651
 30
0.0
 10
69.2976074235
 20
214.1413169673
 30
0.0
 10
69.2938279006
 20
214.1704978438
 30
0.0
 10
69.2706932426
 20
214.228658925
 30
0.0
 10
69.2122131812
 20
214.2958427603
 30
0.0
 10
69.1117898833
 20
214.3567878535
 30
0.0
 10
68.9864615245
 20
214.3987468926
 30
0.0
 10
68.8459543162
 20
214.4184553139
 30
0.0
 10
68.7014803696
 20
214.4144858419
 30
0.0
 10
68.5648978429
 20
214.3871448824
 30
0.0
 10
68.4810833797
 20
214.3525728592
 30
0.0
 10
68.4440728623
 20
214.3312049546
 30
0.0
  0
SPLINE
  5
2D8
100
AcDbEntity
  8
0
100
AcDbSpline
 62
7
  6
CONTINUOUS
 70
0
 71
3
 72
23
 73
19
 74
0
 42
0.0000001
 43
0.0000001
 44
0.0000000001
 40
0.0
 40
0.0
 40
0.0
 40
0.0
 40
0.0599469372
 40
0.1233554174
 40
0.1897060305
 40
0.2583650725
 40
0.3286040903
 40
0.3996394502
 40
0.470658221
 40
0.5408486164
 40
0.6094279658
 40
0.6756723562
 40
0.7389483368
 40
0.7987486921
 40
0.8547341265
 40
0.906782358
 40
0.9550442942
 40
1.0
 40
1.0
 40
1.0
 40
1.0
 10
76.34521183
 20
219.526642016
 30
0.0
 10
75.9859866178
 20
219.7340360971
 30
0.0
 10
75.2214400761
 20
220.1178580472
 30
0.0
 10
73.9936945811
 20
220.5873889904
 30
0.0
 10
72.6706272183
 20
220.960559978
 30
0.0
 10
71.2748629556
 20
221.2310490124
 30
0.0
 10
69.8299932076
 20
221.3942889573
 30
0.0
 10
68.3606190652
 20
221.4475194555
 30
0.0
 10
66.8917478313
 20
221.389826788
 30
0.0
 10
65.4483906442
 20
221.2221966221
 30
0.0
 10
64.0550905313
 20
220.9474731171
 30
0.0
 10
62.7354852162
 20
220.5702948082
 30
0.0
 10
61.5118859287
 20
220.0969770706
 30
0.0
 10
60.4048849164
 20
219.5353088861
 30
0.0
 10
59.4330731
 20
218.8943857478
 30
0.0
 10
58.6127840025
 20
218.1840379959
 30
0.0
 10
57.9584939191
 20
217.4154982603
 30
0.0
 10
57.6312989523
 20
216.8542464565
 30
0.0
 10
57.5033915596
 20
216.5706952107
 30
0.0
  0
SPLINE
  5
2D9
100
AcDbEntity
  8
0
100
AcDbSpline
 62
7
  6
CONTINUOUS
 70
0
 71
3
 72
14
 73
10
 74
0
 42
0.0000001
 43
0.0000001
 44
0.0000000001
 40
0.0
 40
0.0
 40
0.0
 40
0.0
 40
0.2892820218
 40
0.4225404569
 40
0.548498011
 40
0.6678964344
 40
0.7818698289
 40
0.8919530438
 40
1.0
 40
1.0
 40
1.0
 40
1.0
 10
61.6728072078
 20
211.0555758232
 30
0.0
 10
61.2557948123
 20
211.2963325954
 30
0.0
 10
60.6717992781
 20
211.6984094798
 30
0.0
 10
60.0110817949
 20
212.3307597708
 30
0.0
 10
59.6089607071
 20
212.8181943952
 30
0.0
 10
59.291054922
 20
213.3270615681
 30
0.0
 10
59.0609297304
 20
213.8528580846
 30
0.0
 10
58.9215558734
 20
214.3902319473
 30
0.0
 10
58.8902957021
 20
214.7540467101
 30
0.0
 10
58.8903040239
 20
214.9338952718
 30
0.0
  0
SPLINE
  5
2DA
100
AcDbEntity
  8
0
100
AcDbSpline
 62
7
  6
CONTINUOUS
 70
0
 71
3
 72
16
 73
12
 74
0
 42
0.0000001
 43
0.0000001
 44
0.0000000001
 40
0.0
 40
0.0
 40
0.0
 40
0.0
 40
0.0428749215
 40
0.0875218052
 40
0.1869210508
 40
0.3042319763
 40
0.4379526978
 40
0.5823548967
 40
0.7295670544
 40
0.8712583699
 40
1.0
 40
1.0
 40
1.0
 40
1.0
 10
68.3338035074
 20
212.0503714106
 30
0.0
 10
68.3338037668
 20
212.0646038129
 30
0.0
 10
68.3300242439
 20
212.0937846894
 30
0.0
 10
68.3068895859
 20
212.1519457706
 30
0.0
 10
68.2484095244
 20
212.2191296058
 30
0.0
 10
68.1479862266
 20
212.2800746991
 30
0.0
 10
68.0226578678
 20
212.3220337382
 30
0.0
 10
67.8821506594
 20
212.3417421595
 30
0.0
 10
67.7376767129
 20
212.3377726875
 30
0.0
 10
67.6010941862
 20
212.310431728
 30
0.0
 10
67.517279723
 20
212.2758597048
 30
0.0
 10
67.4802692055
 20
212.2544918002
 30
0.0
  0
SPLINE
  5
2DB
100
AcDbEntity
  8
0
100
AcDbSpline
 62
7
  6
CONTINUOUS
 70
0
 71
3
 72
16
 73
12
 74
0
 42
0.0000001
 43
0.0000001
 44
0.0000000001
 40
0.0
 40
0.0
 40
0.0
 40
0.0
 40
0.0428749215
 40
0.0875218052
 40
0.1869210508
 40
0.3042319763
 40
0.4379526978
 40
0.5823548967
 40
0.7295670544
 40
0.8712583699
 40
1.0
 40
1.0
 40
1.0
 40
1.0
 10
67.3699998506
 20
209.9736582562
 30
0.0
 10
67.37000011
 20
209.9878906585
 30
0.0
 10
67.3662205871
 20
210.017071535
 30
0.0
 10
67.3430859291
 20
210.0752326162
 30
0.0
 10
67.2846058677
 20
210.1424164514
 30
0.0
 10
67.1841825698
 20
210.2033615446
 30
0.0
 10
67.058854211
 20
210.2453205838
 30
0.0
 10
66.9183470027
 20
210.2650290051
 30
0.0
 10
66.7738730561
 20
210.261059533
 30
0.0
 10
66.6372905294
 20
210.2337185735
 30
0.0
 10
66.5534760662
 20
210.1991465504
 30
0.0
 10
66.5164655488
 20
210.1777786458
 30
0.0
  0
SPLINE
  5
2DC
100
AcDbEntity
  8
0
100
AcDbSpline
 62
7
  6
CONTINUOUS
 70
0
 71
3
 72
16
 73
12
 74
0
 42
0.0000001
 43
0.0000001
 44
0.0000000001
 40
0.0
 40
0.0
 40
0.0
 40
0.0
 40
0.0428749215
 40
0.0875218052
 40
0.1869210508
 40
0.3042319763
 40
0.4379526978
 40
0.5823548967
 40
0.7295670544
 40
0.8712583699
 40
1.0
 40
1.0
 40
1.0
 40
1.0
 10
71.9308196006
 20
212.6068330487
 30
0.0
 10
71.9308198601
 20
212.621065451
 30
0.0
 10
71.9270403371
 20
212.6502463274
 30
0.0
 10
71.9039056791
 20
212.7084074086
 30
0.0
 10
71.8454256177
 20
212.7755912439
 30
0.0
 10
71.7450023198
 20
212.8365363371
 30
0.0
 10
71.6196739611
 20
212.8784953762
 30
0.0
 10
71.4791667527
 20
212.8982037975
 30
0.0
 10
71.3346928061
 20
212.8942343255
 30
0.0
 10
71.1981102795
 20
212.866893366
 30
0.0
 10
71.1142958162
 20
212.8323213429
 30
0.0
 10
71.0772852988
 20
212.8109534382
 30
0.0
  0
SPLINE
  5
2DD
100
AcDbEntity
  8
0
100
AcDbSpline
 62
7
  6
CONTINUOUS
 70
0
 71
3
 72
16
 73
12
 74
0
 42
0.0000001
 43
0.0000001
 44
0.0000000001
 40
0.0
 40
0.0
 40
0.0
 40
0.0
 40
0.0428749215
 40
0.0875218052
 40
0.1869210508
 40
0.3042319763
 40
0.4379526978
 40
0.5823548967
 40
0.7295670544
 40
0.8712583699
 40
1.0
 40
1.0
 40
1.0
 40
1.0
 10
70.9670159439
 20
210.5301198943
 30
0.0
 10
70.9670162033
 20
210.5443522965
 30
0.0
 10
70.9632366804
 20
210.573533173
 30
0.0
 10
70.9401020224
 20
210.6316942542
 30
0.0
 10
70.881621961
 20
210.6988780894
 30
0.0
 10
70.7811986631
 20
210.7598231827
 30
0.0
 10
70.6558703043
 20
210.8017822218
 30
0.0
 10
70.515363096
 20
210.8214906431
 30
0.0
 10
70.3708891494
 20
210.8175211711
 30
0.0
 10
70.2343066227
 20
210.7901802116
 30
0.0
 10
70.1504921595
 20
210.7556081884
 30
0.0
 10
70.1134816421
 20
210.7342402838
 30
0.0
  0
SPLINE
  5
2DE
100
AcDbEntity
  8
0
100
AcDbSpline
 62
7
  6
CONTINUOUS
 70
0
 71
3
 72
16
 73
12
 74
0
 42
0.0000001
 43
0.0000001
 44
0.0000000001
 40
0.0
 40
0.0
 40
0.0
 40
0.0
 40
0.0428749215
 40
0.0875218052
 40
0.1869210508
 40
0.3042319763
 40
0.4379526978
 40
0.5823548967
 40
0.7295670544
 40
0.8712583699
 40
1.0
 40
1.0
 40
1.0
 40
1.0
 10
74.5485710483
 20
211.1886044697
 30
0.0
 10
74.5485713078
 20
211.202836872
 30
0.0
 10
74.5447917848
 20
211.2320177484
 30
0.0
 10
74.5216571268
 20
211.2901788297
 30
0.0
 10
74.4631770654
 20
211.3573626649
 30
0.0
 10
74.3627537675
 20
211.4183077581
 30
0.0
 10
74.2374254088
 20
211.4602667972
 30
0.0
 10
74.0969182004
 20
211.4799752185
 30
0.0
 10
73.9524442538
 20
211.4760057465
 30
0.0
 10
73.8158617272
 20
211.448664787
 30
0.0
 10
73.7320472639
 20
211.4140927639
 30
0.0
 10
73.6950367465
 20
211.3927248592
 30
0.0
  0
SPLINE
  5
2DF
100
AcDbEntity
  8
0
100
AcDbSpline
 62
7
  6
CONTINUOUS
 70
0
 71
3
 72
11
 73
7
 74
0
 42
0.0000001
 43
0.0000001
 44
0.0000000001
 40
0.0
 40
0.0
 40
0.0
 40
0.0
 40
0.2895468475
 40
0.5491384346
 40
0.782278826
 40
1.0
 40
1.0
 40
1.0
 40
1.0
 10
73.6950367465
 20
211.3927248592
 30
0.0
 10
73.6731097025
 20
211.38006535
 30
0.0
 10
73.6333188825
 20
211.3526281793
 30
0.0
 10
73.5857203861
 20
211.3026582186
 30
0.0
 10
73.5556128485
 20
211.2473368254
 30
0.0
 10
73.5486125169
 20
211.2076429025
 30
0.0
 10
73.5486121698
 20
211.1886044943
 30
0.0
  0
SPLINE
  5
2E0
100
AcDbEntity
  8
0
100
AcDbSpline
 62
7
  6
CONTINUOUS
 70
0
 71
3
 72
11
 73
7
 74
0
 42
0.0000001
 43
0.0000001
 44
0.0000000001
 40
0.0
 40
0.0
 40
0.0
 40
0.0
 40
0.2895468475
 40
0.5491384346
 40
0.782278826
 40
1.0
 40
1.0
 40
1.0
 40
1.0
 10
70.1134816421
 20
210.7342402838
 30
0.0
 10
70.0915545981
 20
210.7215807746
 30
0.0
 10
70.0517637781
 20
210.6941436039
 30
0.0
 10
70.0041652816
 20
210.6441736432
 30
0.0
 10
69.974057744
 20
210.5888522499
 30
0.0
 10
69.9670574124
 20
210.5491583271
 30
0.0
 10
69.9670570654
 20
210.5301199188
 30
0.0
  0
SPLINE
  5
2E1
100
AcDbEntity
  8
0
100
AcDbSpline
 62
7
  6
CONTINUOUS
 70
0
 71
3
 72
11
 73
7
 74
0
 42
0.0000001
 43
0.0000001
 44
0.0000000001
 40
0.0
 40
0.0
 40
0.0
 40
0.0
 40
0.2895468475
 40
0.5491384346
 40
0.782278826
 40
1.0
 40
1.0
 40
1.0
 40
1.0
 10
71.0772852988
 20
212.8109534382
 30
0.0
 10
71.0553582548
 20
212.798293929
 30
0.0
 10
71.0155674348
 20
212.7708567583
 30
0.0
 10
70.9679689384
 20
212.7208867976
 30
0.0
 10
70.9378614008
 20
212.6655654044
 30
0.0
 10
70.9308610692
 20
212.6258714815
 30
0.0
 10
70.9308607222
 20
212.6068330732
 30
0.0
  0
SPLINE
  5
2E2
100
AcDbEntity
  8
0
100
AcDbSpline
 62
7
  6
CONTINUOUS
 70
0
 71
3
 72
11
 73
7
 74
0
 42
0.0000001
 43
0.0000001
 44
0.0000000001
 40
0.0
 40
0.0
 40
0.0
 40
0.0
 40
0.2895468475
 40
0.5491384346
 40
0.782278826
 40
1.0
 40
1.0
 40
1.0
 40
1.0
 10
66.5164655488
 20
210.1777786458
 30
0.0
 10
66.4945385048
 20
210.1651191365
 30
0.0
 10
66.4547476848
 20
210.1376819658
 30
0.0
 10
66.4071491883
 20
210.0877120052
 30
0.0
 10
66.3770416507
 20
210.0323906119
 30
0.0
 10
66.3700413192
 20
209.992696689
 30
0.0
 10
66.3700409721
 20
209.9736582808
 30
0.0
  0
SPLINE
  5
2E3
100
AcDbEntity
  8
0
100
AcDbSpline
 62
7
  6
CONTINUOUS
 70
0
 71
3
 72
11
 73
7
 74
0
 42
0.0000001
 43
0.0000001
 44
0.0000000001
 40
0.0
 40
0.0
 40
0.0
 40
0.0
 40
0.2895468475
 40
0.5491384346
 40
0.782278826
 40
1.0
 40
1.0
 40
1.0
 40
1.0
 10
67.4802692055
 20
212.2544918002
 30
0.0
 10
67.4583421615
 20
212.241832291
 30
0.0
 10
67.4185513415
 20
212.2143951203
 30
0.0
 10
67.3709528451
 20
212.1644251596
 30
0.0
 10
67.3408453075
 20
212.1091037663
 30
0.0
 10
67.3338449759
 20
212.0694098434
 30
0.0
 10
67.3338446289
 20
212.0503714352
 30
0.0
  0
SPLINE
  5
2E4
100
AcDbEntity
  8
0
100
AcDbSpline
 62
7
  6
CONTINUOUS
 70
0
 71
3
 72
11
 73
7
 74
0
 42
0.0000001
 43
0.0000001
 44
0.0000000001
 40
0.0
 40
0.0
 40
0.0
 40
0.0
 40
0.2895468475
 40
0.5491384346
 40
0.782278826
 40
1.0
 40
1.0
 40
1.0
 40
1.0
 10
68.4440728623
 20
214.3312049546
 30
0.0
 10
68.4221458183
 20
214.3185454454
 30
0.0
 10
68.3823549983
 20
214.2911082747
 30
0.0
 10
68.3347565018
 20
214.241138314
 30
0.0
 10
68.3046489642
 20
214.1858169208
 30
0.0
 10
68.2976486327
 20
214.1461229979
 30
0.0
 10
68.2976482856
 20
214.1270845896
 30
0.0
  0
SPLINE
  5
2E5
100
AcDbEntity
  8
0
100
AcDbSpline
 62
7
  6
CONTINUOUS
 70
0
 71
3
 72
11
 73
7
 74
0
 42
0.0000001
 43
0.0000001
 44
0.0000000001
 40
0.0
 40
0.0
 40
0.0
 40
0.0
 40
0.2895468475
 40
0.5491384346
 40
0.782278826
 40
1.0
 40
1.0
 40
1.0
 40
1.0
 10
62.5199064867
 20
211.8559214437
 30
0.0
 10
62.4979794427
 20
211.8432619345
 30
0.0
 10
62.4581886227
 20
211.8158247638
 30
0.0
 10
62.4105901263
 20
211.7658548031
 30
0.0
 10
62.3804825887
 20
211.7105334098
 30
0.0
 10
62.3734822571
 20
211.6708394869
 30
0.0
 10
62.3734819101
 20
211.6518010787
 30
0.0
  0
SPLINE
  5
2E6
100
AcDbEntity
  8
0
100
AcDbSpline
 62
7
  6
CONTINUOUS
 70
0
 71
3
 72
11
 73
7
 74
0
 42
0.0000001
 43
0.0000001
 44
0.0000000001
 40
0.0
 40
0.0
 40
0.0
 40
0.0
 40
0.2895468475
 40
0.5491384346
 40
0.782278826
 40
1.0
 40
1.0
 40
1.0
 40
1.0
 10
64.7017506695
 20
213.716001464
 30
0.0
 10
64.6798236255
 20
213.7033419548
 30
0.0
 10
64.6400328055
 20
213.675904784
 30
0.0
 10
64.5924343091
 20
213.6259348234
 30
0.0
 10
64.5623267715
 20
213.5706134301
 30
0.0
 10
64.5553264399
 20
213.5309195072
 30
0.0
 10
64.5553260929
 20
213.511881099
 30
0.0
  0
SPLINE
  5
2E7
100
AcDbEntity
  8
0
100
AcDbSpline
 62
7
  6
CONTINUOUS
 70
0
 71
3
 72
16
 73
12
 74
0
 42
0.0000001
 43
0.0000001
 44
0.0000000001
 40
0.0
 40
0.0
 40
0.0
 40
0.0
 40
0.0428749215
 40
0.0875218052
 40
0.1869210508
 40
0.3042319763
 40
0.4379526978
 40
0.5823548967
 40
0.7295670544
 40
0.8712583699
 40
1.0
 40
1.0
 40
1.0
 40
1.0
 10
65.5552849714
 20
213.5118810744
 30
0.0
 10
65.5552852308
 20
213.5261134767
 30
0.0
 10
65.5515057079
 20
213.5552943532
 30
0.0
 10
65.5283710499
 20
213.6134554344
 30
0.0
 10
65.4698909884
 20
213.6806392696
 30
0.0
 10
65.3694676906
 20
213.7415843628
 30
0.0
 10
65.2441393318
 20
213.783543402
 30
0.0
 10
65.1036321234
 20
213.8032518233
 30
0.0
 10
64.9591581769
 20
213.7992823512
 30
0.0
 10
64.8225756502
 20
213.7719413917
 30
0.0
 10
64.738761187
 20
213.7373693686
 30
0.0
 10
64.7017506695
 20
213.716001464
 30
0.0
  0
SPLINE
  5
2E8
100
AcDbEntity
  8
0
100
AcDbSpline
 62
7
  6
CONTINUOUS
 70
0
 71
3
 72
24
 73
20
 74
0
 42
0.0000001
 43
0.0000001
 44
0.0000000001
 40
0.0
 40
0.0
 40
0.0
 40
0.0
 40
0.0213334573
 40
0.0428952552
 40
0.0874727349
 40
0.1352509487
 40
0.1871553804
 40
0.2435970401
 40
0.3045493879
 40
0.3696420158
 40
0.4382445193
 40
0.5095364656
 40
0.5825663816
 40
0.6563036875
 40
0.7296865599
 40
0.8016687546
 40
0.8712670907
 40
0.9376116876
 40
1.0
 40
1.0
 40
1.0
 40
1.0
 10
77.8902832989
 20
214.9338952982
 30
0.0
 10
77.8902770631
 20
214.79912753
 30
0.0
 10
77.872868263
 20
214.5278178403
 30
0.0
 10
77.7679572094
 20
213.9840413048
 30
0.0
 10
77.5000403861
 20
213.3082607449
 30
0.0
 10
76.9840961257
 20
212.5497950596
 30
0.0
 10
76.2848288534
 20
211.8474639955
 30
0.0
 10
75.4183343918
 20
211.2143405533
 30
0.0
 10
74.4030705167
 20
210.6621340927
 30
0.0
 10
73.2602978488
 20
210.2017524201
 30
0.0
 10
72.0140264348
 20
209.8425748627
 30
0.0
 10
70.6906025999
 20
209.5920969691
 30
0.0
 10
69.3181411407
 20
209.4556089159
 30
0.0
 10
67.925887589
 20
209.4360138228
 30
0.0
 10
66.543535924
 20
209.5337303371
 30
0.0
 10
65.2005783599
 20
209.746671618
 30
0.0
 10
63.9255010003
 20
210.0703611003
 30
0.0
 10
62.7455767418
 20
210.4978795225
 30
0.0
 10
62.014126723
 20
210.8585193673
 30
0.0
 10
61.6728072078
 20
211.0555758232
 30
0.0
  0
SPLINE
  5
2E9
100
AcDbEntity
  8
0
100
AcDbSpline
 62
7
  6
CONTINUOUS
 70
0
 71
3
 72
14
 73
10
 74
0
 42
0.0000001
 43
0.0000001
 44
0.0000000001
 40
0.0
 40
0.0
 40
0.0
 40
0.0
 40
0.1080463396
 40
0.2181299137
 40
0.3321030983
 40
0.4515003041
 40
0.5774603201
 40
0.7107186209
 40
1.0
 40
1.0
 40
1.0
 40
1.0
 10
79.6402779494
 20
214.9338952862
 30
0.0
 10
79.6402784946
 20
215.146872675
 30
0.0
 10
79.6032969657
 20
215.5777080681
 30
0.0
 10
79.4382176972
 20
216.2140662799
 30
0.0
 10
79.1657069853
 20
216.8367170938
 30
0.0
 10
78.7892535737
 20
217.439335972
 30
0.0
 10
78.3130400282
 20
218.0165502237
 30
0.0
 10
77.5306163957
 20
218.7653948777
 30
0.0
 10
76.8390413033
 20
219.2415358866
 30
0.0
 10
76.34521183
 20
219.526642016
 30
0.0
  0
SPLINE
  5
2EA
100
AcDbEntity
  8
0
100
AcDbSpline
 62
7
  6
CONTINUOUS
 70
0
 71
3
 72
9
 73
5
 74
0
 42
0.0000001
 43
0.0000001
 44
0.0000000001
 40
0.0
 40
0.0
 40
0.0
 40
0.0
 40
0.4949330054
 40
1.0
 40
1.0
 40
1.0
 40
1.0
 10
79.890277632
 20
212.4843880349
 30
0.0
 10
79.8902781998
 20
212.7115259265
 30
0.0
 10
79.8490975273
 20
213.1713445481
 30
0.0
 10
79.72838838
 20
213.6166653817
 30
0.0
 10
79.6499200648
 20
213.8347678827
 30
0.0
  0
SPLINE
  5
2EB
100
AcDbEntity
  8
0
100
AcDbSpline
 62
7
  6
CONTINUOUS
 70
0
 71
3
 72
9
 73
5
 74
0
 42
0.0000001
 43
0.0000001
 44
0.0000000001
 40
0.0
 40
0.0
 40
0.0
 40
0.0
 40
0.4951361836
 40
1.0
 40
1.0
 40
1.0
 40
1.0
 10
80.140277309
 20
204.3193638638
 30
0.0
 10
80.1402778726
 20
204.5465533118
 30
0.0
 10
80.0999910687
 20
205.006252025
 30
0.0
 10
79.9817692777
 20
205.4520553797
 30
0.0
 10
79.9048499404
 20
205.6705650607
 30
0.0
  0
SPLINE
  5
2EC
100
AcDbEntity
  8
0
100
AcDbSpline
 62
7
  6
CONTINUOUS
 70
0
 71
3
 72
25
 73
21
 74
0
 42
0.0000001
 43
0.0000001
 44
0.0000000001
 40
0.0
 40
0.0
 40
0.0
 40
0.0
 40
0.0213191555
 40
0.0428441837
 40
0.0647709124
 40
0.0872777717
 40
0.1345620757
 40
0.1856601845
 40
0.2410202953
 40
0.3007008376
 40
0.3644466633
 40
0.4317600746
 40
0.5019610727
 40
0.5742382039
 40
0.6476926309
 40
0.7213783784
 40
0.7943400522
 40
0.8656516476
 40
0.9344529378
 40
1.0
 40
1.0
 40
1.0
 40
1.0
 10
80.1402774501
 20
200.8900537114
 30
0.0
 10
80.1402772638
 20
200.7319076346
 30
0.0
 10
80.1209559532
 20
200.4137549448
 30
0.0
 10
80.0341986033
 20
199.9400921835
 30
0.0
 10
79.8902743496
 20
199.4713014285
 30
0.0
 10
79.6188757507
 20
198.8460901801
 30
0.0
 10
79.1315492844
 20
198.0856270753
 30
0.0
 10
78.3493334428
 20
197.2487597058
 30
0.0
 10
77.3765204335
 20
196.485325429
 30
0.0
 10
76.2320756755
 20
195.8086859512
 30
0.0
 10
74.9376497005
 20
195.2306805634
 30
0.0
 10
73.5177757299
 20
194.7619345419
 30
0.0
 10
71.9994894502
 20
194.4112182236
 30
0.0
 10
70.4118431676
 20
194.1851965545
 30
0.0
 10
68.7853162634
 20
194.0881929087
 30
0.0
 10
67.1511852565
 20
194.1220766626
 30
0.0
 10
65.540901733
 20
194.2861815855
 30
0.0
 10
63.985355784
 20
194.5774014778
 30
0.0
 10
62.5145632954
 20
194.9900688387
 30
0.0
 10
61.5833982672
 20
195.3510017245
 30
0.0
 10
61.1404453154
 20
195.5515315081
 30
0.0
  0
SPLINE
  5
2ED
100
AcDbEntity
  8
0
100
AcDbSpline
 62
7
  6
CONTINUOUS
 70
0
 71
3
 72
11
 73
7
 74
0
 42
0.0000001
 43
0.0000001
 44
0.0000000001
 40
0.0
 40
0.0
 40
0.0
 40
0.0
 40
0.2306873806
 40
0.4695292945
 40
0.7241992333
 40
1.0
 40
1.0
 40
1.0
 40
1.0
 10
66.1403519519
 20
190.3573458659
 30
0.0
 10
66.1403519519
 20
190.4561097308
 30
0.0
 10
66.1752407771
 20
190.6585279083
 30
0.0
 10
66.3230379303
 20
190.9358912177
 30
0.0
 10
66.5505132029
 20
191.1782425561
 30
0.0
 10
66.7385185933
 20
191.3084059183
 30
0.0
 10
66.8407774631
 20
191.3674447519
 30
0.0
  0
SPLINE
  5
2EE
100
AcDbEntity
  8
0
100
AcDbSpline
 62
7
  6
CONTINUOUS
 70
0
 71
3
 72
17
 73
13
 74
0
 42
0.0000001
 43
0.0000001
 44
0.0000000001
 40
0.0
 40
0.0
 40
0.0
 40
0.0
 40
0.1273229158
 40
0.2655260336
 40
0.4084846382
 40
0.5487696417
 40
0.6796631286
 40
0.7971330466
 40
0.8509919496
 40
0.9022105555
 40
0.9515214527
 40
1.0
 40
1.0
 40
1.0
 40
1.0
 10
66.8407774631
 20
191.3674447519
 30
0.0
 10
67.0062793681
 20
191.4629967509
 30
0.0
 10
67.3782590228
 20
191.6168746953
 30
0.0
 10
67.9825655728
 20
191.7368445238
 30
0.0
 10
68.6180379018
 20
191.7521334129
 30
0.0
 10
69.236282515
 20
191.6612937837
 30
0.0
 10
69.7911910269
 20
191.4699633083
 30
0.0
 10
70.1803611494
 20
191.2247691835
 30
0.0
 10
70.41337828
 20
190.9832423419
 30
0.0
 10
70.5412854175
 20
190.7881036786
 30
0.0
 10
70.6219002906
 20
190.5775005484
 30
0.0
 10
70.6403519519
 20
190.4301095599
 30
0.0
 10
70.6403519519
 20
190.3573458659
 30
0.0
  0
SPLINE
  5
2EF
100
AcDbEntity
  8
0
100
AcDbSpline
 62
7
  6
CONTINUOUS
 70
0
 71
3
 72
11
 73
7
 74
0
 42
0.0000001
 43
0.0000001
 44
0.0000000001
 40
0.0
 40
0.0
 40
0.0
 40
0.0
 40
0.2306873806
 40
0.4695292945
 40
0.7241992333
 40
1.0
 40
1.0
 40
1.0
 40
1.0
 10
80.1410079288
 20
198.4405801125
 30
0.0
 10
80.1410079288
 20
198.5393439775
 30
0.0
 10
80.1758967539
 20
198.741762155
 30
0.0
 10
80.3236939071
 20
199.0191254643
 30
0.0
 10
80.5511691797
 20
199.2614768027
 30
0.0
 10
80.7391745702
 20
199.391640165
 30
0.0
 10
80.8414334399
 20
199.4506789985
 30
0.0
  0
SPLINE
  5
2F0
100
AcDbEntity
  8
0
100
AcDbSpline
 62
7
  6
CONTINUOUS
 70
0
 71
3
 72
17
 73
13
 74
0
 42
0.0000001
 43
0.0000001
 44
0.0000000001
 40
0.0
 40
0.0
 40
0.0
 40
0.0
 40
0.1273229158
 40
0.2655260336
 40
0.4084846382
 40
0.5487696417
 40
0.6796631286
 40
0.7971330466
 40
0.8509919496
 40
0.9022105555
 40
0.9515214527
 40
1.0
 40
1.0
 40
1.0
 40
1.0
 10
80.8414334399
 20
199.4506789985
 30
0.0
 10
81.0069353449
 20
199.5462309976
 30
0.0
 10
81.3789149997
 20
199.7001089419
 30
0.0
 10
81.9832215497
 20
199.8200787704
 30
0.0
 10
82.6186938786
 20
199.8353676595
 30
0.0
 10
83.2369384919
 20
199.7445280304
 30
0.0
 10
83.7918470038
 20
199.553197555
 30
0.0
 10
84.1810171262
 20
199.3080034302
 30
0.0
 10
84.4140342568
 20
199.0664765885
 30
0.0
 10
84.5419413943
 20
198.8713379252
 30
0.0
 10
84.6225562675
 20
198.6607347951
 30
0.0
 10
84.6410079288
 20
198.5133438065
 30
0.0
 10
84.6410079288
 20
198.4405801125
 30
0.0
  0
SPLINE
  5
2F1
100
AcDbEntity
  8
0
100
AcDbSpline
 62
7
  6
CONTINUOUS
 70
0
 71
3
 72
25
 73
21
 74
0
 42
0.0000001
 43
0.0000001
 44
0.0000000001
 40
0.0
 40
0.0
 40
0.0
 40
0.0
 40
0.0623840337
 40
0.1287222325
 40
0.1983153947
 40
0.2702918463
 40
0.3436694053
 40
0.4174013537
 40
0.4904259236
 40
0.5617125652
 40
0.6303099852
 40
0.6953978184
 40
0.7563456452
 40
0.8127831048
 40
0.8646836934
 40
0.9124583687
 40
0.9351030122
 40
0.9571080029
 40
0.9786682601
 40
1.0
 40
1.0
 40
1.0
 40
1.0
 10
60.2585995334
 20
207.7895802641
 30
0.0
 10
60.6717786012
 20
207.5510366146
 30
0.0
 10
61.5572098804
 20
207.1144722104
 30
0.0
 10
62.9855354793
 20
206.5969602039
 30
0.0
 10
64.5290353355
 20
206.2051187387
 30
0.0
 10
66.1547213738
 20
205.9473511253
 30
0.0
 10
67.8280947401
 20
205.8290579745
 30
0.0
 10
69.5134588743
 20
205.8527783277
 30
0.0
 10
71.1748629323
 20
206.0179992337
 30
0.0
 10
72.7769050121
 20
206.3212100465
 30
0.0
 10
74.2855509566
 20
206.7560006888
 30
0.0
 10
75.6689115613
 20
207.3133157248
 30
0.0
 10
76.8979101858
 20
207.9817405642
 30
0.0
 10
77.9468488018
 20
208.7482739719
 30
0.0
 10
78.7932559734
 20
209.5980685496
 30
0.0
 10
79.3230831251
 20
210.3777453472
 30
0.0
 10
79.618367953
 20
211.0214589527
 30
0.0
 10
79.7748627992
 20
211.5043390681
 30
0.0
 10
79.8692446128
 20
211.9928421872
 30
0.0
 10
79.8902772242
 20
212.3212489395
 30
0.0
 10
79.890277632
 20
212.4843880349
 30
0.0
  0
SPLINE
  5
2F2
100
AcDbEntity
  8
0
100
AcDbSpline
 62
7
  6
CONTINUOUS
 70
0
 71
3
 72
9
 73
5
 74
0
 42
0.0000001
 43
0.0000001
 44
0.0000000001
 40
0.0
 40
0.0
 40
0.0
 40
0.0
 40
0.2613160129
 40
1.0
 40
1.0
 40
1.0
 40
1.0
 10
60.4353754927
 20
207.8916413025
 30
0.0
 10
60.291644368
 20
207.9746226288
 30
0.0
 10
59.7492755209
 20
208.3050028269
 30
0.0
 10
59.2382402628
 20
208.6887465066
 30
0.0
 10
58.8912336469
 20
209.0044786556
 30
0.0
  0
SPLINE
  5
2F3
100
AcDbEntity
  8
0
100
AcDbSpline
 62
7
  6
CONTINUOUS
 70
0
 71
3
 72
16
 73
12
 74
0
 42
0.0000001
 43
0.0000001
 44
0.0000000001
 40
0.0
 40
0.0
 40
0.0
 40
0.0
 40
0.0428749215
 40
0.0875218052
 40
0.1869210508
 40
0.3042319763
 40
0.4379526978
 40
0.5823548967
 40
0.7295670544
 40
0.8712583699
 40
1.0
 40
1.0
 40
1.0
 40
1.0
 10
73.5486121698
 20
211.1886044943
 30
0.0
 10
73.5486119104
 20
211.174372092
 30
0.0
 10
73.5523914334
 20
211.1451912155
 30
0.0
 10
73.5755260914
 20
211.0870301343
 30
0.0
 10
73.6340061528
 20
211.0198462991
 30
0.0
 10
73.7344294507
 20
210.9589012058
 30
0.0
 10
73.8597578094
 20
210.9169421667
 30
0.0
 10
74.0002650178
 20
210.8972337454
 30
0.0
 10
74.1447389644
 20
210.9012032174
 30
0.0
 10
74.281321491
 20
210.9285441769
 30
0.0
 10
74.3651359543
 20
210.9631162001
 30
0.0
 10
74.4021464717
 20
210.9844841047
 30
0.0
  0
SPLINE
  5
2F4
100
AcDbEntity
  8
0
100
AcDbSpline
 62
7
  6
CONTINUOUS
 70
0
 71
3
 72
16
 73
12
 74
0
 42
0.0000001
 43
0.0000001
 44
0.0000000001
 40
0.0
 40
0.0
 40
0.0
 40
0.0
 40
0.0428749215
 40
0.0875218052
 40
0.1869210508
 40
0.3042319763
 40
0.4379526978
 40
0.5823548967
 40
0.7295670544
 40
0.8712583699
 40
1.0
 40
1.0
 40
1.0
 40
1.0
 10
62.3734819101
 20
211.6518010787
 30
0.0
 10
62.3734816506
 20
211.6375686764
 30
0.0
 10
62.3772611736
 20
211.6083877999
 30
0.0
 10
62.4003958316
 20
211.5502267187
 30
0.0
 10
62.458875893
 20
211.4830428835
 30
0.0
 10
62.5592991909
 20
211.4220977903
 30
0.0
 10
62.6846275496
 20
211.3801387511
 30
0.0
 10
62.825134758
 20
211.3604303298
 30
0.0
 10
62.9696087046
 20
211.3643998019
 30
0.0
 10
63.1061912313
 20
211.3917407614
 30
0.0
 10
63.1900056945
 20
211.4263127845
 30
0.0
 10
63.2270162119
 20
211.4476806891
 30
0.0
  0
SPLINE
  5
2F5
100
AcDbEntity
  8
0
100
AcDbSpline
 62
7
  6
CONTINUOUS
 70
0
 71
3
 72
15
 73
11
 74
0
 42
0.0000001
 43
0.0000001
 44
0.0000000001
 40
0.0
 40
0.0
 40
0.0
 40
0.0
 40
0.1141543258
 40
0.2373258924
 40
0.3669759246
 40
0.5000005214
 40
0.6330250456
 40
0.762674866
 40
0.8858460989
 40
1.0
 40
1.0
 40
1.0
 40
1.0
 10
66.7993683182
 20
189.4387965197
 30
0.0
 10
66.9082843009
 20
189.3759152703
 30
0.0
 10
67.1464484089
 20
189.2650123656
 30
0.0
 10
67.534285447
 20
189.1471343422
 30
0.0
 10
67.9541806162
 20
189.0745760858
 30
0.0
 10
68.390361259
 20
189.0500965475
 30
0.0
 10
68.8265415531
 20
189.074578156
 30
0.0
 10
69.2464356921
 20
189.1471384061
 30
0.0
 10
69.6342710606
 20
189.2650182731
 30
0.0
 10
69.8724337094
 20
189.3759223674
 30
0.0
 10
69.9813488335
 20
189.4388041682
 30
0.0
  0
SPLINE
  5
2F6
100
AcDbEntity
  8
0
100
AcDbSpline
 62
7
  6
CONTINUOUS
 70
0
 71
3
 72
25
 73
21
 74
0
 42
0.0000001
 43
0.0000001
 44
0.0000000001
 40
0.0
 40
0.0
 40
0.0
 40
0.0
 40
0.0656701394
 40
0.1345663383
 40
0.2059424839
 40
0.278939983
 40
0.3526353352
 40
0.4260768719
 40
0.498323261
 40
0.5684810047
 40
0.6357442107
 40
0.6994383113
 40
0.7590706796
 40
0.814390573
 40
0.8654596394
 40
0.9127273599
 40
0.9352301492
 40
0.9571551281
 40
0.9786800647
 40
1.0
 40
1.0
 40
1.0
 40
1.0
 10
61.1857301056
 20
198.9604435296
 30
0.0
 10
61.6292792497
 20
198.7616579242
 30
0.0
 10
62.5610785769
 20
198.4041305698
 30
0.0
 10
64.0317792329
 20
197.9960799549
 30
0.0
 10
65.5859930937
 20
197.7091585234
 30
0.0
 10
67.1938489214
 20
197.5489227885
 30
0.0
 10
68.8246355795
 20
197.5183964787
 30
0.0
 10
70.4470973262
 20
197.6181773517
 30
0.0
 10
72.0301696162
 20
197.8463513029
 30
0.0
 10
73.5435933669
 20
198.1985725897
 30
0.0
 10
74.9585361527
 20
198.6681775146
 30
0.0
 10
76.2481730647
 20
199.2464187696
 30
0.0
 10
77.3881662169
 20
199.9227141346
 30
0.0
 10
78.3570389785
 20
200.6852820744
 30
0.0
 10
79.1359768925
 20
201.5208321209
 30
0.0
 10
79.6211693093
 20
202.2798095309
 30
0.0
 10
79.8913718366
 20
202.903697669
 30
0.0
 10
80.0346659609
 20
203.371488185
 30
0.0
 10
80.121041209
 20
203.8441172234
 30
0.0
 10
80.1402769175
 20
204.161564486
 30
0.0
 10
80.140277309
 20
204.3193638638
 30
0.0
  0
SPLINE
  5
2F7
100
AcDbEntity
  8
0
100
AcDbSpline
 62
7
  6
CONTINUOUS
 70
0
 71
3
 72
11
 73
7
 74
0
 42
0.0000001
 43
0.0000001
 44
0.0000000001
 40
0.0
 40
0.0
 40
0.0
 40
0.0
 40
0.2898002934
 40
0.5490499699
 40
0.7822286378
 40
1.0
 40
1.0
 40
1.0
 40
1.0
 10
69.9813488335
 20
189.4388041682
 30
0.0
 10
70.0801100578
 20
189.4958236473
 30
0.0
 10
70.259256703
 20
189.6191392576
 30
0.0
 10
70.4732559846
 20
189.8441841304
 30
0.0
 10
70.6087217686
 20
190.0929977727
 30
0.0
 10
70.64035195
 20
190.2716505405
 30
0.0
 10
70.6403519519
 20
190.3573458659
 30
0.0
  0
SPLINE
  5
2F8
100
AcDbEntity
  8
0
100
AcDbSpline
 62
7
  6
CONTINUOUS
 70
0
 71
3
 72
23
 73
19
 74
0
 42
0.0000001
 43
0.0000001
 44
0.0000000001
 40
0.0
 40
0.0
 40
0.0
 40
0.0
 40
0.0589880295
 40
0.1117704149
 40
0.1595283581
 40
0.2046527549
 40
0.2503482078
 40
0.2996326094
 40
0.3544797221
 40
0.4156368576
 40
0.4828427881
 40
0.5551101441
 40
0.6309619486
 40
0.7086182851
 40
0.7861666725
 40
0.8616893581
 40
0.9334557968
 40
1.0
 40
1.0
 40
1.0
 40
1.0
 10
66.8777721167
 20
191.3194998757
 30
0.0
 10
66.7931579276
 20
191.2660768113
 30
0.0
 10
66.6405169457
 20
191.1513353241
 30
0.0
 10
66.4622588415
 20
190.9443489691
 30
0.0
 10
66.3553328687
 20
190.717439737
 30
0.0
 10
66.3281043713
 20
190.4793164613
 30
0.0
 10
66.3836332736
 20
190.2437114334
 30
0.0
 10
66.5161713751
 20
190.0229617729
 30
0.0
 10
66.7171580435
 20
189.8241710339
 30
0.0
 10
66.9782689461
 20
189.6526022817
 30
0.0
 10
67.2901775366
 20
189.5133453025
 30
0.0
 10
67.6418601363
 20
189.4109835266
 30
0.0
 10
68.0207113181
 20
189.3490938183
 30
0.0
 10
68.4130192856
 20
189.3298810841
 30
0.0
 10
68.8044856872
 20
189.3540724247
 30
0.0
 10
69.1809460849
 20
189.4207498773
 30
0.0
 10
69.5285890924
 20
189.5275417769
 30
0.0
 10
69.7421643633
 20
189.6273099192
 30
0.0
 10
69.8399268885
 20
189.6837528025
 30
0.0
  0
SPLINE
  5
2F9
100
AcDbEntity
  8
0
100
AcDbSpline
 62
7
  6
CONTINUOUS
 70
0
 71
3
 72
23
 73
19
 74
0
 42
0.0000001
 43
0.0000001
 44
0.0000000001
 40
0.0
 40
0.0
 40
0.0
 40
0.0
 40
0.0603733061
 40
0.114395968
 40
0.1629735384
 40
0.2083455066
 40
0.2537162459
 40
0.3022982374
 40
0.3563121172
 40
0.4166911188
 40
0.4832776182
 40
0.5551237859
 40
0.6307490404
 40
0.7083409435
 40
0.7859361269
 40
0.8615590602
 40
0.9334177977
 40
1.0
 40
1.0
 40
1.0
 40
1.0
 10
69.8399268885
 20
189.6837528025
 30
0.0
 10
69.9299006109
 20
189.7356988453
 30
0.0
 10
70.0931158669
 20
189.848083103
 30
0.0
 10
70.2881155525
 20
190.0530403996
 30
0.0
 10
70.4115068628
 20
190.2799608749
 30
0.0
 10
70.4542600013
 20
190.5206430518
 30
0.0
 10
70.4115107048
 20
190.7613401099
 30
0.0
 10
70.2881115161
 20
190.9882292405
 30
0.0
 10
70.0930752278
 20
191.1932424044
 30
0.0
 10
69.8351136408
 20
191.3708771526
 30
0.0
 10
69.5237630225
 20
191.5158370587
 30
0.0
 10
69.1703183564
 20
191.6232831317
 30
0.0
 10
68.7877785159
 20
191.6893738469
 30
0.0
 10
68.3903664216
 20
191.7116913149
 30
0.0
 10
67.9929685815
 20
191.6893741767
 30
0.0
 10
67.6103753821
 20
191.6232908121
 30
0.0
 10
67.2570124825
 20
191.5158676493
 30
0.0
 10
67.0400037925
 20
191.4148281606
 30
0.0
 10
66.9407770154
 20
191.3575398961
 30
0.0
  0
SPLINE
  5
2FA
100
AcDbEntity
  8
0
100
AcDbSpline
 62
7
  6
CONTINUOUS
 70
0
 71
3
 72
15
 73
11
 74
0
 42
0.0000001
 43
0.0000001
 44
0.0000000001
 40
0.0
 40
0.0
 40
0.0
 40
0.0
 40
0.1141543258
 40
0.2373258924
 40
0.3669759246
 40
0.5000005214
 40
0.6330250456
 40
0.762674866
 40
0.8858460989
 40
1.0
 40
1.0
 40
1.0
 40
1.0
 10
80.800024295
 20
197.5220307663
 30
0.0
 10
80.9089402778
 20
197.4591495169
 30
0.0
 10
81.1471043858
 20
197.3482466122
 30
0.0
 10
81.5349414239
 20
197.2303685888
 30
0.0
 10
81.9548365931
 20
197.1578103325
 30
0.0
 10
82.3910172358
 20
197.1333307942
 30
0.0
 10
82.82719753
 20
197.1578124027
 30
0.0
 10
83.2470916689
 20
197.2303726528
 30
0.0
 10
83.6349270375
 20
197.3482525198
 30
0.0
 10
83.8730896863
 20
197.459156614
 30
0.0
 10
83.9820048103
 20
197.5220384149
 30
0.0
  0
SPLINE
  5
2FB
100
AcDbEntity
  8
0
100
AcDbSpline
 62
7
  6
CONTINUOUS
 70
0
 71
3
 72
11
 73
7
 74
0
 42
0.0000001
 43
0.0000001
 44
0.0000000001
 40
0.0
 40
0.0
 40
0.0
 40
0.0
 40
0.2898002934
 40
0.5490499699
 40
0.7822286378
 40
1.0
 40
1.0
 40
1.0
 40
1.0
 10
83.9820048103
 20
197.5220384149
 30
0.0
 10
84.0807660346
 20
197.5790578939
 30
0.0
 10
84.2599126798
 20
197.7023735043
 30
0.0
 10
84.4739119615
 20
197.9274183771
 30
0.0
 10
84.6093777455
 20
198.1762320194
 30
0.0
 10
84.6410079269
 20
198.3548847871
 30
0.0
 10
84.6410079288
 20
198.4405801125
 30
0.0
  0
SPLINE
  5
2FC
100
AcDbEntity
  8
0
100
AcDbSpline
 62
7
  6
CONTINUOUS
 70
0
 71
3
 72
23
 73
19
 74
0
 42
0.0000001
 43
0.0000001
 44
0.0000000001
 40
0.0
 40
0.0
 40
0.0
 40
0.0
 40
0.0589880295
 40
0.1117704149
 40
0.1595283581
 40
0.2046527549
 40
0.2503482078
 40
0.2996326094
 40
0.3544797221
 40
0.4156368576
 40
0.4828427881
 40
0.5551101441
 40
0.6309619486
 40
0.7086182851
 40
0.7861666725
 40
0.8616893581
 40
0.9334557968
 40
1.0
 40
1.0
 40
1.0
 40
1.0
 10
80.8784280936
 20
199.4027341223
 30
0.0
 10
80.7938139044
 20
199.349311058
 30
0.0
 10
80.6411729226
 20
199.2345695708
 30
0.0
 10
80.4629148183
 20
199.0275832157
 30
0.0
 10
80.3559888455
 20
198.8006739836
 30
0.0
 10
80.3287603481
 20
198.562550708
 30
0.0
 10
80.3842892504
 20
198.3269456801
 30
0.0
 10
80.5168273519
 20
198.1061960196
 30
0.0
 10
80.7178140203
 20
197.9074052805
 30
0.0
 10
80.9789249229
 20
197.7358365284
 30
0.0
 10
81.2908335134
 20
197.5965795492
 30
0.0
 10
81.6425161131
 20
197.4942177733
 30
0.0
 10
82.0213672949
 20
197.432328065
 30
0.0
 10
82.4136752624
 20
197.4131153307
 30
0.0
 10
82.8051416641
 20
197.4373066713
 30
0.0
 10
83.1816020618
 20
197.5039841239
 30
0.0
 10
83.5292450692
 20
197.6107760235
 30
0.0
 10
83.7428203402
 20
197.7105441659
 30
0.0
 10
83.8405828653
 20
197.7669870492
 30
0.0
  0
SPLINE
  5
2FD
100
AcDbEntity
  8
0
100
AcDbSpline
 62
7
  6
CONTINUOUS
 70
0
 71
3
 72
23
 73
19
 74
0
 42
0.0000001
 43
0.0000001
 44
0.0000000001
 40
0.0
 40
0.0
 40
0.0
 40
0.0
 40
0.0603733061
 40
0.114395968
 40
0.1629735384
 40
0.2083455066
 40
0.2537162459
 40
0.3022982374
 40
0.3563121172
 40
0.4166911188
 40
0.4832776182
 40
0.5551237859
 40
0.6307490404
 40
0.7083409435
 40
0.7859361269
 40
0.8615590602
 40
0.9334177977
 40
1.0
 40
1.0
 40
1.0
 40
1.0
 10
83.8405828653
 20
197.7669870492
 30
0.0
 10
83.9305565878
 20
197.818933092
 30
0.0
 10
84.0937718438
 20
197.9313173497
 30
0.0
 10
84.2887715293
 20
198.1362746462
 30
0.0
 10
84.4121628396
 20
198.3631951215
 30
0.0
 10
84.4549159781
 20
198.6038772984
 30
0.0
 10
84.4121666816
 20
198.8445743565
 30
0.0
 10
84.288767493
 20
199.0714634871
 30
0.0
 10
84.0937312047
 20
199.276476651
 30
0.0
 10
83.8357696177
 20
199.4541113993
 30
0.0
 10
83.5244189994
 20
199.5990713054
 30
0.0
 10
83.1709743333
 20
199.7065173783
 30
0.0
 10
82.7884344927
 20
199.7726080936
 30
0.0
 10
82.3910223984
 20
199.7949255615
 30
0.0
 10
81.9936245584
 20
199.7726084234
 30
0.0
 10
81.611031359
 20
199.7065250588
 30
0.0
 10
81.2576684593
 20
199.5991018959
 30
0.0
 10
81.0406597693
 20
199.4980624072
 30
0.0
 10
80.9414329922
 20
199.4407741427
 30
0.0
  0
SPLINE
  5
2FE
100
AcDbEntity
  8
0
100
AcDbSpline
 62
7
  6
CONTINUOUS
 70
0
 71
3
 72
16
 73
12
 74
0
 42
0.0000001
 43
0.0000001
 44
0.0000000001
 40
0.0
 40
0.0
 40
0.0
 40
0.0
 40
0.0428749215
 40
0.0875218052
 40
0.1869210508
 40
0.3042319763
 40
0.4379526978
 40
0.5823548967
 40
0.7295670544
 40
0.8712583699
 40
1.0
 40
1.0
 40
1.0
 40
1.0
 10
67.3338446289
 20
212.0503714352
 30
0.0
 10
67.3338443694
 20
212.0361390329
 30
0.0
 10
67.3376238924
 20
212.0069581565
 30
0.0
 10
67.3607585504
 20
211.9487970752
 30
0.0
 10
67.4192386118
 20
211.88161324
 30
0.0
 10
67.5196619097
 20
211.8206681468
 30
0.0
 10
67.6449902684
 20
211.7787091076
 30
0.0
 10
67.7854974768
 20
211.7590006863
 30
0.0
 10
67.9299714234
 20
211.7629701584
 30
0.0
 10
68.0665539501
 20
211.7903111179
 30
0.0
 10
68.1503684133
 20
211.824883141
 30
0.0
 10
68.1873789307
 20
211.8462510457
 30
0.0
  0
SPLINE
  5
2FF
100
AcDbEntity
  8
0
100
AcDbSpline
 62
7
  6
CONTINUOUS
 70
0
 71
3
 72
16
 73
12
 74
0
 42
0.0000001
 43
0.0000001
 44
0.0000000001
 40
0.0
 40
0.0
 40
0.0
 40
0.0
 40
0.0428749215
 40
0.0875218052
 40
0.1869210508
 40
0.3042319763
 40
0.4379526978
 40
0.5823548967
 40
0.7295670544
 40
0.8712583699
 40
1.0
 40
1.0
 40
1.0
 40
1.0
 10
68.2976482856
 20
214.1270845896
 30
0.0
 10
68.2976480262
 20
214.1128521873
 30
0.0
 10
68.3014275491
 20
214.0836713109
 30
0.0
 10
68.3245622071
 20
214.0255102297
 30
0.0
 10
68.3830422685
 20
213.9583263944
 30
0.0
 10
68.4834655664
 20
213.8973813012
 30
0.0
 10
68.6087939252
 20
213.8554222621
 30
0.0
 10
68.7493011335
 20
213.8357138408
 30
0.0
 10
68.8937750801
 20
213.8396833128
 30
0.0
 10
69.0303576068
 20
213.8670242723
 30
0.0
 10
69.11417207
 20
213.9015962954
 30
0.0
 10
69.1511825874
 20
213.9229642001
 30
0.0
  0
SPLINE
  5
300
100
AcDbEntity
  8
0
100
AcDbSpline
 62
7
  6
CONTINUOUS
 70
0
 71
3
 72
11
 73
7
 74
0
 42
0.0000001
 43
0.0000001
 44
0.0000000001
 40
0.0
 40
0.0
 40
0.0
 40
0.0
 40
0.2895468475
 40
0.5491384346
 40
0.782278826
 40
1.0
 40
1.0
 40
1.0
 40
1.0
 10
74.4021464717
 20
210.9844841047
 30
0.0
 10
74.4240735157
 20
210.9971436139
 30
0.0
 10
74.4638643357
 20
211.0245807846
 30
0.0
 10
74.5114628321
 20
211.0745507453
 30
0.0
 10
74.5415703697
 20
211.1298721386
 30
0.0
 10
74.5485707013
 20
211.1695660614
 30
0.0
 10
74.5485710483
 20
211.1886044697
 30
0.0
  0
SPLINE
  5
301
100
AcDbEntity
  8
0
100
AcDbSpline
 62
7
  6
CONTINUOUS
 70
0
 71
3
 72
11
 73
7
 74
0
 42
0.0000001
 43
0.0000001
 44
0.0000000001
 40
0.0
 40
0.0
 40
0.0
 40
0.0
 40
0.2895468475
 40
0.5491384346
 40
0.782278826
 40
1.0
 40
1.0
 40
1.0
 40
1.0
 10
70.8205913672
 20
210.3259995293
 30
0.0
 10
70.8425184113
 20
210.3386590385
 30
0.0
 10
70.8823092312
 20
210.3660962092
 30
0.0
 10
70.9299077277
 20
210.4160661699
 30
0.0
 10
70.9600152653
 20
210.4713875631
 30
0.0
 10
70.9670155969
 20
210.511081486
 30
0.0
 10
70.9670159439
 20
210.5301198943
 30
0.0
  0
SPLINE
  5
302
100
AcDbEntity
  8
0
100
AcDbSpline
 62
7
  6
CONTINUOUS
 70
0
 71
3
 72
11
 73
7
 74
0
 42
0.0000001
 43
0.0000001
 44
0.0000000001
 40
0.0
 40
0.0
 40
0.0
 40
0.0
 40
0.2895468475
 40
0.5491384346
 40
0.782278826
 40
1.0
 40
1.0
 40
1.0
 40
1.0
 10
71.784395024
 20
212.4027126837
 30
0.0
 10
71.806322068
 20
212.4153721929
 30
0.0
 10
71.846112888
 20
212.4428093636
 30
0.0
 10
71.8937113844
 20
212.4927793243
 30
0.0
 10
71.923818922
 20
212.5481007176
 30
0.0
 10
71.9308192536
 20
212.5877946404
 30
0.0
 10
71.9308196006
 20
212.6068330487
 30
0.0
  0
SPLINE
  5
303
100
AcDbEntity
  8
0
100
AcDbSpline
 62
7
  6
CONTINUOUS
 70
0
 71
3
 72
16
 73
12
 74
0
 42
0.0000001
 43
0.0000001
 44
0.0000000001
 40
0.0
 40
0.0
 40
0.0
 40
0.0
 40
0.0428749215
 40
0.0875218052
 40
0.1869210508
 40
0.3042319763
 40
0.4379526978
 40
0.5823548967
 40
0.7295670544
 40
0.8712583699
 40
1.0
 40
1.0
 40
1.0
 40
1.0
 10
66.3700409721
 20
209.9736582808
 30
0.0
 10
66.3700407127
 20
209.9594258785
 30
0.0
 10
66.3738202356
 20
209.930245002
 30
0.0
 10
66.3969548936
 20
209.8720839208
 30
0.0
 10
66.455434955
 20
209.8049000856
 30
0.0
 10
66.5558582529
 20
209.7439549923
 30
0.0
 10
66.6811866117
 20
209.7019959532
 30
0.0
 10
66.82169382
 20
209.6822875319
 30
0.0
 10
66.9661677666
 20
209.686257004
 30
0.0
 10
67.1027502933
 20
209.7135979635
 30
0.0
 10
67.1865647565
 20
209.7481699866
 30
0.0
 10
67.2235752739
 20
209.7695378912
 30
0.0
  0
SPLINE
  5
304
100
AcDbEntity
  8
0
100
AcDbSpline
 62
7
  6
CONTINUOUS
 70
0
 71
3
 72
11
 73
7
 74
0
 42
0.0000001
 43
0.0000001
 44
0.0000000001
 40
0.0
 40
0.0
 40
0.0
 40
0.0
 40
0.2895468475
 40
0.5491384346
 40
0.782278826
 40
1.0
 40
1.0
 40
1.0
 40
1.0
 10
67.2235752739
 20
209.7695378912
 30
0.0
 10
67.245502318
 20
209.7821974004
 30
0.0
 10
67.285293138
 20
209.8096345711
 30
0.0
 10
67.3328916344
 20
209.8596045318
 30
0.0
 10
67.362999172
 20
209.9149259251
 30
0.0
 10
67.3699995036
 20
209.954619848
 30
0.0
 10
67.3699998506
 20
209.9736582562
 30
0.0
  0
SPLINE
  5
305
100
AcDbEntity
  8
0
100
AcDbSpline
 62
7
  6
CONTINUOUS
 70
0
 71
3
 72
11
 73
7
 74
0
 42
0.0000001
 43
0.0000001
 44
0.0000000001
 40
0.0
 40
0.0
 40
0.0
 40
0.0
 40
0.2895468475
 40
0.5491384346
 40
0.782278826
 40
1.0
 40
1.0
 40
1.0
 40
1.0
 10
68.1873789307
 20
211.8462510457
 30
0.0
 10
68.2093059747
 20
211.8589105549
 30
0.0
 10
68.2490967947
 20
211.8863477256
 30
0.0
 10
68.2966952912
 20
211.9363176862
 30
0.0
 10
68.3268028287
 20
211.9916390795
 30
0.0
 10
68.3338031603
 20
212.0313330024
 30
0.0
 10
68.3338035074
 20
212.0503714106
 30
0.0
  0
SPLINE
  5
306
100
AcDbEntity
  8
0
100
AcDbSpline
 62
7
  6
CONTINUOUS
 70
0
 71
3
 72
11
 73
7
 74
0
 42
0.0000001
 43
0.0000001
 44
0.0000000001
 40
0.0
 40
0.0
 40
0.0
 40
0.0
 40
0.2895468475
 40
0.5491384346
 40
0.782278826
 40
1.0
 40
1.0
 40
1.0
 40
1.0
 10
69.1511825874
 20
213.9229642001
 30
0.0
 10
69.1731096315
 20
213.9356237093
 30
0.0
 10
69.2129004514
 20
213.96306088
 30
0.0
 10
69.2604989479
 20
214.0130308407
 30
0.0
 10
69.2906064855
 20
214.0683522339
 30
0.0
 10
69.2976068171
 20
214.1080461568
 30
0.0
 10
69.2976071641
 20
214.1270845651
 30
0.0
  0
SPLINE
  5
307
100
AcDbEntity
  8
0
100
AcDbSpline
 62
7
  6
CONTINUOUS
 70
0
 71
3
 72
11
 73
7
 74
0
 42
0.0000001
 43
0.0000001
 44
0.0000000001
 40
0.0
 40
0.0
 40
0.0
 40
0.0
 40
0.2895468475
 40
0.5491384346
 40
0.782278826
 40
1.0
 40
1.0
 40
1.0
 40
1.0
 10
63.2270162119
 20
211.4476806891
 30
0.0
 10
63.2489432559
 20
211.4603401983
 30
0.0
 10
63.2887340759
 20
211.4877773691
 30
0.0
 10
63.3363325724
 20
211.5377473297
 30
0.0
 10
63.3664401099
 20
211.593068723
 30
0.0
 10
63.3734404415
 20
211.6327626459
 30
0.0
 10
63.3734407886
 20
211.6518010541
 30
0.0
  0
SPLINE
  5
308
100
AcDbEntity
  8
0
100
AcDbSpline
 62
7
  6
CONTINUOUS
 70
0
 71
3
 72
11
 73
7
 74
0
 42
0.0000001
 43
0.0000001
 44
0.0000000001
 40
0.0
 40
0.0
 40
0.0
 40
0.0
 40
0.2895468475
 40
0.5491384346
 40
0.782278826
 40
1.0
 40
1.0
 40
1.0
 40
1.0
 10
65.4088603947
 20
213.3077607094
 30
0.0
 10
65.4307874387
 20
213.3204202186
 30
0.0
 10
65.4705782587
 20
213.3478573893
 30
0.0
 10
65.5181767552
 20
213.39782735
 30
0.0
 10
65.5482842927
 20
213.4531487433
 30
0.0
 10
65.5552846243
 20
213.4928426662
 30
0.0
 10
65.5552849714
 20
213.5118810744
 30
0.0
  0
SPLINE
  5
309
100
AcDbEntity
  8
0
100
AcDbSpline
 62
7
  6
CONTINUOUS
 70
0
 71
3
 72
16
 73
12
 74
0
 42
0.0000001
 43
0.0000001
 44
0.0000000001
 40
0.0
 40
0.0
 40
0.0
 40
0.0
 40
0.0428749215
 40
0.0875218052
 40
0.1869210508
 40
0.3042319763
 40
0.4379526978
 40
0.5823548967
 40
0.7295670544
 40
0.8712583699
 40
1.0
 40
1.0
 40
1.0
 40
1.0
 10
64.5553260929
 20
213.511881099
 30
0.0
 10
64.5553258334
 20
213.4976486967
 30
0.0
 10
64.5591053564
 20
213.4684678202
 30
0.0
 10
64.5822400144
 20
213.410306739
 30
0.0
 10
64.6407200758
 20
213.3431229038
 30
0.0
 10
64.7411433737
 20
213.2821778105
 30
0.0
 10
64.8664717324
 20
213.2402187714
 30
0.0
 10
65.0069789408
 20
213.2205103501
 30
0.0
 10
65.1514528874
 20
213.2244798222
 30
0.0
 10
65.2880354141
 20
213.2518207817
 30
0.0
 10
65.3718498773
 20
213.2863928048
 30
0.0
 10
65.4088603947
 20
213.3077607094
 30
0.0
  0
SPLINE
  5
30A
100
AcDbEntity
  8
0
100
AcDbSpline
 62
7
  6
CONTINUOUS
 70
0
 71
3
 72
16
 73
12
 74
0
 42
0.0000001
 43
0.0000001
 44
0.0000000001
 40
0.0
 40
0.0
 40
0.0
 40
0.0
 40
0.0428749215
 40
0.0875218052
 40
0.1869210508
 40
0.3042319763
 40
0.4379526978
 40
0.5823548967
 40
0.7295670544
 40
0.8712583699
 40
1.0
 40
1.0
 40
1.0
 40
1.0
 10
70.9308607222
 20
212.6068330732
 30
0.0
 10
70.9308604627
 20
212.592600671
 30
0.0
 10
70.9346399857
 20
212.5634197945
 30
0.0
 10
70.9577746437
 20
212.5052587133
 30
0.0
 10
71.0162547051
 20
212.4380748781
 30
0.0
 10
71.116678003
 20
212.3771297848
 30
0.0
 10
71.2420063617
 20
212.3351707457
 30
0.0
 10
71.3825135701
 20
212.3154623244
 30
0.0
 10
71.5269875167
 20
212.3194317964
 30
0.0
 10
71.6635700433
 20
212.3467727559
 30
0.0
 10
71.7473845066
 20
212.3813447791
 30
0.0
 10
71.784395024
 20
212.4027126837
 30
0.0
  0
SPLINE
  5
30B
100
AcDbEntity
  8
0
100
AcDbSpline
 62
7
  6
CONTINUOUS
 70
0
 71
3
 72
24
 73
20
 74
0
 42
0.0000001
 43
0.0000001
 44
0.0000000001
 40
0.0
 40
0.0
 40
0.0
 40
0.0
 40
0.0213334573
 40
0.0428952552
 40
0.0874727349
 40
0.1352509487
 40
0.1871553804
 40
0.2435970401
 40
0.3045493879
 40
0.3696420158
 40
0.4382445193
 40
0.5095364656
 40
0.5825663816
 40
0.6563036875
 40
0.7296865599
 40
0.8016687546
 40
0.8712670907
 40
0.9376116876
 40
1.0
 40
1.0
 40
1.0
 40
1.0
 10
58.8903040239
 20
214.9338952718
 30
0.0
 10
58.8903102596
 20
215.0686630399
 30
0.0
 10
58.9077190598
 20
215.3399727296
 30
0.0
 10
59.0126301134
 20
215.8837492651
 30
0.0
 10
59.2805469367
 20
216.559529825
 30
0.0
 10
59.796491197
 20
217.3179955103
 30
0.0
 10
60.4957584694
 20
218.0203265744
 30
0.0
 10
61.362252931
 20
218.6534500166
 30
0.0
 10
62.377516806
 20
219.2056564773
 30
0.0
 10
63.520289474
 20
219.6660381499
 30
0.0
 10
64.766560888
 20
220.0252157072
 30
0.0
 10
66.0899847229
 20
220.2756936008
 30
0.0
 10
67.4624461821
 20
220.412181654
 30
0.0
 10
68.8546997338
 20
220.4317767471
 30
0.0
 10
70.2370513987
 20
220.3340602329
 30
0.0
 10
71.5800089629
 20
220.1211189519
 30
0.0
 10
72.8550863225
 20
219.7974294697
 30
0.0
 10
74.0350105809
 20
219.3699110474
 30
0.0
 10
74.7664605998
 20
219.0092712027
 30
0.0
 10
75.1077801149
 20
218.8122147467
 30
0.0
  0
SPLINE
  5
30C
100
AcDbEntity
  8
0
100
AcDbSpline
 62
7
  6
CONTINUOUS
 70
0
 71
3
 72
9
 73
5
 74
0
 42
0.0000001
 43
0.0000001
 44
0.0000000001
 40
0.0
 40
0.0
 40
0.0
 40
0.0
 40
0.2382115232
 40
1.0
 40
1.0
 40
1.0
 40
1.0
 10
58.8141918315
 20
211.5250948323
 30
0.0
 10
58.9306929467
 20
211.4160056595
 30
0.0
 10
59.4348692249
 20
210.9742446016
 30
0.0
 10
59.9933529628
 20
210.5963446073
 30
0.0
 10
60.4353754927
 20
210.3411485539
 30
0.0
  0
SPLINE
  5
30D
100
AcDbEntity
  8
0
100
AcDbSpline
 62
7
  6
CONTINUOUS
 70
0
 71
3
 72
25
 73
21
 74
0
 42
0.0000001
 43
0.0000001
 44
0.0000000001
 40
0.0
 40
0.0
 40
0.0
 40
0.0
 40
0.0213317959
 40
0.0428920953
 40
0.0648971053
 40
0.087541746
 40
0.135316384
 40
0.1872169316
 40
0.2436543457
 40
0.3046020877
 40
0.3696898047
 40
0.4382871466
 40
0.5095737439
 40
0.5825981949
 40
0.6563299367
 40
0.7297073596
 40
0.8016838927
 40
0.871277274
 40
0.9376157803
 40
1.0
 40
1.0
 40
1.0
 40
1.0
 10
79.6402780921
 20
212.4843880342
 30
0.0
 10
79.6402779019
 20
212.3247950205
 30
0.0
 10
79.6197022153
 20
212.003526799
 30
0.0
 10
79.5273718452
 20
211.5256424849
 30
0.0
 10
79.3742785118
 20
211.0532594725
 30
0.0
 10
79.085412849
 20
210.4235398482
 30
0.0
 10
78.5671036123
 20
209.6608133138
 30
0.0
 10
77.739097134
 20
208.8294933372
 30
0.0
 10
76.7129625307
 20
208.0796244992
 30
0.0
 10
75.5106829758
 20
207.4257313661
 30
0.0
 10
74.1573975064
 20
206.8805322987
 30
0.0
 10
72.6815500634
 20
206.4551936301
 30
0.0
 10
71.1143368646
 20
206.1585740975
 30
0.0
 10
69.4890531122
 20
205.99694445
 30
0.0
 10
67.8403308022
 20
205.973738783
 30
0.0
 10
66.2033369585
 20
206.0894587723
 30
0.0
 10
64.6129904965
 20
206.3416216511
 30
0.0
 10
63.1030401482
 20
206.7249443998
 30
0.0
 10
61.7057598823
 20
207.231207496
 30
0.0
 10
60.8395736149
 20
207.6582826871
 30
0.0
 10
60.4353754927
 20
207.8916413025
 30
0.0
  0
SPLINE
  5
30E
100
AcDbEntity
  8
0
100
AcDbSpline
 62
7
  6
CONTINUOUS
 70
0
 71
3
 72
9
 73
5
 74
0
 42
0.0000001
 43
0.0000001
 44
0.0000000001
 40
0.0
 40
0.0
 40
0.0
 40
0.0
 40
0.2405176126
 40
1.0
 40
1.0
 40
1.0
 40
1.0
 10
58.8726316802
 20
208.7577739294
 30
0.0
 10
58.9759224174
 20
208.6698408509
 30
0.0
 10
59.4146881155
 20
208.3152263165
 30
0.0
 10
59.8876395912
 20
208.0037492414
 30
0.0
 10
60.2585995334
 20
207.7895802641
 30
0.0
  0
SPLINE
  5
30F
100
AcDbEntity
  8
0
100
AcDbSpline
 62
7
  6
CONTINUOUS
 70
0
 71
3
 72
25
 73
21
 74
0
 42
0.0000001
 43
0.0000001
 44
0.0000000001
 40
0.0
 40
0.0
 40
0.0
 40
0.0
 40
0.0213169367
 40
0.0428432511
 40
0.0647779373
 40
0.0873020186
 40
0.1346543607
 40
0.185869775
 40
0.2413912437
 40
0.3012644823
 40
0.3652168016
 40
0.4327301176
 40
0.5031026951
 40
0.5755012077
 40
0.6490059707
 40
0.7226523845
 40
0.7954697117
 40
0.8665219567
 40
0.934943625
 40
1.0
 40
1.0
 40
1.0
 40
1.0
 10
79.8902777743
 20
204.3193638631
 30
0.0
 10
79.8902775924
 20
204.1632440315
 30
0.0
 10
79.8710353161
 20
203.849136267
 30
0.0
 10
79.7846410882
 20
203.3815592556
 30
0.0
 10
79.6413309069
 20
202.9188808478
 30
0.0
 10
79.371061765
 20
202.3018620737
 30
0.0
 10
78.8858151159
 20
201.5518512069
 30
0.0
 10
78.1075222578
 20
200.7277307314
 30
0.0
 10
77.1401270406
 20
199.9772393891
 30
0.0
 10
76.0027815561
 20
199.3137305083
 30
0.0
 10
74.7173562521
 20
198.7490156499
 30
0.0
 10
73.3086289295
 20
198.2936608529
 30
0.0
 10
71.8038854599
 20
197.9563368027
 30
0.0
 10
70.2324166009
 20
197.7435670955
 30
0.0
 10
68.6249113228
 20
197.6594919823
 30
0.0
 10
67.0128118332
 20
197.7057619677
 30
0.0
 10
65.427671731
 20
197.8814528016
 30
0.0
 10
63.9004190982
 20
198.1831921775
 30
0.0
 10
62.4609841152
 20
198.6049936951
 30
0.0
 10
61.552416845
 20
198.9714547103
 30
0.0
 10
61.1213737133
 20
199.1744633141
 30
0.0
  0
SPLINE
  5
310
100
AcDbEntity
  8
0
100
AcDbSpline
 62
7
  6
CONTINUOUS
 70
0
 71
3
 72
11
 73
7
 74
0
 42
0.0000001
 43
0.0000001
 44
0.0000000001
 40
0.0
 40
0.0
 40
0.0
 40
0.0
 40
0.2897933785
 40
0.5490611793
 40
0.7822321444
 40
1.0
 40
1.0
 40
1.0
 40
1.0
 10
66.7993683182
 20
187.5608409603
 30
0.0
 10
66.7006081481
 20
187.6178588811
 30
0.0
 10
66.5214597361
 20
187.741181784
 30
0.0
 10
66.3074473141
 20
187.9662206279
 30
0.0
 10
66.1719893931
 20
188.2150475719
 30
0.0
 10
66.1403681696
 20
188.3936955899
 30
0.0
 10
66.140359537
 20
188.4793903082
 30
0.0
  0
SPLINE
  5
311
100
AcDbEntity
  8
0
100
AcDbSpline
 62
7
  6
CONTINUOUS
 70
0
 71
3
 72
11
 73
7
 74
0
 42
0.0000001
 43
0.0000001
 44
0.0000000001
 40
0.0
 40
0.0
 40
0.0
 40
0.0
 40
0.2897933785
 40
0.5490611793
 40
0.7822321444
 40
1.0
 40
1.0
 40
1.0
 40
1.0
 10
80.800024295
 20
195.6440752069
 30
0.0
 10
80.701264125
 20
195.7010931278
 30
0.0
 10
80.522115713
 20
195.8244160307
 30
0.0
 10
80.3081032909
 20
196.0494548746
 30
0.0
 10
80.1726453699
 20
196.2982818186
 30
0.0
 10
80.1410241464
 20
196.4769298366
 30
0.0
 10
80.1410155138
 20
196.5626245549
 30
0.0
  0
SPLINE
  5
312
100
AcDbEntity
  8
0
100
AcDbSpline
 62
7
  6
CONTINUOUS
 70
0
 71
3
 72
11
 73
7
 74
0
 42
0.0000001
 43
0.0000001
 44
0.0000000001
 40
0.0
 40
0.0
 40
0.0
 40
0.0
 40
0.2177709015
 40
0.4509493769
 40
0.7101992283
 40
1.0
 40
1.0
 40
1.0
 40
1.0
 10
66.1403519519
 20
190.3573458659
 30
0.0
 10
66.14035195
 20
190.2716496179
 30
0.0
 10
66.1719828644
 20
190.0929947894
 30
0.0
 10
66.3074515732
 20
189.8441787373
 30
0.0
 10
66.5214552034
 20
189.6191321968
 30
0.0
 10
66.7006052475
 20
189.4958161151
 30
0.0
 10
66.7993683182
 20
189.4387965197
 30
0.0
  0
SPLINE
  5
313
100
AcDbEntity
  8
0
100
AcDbSpline
 62
7
  6
CONTINUOUS
 70
0
 71
3
 72
16
 73
12
 74
0
 42
0.0000001
 43
0.0000001
 44
0.0000000001
 40
0.0
 40
0.0
 40
0.0
 40
0.0
 40
0.0428749215
 40
0.0875218052
 40
0.1869210508
 40
0.3042319763
 40
0.4379526978
 40
0.5823548967
 40
0.7295670544
 40
0.8712583699
 40
1.0
 40
1.0
 40
1.0
 40
1.0
 10
69.9670570654
 20
210.5301199188
 30
0.0
 10
69.967056806
 20
210.5158875165
 30
0.0
 10
69.9708363289
 20
210.4867066401
 30
0.0
 10
69.9939709869
 20
210.4285455589
 30
0.0
 10
70.0524510483
 20
210.3613617236
 30
0.0
 10
70.1528743462
 20
210.3004166304
 30
0.0
 10
70.278202705
 20
210.2584575913
 30
0.0
 10
70.4187099133
 20
210.23874917
 30
0.0
 10
70.5631838599
 20
210.242718642
 30
0.0
 10
70.6997663866
 20
210.2700596015
 30
0.0
 10
70.7835808498
 20
210.3046316246
 30
0.0
 10
70.8205913672
 20
210.3259995293
 30
0.0
  0
SPLINE
  5
314
100
AcDbEntity
  8
0
100
AcDbSpline
 62
7
  6
CONTINUOUS
 70
0
 71
3
 72
25
 73
21
 74
0
 42
0.0000001
 43
0.0000001
 44
0.0000000001
 40
0.0
 40
0.0
 40
0.0
 40
0.0
 40
0.0623840478
 40
0.1287222354
 40
0.1983153839
 40
0.2702918233
 40
0.3436694051
 40
0.4174014014
 40
0.4904260008
 40
0.5617126415
 40
0.6303100324
 40
0.6953978249
 40
0.7563456208
 40
0.8127830591
 40
0.8646836394
 40
0.9124583238
 40
0.9351029762
 40
0.9571079771
 40
0.9786682464
 40
1.0
 40
1.0
 40
1.0
 40
1.0
 10
60.4353754927
 20
210.3411485539
 30
0.0
 10
60.8395724977
 20
210.1077905835
 30
0.0
 10
61.7057552995
 20
209.6807167173
 30
0.0
 10
63.1030302678
 20
209.1744550143
 30
0.0
 10
64.6129755049
 20
208.7911318939
 30
0.0
 10
66.203320514
 20
208.5389679026
 30
0.0
 10
67.8403166337
 20
208.4232462931
 30
0.0
 10
69.489043168
 20
208.4464510365
 30
0.0
 10
71.1143303058
 20
208.608080356
 30
0.0
 10
72.6815453518
 20
208.9046997752
 30
0.0
 10
74.1573940996
 20
209.3300384206
 30
0.0
 10
75.5106809147
 20
209.8752377013
 30
0.0
 10
76.7129615684
 20
210.5291312194
 30
0.0
 10
77.7390968619
 20
211.2790004987
 30
0.0
 10
78.5671038935
 20
212.1103210466
 30
0.0
 10
79.0854132264
 20
212.8730483131
 30
0.0
 10
79.3742791019
 20
213.502768251
 30
0.0
 10
79.5273719799
 20
213.9751511875
 30
0.0
 10
79.6197021864
 20
214.4530349177
 30
0.0
 10
79.6402775409
 20
214.7743025906
 30
0.0
 10
79.6402779494
 20
214.9338952862
 30
0.0
  0
SPLINE
  5
315
100
AcDbEntity
  8
0
100
AcDbSpline
 62
7
  6
CONTINUOUS
 70
0
 71
3
 72
17
 73
13
 74
0
 42
0.0000001
 43
0.0000001
 44
0.0000000001
 40
0.0
 40
0.0
 40
0.0
 40
0.0
 40
0.0428583514
 40
0.0874867632
 40
0.1353205869
 40
0.1872858865
 40
0.3045494199
 40
0.4382200143
 40
0.5825658202
 40
0.7297200337
 40
0.8713089174
 40
1.0
 40
1.0
 40
1.0
 40
1.0
 10
70.6403443669
 20
188.4793903047
 30
0.0
 10
70.6403508191
 20
188.4153406415
 30
0.0
 10
70.6232036648
 20
188.2840406404
 30
0.0
 10
70.5479203183
 20
188.0944509443
 30
0.0
 10
70.4257321318
 20
187.9147000748
 30
0.0
 10
70.1956798803
 20
187.6838616613
 30
0.0
 10
69.8037344579
 20
187.445240859
 30
0.0
 10
69.2401447774
 20
187.2570107585
 30
0.0
 10
68.6076941229
 20
187.168135005
 30
0.0
 10
67.9576358485
 20
187.1861251284
 30
0.0
 10
67.3430340125
 20
187.3090940992
 30
0.0
 10
66.9659253348
 20
187.4646813973
 30
0.0
 10
66.7993683182
 20
187.5608409603
 30
0.0
  0
SPLINE
  5
316
100
AcDbEntity
  8
0
100
AcDbSpline
 62
7
  6
CONTINUOUS
 70
0
 71
3
 72
10
 73
6
 74
0
 42
0.0000001
 43
0.0000001
 44
0.0000000001
 40
0.0
 40
0.0
 40
0.0
 40
0.0
 40
0.5181983771
 40
0.7647386087
 40
1.0
 40
1.0
 40
1.0
 40
1.0
 10
66.1231845445
 20
190.0534719111
 30
0.0
 10
65.2109648774
 20
190.1593866392
 30
0.0
 10
63.8720727693
 20
190.412074956
 30
0.0
 10
62.1829602652
 20
190.9532085381
 30
0.0
 10
61.3946606005
 20
191.2853512997
 30
0.0
 10
61.0190993043
 20
191.4664127698
 30
0.0
  0
SPLINE
  5
317
100
AcDbEntity
  8
0
100
AcDbSpline
 62
7
  6
CONTINUOUS
 70
0
 71
3
 72
16
 73
12
 74
0
 42
0.0000001
 43
0.0000001
 44
0.0000000001
 40
0.0
 40
0.0
 40
0.0
 40
0.0
 40
0.0466476807
 40
0.0946839106
 40
0.1962058217
 40
0.3069810389
 40
0.427955292
 40
0.5589988932
 40
0.6991486334
 40
0.8468106414
 40
1.0
 40
1.0
 40
1.0
 40
1.0
 10
79.7922181855
 20
195.6973254439
 30
0.0
 10
79.7530422861
 20
195.5252519011
 30
0.0
 10
79.650321757
 20
195.1808676205
 30
0.0
 10
79.3512799079
 20
194.4997912756
 30
0.0
 10
78.7974279038
 20
193.6750508454
 30
0.0
 10
77.8990456945
 20
192.7813807806
 30
0.0
 10
76.7774022087
 20
191.9813894868
 30
0.0
 10
75.4591205469
 20
191.2920884454
 30
0.0
 10
73.9746452333
 20
190.7283232155
 30
0.0
 10
72.3586431037
 20
190.3028080203
 30
0.0
 10
71.2331969018
 20
190.120329038
 30
0.0
 10
70.6575209885
 20
190.0534856368
 30
0.0
  0
SPLINE
  5
318
100
AcDbEntity
  8
0
100
AcDbSpline
 62
7
  6
CONTINUOUS
 70
0
 71
3
 72
11
 73
7
 74
0
 42
0.0000001
 43
0.0000001
 44
0.0000000001
 40
0.0
 40
0.0
 40
0.0
 40
0.0
 40
0.2177709015
 40
0.4509493769
 40
0.7101992283
 40
1.0
 40
1.0
 40
1.0
 40
1.0
 10
80.1410079288
 20
198.4405801125
 30
0.0
 10
80.1410079269
 20
198.3548838645
 30
0.0
 10
80.1726388412
 20
198.176229036
 30
0.0
 10
80.30810755
 20
197.9274129839
 30
0.0
 10
80.5221111802
 20
197.7023664435
 30
0.0
 10
80.7012612243
 20
197.5790503618
 30
0.0
 10
80.800024295
 20
197.5220307663
 30
0.0
  0
SPLINE
  5
319
100
AcDbEntity
  8
0
100
AcDbSpline
 62
7
  6
CONTINUOUS
 70
0
 71
3
 72
17
 73
13
 74
0
 42
0.0000001
 43
0.0000001
 44
0.0000000001
 40
0.0
 40
0.0
 40
0.0
 40
0.0
 40
0.0428583514
 40
0.0874867632
 40
0.1353205869
 40
0.1872858865
 40
0.3045494199
 40
0.4382200143
 40
0.5825658202
 40
0.7297200337
 40
0.8713089174
 40
1.0
 40
1.0
 40
1.0
 40
1.0
 10
84.6410003437
 20
196.5626245514
 30
0.0
 10
84.6410067959
 20
196.4985748882
 30
0.0
 10
84.6238596416
 20
196.3672748871
 30
0.0
 10
84.5485762951
 20
196.177685191
 30
0.0
 10
84.4263881086
 20
195.9979343215
 30
0.0
 10
84.1963358572
 20
195.7670959079
 30
0.0
 10
83.8043904347
 20
195.5284751056
 30
0.0
 10
83.2408007542
 20
195.3402450051
 30
0.0
 10
82.6083500997
 20
195.2513692516
 30
0.0
 10
81.9582918254
 20
195.2693593751
 30
0.0
 10
81.3436899893
 20
195.3923283458
 30
0.0
 10
80.9665813116
 20
195.5479156439
 30
0.0
 10
80.800024295
 20
195.6440752069
 30
0.0
  0
SPLINE
  5
31A
100
AcDbEntity
  8
0
100
AcDbSpline
 62
7
  6
CONTINUOUS
 70
0
 71
3
 72
14
 73
10
 74
0
 42
0.0000001
 43
0.0000001
 44
0.0000000001
 40
0.0
 40
0.0
 40
0.0
 40
0.0
 40
0.2892820218
 40
0.4225404569
 40
0.548498011
 40
0.6678964344
 40
0.7818698289
 40
0.8919530438
 40
1.0
 40
1.0
 40
1.0
 40
1.0
 10
75.1077801149
 20
218.8122147467
 30
0.0
 10
75.5247925105
 20
218.5714579745
 30
0.0
 10
76.1087880447
 20
218.1693810901
 30
0.0
 10
76.7695055279
 20
217.5370307992
 30
0.0
 10
77.1716266157
 20
217.0495961747
 30
0.0
 10
77.4895324008
 20
216.5407290018
 30
0.0
 10
77.7196575924
 20
216.0149324854
 30
0.0
 10
77.8590314494
 20
215.4775586226
 30
0.0
 10
77.8902916206
 20
215.1137438598
 30
0.0
 10
77.8902832989
 20
214.9338952982
 30
0.0
  0
SPLINE
  5
31B
100
AcDbEntity
  8
0
100
AcDbSpline
 62
7
  6
CONTINUOUS
 70
0
 71
3
 72
15
 73
11
 74
0
 42
0.0000001
 43
0.0000001
 44
0.0000000001
 40
0.0
 40
0.0
 40
0.0
 40
0.0
 40
0.0869298402
 40
0.1863860949
 40
0.3037618506
 40
0.4375644025
 40
0.5820633422
 40
0.7293780517
 40
0.8711704672
 40
1.0
 40
1.0
 40
1.0
 40
1.0
 10
42.8796389866
 20
214.8991230813
 30
0.0
 10
42.8796388957
 20
214.9279607468
 30
0.0
 10
42.8622438431
 20
214.9903611223
 30
0.0
 10
42.7942276336
 20
215.0677028823
 30
0.0
 10
42.6938438083
 20
215.1288777593
 30
0.0
 10
42.5685112201
 20
215.1707630721
 30
0.0
 10
42.428006384
 20
215.1904973488
 30
0.0
 10
42.2835256769
 20
215.1865247933
 30
0.0
 10
42.146936968
 20
215.1591853264
 30
0.0
 10
42.0631183376
 20
215.1246120713
 30
0.0
 10
42.0261067316
 20
215.1032435382
 30
0.0
  0
SPLINE
  5
31C
100
AcDbEntity
  8
0
100
AcDbSpline
 62
7
  6
CONTINUOUS
 70
0
 71
3
 72
11
 73
7
 74
0
 42
0.0000001
 43
0.0000001
 44
0.0000000001
 40
0.0
 40
0.0
 40
0.0
 40
0.0
 40
0.2905619462
 40
0.5495933702
 40
0.7820866284
 40
1.0
 40
1.0
 40
1.0
 40
1.0
 10
60.1473187801
 20
200.0503496363
 30
0.0
 10
60.0633775335
 20
200.0988120413
 30
0.0
 10
59.9115391181
 20
200.2038493628
 30
0.0
 10
59.7319506421
 20
200.3965469106
 30
0.0
 10
59.6218408172
 20
200.6100649478
 30
0.0
 10
59.6007536548
 20
200.762499458
 30
0.0
 10
59.6038555147
 20
200.8351253907
 30
0.0
  0
SPLINE
  5
31D
100
AcDbEntity
  8
0
100
AcDbSpline
 62
7
  6
CONTINUOUS
 70
0
 71
3
 72
12
 73
8
 74
0
 42
0.0000001
 43
0.0000001
 44
0.0000000001
 40
0.0
 40
0.0
 40
0.0
 40
0.0
 40
0.2903233873
 40
0.5491423987
 40
0.7814453622
 40
0.8915534942
 40
1.0
 40
1.0
 40
1.0
 40
1.0
 10
34.3484700138
 20
199.805342151
 30
0.0
 10
34.2290518497
 20
199.7363964534
 30
0.0
 10
34.0130529003
 20
199.5868833724
 30
0.0
 10
33.75751466
 20
199.3130601779
 30
0.0
 10
33.6247834883
 20
199.0545653152
 30
0.0
 10
33.5778418777
 20
198.8446776259
 30
0.0
 10
33.5731209535
 20
198.7403381769
 30
0.0
 10
33.5753188517
 20
198.6888773331
 30
0.0
  0
SPLINE
  5
31E
100
AcDbEntity
  8
0
100
AcDbSpline
 62
7
  6
CONTINUOUS
 70
0
 71
3
 72
12
 73
8
 74
0
 42
0.0000001
 43
0.0000001
 44
0.0000000001
 40
0.0
 40
0.0
 40
0.0
 40
0.0
 40
0.2903233873
 40
0.5491423987
 40
0.7814453622
 40
0.8915534942
 40
1.0
 40
1.0
 40
1.0
 40
1.0
 10
34.3484399854
 20
203.9694151838
 30
0.0
 10
34.2290218213
 20
203.9004694862
 30
0.0
 10
34.0130228718
 20
203.7509564052
 30
0.0
 10
33.7574846315
 20
203.4771332107
 30
0.0
 10
33.6247534598
 20
203.218638348
 30
0.0
 10
33.5778118493
 20
203.0087506587
 30
0.0
 10
33.5730909251
 20
202.9044112097
 30
0.0
 10
33.5752888232
 20
202.8529503659
 30
0.0
  0
SPLINE
  5
31F
100
AcDbEntity
  8
0
100
AcDbSpline
 62
7
  6
CONTINUOUS
 70
0
 71
3
 72
13
 73
9
 74
0
 42
0.0000001
 43
0.0000001
 44
0.0000000001
 40
0.0
 40
0.0
 40
0.0
 40
0.0
 40
0.098518942
 40
0.2008939972
 40
0.3103072907
 40
0.4288349957
 40
0.6957023334
 40
1.0
 40
1.0
 40
1.0
 40
1.0
 10
43.6296573328
 20
210.0001086605
 30
0.0
 10
43.6296599536
 20
210.0347292664
 30
0.0
 10
43.6206485641
 20
210.1056086292
 30
0.0
 10
43.5810990246
 20
210.2082016763
 30
0.0
 10
43.5167506174
 20
210.3057517554
 30
0.0
 10
43.3955321148
 20
210.4315219963
 30
0.0
 10
43.1881626789
 20
210.5630973267
 30
0.0
 10
42.9977658673
 20
210.6307881752
 30
0.0
 10
42.8942929497
 20
210.6577718075
 30
0.0
  0
SPLINE
  5
320
100
AcDbEntity
  8
0
100
AcDbSpline
 62
7
  6
CONTINUOUS
 70
0
 71
3
 72
17
 73
13
 74
0
 42
0.0000001
 43
0.0000001
 44
0.0000000001
 40
0.0
 40
0.0
 40
0.0
 40
0.0
 40
0.0428584629
 40
0.08748393
 40
0.135317815
 40
0.1872795469
 40
0.3045398917
 40
0.4382057949
 40
0.5825481992
 40
0.7297130515
 40
0.8713063844
 40
1.0
 40
1.0
 40
1.0
 40
1.0
 10
48.0382041386
 20
216.4984177924
 30
0.0
 10
48.0382068322
 20
216.5340009683
 30
0.0
 10
48.028668709
 20
216.6069405537
 30
0.0
 10
47.9868587215
 20
216.7122707328
 30
0.0
 10
47.9189651667
 20
216.8121185895
 30
0.0
 10
47.791180264
 20
216.9403736708
 30
0.0
 10
47.5734279596
 20
217.0729208165
 30
0.0
 10
47.2603406495
 20
217.1775037219
 30
0.0
 10
46.9089767462
 20
217.2268876736
 30
0.0
 10
46.5478252195
 20
217.2168902372
 30
0.0
 10
46.2063621175
 20
217.1485882177
 30
0.0
 10
45.9968541918
 20
217.0621423369
 30
0.0
 10
45.9043212435
 20
217.0087187331
 30
0.0
  0
SPLINE
  5
321
100
AcDbEntity
  8
0
100
AcDbSpline
 62
7
  6
CONTINUOUS
 70
0
 71
3
 72
15
 73
11
 74
0
 42
0.0000001
 43
0.0000001
 44
0.0000000001
 40
0.0
 40
0.0
 40
0.0
 40
0.0
 40
0.0869258731
 40
0.1863900355
 40
0.3037775758
 40
0.4375856292
 40
0.582082136
 40
0.7293904368
 40
0.8711742898
 40
1.0
 40
1.0
 40
1.0
 40
1.0
 10
42.2967077878
 20
211.9120310435
 30
0.0
 10
42.2967083134
 20
211.9408674005
 30
0.0
 10
42.2793090919
 20
212.0032681705
 30
0.0
 10
42.2112908577
 20
212.0806144009
 30
0.0
 10
42.1108980857
 20
212.1417920755
 30
0.0
 10
41.9855598173
 20
212.1836756111
 30
0.0
 10
41.8450555998
 20
212.2034068201
 30
0.0
 10
41.7005808211
 20
212.1994310081
 30
0.0
 10
41.5639985103
 20
212.1720916936
 30
0.0
 10
41.4801840034
 20
212.1375193377
 30
0.0
 10
41.443173486
 20
212.1161514331
 30
0.0
  0
SPLINE
  5
322
100
AcDbEntity
  8
0
100
AcDbSpline
 62
7
  6
CONTINUOUS
 70
0
 71
3
 72
17
 73
13
 74
0
 42
0.0000001
 43
0.0000001
 44
0.0000000001
 40
0.0
 40
0.0
 40
0.0
 40
0.0
 40
0.0428584629
 40
0.08748393
 40
0.135317815
 40
0.1872795469
 40
0.3045398917
 40
0.4382057949
 40
0.5825481992
 40
0.7297130515
 40
0.8713063844
 40
1.0
 40
1.0
 40
1.0
 40
1.0
 10
48.7100158185
 20
213.0561485469
 30
0.0
 10
48.7100185121
 20
213.0917317228
 30
0.0
 10
48.700480389
 20
213.1646713082
 30
0.0
 10
48.6586704015
 20
213.2700014873
 30
0.0
 10
48.5907768466
 20
213.369849344
 30
0.0
 10
48.4629919439
 20
213.4981044253
 30
0.0
 10
48.2452396395
 20
213.630651571
 30
0.0
 10
47.9321523294
 20
213.7352344764
 30
0.0
 10
47.5807884261
 20
213.7846184281
 30
0.0
 10
47.2196368995
 20
213.7746209917
 30
0.0
 10
46.8781737974
 20
213.7063189722
 30
0.0
 10
46.6686658717
 20
213.6198730914
 30
0.0
 10
46.5761329234
 20
213.5664494876
 30
0.0
  0
SPLINE
  5
323
100
AcDbEntity
  8
0
100
AcDbSpline
 62
7
  6
CONTINUOUS
 70
0
 71
3
 72
17
 73
13
 74
0
 42
0.0000001
 43
0.0000001
 44
0.0000000001
 40
0.0
 40
0.0
 40
0.0
 40
0.0
 40
0.0428584629
 40
0.08748393
 40
0.135317815
 40
0.1872795469
 40
0.3045398917
 40
0.4382057949
 40
0.5825481992
 40
0.7297130515
 40
0.8713063844
 40
1.0
 40
1.0
 40
1.0
 40
1.0
 10
52.9526388418
 20
215.5056134701
 30
0.0
 10
52.9526415354
 20
215.541196646
 30
0.0
 10
52.9431034122
 20
215.6141362314
 30
0.0
 10
52.9012934247
 20
215.7194664105
 30
0.0
 10
52.8333998699
 20
215.8193142672
 30
0.0
 10
52.7056149672
 20
215.9475693485
 30
0.0
 10
52.4878626628
 20
216.0801164942
 30
0.0
 10
52.1747753527
 20
216.1846993996
 30
0.0
 10
51.8234114494
 20
216.2340833513
 30
0.0
 10
51.4622599227
 20
216.224085915
 30
0.0
 10
51.1207968207
 20
216.1557838954
 30
0.0
 10
50.911288895
 20
216.0693380146
 30
0.0
 10
50.8187559467
 20
216.0159144109
 30
0.0
  0
SPLINE
  5
324
100
AcDbEntity
  8
0
100
AcDbSpline
 62
7
  6
CONTINUOUS
 70
0
 71
3
 72
15
 73
11
 74
0
 42
0.0000001
 43
0.0000001
 44
0.0000000001
 40
0.0
 40
0.0
 40
0.0
 40
0.0
 40
0.0869258731
 40
0.1863900355
 40
0.3037775758
 40
0.4375856292
 40
0.582082136
 40
0.7293904368
 40
0.8711742898
 40
1.0
 40
1.0
 40
1.0
 40
1.0
 10
45.978348726
 20
209.7864827432
 30
0.0
 10
45.9783492516
 20
209.8153191001
 30
0.0
 10
45.9609500301
 20
209.8777198701
 30
0.0
 10
45.8929317958
 20
209.9550661005
 30
0.0
 10
45.7925390239
 20
210.0162437752
 30
0.0
 10
45.6672007554
 20
210.0581273108
 30
0.0
 10
45.5266965379
 20
210.0778585198
 30
0.0
 10
45.3822217592
 20
210.0738827078
 30
0.0
 10
45.2456394484
 20
210.0465433932
 30
0.0
 10
45.1618249416
 20
210.0119710374
 30
0.0
 10
45.1248144241
 20
209.9906031327
 30
0.0
  0
SPLINE
  5
325
100
AcDbEntity
  8
0
100
AcDbSpline
 62
7
  6
CONTINUOUS
 70
0
 71
3
 72
9
 73
5
 74
0
 42
0.0000001
 43
0.0000001
 44
0.0000000001
 40
0.0
 40
0.0
 40
0.0
 40
0.0
 40
0.5035409473
 40
1.0
 40
1.0
 40
1.0
 40
1.0
 10
35.8800792896
 20
203.5915295498
 30
0.0
 10
35.8242209412
 20
203.404049933
 30
0.0
 10
35.7389124054
 20
203.0235124378
 30
0.0
 10
35.7100417453
 20
202.6344898516
 30
0.0
 10
35.7100328194
 20
202.4416171132
 30
0.0
  0
SPLINE
  5
326
100
AcDbEntity
  8
0
100
AcDbSpline
 62
7
  6
CONTINUOUS
 70
0
 71
3
 72
9
 73
5
 74
0
 42
0.0000001
 43
0.0000001
 44
0.0000000001
 40
0.0
 40
0.0
 40
0.0
 40
0.0
 40
0.5078021578
 40
1.0
 40
1.0
 40
1.0
 40
1.0
 10
36.3365138943
 20
212.6998476625
 30
0.0
 10
36.2149098381
 20
212.4322499239
 30
0.0
 10
36.0255598056
 20
211.8803559632
 30
0.0
 10
35.9600456072
 20
211.2997923441
 30
0.0
 10
35.9600325211
 20
211.0148924928
 30
0.0
  0
SPLINE
  5
327
100
AcDbEntity
  8
0
100
AcDbSpline
 62
7
  6
CONTINUOUS
 70
0
 71
3
 72
23
 73
19
 74
0
 42
0.0000001
 43
0.0000001
 44
0.0000000001
 40
0.0
 40
0.0
 40
0.0
 40
0.0
 40
0.0623921821
 40
0.1287433132
 40
0.1983464336
 40
0.2703343575
 40
0.3437240578
 40
0.4174689059
 40
0.4905058649
 40
0.5618044537
 40
0.6304130064
 40
0.6955110947
 40
0.7564683747
 40
0.8129145292
 40
0.8648231189
 40
0.9126052214
 40
0.9571863559
 40
1.0
 40
1.0
 40
1.0
 40
1.0
 10
55.2381622892
 20
218.7715878628
 30
0.0
 10
54.8429594582
 20
218.9997531618
 30
0.0
 10
53.9960195036
 20
219.4173298894
 30
0.0
 10
52.6298077344
 20
219.91235927
 30
0.0
 10
51.153404602
 20
220.287145565
 30
0.0
 10
49.598410541
 20
220.5337194154
 30
0.0
 10
47.9977820336
 20
220.6468603875
 30
0.0
 10
46.3856799554
 20
220.6241745589
 30
0.0
 10
44.7964952124
 20
220.4661310626
 30
0.0
 10
43.2640988627
 20
220.1761003762
 30
0.0
 10
41.8210438035
 20
219.7602079731
 30
0.0
 10
40.4978355127
 20
219.2271294432
 30
0.0
 10
39.3222714402
 20
218.5877461818
 30
0.0
 10
38.3189696236
 20
217.8546174634
 30
0.0
 10
37.5092890379
 20
217.0415342296
 30
0.0
 10
36.9119030548
 20
216.1628591778
 30
0.0
 10
36.543747403
 20
215.235972893
 30
0.0
 10
36.4600246257
 20
214.5940424818
 30
0.0
 10
36.4600249014
 20
214.2809021705
 30
0.0
  0
SPLINE
  5
328
100
AcDbEntity
  8
0
100
AcDbSpline
 62
7
  6
CONTINUOUS
 70
0
 71
3
 72
23
 73
19
 74
0
 42
0.0000001
 43
0.0000001
 44
0.0000000001
 40
0.0
 40
0.0
 40
0.0
 40
0.0
 40
0.0623907455
 40
0.128744083
 40
0.1983461473
 40
0.2703344141
 40
0.3437234304
 40
0.4174684769
 40
0.4905055985
 40
0.561804484
 40
0.630413325
 40
0.6955115424
 40
0.7564687783
 40
0.8129147861
 40
0.8648232101
 40
0.9126052013
 40
0.9571862678
 40
1.0
 40
1.0
 40
1.0
 40
1.0
 10
54.0007850375
 20
210.5046751909
 30
0.0
 10
53.6684635002
 20
210.3128104072
 30
0.0
 10
52.9562569218
 20
209.9616657505
 30
0.0
 10
51.8074019682
 20
209.5453718246
 30
0.0
 10
50.5658656964
 20
209.2302189482
 30
0.0
 10
49.258264513
 20
209.0228597211
 30
0.0
 10
47.9122783688
 20
208.9277182276
 30
0.0
 10
46.5566454017
 20
208.9467847414
 30
0.0
 10
45.2202769674
 20
209.0796786992
 30
0.0
 10
43.9316614709
 20
209.3235622398
 30
0.0
 10
42.7181742995
 20
209.6732875745
 30
0.0
 10
41.6054711808
 20
210.1215606565
 30
0.0
 10
40.6169277734
 20
210.6592279751
 30
0.0
 10
39.7732438183
 20
211.2757264015
 30
0.0
 10
39.0923791117
 20
211.9594576143
 30
0.0
 10
38.5900301236
 20
212.6983446295
 30
0.0
 10
38.2804519782
 20
213.4777717571
 30
0.0
 10
38.2100194678
 20
214.0175782621
 30
0.0
 10
38.2100366075
 20
214.2809020661
 30
0.0
  0
SPLINE
  5
329
100
AcDbEntity
  8
0
100
AcDbSpline
 62
7
  6
CONTINUOUS
 70
0
 71
3
 72
17
 73
13
 74
0
 42
0.0000001
 43
0.0000001
 44
0.0000000001
 40
0.0
 40
0.0
 40
0.0
 40
0.0
 40
0.0428584629
 40
0.08748393
 40
0.135317815
 40
0.1872795469
 40
0.3045398917
 40
0.4382057949
 40
0.5825481992
 40
0.7297130515
 40
0.8713063844
 40
1.0
 40
1.0
 40
1.0
 40
1.0
 10
54.6722918748
 20
212.6683121007
 30
0.0
 10
54.6722945684
 20
212.7038952766
 30
0.0
 10
54.6627564452
 20
212.776834862
 30
0.0
 10
54.6209464577
 20
212.8821650411
 30
0.0
 10
54.5530529028
 20
212.9820128978
 30
0.0
 10
54.4252680002
 20
213.1102679791
 30
0.0
 10
54.2075156958
 20
213.2428151247
 30
0.0
 10
53.8944283857
 20
213.3473980302
 30
0.0
 10
53.5430644823
 20
213.3967819819
 30
0.0
 10
53.1819129557
 20
213.3867845455
 30
0.0
 10
52.8404498537
 20
213.318482526
 30
0.0
 10
52.630941928
 20
213.2320366451
 30
0.0
 10
52.5384089796
 20
213.1786130414
 30
0.0
  0
SPLINE
  5
32A
100
AcDbEntity
  8
0
100
AcDbSpline
 62
7
  6
CONTINUOUS
 70
0
 71
3
 72
15
 73
11
 74
0
 42
0.0000001
 43
0.0000001
 44
0.0000000001
 40
0.0
 40
0.0
 40
0.0
 40
0.0
 40
0.0869258731
 40
0.1863900355
 40
0.3037775758
 40
0.4375856292
 40
0.582082136
 40
0.7293904368
 40
0.8711742898
 40
1.0
 40
1.0
 40
1.0
 40
1.0
 10
51.1522131297
 20
210.123059471
 30
0.0
 10
51.1522136553
 20
210.1518958279
 30
0.0
 10
51.1348144338
 20
210.2142965979
 30
0.0
 10
51.0667961995
 20
210.2916428283
 30
0.0
 10
50.9664034276
 20
210.3528205029
 30
0.0
 10
50.8410651591
 20
210.3947040386
 30
0.0
 10
50.7005609416
 20
210.4144352476
 30
0.0
 10
50.5560861629
 20
210.4104594356
 30
0.0
 10
50.4195038521
 20
210.383120121
 30
0.0
 10
50.3356893453
 20
210.3485477652
 30
0.0
 10
50.2986788278
 20
210.3271798605
 30
0.0
  0
SPLINE
  5
32B
100
AcDbEntity
  8
0
100
AcDbSpline
 62
7
  6
CONTINUOUS
 70
0
 71
3
 72
11
 73
7
 74
0
 42
0.0000001
 43
0.0000001
 44
0.0000000001
 40
0.0
 40
0.0
 40
0.0
 40
0.0
 40
0.2895468475
 40
0.5491384346
 40
0.782278826
 40
1.0
 40
1.0
 40
1.0
 40
1.0
 10
50.2986788278
 20
210.3271798605
 30
0.0
 10
50.2767517838
 20
210.3145203513
 30
0.0
 10
50.2369609638
 20
210.2870831806
 30
0.0
 10
50.1893624674
 20
210.2371132199
 30
0.0
 10
50.1592549298
 20
210.1817918267
 30
0.0
 10
50.1522545982
 20
210.1420979038
 30
0.0
 10
50.1522542512
 20
210.1230594955
 30
0.0
  0
SPLINE
  5
32C
100
AcDbEntity
  8
0
100
AcDbSpline
 62
7
  6
CONTINUOUS
 70
0
 71
3
 72
11
 73
7
 74
0
 42
0.0000001
 43
0.0000001
 44
0.0000000001
 40
0.0
 40
0.0
 40
0.0
 40
0.0
 40
0.2897031353
 40
0.5490914015
 40
0.7822201129
 40
1.0
 40
1.0
 40
1.0
 40
1.0
 10
52.5384089796
 20
213.1786130414
 30
0.0
 10
52.4835609074
 20
213.1469466811
 30
0.0
 10
52.3840521087
 20
213.0784082325
 30
0.0
 10
52.265122968
 20
212.9534231755
 30
0.0
 10
52.1898938543
 20
212.8151557532
 30
0.0
 10
52.1723040014
 20
212.7159217099
 30
0.0
 10
52.1723003974
 20
212.6683120959
 30
0.0
  0
SPLINE
  5
32D
100
AcDbEntity
  8
0
100
AcDbSpline
 62
7
  6
CONTINUOUS
 70
0
 71
3
 72
11
 73
7
 74
0
 42
0.0000001
 43
0.0000001
 44
0.0000000001
 40
0.0
 40
0.0
 40
0.0
 40
0.0
 40
0.2895468475
 40
0.5491384346
 40
0.782278826
 40
1.0
 40
1.0
 40
1.0
 40
1.0
 10
45.1248144241
 20
209.9906031327
 30
0.0
 10
45.1028873801
 20
209.9779436235
 30
0.0
 10
45.0630965601
 20
209.9505064528
 30
0.0
 10
45.0154980637
 20
209.9005364921
 30
0.0
 10
44.9853905261
 20
209.8452150989
 30
0.0
 10
44.9783901945
 20
209.805521176
 30
0.0
 10
44.9783898475
 20
209.7864827677
 30
0.0
  0
SPLINE
  5
32E
100
AcDbEntity
  8
0
100
AcDbSpline
 62
7
  6
CONTINUOUS
 70
0
 71
3
 72
11
 73
7
 74
0
 42
0.0000001
 43
0.0000001
 44
0.0000000001
 40
0.0
 40
0.0
 40
0.0
 40
0.0
 40
0.2897031353
 40
0.5490914015
 40
0.7822201129
 40
1.0
 40
1.0
 40
1.0
 40
1.0
 10
50.8187559467
 20
216.0159144109
 30
0.0
 10
50.7639078744
 20
215.9842480506
 30
0.0
 10
50.6643990758
 20
215.915709602
 30
0.0
 10
50.545469935
 20
215.7907245449
 30
0.0
 10
50.4702408213
 20
215.6524571226
 30
0.0
 10
50.4526509684
 20
215.5532230793
 30
0.0
 10
50.4526473645
 20
215.5056134653
 30
0.0
  0
SPLINE
  5
32F
100
AcDbEntity
  8
0
100
AcDbSpline
 62
7
  6
CONTINUOUS
 70
0
 71
3
 72
11
 73
7
 74
0
 42
0.0000001
 43
0.0000001
 44
0.0000000001
 40
0.0
 40
0.0
 40
0.0
 40
0.0
 40
0.2897031353
 40
0.5490914015
 40
0.7822201129
 40
1.0
 40
1.0
 40
1.0
 40
1.0
 10
46.5761329234
 20
213.5664494876
 30
0.0
 10
46.5212848511
 20
213.5347831274
 30
0.0
 10
46.4217760525
 20
213.4662446788
 30
0.0
 10
46.3028469118
 20
213.3412596217
 30
0.0
 10
46.227617798
 20
213.2029921994
 30
0.0
 10
46.2100279452
 20
213.1037581561
 30
0.0
 10
46.2100243412
 20
213.0561485421
 30
0.0
  0
SPLINE
  5
330
100
AcDbEntity
  8
0
100
AcDbSpline
 62
7
  6
CONTINUOUS
 70
0
 71
3
 72
11
 73
7
 74
0
 42
0.0000001
 43
0.0000001
 44
0.0000000001
 40
0.0
 40
0.0
 40
0.0
 40
0.0
 40
0.2895468475
 40
0.5491384346
 40
0.782278826
 40
1.0
 40
1.0
 40
1.0
 40
1.0
 10
41.443173486
 20
212.1161514331
 30
0.0
 10
41.4212464419
 20
212.1034919239
 30
0.0
 10
41.381455622
 20
212.0760547532
 30
0.0
 10
41.3338571255
 20
212.0260847925
 30
0.0
 10
41.3037495879
 20
211.9707633992
 30
0.0
 10
41.2967492563
 20
211.9310694764
 30
0.0
 10
41.2967489093
 20
211.9120310681
 30
0.0
  0
SPLINE
  5
331
100
AcDbEntity
  8
0
100
AcDbSpline
 62
7
  6
CONTINUOUS
 70
0
 71
3
 72
11
 73
7
 74
0
 42
0.0000001
 43
0.0000001
 44
0.0000000001
 40
0.0
 40
0.0
 40
0.0
 40
0.0
 40
0.2897031353
 40
0.5490914015
 40
0.7822201129
 40
1.0
 40
1.0
 40
1.0
 40
1.0
 10
45.9043212435
 20
217.0087187331
 30
0.0
 10
45.8494731712
 20
216.9770523729
 30
0.0
 10
45.7499643725
 20
216.9085139243
 30
0.0
 10
45.6310352318
 20
216.7835288672
 30
0.0
 10
45.5558061181
 20
216.6452614449
 30
0.0
 10
45.5382162652
 20
216.5460274016
 30
0.0
 10
45.5382126612
 20
216.4984177876
 30
0.0
  0
SPLINE
  5
332
100
AcDbEntity
  8
0
100
AcDbSpline
 62
7
  6
CONTINUOUS
 70
0
 71
3
 72
11
 73
7
 74
0
 42
0.0000001
 43
0.0000001
 44
0.0000000001
 40
0.0
 40
0.0
 40
0.0
 40
0.0
 40
0.2895519988
 40
0.5491419995
 40
0.7822793255
 40
1.0
 40
1.0
 40
1.0
 40
1.0
 10
42.0261067316
 20
215.1032435382
 30
0.0
 10
42.0041792787
 20
215.0905837929
 30
0.0
 10
41.9643880626
 20
215.0631465129
 30
0.0
 10
41.9167898345
 20
215.0131761926
 30
0.0
 10
41.8866824123
 20
214.9578551455
 30
0.0
 10
41.879682405
 20
214.9181615493
 30
0.0
 10
41.8796816541
 20
214.8991231685
 30
0.0
  0
SPLINE
  5
333
100
AcDbEntity
  8
0
100
AcDbSpline
 62
7
  6
CONTINUOUS
 70
0
 71
3
 72
16
 73
12
 74
0
 42
0.0000001
 43
0.0000001
 44
0.0000000001
 40
0.0
 40
0.0
 40
0.0
 40
0.0
 40
0.1447382841
 40
0.2898475463
 40
0.4308171673
 40
0.5637798739
 40
0.6862667017
 40
0.7979450756
 40
0.9010341423
 40
0.950709695
 40
1.0
 40
1.0
 40
1.0
 40
1.0
 10
60.9244890646
 20
189.0075808379
 30
0.0
 10
61.0883186433
 20
189.0317128584
 30
0.0
 10
61.420143732
 20
189.057244856
 30
0.0
 10
61.9136661395
 20
189.0300504751
 30
0.0
 10
62.3860118537
 20
188.9390085399
 30
0.0
 10
62.8154971163
 20
188.7873503189
 30
0.0
 10
63.1833607517
 20
188.5791471822
 30
0.0
 10
63.472878754
 20
188.3184377914
 30
0.0
 10
63.6346434307
 20
188.0558882174
 30
0.0
 10
63.6997357823
 20
187.8328734709
 30
0.0
 10
63.7107343472
 20
187.7193508425
 30
0.0
 10
63.7107343472
 20
187.6629570253
 30
0.0
  0
SPLINE
  5
334
100
AcDbEntity
  8
0
100
AcDbSpline
 62
7
  6
CONTINUOUS
 70
0
 71
3
 72
14
 73
10
 74
0
 42
0.0000001
 43
0.0000001
 44
0.0000000001
 40
0.0
 40
0.0
 40
0.0
 40
0.0
 40
0.1080475079
 40
0.218129458
 40
0.3321012995
 40
0.4515009845
 40
0.5774519083
 40
0.7107147531
 40
1.0
 40
1.0
 40
1.0
 40
1.0
 10
56.7100035522
 20
214.2809022743
 30
0.0
 10
56.7099921541
 20
214.1057880161
 30
0.0
 10
56.6796081714
 20
213.7515493674
 30
0.0
 10
56.5438495984
 20
213.2283393427
 30
0.0
 10
56.3198330295
 20
212.7163702655
 30
0.0
 10
56.0102757388
 20
212.2209248082
 30
0.0
 10
55.6187673193
 20
211.7463080054
 30
0.0
 10
54.9754476504
 20
211.1305994343
 30
0.0
 10
54.4068208319
 20
210.7390986668
 30
0.0
 10
54.0007850375
 20
210.5046751909
 30
0.0
  0
SPLINE
  5
335
100
AcDbEntity
  8
0
100
AcDbSpline
 62
7
  6
CONTINUOUS
 70
0
 71
3
 72
14
 73
10
 74
0
 42
0.0000001
 43
0.0000001
 44
0.0000000001
 40
0.0
 40
0.0
 40
0.0
 40
0.0
 40
0.1080477053
 40
0.2181300025
 40
0.3321016202
 40
0.4515004859
 40
0.5774546212
 40
0.7107147396
 40
1.0
 40
1.0
 40
1.0
 40
1.0
 10
58.4600152583
 20
214.2809021698
 30
0.0
 10
58.4600150749
 20
214.4891492786
 30
0.0
 10
58.423819786
 20
214.9104076397
 30
0.0
 10
58.2624297318
 20
215.5326224939
 30
0.0
 10
57.9959961738
 20
216.1414470383
 30
0.0
 10
57.6278754425
 20
216.7306394555
 30
0.0
 10
57.1622817665
 20
217.2950487603
 30
0.0
 10
56.3972357548
 20
218.0272450501
 30
0.0
 10
55.7210240641
 20
218.4928137938
 30
0.0
 10
55.2381622892
 20
218.7715878628
 30
0.0
  0
SPLINE
  5
336
100
AcDbEntity
  8
0
100
AcDbSpline
 62
7
  6
CONTINUOUS
 70
0
 71
3
 72
12
 73
8
 74
0
 42
0.0000001
 43
0.0000001
 44
0.0000000001
 40
0.0
 40
0.0
 40
0.0
 40
0.0
 40
0.1084462611
 40
0.2185541828
 40
0.4508569451
 40
0.7096761289
 40
1.0
 40
1.0
 40
1.0
 40
1.0
 10
61.3447513374
 20
198.6889313828
 30
0.0
 10
61.3469492571
 20
198.7403927565
 30
0.0
 10
61.3422281844
 20
198.8447333063
 30
0.0
 10
61.2952854923
 20
199.0546232201
 30
0.0
 10
61.1625513631
 20
199.3131206212
 30
0.0
 10
60.9070079615
 20
199.5869457582
 30
0.0
 10
60.6910049747
 20
199.7364593667
 30
0.0
 10
60.5715846152
 20
199.8054051836
 30
0.0
  0
SPLINE
  5
337
100
AcDbEntity
  8
0
100
AcDbSpline
 62
7
  6
CONTINUOUS
 70
0
 71
3
 72
11
 73
7
 74
0
 42
0.0000001
 43
0.0000001
 44
0.0000000001
 40
0.0
 40
0.0
 40
0.0
 40
0.0
 40
0.2179138381
 40
0.4504072943
 40
0.7094385421
 40
1.0
 40
1.0
 40
1.0
 40
1.0
 10
35.3161846444
 20
200.8350580835
 30
0.0
 10
35.3192864735
 20
200.7624329062
 30
0.0
 10
35.2981998511
 20
200.6100001135
 30
0.0
 10
35.1880924459
 20
200.3964840918
 30
0.0
 10
35.0085075969
 20
200.2037879172
 30
0.0
 10
34.8566720196
 20
200.0987509644
 30
0.0
 10
34.7727323161
 20
200.0502886433
 30
0.0
  0
SPLINE
  5
338
100
AcDbEntity
  8
0
100
AcDbSpline
 62
7
  6
CONTINUOUS
 70
0
 71
3
 72
12
 73
8
 74
0
 42
0.0000001
 43
0.0000001
 44
0.0000000001
 40
0.0
 40
0.0
 40
0.0
 40
0.0
 40
0.1084462611
 40
0.2185541828
 40
0.4508569451
 40
0.7096761289
 40
1.0
 40
1.0
 40
1.0
 40
1.0
 10
61.3447213089
 20
202.8530044156
 30
0.0
 10
61.3469192286
 20
202.9044657893
 30
0.0
 10
61.3421981559
 20
203.0088063391
 30
0.0
 10
61.2952554638
 20
203.2186962529
 30
0.0
 10
61.1625213346
 20
203.477193654
 30
0.0
 10
60.906977933
 20
203.751018791
 30
0.0
 10
60.6909749462
 20
203.9005323995
 30
0.0
 10
60.5715545868
 20
203.9694782164
 30
0.0
  0
SPLINE
  5
339
100
AcDbEntity
  8
0
100
AcDbSpline
 62
7
  6
CONTINUOUS
 70
0
 71
3
 72
9
 73
5
 74
0
 42
0.0000001
 43
0.0000001
 44
0.0000000001
 40
0.0
 40
0.0
 40
0.0
 40
0.0
 40
0.4916754483
 40
1.0
 40
1.0
 40
1.0
 40
1.0
 10
58.9600076386
 20
211.0148925106
 30
0.0
 10
58.9600211855
 20
211.3098256535
 30
0.0
 10
58.8895973855
 20
211.9115901051
 30
0.0
 10
58.6868338683
 20
212.4815470775
 30
0.0
 10
58.5568884283
 20
212.7573921218
 30
0.0
  0
SPLINE
  5
33A
100
AcDbEntity
  8
0
100
AcDbSpline
 62
7
  6
CONTINUOUS
 70
0
 71
3
 72
11
 73
7
 74
0
 42
0.0000001
 43
0.0000001
 44
0.0000000001
 40
0.0
 40
0.0
 40
0.0
 40
0.0
 40
0.2306873806
 40
0.4695292945
 40
0.7241992333
 40
1.0
 40
1.0
 40
1.0
 40
1.0
 10
45.2100783704
 20
179.5797227787
 30
0.0
 10
45.2100783704
 20
179.6784866436
 30
0.0
 10
45.2449671955
 20
179.8809048211
 30
0.0
 10
45.3927643487
 20
180.1582681305
 30
0.0
 10
45.6202396213
 20
180.4006194689
 30
0.0
 10
45.8082450118
 20
180.5307828311
 30
0.0
 10
45.9105038815
 20
180.5898216647
 30
0.0
  0
SPLINE
  5
33B
100
AcDbEntity
  8
0
100
AcDbSpline
 62
7
  6
CONTINUOUS
 70
0
 71
3
 72
17
 73
13
 74
0
 42
0.0000001
 43
0.0000001
 44
0.0000000001
 40
0.0
 40
0.0
 40
0.0
 40
0.0
 40
0.12732362
 40
0.2655235758
 40
0.4084844858
 40
0.548769644
 40
0.67966204
 40
0.7971290326
 40
0.8509934865
 40
0.9022152716
 40
0.9515047567
 40
1.0
 40
1.0
 40
1.0
 40
1.0
 10
45.9105038815
 20
180.5898216647
 30
0.0
 10
46.0760066645
 20
180.6853741706
 30
0.0
 10
46.4479812201
 20
180.83925597
 30
0.0
 10
47.0522916425
 20
180.9592084404
 30
0.0
 10
47.6877591824
 20
180.9745030492
 30
0.0
 10
48.3060148719
 20
180.8836838437
 30
0.0
 10
48.860895186
 20
180.6923243528
 30
0.0
 10
49.2501222491
 20
180.4471918723
 30
0.0
 10
49.4830777369
 20
180.2055969296
 30
0.0
 10
49.6110148443
 20
180.0105016509
 30
0.0
 10
49.6916059221
 20
179.7998920551
 30
0.0
 10
49.7100783704
 20
179.6525115161
 30
0.0
 10
49.7100783704
 20
179.5797227787
 30
0.0
  0
SPLINE
  5
33C
100
AcDbEntity
  8
0
100
AcDbSpline
 62
7
  6
CONTINUOUS
 70
0
 71
3
 72
9
 73
5
 74
0
 42
0.0000001
 43
0.0000001
 44
0.0000000001
 40
0.0
 40
0.0
 40
0.0
 40
0.0
 40
0.495257018
 40
1.0
 40
1.0
 40
1.0
 40
1.0
 10
59.2100073403
 20
202.4416171304
 30
0.0
 10
59.2100177201
 20
202.6659072939
 30
0.0
 10
59.1707261388
 20
203.1196030818
 30
0.0
 10
59.055533666
 20
203.5599458372
 30
0.0
 10
58.9805049991
 20
203.7758678576
 30
0.0
  0
SPLINE
  5
33D
100
AcDbEntity
  8
0
100
AcDbSpline
 62
7
  6
CONTINUOUS
 70
0
 71
3
 72
11
 73
7
 74
0
 42
0.0000001
 43
0.0000001
 44
0.0000000001
 40
0.0
 40
0.0
 40
0.0
 40
0.0
 40
0.2306873806
 40
0.4695292945
 40
0.7241992333
 40
1.0
 40
1.0
 40
1.0
 40
1.0
 10
31.2093058125
 20
187.6628897182
 30
0.0
 10
31.2093058125
 20
187.7616535831
 30
0.0
 10
31.2441946376
 20
187.9640717606
 30
0.0
 10
31.3919917908
 20
188.24143507
 30
0.0
 10
31.6194670634
 20
188.4837864084
 30
0.0
 10
31.8074724539
 20
188.6139497706
 30
0.0
 10
31.9097313236
 20
188.6729886042
 30
0.0
  0
SPLINE
  5
33E
100
AcDbEntity
  8
0
100
AcDbSpline
 62
7
  6
CONTINUOUS
 70
0
 71
3
 72
11
 73
7
 74
0
 42
0.0000001
 43
0.0000001
 44
0.0000000001
 40
0.0
 40
0.0
 40
0.0
 40
0.0
 40
0.230931314
 40
0.4802076677
 40
0.7399293875
 40
1.0
 40
1.0
 40
1.0
 40
1.0
 10
31.9097313236
 20
188.6729886042
 30
0.0
 10
32.0529926279
 20
188.755700063
 30
0.0
 10
32.3710462403
 20
188.8936670529
 30
0.0
 10
32.8888353589
 20
189.0165580001
 30
0.0
 10
33.4400237564
 20
189.0601757603
 30
0.0
 10
33.8131505335
 20
189.0345123208
 30
0.0
 10
33.9974402399
 20
189.0072375992
 30
0.0
  0
SPLINE
  5
33F
100
AcDbEntity
  8
0
100
AcDbSpline
 62
7
  6
CONTINUOUS
 70
0
 71
3
 72
11
 73
7
 74
0
 42
0.0000001
 43
0.0000001
 44
0.0000000001
 40
0.0
 40
0.0
 40
0.0
 40
0.0
 40
0.2889228682
 40
0.5484192683
 40
0.782234259
 40
1.0
 40
1.0
 40
1.0
 40
1.0
 10
34.7727213796
 20
201.5668749388
 30
0.0
 10
34.851821218
 20
201.5212076589
 30
0.0
 10
34.9957222844
 20
201.4226125591
 30
0.0
 10
35.1693562004
 20
201.2437090691
 30
0.0
 10
35.2824884172
 20
201.0462529365
 30
0.0
 10
35.3132470958
 20
200.9038368526
 30
0.0
 10
35.3161846444
 20
200.8350580835
 30
0.0
  0
SPLINE
  5
340
100
AcDbEntity
  8
0
100
AcDbSpline
 62
7
  6
CONTINUOUS
 70
0
 71
3
 72
14
 73
10
 74
0
 42
0.0000001
 43
0.0000001
 44
0.0000000001
 40
0.0
 40
0.0
 40
0.0
 40
0.0
 40
0.2892820265
 40
0.4225404649
 40
0.548498026
 40
0.6678964531
 40
0.7818698434
 40
0.8919530505
 40
1.0
 40
1.0
 40
1.0
 40
1.0
 10
39.1515499926
 20
196.0117434796
 30
0.0
 10
38.6357714948
 20
196.3095215975
 30
0.0
 10
37.9134612155
 20
196.8068272278
 30
0.0
 10
37.0962579923
 20
197.588944718
 30
0.0
 10
36.5988976949
 20
198.1918244184
 30
0.0
 10
36.2056984289
 20
198.8212127774
 30
0.0
 10
35.9210699327
 20
199.4715400416
 30
0.0
 10
35.7486864792
 20
200.1361866224
 30
0.0
 10
35.7100226055
 20
200.5861680114
 30
0.0
 10
35.7100328962
 20
200.8086122712
 30
0.0
  0
SPLINE
  5
341
100
AcDbEntity
  8
0
100
AcDbSpline
 62
7
  6
CONTINUOUS
 70
0
 71
3
 72
15
 73
11
 74
0
 42
0.0000001
 43
0.0000001
 44
0.0000000001
 40
0.0
 40
0.0
 40
0.0
 40
0.0
 40
0.0869258731
 40
0.1863900355
 40
0.3037775758
 40
0.4375856292
 40
0.582082136
 40
0.7293904368
 40
0.8711742898
 40
1.0
 40
1.0
 40
1.0
 40
1.0
 10
44.9783898475
 20
209.7864827677
 30
0.0
 10
44.9783893218
 20
209.7576464108
 30
0.0
 10
44.9957885433
 20
209.6952456408
 30
0.0
 10
45.0638067776
 20
209.6178994104
 30
0.0
 10
45.1641995495
 20
209.5567217357
 30
0.0
 10
45.289537818
 20
209.5148382001
 30
0.0
 10
45.4300420355
 20
209.4951069911
 30
0.0
 10
45.5745168142
 20
209.4990828031
 30
0.0
 10
45.711099125
 20
209.5264221177
 30
0.0
 10
45.7949136319
 20
209.5609944735
 30
0.0
 10
45.8319241493
 20
209.5823623782
 30
0.0
  0
SPLINE
  5
342
100
AcDbEntity
  8
0
100
AcDbSpline
 62
7
  6
CONTINUOUS
 70
0
 71
3
 72
11
 73
7
 74
0
 42
0.0000001
 43
0.0000001
 44
0.0000000001
 40
0.0
 40
0.0
 40
0.0
 40
0.0
 40
0.2602431929
 40
0.5216769552
 40
0.7718138644
 40
1.0
 40
1.0
 40
1.0
 40
1.0
 10
60.8052978701
 20
186.4202818895
 30
0.0
 10
61.0026190883
 20
186.3856071825
 30
0.0
 10
61.4045219044
 20
186.3489078561
 30
0.0
 10
61.9998453102
 20
186.3859768649
 30
0.0
 10
62.5578740288
 20
186.5111743718
 30
0.0
 10
62.8995997767
 20
186.6565827171
 30
0.0
 10
63.0517312288
 20
186.7444153277
 30
0.0
  0
SPLINE
  5
343
100
AcDbEntity
  8
0
100
AcDbSpline
 62
7
  6
CONTINUOUS
 70
0
 71
3
 72
15
 73
11
 74
0
 42
0.0000001
 43
0.0000001
 44
0.0000000001
 40
0.0
 40
0.0
 40
0.0
 40
0.0
 40
0.1141447985
 40
0.2373324971
 40
0.3669747555
 40
0.5000005214
 40
0.6330262147
 40
0.7626682613
 40
0.8858556261
 40
1.0
 40
1.0
 40
1.0
 40
1.0
 10
45.8690947367
 20
178.6611734325
 30
0.0
 10
45.9780014578
 20
178.5982975301
 30
0.0
 10
46.21617637
 20
178.4874035745
 30
0.0
 10
46.6040050776
 20
178.3695027851
 30
0.0
 10
47.023915121
 20
178.2969722424
 30
0.0
 10
47.4600876774
 20
178.2724725773
 30
0.0
 10
47.8962598851
 20
178.2969743125
 30
0.0
 10
48.3161688984
 20
178.3695068491
 30
0.0
 10
48.7039959363
 20
178.4874094821
 30
0.0
 10
48.9421693894
 20
178.5983046273
 30
0.0
 10
49.051075252
 20
178.661181081
 30
0.0
  0
SPLINE
  5
344
100
AcDbEntity
  8
0
100
AcDbSpline
 62
7
  6
CONTINUOUS
 70
0
 71
3
 72
11
 73
7
 74
0
 42
0.0000001
 43
0.0000001
 44
0.0000000001
 40
0.0
 40
0.0
 40
0.0
 40
0.0
 40
0.2897733512
 40
0.5490657165
 40
0.7822241652
 40
1.0
 40
1.0
 40
1.0
 40
1.0
 10
49.051075252
 20
178.661181081
 30
0.0
 10
49.149826521
 20
178.7181948124
 30
0.0
 10
49.3289644825
 20
178.8415253892
 30
0.0
 10
49.5429898174
 20
179.0665458197
 30
0.0
 10
49.6784192528
 20
179.315387082
 30
0.0
 10
49.7100678602
 20
179.4940263646
 30
0.0
 10
49.7100678591
 20
179.5797227787
 30
0.0
  0
SPLINE
  5
345
100
AcDbEntity
  8
0
100
AcDbSpline
 62
7
  6
CONTINUOUS
 70
0
 71
3
 72
21
 73
17
 74
0
 42
0.0000001
 43
0.0000001
 44
0.0000000001
 40
0.0
 40
0.0
 40
0.0
 40
0.0
 40
0.0590191841
 40
0.1118285276
 40
0.1596105451
 40
0.2047571713
 40
0.2504746784
 40
0.2997831475
 40
0.3546577321
 40
0.4158460488
 40
0.4830863992
 40
0.5553903729
 40
0.708723078
 40
0.861618015
 40
0.9334213332
 40
1.0
 40
1.0
 40
1.0
 40
1.0
 10
45.9475180433
 20
180.541888962
 30
0.0
 10
45.8629010068
 20
180.4884652623
 30
0.0
 10
45.7102555185
 20
180.3737237464
 30
0.0
 10
45.5319920604
 20
180.1667366284
 30
0.0
 10
45.425063519
 20
179.9398281622
 30
0.0
 10
45.39782979
 20
179.7017074926
 30
0.0
 10
45.4533528105
 20
179.4661040909
 30
0.0
 10
45.5858854618
 20
179.2453543425
 30
0.0
 10
45.7868697436
 20
179.0465590678
 30
0.0
 10
46.0479775505
 20
178.8749921154
 30
0.0
 10
46.3599016147
 20
178.735706038
 30
0.0
 10
46.8379302745
 20
178.5966900109
 30
0.0
 10
47.4822606769
 20
178.5315841209
 30
0.0
 10
48.125052148
 20
178.604651802
 30
0.0
 10
48.5983006962
 20
178.7498941138
 30
0.0
 10
48.8118890994
 20
178.8496858607
 30
0.0
 10
48.9096533069
 20
178.9061297153
 30
0.0
  0
SPLINE
  5
346
100
AcDbEntity
  8
0
100
AcDbSpline
 62
7
  6
CONTINUOUS
 70
0
 71
3
 72
21
 73
17
 74
0
 42
0.0000001
 43
0.0000001
 44
0.0000000001
 40
0.0
 40
0.0
 40
0.0
 40
0.0
 40
0.0604054146
 40
0.1144564078
 40
0.1630589123
 40
0.2084539708
 40
0.2538474127
 40
0.3024539839
 40
0.3564958933
 40
0.416906795
 40
0.4835286246
 40
0.5554124705
 40
0.7084478395
 40
0.8614856265
 40
0.9333823193
 40
1.0
 40
1.0
 40
1.0
 40
1.0
 10
48.9096533069
 20
178.9061297153
 30
0.0
 10
48.999628063
 20
178.9580763549
 30
0.0
 10
49.1628438599
 20
179.0704624825
 30
0.0
 10
49.3578448251
 20
179.2754201381
 30
0.0
 10
49.481233252
 20
179.5023408585
 30
0.0
 10
49.5239865992
 20
179.7430196185
 30
0.0
 10
49.4812383727
 20
179.9837131799
 30
0.0
 10
49.3578420525
 20
180.2105999801
 30
0.0
 10
49.162806853
 20
180.4156156286
 30
0.0
 10
48.9048475426
 20
180.5932463157
 30
0.0
 10
48.5934817132
 20
180.7382352625
 30
0.0
 10
48.1124245074
 20
180.8843422574
 30
0.0
 10
47.4601199184
 20
180.955293371
 30
0.0
 10
46.8077124218
 20
180.8843437175
 30
0.0
 10
46.3267525753
 20
180.7382692869
 30
0.0
 10
46.1097314519
 20
180.6372057898
 30
0.0
 10
46.0105034338
 20
180.5799168089
 30
0.0
  0
SPLINE
  5
347
100
AcDbEntity
  8
0
100
AcDbSpline
 62
7
  6
CONTINUOUS
 70
0
 71
3
 72
11
 73
7
 74
0
 42
0.0000001
 43
0.0000001
 44
0.0000000001
 40
0.0
 40
0.0
 40
0.0
 40
0.0
 40
0.2281866977
 40
0.4783239285
 40
0.7397575564
 40
1.0
 40
1.0
 40
1.0
 40
1.0
 10
31.8683221787
 20
186.744340372
 30
0.0
 10
32.0204557208
 20
186.6565080176
 30
0.0
 10
32.3621855135
 20
186.5111007154
 30
0.0
 10
32.9202196014
 20
186.385905898
 30
0.0
 10
33.5155470784
 20
186.3488407874
 30
0.0
 10
33.9174518191
 20
186.3855434717
 30
0.0
 10
34.114773564
 20
186.4202200797
 30
0.0
  0
SPLINE
  5
348
100
AcDbEntity
  8
0
100
AcDbSpline
 62
7
  6
CONTINUOUS
 70
0
 71
3
 72
20
 73
16
 74
0
 42
0.0000001
 43
0.0000001
 44
0.0000000001
 40
0.0
 40
0.0
 40
0.0
 40
0.0
 40
0.0608462325
 40
0.1162447112
 40
0.1668377353
 40
0.2140712514
 40
0.2600524966
 40
0.3072069475
 40
0.3576715356
 40
0.4128916757
 40
0.4735375142
 40
0.5396064457
 40
0.6853452217
 40
0.8424115937
 40
1.0
 40
1.0
 40
1.0
 40
1.0
 10
31.9467454854
 20
188.6250559015
 30
0.0
 10
31.8744124672
 20
188.5793878233
 30
0.0
 10
31.742001453
 20
188.4822127941
 30
0.0
 10
31.5792606601
 20
188.3113153999
 30
0.0
 10
31.4662809705
 20
188.1255739159
 30
0.0
 10
31.40755207
 20
187.9294818174
 30
0.0
 10
31.4066117568
 20
187.7293575213
 30
0.0
 10
31.4634993371
 20
187.5330097331
 30
0.0
 10
31.5748108497
 20
187.3468812429
 30
0.0
 10
31.7360089692
 20
187.1754412892
 30
0.0
 10
31.9422881533
 20
187.0223120142
 30
0.0
 10
32.2811483034
 20
186.8413774601
 30
0.0
 10
32.7816108083
 20
186.687600577
 30
0.0
 10
33.428861706
 20
186.6223324977
 30
0.0
 10
33.8729466973
 20
186.659493923
 30
0.0
 10
34.0907302486
 20
186.7001842185
 30
0.0
  0
SPLINE
  5
349
100
AcDbEntity
  8
0
100
AcDbSpline
 62
7
  6
CONTINUOUS
 70
0
 71
3
 72
11
 73
7
 74
0
 42
0.0000001
 43
0.0000001
 44
0.0000000001
 40
0.0
 40
0.0
 40
0.0
 40
0.0
 40
0.2610080061
 40
0.5222851752
 40
0.7719705141
 40
1.0
 40
1.0
 40
1.0
 40
1.0
 10
34.0046036331
 20
188.9670921428
 30
0.0
 10
33.8283132642
 20
188.9951689356
 30
0.0
 10
33.47054415
 20
189.0231134602
 30
0.0
 10
32.9419596888
 20
188.9852003166
 30
0.0
 10
32.4475063551
 20
188.8709350444
 30
0.0
 10
32.1447938555
 20
188.7410619305
 30
0.0
 10
32.0097308759
 20
188.6630837484
 30
0.0
  0
SPLINE
  5
34A
100
AcDbEntity
  8
0
100
AcDbSpline
 62
7
  6
CONTINUOUS
 70
0
 71
3
 72
17
 73
13
 74
0
 42
0.0000001
 43
0.0000001
 44
0.0000000001
 40
0.0
 40
0.0
 40
0.0
 40
0.0
 40
0.0428584629
 40
0.08748393
 40
0.135317815
 40
0.1872795469
 40
0.3045398917
 40
0.4382057949
 40
0.5825481992
 40
0.7297130515
 40
0.8713063844
 40
1.0
 40
1.0
 40
1.0
 40
1.0
 10
52.1723003974
 20
212.6683120959
 30
0.0
 10
52.1722977038
 20
212.63272892
 30
0.0
 10
52.181835827
 20
212.5597893345
 30
0.0
 10
52.2236458145
 20
212.4544591555
 30
0.0
 10
52.2915393693
 20
212.3546112987
 30
0.0
 10
52.419324272
 20
212.2263562175
 30
0.0
 10
52.6370765764
 20
212.0938090718
 30
0.0
 10
52.9501638865
 20
211.9892261664
 30
0.0
 10
53.3015277898
 20
211.9398422147
 30
0.0
 10
53.6626793165
 20
211.949839651
 30
0.0
 10
54.0041424185
 20
212.0181416706
 30
0.0
 10
54.2136503442
 20
212.1045875514
 30
0.0
 10
54.3061832925
 20
212.1580111551
 30
0.0
  0
SPLINE
  5
34B
100
AcDbEntity
  8
0
100
AcDbSpline
 62
7
  6
CONTINUOUS
 70
0
 71
3
 72
24
 73
20
 74
0
 42
0.0000001
 43
0.0000001
 44
0.0000000001
 40
0.0
 40
0.0
 40
0.0
 40
0.0
 40
0.0623881543
 40
0.1287323586
 40
0.1983303972
 40
0.2703124011
 40
0.3436953949
 40
0.4174329837
 40
0.490463091
 40
0.5617551026
 40
0.6303576637
 40
0.6954503799
 40
0.7564028115
 40
0.81284454
 40
0.8647490476
 40
0.9125273345
 40
0.9571048211
 40
0.9786665845
 40
1.0
 40
1.0
 40
1.0
 40
1.0
 10
39.1515499926
 20
197.6447483138
 30
0.0
 10
39.5737072754
 20
197.4010212068
 30
0.0
 10
40.4783914019
 20
196.9549681695
 30
0.0
 10
41.9377649849
 20
196.4261971984
 30
0.0
 10
43.5148271062
 20
196.0258439034
 30
0.0
 10
45.1758504947
 20
195.762467917
 30
0.0
 10
46.8856027775
 20
195.641605785
 30
0.0
 10
48.6076053127
 20
195.6658405393
 30
0.0
 10
50.3051277642
 20
195.8346540443
 30
0.0
 10
51.9419966884
 20
196.1444552441
 30
0.0
 10
53.483439477
 20
196.5887008712
 30
0.0
 10
54.8968707677
 20
197.158120366
 30
0.0
 10
56.1525938177
 20
197.8411130089
 30
0.0
 10
57.2243123077
 20
198.6241875113
 30
0.0
 10
58.0891969498
 20
199.4928612556
 30
0.0
 10
58.7273387359
 20
200.4309647689
 30
0.0
 10
59.0587103451
 20
201.2667989321
 30
0.0
 10
59.1884665575
 20
201.9393644568
 30
0.0
 10
59.2099996263
 20
202.2749310046
 30
0.0
 10
59.2100073403
 20
202.4416171304
 30
0.0
  0
SPLINE
  5
34C
100
AcDbEntity
  8
0
100
AcDbSpline
 62
7
  6
CONTINUOUS
 70
0
 71
3
 72
14
 73
10
 74
0
 42
0.0000001
 43
0.0000001
 44
0.0000000001
 40
0.0
 40
0.0
 40
0.0
 40
0.0
 40
0.289280379
 40
0.4225387331
 40
0.5484964493
 40
0.6678946053
 40
0.7818677127
 40
0.8919517501
 40
1.0
 40
1.0
 40
1.0
 40
1.0
 10
39.3283259519
 20
197.7468093523
 30
0.0
 10
38.8235243415
 20
198.0382501047
 30
0.0
 10
38.1165852859
 20
198.5249725714
 30
0.0
 10
37.3167703378
 20
199.2904456762
 30
0.0
 10
36.8299917475
 20
199.8804972642
 30
0.0
 10
36.4451571364
 20
200.4964925241
 30
0.0
 10
36.1665822821
 20
201.1329827878
 30
0.0
 10
35.9978660921
 20
201.7834915972
 30
0.0
 10
35.960022395
 20
202.2239030776
 30
0.0
 10
35.9600327588
 20
202.4416171004
 30
0.0
  0
SPLINE
  5
34D
100
AcDbEntity
  8
0
100
AcDbSpline
 62
7
  6
CONTINUOUS
 70
0
 71
3
 72
17
 73
13
 74
0
 42
0.0000001
 43
0.0000001
 44
0.0000000001
 40
0.0
 40
0.0
 40
0.0
 40
0.0
 40
0.0428584629
 40
0.08748393
 40
0.135317815
 40
0.1872795469
 40
0.3045398917
 40
0.4382057949
 40
0.5825481992
 40
0.7297130515
 40
0.8713063844
 40
1.0
 40
1.0
 40
1.0
 40
1.0
 10
45.5382126612
 20
216.4984177876
 30
0.0
 10
45.5382099676
 20
216.4628346117
 30
0.0
 10
45.5477480908
 20
216.3898950263
 30
0.0
 10
45.5895580783
 20
216.2845648472
 30
0.0
 10
45.6574516332
 20
216.1847169905
 30
0.0
 10
45.7852365358
 20
216.0564619092
 30
0.0
 10
46.0029888402
 20
215.9239147635
 30
0.0
 10
46.3160761503
 20
215.8193318581
 30
0.0
 10
46.6674400537
 20
215.7699479064
 30
0.0
 10
47.0285915803
 20
215.7799453427
 30
0.0
 10
47.3700546823
 20
215.8482473623
 30
0.0
 10
47.579562608
 20
215.9346932431
 30
0.0
 10
47.6720955564
 20
215.9881168468
 30
0.0
  0
SPLINE
  5
34E
100
AcDbEntity
  8
0
100
AcDbSpline
 62
7
  6
CONTINUOUS
 70
0
 71
3
 72
24
 73
20
 74
0
 42
0.0000001
 43
0.0000001
 44
0.0000000001
 40
0.0
 40
0.0
 40
0.0
 40
0.0
 40
0.0623878365
 40
0.1287318969
 40
0.1983299735
 40
0.2703117774
 40
0.3436955075
 40
0.4174339826
 40
0.4904648601
 40
0.5617576072
 40
0.6303598247
 40
0.695451545
 40
0.7564033611
 40
0.8128449363
 40
0.8647494006
 40
0.912527575
 40
0.9571049269
 40
0.9786666358
 40
1.0
 40
1.0
 40
1.0
 40
1.0
 10
39.3283259519
 20
206.3200847321
 30
0.0
 10
39.7414990555
 20
206.0815445261
 30
0.0
 10
40.6269310985
 20
205.6449829941
 30
0.0
 10
42.0552509248
 20
205.1274630297
 30
0.0
 10
43.5987559651
 20
204.7356274304
 30
0.0
 10
45.2244425469
 20
204.4778531755
 30
0.0
 10
46.8978280281
 20
204.3595618418
 30
0.0
 10
48.5832105247
 20
204.3832825171
 30
0.0
 10
50.2446334713
 20
204.5485088326
 30
0.0
 10
51.8466832335
 20
204.8517251458
 30
0.0
 10
53.3553235819
 20
205.2865219436
 30
0.0
 10
54.7386665069
 20
205.8438239975
 30
0.0
 10
55.9676589189
 20
206.5122805641
 30
0.0
 10
57.0165689002
 20
207.2786915274
 30
0.0
 10
57.8630489472
 20
208.1288822182
 30
0.0
 10
58.4876111311
 20
209.0470249007
 30
0.0
 10
58.8119300414
 20
209.865073549
 30
0.0
 10
58.9389260192
 20
210.5233272061
 30
0.0
 10
58.9600001452
 20
210.8517532928
 30
0.0
 10
58.9600076386
 20
211.0148925106
 30
0.0
  0
SPLINE
  5
34F
100
AcDbEntity
  8
0
100
AcDbSpline
 62
7
  6
CONTINUOUS
 70
0
 71
3
 72
14
 73
10
 74
0
 42
0.0000001
 43
0.0000001
 44
0.0000000001
 40
0.0
 40
0.0
 40
0.0
 40
0.0
 40
0.2892813285
 40
0.4225408356
 40
0.5484954049
 40
0.6678948454
 40
0.7818674214
 40
0.8919509063
 40
1.0
 40
1.0
 40
1.0
 40
1.0
 10
39.6818778705
 20
206.5242068091
 30
0.0
 10
39.1990226559
 20
206.8029770906
 30
0.0
 10
38.5228182408
 20
207.2685403841
 30
0.0
 10
37.7577748943
 20
208.0007278934
 30
0.0
 10
37.2921781476
 20
208.5651357218
 30
0.0
 10
36.9240533089
 20
209.1543300195
 30
0.0
 10
36.6576145738
 20
209.7631580895
 30
0.0
 10
36.4962218566
 20
210.3853794469
 30
0.0
 10
36.4600258536
 20
210.8066427163
 30
0.0
 10
36.4600251806
 20
211.0148925019
 30
0.0
  0
SPLINE
  5
350
100
AcDbEntity
  8
0
100
AcDbSpline
 62
7
  6
CONTINUOUS
 70
0
 71
3
 72
23
 73
19
 74
0
 42
0.0000001
 43
0.0000001
 44
0.0000000001
 40
0.0
 40
0.0
 40
0.0
 40
0.0
 40
0.0623921821
 40
0.1287433132
 40
0.1983464336
 40
0.2703343575
 40
0.3437240578
 40
0.4174689059
 40
0.4905058649
 40
0.5618044537
 40
0.6304130064
 40
0.6955110947
 40
0.7564683747
 40
0.8129145292
 40
0.8648231189
 40
0.9126052214
 40
0.9571863559
 40
1.0
 40
1.0
 40
1.0
 40
1.0
 10
39.6818778705
 20
209.7902164776
 30
0.0
 10
40.0770807015
 20
209.5620511785
 30
0.0
 10
40.9240206561
 20
209.144474451
 30
0.0
 10
42.2902324253
 20
208.6494450704
 30
0.0
 10
43.7666355577
 20
208.2746587753
 30
0.0
 10
45.3216296187
 20
208.028084925
 30
0.0
 10
46.9222581261
 20
207.9149439529
 30
0.0
 10
48.5343602043
 20
207.9376297814
 30
0.0
 10
50.1235449473
 20
208.0956732778
 30
0.0
 10
51.655941297
 20
208.3857039642
 30
0.0
 10
53.0989963562
 20
208.8015963673
 30
0.0
 10
54.422204647
 20
209.3346748972
 30
0.0
 10
55.5977687195
 20
209.9740581586
 30
0.0
 10
56.6010705361
 20
210.7071868769
 30
0.0
 10
57.4107511218
 20
211.5202701108
 30
0.0
 10
58.0081371049
 20
212.3989451626
 30
0.0
 10
58.3762927567
 20
213.3258314474
 30
0.0
 10
58.460015534
 20
213.9677618586
 30
0.0
 10
58.4600152583
 20
214.2809021698
 30
0.0
  0
SPLINE
  5
351
100
AcDbEntity
  8
0
100
AcDbSpline
 62
7
  6
CONTINUOUS
 70
0
 71
3
 72
23
 73
19
 74
0
 42
0.0000001
 43
0.0000001
 44
0.0000000001
 40
0.0
 40
0.0
 40
0.0
 40
0.0
 40
0.0623907455
 40
0.128744083
 40
0.1983461473
 40
0.2703344141
 40
0.3437234304
 40
0.4174684769
 40
0.4905055985
 40
0.561804484
 40
0.630413325
 40
0.6955115424
 40
0.7564687783
 40
0.8129147861
 40
0.8648232101
 40
0.9126052013
 40
0.9571862678
 40
1.0
 40
1.0
 40
1.0
 40
1.0
 10
40.9192551222
 20
218.0571291495
 30
0.0
 10
41.2515766595
 20
218.2489939332
 30
0.0
 10
41.9637832379
 20
218.6001385898
 30
0.0
 10
43.1126381915
 20
219.0164325157
 30
0.0
 10
44.3541744633
 20
219.3315853921
 30
0.0
 10
45.6617756467
 20
219.5389446192
 30
0.0
 10
47.0077617909
 20
219.6340861127
 30
0.0
 10
48.363394758
 20
219.615019599
 30
0.0
 10
49.6997631923
 20
219.4821256411
 30
0.0
 10
50.9883786888
 20
219.2382421006
 30
0.0
 10
52.2018658602
 20
218.8885167659
 30
0.0
 10
53.3145689789
 20
218.4402436838
 30
0.0
 10
54.3031123863
 20
217.9025763652
 30
0.0
 10
55.1467963414
 20
217.2860779388
 30
0.0
 10
55.827661048
 20
216.602346726
 30
0.0
 10
56.3300100361
 20
215.8634597109
 30
0.0
 10
56.6395881815
 20
215.0840325833
 30
0.0
 10
56.7100206919
 20
214.5442260782
 30
0.0
 10
56.7100035522
 20
214.2809022743
 30
0.0
  0
SPLINE
  5
352
100
AcDbEntity
  8
0
100
AcDbSpline
 62
7
  6
CONTINUOUS
 70
0
 71
3
 72
15
 73
11
 74
0
 42
0.0000001
 43
0.0000001
 44
0.0000000001
 40
0.0
 40
0.0
 40
0.0
 40
0.0
 40
0.0869258731
 40
0.1863900355
 40
0.3037775758
 40
0.4375856292
 40
0.582082136
 40
0.7293904368
 40
0.8711742898
 40
1.0
 40
1.0
 40
1.0
 40
1.0
 10
50.1522542512
 20
210.1230594955
 30
0.0
 10
50.1522537255
 20
210.0942231386
 30
0.0
 10
50.169652947
 20
210.0318223686
 30
0.0
 10
50.2376711813
 20
209.9544761382
 30
0.0
 10
50.3380639532
 20
209.8932984635
 30
0.0
 10
50.4634022217
 20
209.8514149279
 30
0.0
 10
50.6039064392
 20
209.8316837189
 30
0.0
 10
50.7483812179
 20
209.8356595309
 30
0.0
 10
50.8849635287
 20
209.8629988455
 30
0.0
 10
50.9687780356
 20
209.8975712013
 30
0.0
 10
51.005788553
 20
209.918939106
 30
0.0
  0
SPLINE
  5
353
100
AcDbEntity
  8
0
100
AcDbSpline
 62
7
  6
CONTINUOUS
 70
0
 71
3
 72
9
 73
5
 74
0
 42
0.0000001
 43
0.0000001
 44
0.0000000001
 40
0.0
 40
0.0
 40
0.0
 40
0.0
 40
0.2581074888
 40
1.0
 40
1.0
 40
1.0
 40
1.0
 10
46.1899694065
 20
209.3327437108
 30
0.0
 10
46.1701680587
 20
209.3389735746
 30
0.0
 10
46.0939115967
 20
209.3645302011
 30
0.0
 10
46.0195346468
 20
209.3958574015
 30
0.0
 10
45.9662480471
 20
209.4227020586
 30
0.0
  0
SPLINE
  5
354
100
AcDbEntity
  8
0
100
AcDbSpline
 62
7
  6
CONTINUOUS
 70
0
 71
3
 72
11
 73
7
 74
0
 42
0.0000001
 43
0.0000001
 44
0.0000000001
 40
0.0
 40
0.0
 40
0.0
 40
0.0
 40
0.2895468475
 40
0.5491384346
 40
0.782278826
 40
1.0
 40
1.0
 40
1.0
 40
1.0
 10
51.005788553
 20
209.918939106
 30
0.0
 10
51.027715597
 20
209.9315986152
 30
0.0
 10
51.067506417
 20
209.9590357859
 30
0.0
 10
51.1151049135
 20
210.0090057466
 30
0.0
 10
51.145212451
 20
210.0643271398
 30
0.0
 10
51.1522127826
 20
210.1040210627
 30
0.0
 10
51.1522131297
 20
210.123059471
 30
0.0
  0
SPLINE
  5
355
100
AcDbEntity
  8
0
100
AcDbSpline
 62
7
  6
CONTINUOUS
 70
0
 71
3
 72
11
 73
7
 74
0
 42
0.0000001
 43
0.0000001
 44
0.0000000001
 40
0.0
 40
0.0
 40
0.0
 40
0.0
 40
0.2897031353
 40
0.5490914015
 40
0.7822201129
 40
1.0
 40
1.0
 40
1.0
 40
1.0
 10
54.3061832925
 20
212.1580111551
 30
0.0
 10
54.3610313648
 20
212.1896775154
 30
0.0
 10
54.4605401635
 20
212.258215964
 30
0.0
 10
54.5794693042
 20
212.3832010211
 30
0.0
 10
54.6546984179
 20
212.5214684434
 30
0.0
 10
54.6722882708
 20
212.6207024867
 30
0.0
 10
54.6722918748
 20
212.6683121007
 30
0.0
  0
SPLINE
  5
356
100
AcDbEntity
  8
0
100
AcDbSpline
 62
7
  6
CONTINUOUS
 70
0
 71
3
 72
11
 73
7
 74
0
 42
0.0000001
 43
0.0000001
 44
0.0000000001
 40
0.0
 40
0.0
 40
0.0
 40
0.0
 40
0.2594898894
 40
0.5210570094
 40
0.7716326248
 40
1.0
 40
1.0
 40
1.0
 40
1.0
 10
60.8172291493
 20
186.7025341977
 30
0.0
 10
60.9999978204
 20
186.6676551369
 30
0.0
 10
61.3735715298
 20
186.6291060019
 30
0.0
 10
61.9282945003
 20
186.65892883
 30
0.0
 10
62.4493212476
 20
186.772687432
 30
0.0
 10
62.7684968528
 20
186.9074890055
 30
0.0
 10
62.9103092838
 20
186.989363962
 30
0.0
  0
SPLINE
  5
357
100
AcDbEntity
  8
0
100
AcDbSpline
 62
7
  6
CONTINUOUS
 70
0
 71
3
 72
11
 73
7
 74
0
 42
0.0000001
 43
0.0000001
 44
0.0000000001
 40
0.0
 40
0.0
 40
0.0
 40
0.0
 40
0.2895468475
 40
0.5491384346
 40
0.782278826
 40
1.0
 40
1.0
 40
1.0
 40
1.0
 10
45.8319241493
 20
209.5823623782
 30
0.0
 10
45.8538511933
 20
209.5950218874
 30
0.0
 10
45.8936420133
 20
209.6224590581
 30
0.0
 10
45.9412405098
 20
209.6724290188
 30
0.0
 10
45.9713480473
 20
209.727750412
 30
0.0
 10
45.9783483789
 20
209.7674443349
 30
0.0
 10
45.978348726
 20
209.7864827432
 30
0.0
  0
SPLINE
  5
358
100
AcDbEntity
  8
0
100
AcDbSpline
 62
7
  6
CONTINUOUS
 70
0
 71
3
 72
20
 73
16
 74
0
 42
0.0000001
 43
0.0000001
 44
0.0000000001
 40
0.0
 40
0.0
 40
0.0
 40
0.0
 40
0.062543892
 40
0.1196254743
 40
0.1716195437
 40
0.2197760316
 40
0.2660395707
 40
0.3128122995
 40
0.3623705262
 40
0.4163772144
 40
0.4757116294
 40
0.5405426823
 40
0.6844970909
 40
0.8411849668
 40
1.0
 40
1.0
 40
1.0
 40
1.0
 10
62.9103092838
 20
186.989363962
 30
0.0
 10
62.9861000771
 20
187.0331215357
 30
0.0
 10
63.1257256658
 20
187.1268072275
 30
0.0
 10
63.3010535747
 20
187.2928188327
 30
0.0
 10
63.4280078077
 20
187.4747432484
 30
0.0
 10
63.5019839663
 20
187.6683407716
 30
0.0
 10
63.5189915986
 20
187.867934632
 30
0.0
 10
63.4778973896
 20
188.0658804784
 30
0.0
 10
63.3813382645
 20
188.2551913102
 30
0.0
 10
63.2336657397
 20
188.4309303828
 30
0.0
 10
63.0396197641
 20
188.5893794773
 30
0.0
 10
62.7147680114
 20
188.7794229717
 30
0.0
 10
62.2258122344
 20
188.9461946746
 30
0.0
 10
61.5848159194
 20
189.0280828549
 30
0.0
 10
61.1408679868
 20
189.0026450435
 30
0.0
 10
60.9213459019
 20
188.9680940741
 30
0.0
  0
SPLINE
  5
359
100
AcDbEntity
  8
0
100
AcDbSpline
 62
7
  6
CONTINUOUS
 70
0
 71
3
 72
11
 73
7
 74
0
 42
0.0000001
 43
0.0000001
 44
0.0000000001
 40
0.0
 40
0.0
 40
0.0
 40
0.0
 40
0.2897031353
 40
0.5490914015
 40
0.7822201129
 40
1.0
 40
1.0
 40
1.0
 40
1.0
 10
52.5865302596
 20
214.9953125246
 30
0.0
 10
52.6413783319
 20
215.0269788848
 30
0.0
 10
52.7408871305
 20
215.0955173334
 30
0.0
 10
52.8598162712
 20
215.2205023905
 30
0.0
 10
52.9350453849
 20
215.3587698128
 30
0.0
 10
52.9526352378
 20
215.4580038561
 30
0.0
 10
52.9526388418
 20
215.5056134701
 30
0.0
  0
SPLINE
  5
35A
100
AcDbEntity
  8
0
100
AcDbSpline
 62
7
  6
CONTINUOUS
 70
0
 71
3
 72
11
 73
7
 74
0
 42
0.0000001
 43
0.0000001
 44
0.0000000001
 40
0.0
 40
0.0
 40
0.0
 40
0.0
 40
0.2897031353
 40
0.5490914015
 40
0.7822201129
 40
1.0
 40
1.0
 40
1.0
 40
1.0
 10
48.3439072363
 20
212.5458476013
 30
0.0
 10
48.3987553086
 20
212.5775139616
 30
0.0
 10
48.4982641072
 20
212.6460524102
 30
0.0
 10
48.6171932479
 20
212.7710374673
 30
0.0
 10
48.6924223617
 20
212.9093048896
 30
0.0
 10
48.7100122145
 20
213.0085389329
 30
0.0
 10
48.7100158185
 20
213.0561485469
 30
0.0
  0
SPLINE
  5
35B
100
AcDbEntity
  8
0
100
AcDbSpline
 62
7
  6
CONTINUOUS
 70
0
 71
3
 72
15
 73
11
 74
0
 42
0.0000001
 43
0.0000001
 44
0.0000000001
 40
0.0
 40
0.0
 40
0.0
 40
0.0
 40
0.0869258731
 40
0.1863900355
 40
0.3037775758
 40
0.4375856292
 40
0.582082136
 40
0.7293904368
 40
0.8711742898
 40
1.0
 40
1.0
 40
1.0
 40
1.0
 10
41.2967489093
 20
211.9120310681
 30
0.0
 10
41.2967483837
 20
211.8831947112
 30
0.0
 10
41.3141476051
 20
211.8207939412
 30
0.0
 10
41.3821658394
 20
211.7434477108
 30
0.0
 10
41.4825586113
 20
211.6822700361
 30
0.0
 10
41.6078968798
 20
211.6403865005
 30
0.0
 10
41.7484010973
 20
211.6206552915
 30
0.0
 10
41.892875876
 20
211.6246311035
 30
0.0
 10
42.0294581868
 20
211.6519704181
 30
0.0
 10
42.1132726937
 20
211.6865427739
 30
0.0
 10
42.1502832111
 20
211.7079106786
 30
0.0
  0
SPLINE
  5
35C
100
AcDbEntity
  8
0
100
AcDbSpline
 62
7
  6
CONTINUOUS
 70
0
 71
3
 72
11
 73
7
 74
0
 42
0.0000001
 43
0.0000001
 44
0.0000000001
 40
0.0
 40
0.0
 40
0.0
 40
0.0
 40
0.2177227832
 40
0.4508712161
 40
0.7104668615
 40
1.0
 40
1.0
 40
1.0
 40
1.0
 10
42.8796397475
 20
210.000108622
 30
0.0
 10
42.8796404826
 20
209.9810701165
 30
0.0
 10
42.8726391738
 20
209.9413753289
 30
0.0
 10
42.842531398
 20
209.8860529936
 30
0.0
 10
42.7949321461
 20
209.8360840508
 30
0.0
 10
42.7551424125
 20
209.8086471618
 30
0.0
 10
42.7332164567
 20
209.7959882809
 30
0.0
  0
SPLINE
  5
35D
100
AcDbEntity
  8
0
100
AcDbSpline
 62
7
  6
CONTINUOUS
 70
0
 71
3
 72
11
 73
7
 74
0
 42
0.0000001
 43
0.0000001
 44
0.0000000001
 40
0.0
 40
0.0
 40
0.0
 40
0.0
 40
0.2895468475
 40
0.5491384346
 40
0.782278826
 40
1.0
 40
1.0
 40
1.0
 40
1.0
 10
42.1502832111
 20
211.7079106786
 30
0.0
 10
42.1722102551
 20
211.7205701878
 30
0.0
 10
42.2120010751
 20
211.7480073585
 30
0.0
 10
42.2595995716
 20
211.7979773192
 30
0.0
 10
42.2897071092
 20
211.8532987124
 30
0.0
 10
42.2967074408
 20
211.8929926353
 30
0.0
 10
42.2967077878
 20
211.9120310435
 30
0.0
  0
SPLINE
  5
35E
100
AcDbEntity
  8
0
100
AcDbSpline
 62
7
  6
CONTINUOUS
 70
0
 71
3
 72
11
 73
7
 74
0
 42
0.0000001
 43
0.0000001
 44
0.0000000001
 40
0.0
 40
0.0
 40
0.0
 40
0.0
 40
0.2897031353
 40
0.5490914015
 40
0.7822201129
 40
1.0
 40
1.0
 40
1.0
 40
1.0
 10
47.6720955564
 20
215.9881168468
 30
0.0
 10
47.7269436286
 20
216.0197832071
 30
0.0
 10
47.8264524273
 20
216.0883216557
 30
0.0
 10
47.945381568
 20
216.2133067128
 30
0.0
 10
48.0206106817
 20
216.3515741351
 30
0.0
 10
48.0382005346
 20
216.4508081784
 30
0.0
 10
48.0382041386
 20
216.4984177924
 30
0.0
  0
SPLINE
  5
35F
100
AcDbEntity
  8
0
100
AcDbSpline
 62
7
  6
CONTINUOUS
 70
0
 71
3
 72
9
 73
5
 74
0
 42
0.0000001
 43
0.0000001
 44
0.0000000001
 40
0.0
 40
0.0
 40
0.0
 40
0.0
 40
0.2556822957
 40
1.0
 40
1.0
 40
1.0
 40
1.0
 10
43.2635487506
 20
209.489807715
 30
0.0
 10
43.2723560238
 20
209.4948925662
 30
0.0
 10
43.3065393523
 20
209.5152296902
 30
0.0
 10
43.3396477098
 20
209.5373896032
 30
0.0
 10
43.3634816801
 20
209.5549511878
 30
0.0
  0
SPLINE
  5
360
100
AcDbEntity
  8
0
100
AcDbSpline
 62
7
  6
CONTINUOUS
 70
0
 71
3
 72
11
 73
7
 74
0
 42
0.0000001
 43
0.0000001
 44
0.0000000001
 40
0.0
 40
0.0
 40
0.0
 40
0.0
 40
0.2826299124
 40
0.539370972
 40
0.7754803459
 40
1.0
 40
1.0
 40
1.0
 40
1.0
 10
43.3634816801
 20
209.5549511878
 30
0.0
 10
43.404220756
 20
209.5849689615
 30
0.0
 10
43.4778127221
 20
209.6484036368
 30
0.0
 10
43.5638625577
 20
209.7587351425
 30
0.0
 10
43.6173494777
 20
209.8770108895
 30
0.0
 10
43.6296542898
 20
209.9599093226
 30
0.0
 10
43.6296573328
 20
210.0001086605
 30
0.0
  0
SPLINE
  5
361
100
AcDbEntity
  8
0
100
AcDbSpline
 62
7
  6
CONTINUOUS
 70
0
 71
3
 72
14
 73
10
 74
0
 42
0.0000001
 43
0.0000001
 44
0.0000000001
 40
0.0
 40
0.0
 40
0.0
 40
0.0
 40
0.1080475079
 40
0.218129458
 40
0.3321012995
 40
0.4515009845
 40
0.5774519083
 40
0.7107147531
 40
1.0
 40
1.0
 40
1.0
 40
1.0
 10
38.2100366075
 20
214.2809020661
 30
0.0
 10
38.2100480056
 20
214.4560163243
 30
0.0
 10
38.2404319883
 20
214.810254973
 30
0.0
 10
38.3761905613
 20
215.3334649977
 30
0.0
 10
38.6002071302
 20
215.8454340748
 30
0.0
 10
38.9097644209
 20
216.3408795321
 30
0.0
 10
39.3012728404
 20
216.815496335
 30
0.0
 10
39.9445925093
 20
217.431204906
 30
0.0
 10
40.5132193278
 20
217.8227056736
 30
0.0
 10
40.9192551222
 20
218.0571291495
 30
0.0
  0
SPLINE
  5
362
100
AcDbEntity
  8
0
100
AcDbSpline
 62
7
  6
CONTINUOUS
 70
0
 71
3
 72
11
 73
7
 74
0
 42
0.0000001
 43
0.0000001
 44
0.0000000001
 40
0.0
 40
0.0
 40
0.0
 40
0.0
 40
0.2889223968
 40
0.5484186271
 40
0.7822338033
 40
1.0
 40
1.0
 40
1.0
 40
1.0
 10
60.5715701459
 20
201.8118824241
 30
0.0
 10
60.684100656
 20
201.8768515566
 30
0.0
 10
60.8888198659
 20
202.0171188738
 30
0.0
 10
61.1358378867
 20
202.2716368258
 30
0.0
 10
61.2967838084
 20
202.5525481616
 30
0.0
 10
61.340542207
 20
202.7551562887
 30
0.0
 10
61.3447213089
 20
202.8530044156
 30
0.0
  0
SPLINE
  5
363
100
AcDbEntity
  8
0
100
AcDbSpline
 62
7
  6
CONTINUOUS
 70
0
 71
3
 72
11
 73
7
 74
0
 42
0.0000001
 43
0.0000001
 44
0.0000000001
 40
0.0
 40
0.0
 40
0.0
 40
0.0
 40
0.2895417814
 40
0.5491287434
 40
0.7822661886
 40
1.0
 40
1.0
 40
1.0
 40
1.0
 10
42.7332164567
 20
214.6950027836
 30
0.0
 10
42.7551430993
 20
214.7076620611
 30
0.0
 10
42.7949329581
 20
214.7350990573
 30
0.0
 10
42.8425313563
 20
214.7850671219
 30
0.0
 10
42.8726410623
 20
214.8403882317
 30
0.0
 10
42.8796390466
 20
214.8800835834
 30
0.0
 10
42.8796389866
 20
214.8991230813
 30
0.0
  0
SPLINE
  5
364
100
AcDbEntity
  8
0
100
AcDbSpline
 62
7
  6
CONTINUOUS
 70
0
 71
3
 72
9
 73
5
 74
0
 42
0.0000001
 43
0.0000001
 44
0.0000000001
 40
0.0
 40
0.0
 40
0.0
 40
0.0
 40
0.2470213551
 40
1.0
 40
1.0
 40
1.0
 40
1.0
 10
50.4700868684
 20
211.5738649062
 30
0.0
 10
50.3277061441
 20
211.6021511446
 30
0.0
 10
49.7496058221
 20
211.7079197145
 30
0.0
 10
49.1652761366
 20
211.7792913751
 30
0.0
 10
48.7241813129
 20
211.8144214409
 30
0.0
  0
SPLINE
  5
365
100
AcDbEntity
  8
0
100
AcDbSpline
 62
7
  6
CONTINUOUS
 70
0
 71
3
 72
9
 73
5
 74
0
 42
0.0000001
 43
0.0000001
 44
0.0000000001
 40
0.0
 40
0.0
 40
0.0
 40
0.0
 40
0.5095921527
 40
1.0
 40
1.0
 40
1.0
 40
1.0
 10
45.5193766219
 20
211.7456792553
 30
0.0
 10
45.0539749953
 20
211.6880258352
 30
0.0
 10
44.1453175186
 20
211.5330232428
 30
0.0
 10
43.2558793403
 20
211.2896400255
 30
0.0
 10
42.8278226026
 20
211.1466605794
 30
0.0
  0
SPLINE
  5
366
100
AcDbEntity
  8
0
100
AcDbSpline
 62
7
  6
CONTINUOUS
 70
0
 71
3
 72
15
 73
11
 74
0
 42
0.0000001
 43
0.0000001
 44
0.0000000001
 40
0.0
 40
0.0
 40
0.0
 40
0.0
 40
0.0869233004
 40
0.1863854529
 40
0.303771217
 40
0.4375798636
 40
0.5820876121
 40
0.7294125433
 40
0.8711853342
 40
1.0
 40
1.0
 40
1.0
 40
1.0
 10
41.8796816541
 20
214.8991231685
 30
0.0
 10
41.8796805168
 20
214.8702876553
 30
0.0
 10
41.8970799661
 20
214.8078884506
 30
0.0
 10
41.9650953466
 20
214.7305429489
 30
0.0
 10
42.0654867884
 20
214.6693648261
 30
0.0
 10
42.1908278294
 20
214.6274787644
 30
0.0
 10
42.33134171
 20
214.6077472699
 30
0.0
 10
42.4758222238
 20
214.6117235297
 30
0.0
 10
42.6124023386
 20
214.639065371
 30
0.0
 10
42.6962090998
 20
214.6736367037
 30
0.0
 10
42.7332164567
 20
214.6950027836
 30
0.0
  0
SPLINE
  5
367
100
AcDbEntity
  8
0
100
AcDbSpline
 62
7
  6
CONTINUOUS
 70
0
 71
3
 72
16
 73
12
 74
0
 42
0.0000001
 43
0.0000001
 44
0.0000000001
 40
0.0
 40
0.0
 40
0.0
 40
0.0
 40
0.0434179124
 40
0.0880206985
 40
0.184316514
 40
0.29441916
 40
0.4192827627
 40
0.556804507
 40
0.7029319534
 40
0.8525117199
 40
1.0
 40
1.0
 40
1.0
 40
1.0
 10
63.7107189718
 20
185.785001466
 30
0.0
 10
63.7107185796
 20
185.7335069696
 30
0.0
 10
63.6998213445
 20
185.6288065226
 30
0.0
 10
63.63363949
 20
185.4191245419
 30
0.0
 10
63.4641179563
 20
185.1669325591
 30
0.0
 10
63.1583383203
 20
184.9143532604
 30
0.0
 10
62.7630298289
 20
184.7110553026
 30
0.0
 10
62.2984637373
 20
184.5665452506
 30
0.0
 10
61.7889547475
 20
184.4878274283
 30
0.0
 10
61.2618848092
 20
184.4790749393
 30
0.0
 10
60.9106799175
 20
184.5210710083
 30
0.0
 10
60.7390047457
 20
184.5546275207
 30
0.0
  0
SPLINE
  5
368
100
AcDbEntity
  8
0
100
AcDbSpline
 62
7
  6
CONTINUOUS
 70
0
 71
3
 72
11
 73
7
 74
0
 42
0.0000001
 43
0.0000001
 44
0.0000000001
 40
0.0
 40
0.0
 40
0.0
 40
0.0
 40
0.2897733512
 40
0.5490657165
 40
0.7822241652
 40
1.0
 40
1.0
 40
1.0
 40
1.0
 10
63.0517312288
 20
186.7444153277
 30
0.0
 10
63.1504824978
 20
186.8014290591
 30
0.0
 10
63.3296204593
 20
186.9247596359
 30
0.0
 10
63.5436457942
 20
187.1497800663
 30
0.0
 10
63.6790752296
 20
187.3986213287
 30
0.0
 10
63.710723837
 20
187.5772606113
 30
0.0
 10
63.7107238359
 20
187.6629570253
 30
0.0
  0
SPLINE
  5
369
100
AcDbEntity
  8
0
100
AcDbSpline
 62
7
  6
CONTINUOUS
 70
0
 71
3
 72
14
 73
10
 74
0
 42
0.0000001
 43
0.0000001
 44
0.0000000001
 40
0.0
 40
0.0
 40
0.0
 40
0.0
 40
0.1060325596
 40
0.2144234179
 40
0.3272821638
 40
0.4462939424
 40
0.5726383038
 40
0.7069994564
 40
1.0
 40
1.0
 40
1.0
 40
1.0
 10
58.4600149791
 20
211.0148925014
 30
0.0
 10
58.4600157119
 20
210.7881309749
 30
0.0
 10
58.4169595292
 20
210.3284817193
 30
0.0
 10
58.2252573357
 20
209.6516984997
 30
0.0
 10
57.9095673031
 20
208.9924291119
 30
0.0
 10
57.474631425
 20
208.3585242859
 30
0.0
 10
56.9261839867
 20
207.7564882038
 30
0.0
 10
56.0268680189
 20
206.9828221292
 30
0.0
 10
55.2391069883
 20
206.5043683663
 30
0.0
 10
54.6791347095
 20
206.2231684984
 30
0.0
  0
SPLINE
  5
36A
100
AcDbEntity
  8
0
100
AcDbSpline
 62
7
  6
CONTINUOUS
 70
0
 71
3
 72
9
 73
5
 74
0
 42
0.0000001
 43
0.0000001
 44
0.0000000001
 40
0.0
 40
0.0
 40
0.0
 40
0.0
 40
0.4860980831
 40
1.0
 40
1.0
 40
1.0
 40
1.0
 10
54.6791347095
 20
206.2231684984
 30
0.0
 10
54.2539987123
 20
206.0096790262
 30
0.0
 10
53.3517602356
 20
205.6243611569
 30
0.0
 10
52.4145397344
 20
205.3364542791
 30
0.0
 10
51.9273785051
 20
205.2114636982
 30
0.0
  0
SPLINE
  5
36B
100
AcDbEntity
  8
0
100
AcDbSpline
 62
7
  6
CONTINUOUS
 70
0
 71
3
 72
11
 73
7
 74
0
 42
0.0000001
 43
0.0000001
 44
0.0000000001
 40
0.0
 40
0.0
 40
0.0
 40
0.0
 40
0.2440451995
 40
0.4949336385
 40
0.748391108
 40
1.0
 40
1.0
 40
1.0
 40
1.0
 10
51.9273785051
 20
205.2114636982
 30
0.0
 10
51.3741438853
 20
205.0695207185
 30
0.0
 10
50.2361554466
 20
204.8412876923
 30
0.0
 10
48.4910870818
 20
204.6644893217
 30
0.0
 10
46.7194803369
 20
204.6509765137
 30
0.0
 10
45.5396804585
 20
204.752098013
 30
0.0
 10
44.956116099
 20
204.8308583504
 30
0.0
  0
SPLINE
  5
36C
100
AcDbEntity
  8
0
100
AcDbSpline
 62
7
  6
CONTINUOUS
 70
0
 71
3
 72
10
 73
6
 74
0
 42
0.0000001
 43
0.0000001
 44
0.0000000001
 40
0.0
 40
0.0
 40
0.0
 40
0.0
 40
0.5214259423
 40
0.7670310801
 40
1.0
 40
1.0
 40
1.0
 40
1.0
 10
44.2140609313
 20
204.9469294625
 30
0.0
 10
43.3894868421
 20
205.0939494712
 30
0.0
 10
42.1881659394
 20
205.397510355
 30
0.0
 10
40.6928632698
 20
205.9884326018
 30
0.0
 10
40.0059665241
 20
206.3370983707
 30
0.0
 10
39.6818778705
 20
206.5242068091
 30
0.0
  0
SPLINE
  5
36D
100
AcDbEntity
  8
0
100
AcDbSpline
 62
7
  6
CONTINUOUS
 70
0
 71
3
 72
11
 73
7
 74
0
 42
0.0000001
 43
0.0000001
 44
0.0000000001
 40
0.0
 40
0.0
 40
0.0
 40
0.0
 40
0.2889223968
 40
0.5484186271
 40
0.7822338033
 40
1.0
 40
1.0
 40
1.0
 40
1.0
 10
60.5716001743
 20
197.6478093913
 30
0.0
 10
60.6841306844
 20
197.7127785238
 30
0.0
 10
60.8888498944
 20
197.853045841
 30
0.0
 10
61.1358679152
 20
198.107563793
 30
0.0
 10
61.2968138369
 20
198.3884751288
 30
0.0
 10
61.3405722354
 20
198.5910832559
 30
0.0
 10
61.3447513374
 20
198.6889313828
 30
0.0
  0
SPLINE
  5
36E
100
AcDbEntity
  8
0
100
AcDbSpline
 62
7
  6
CONTINUOUS
 70
0
 71
3
 72
11
 73
7
 74
0
 42
0.0000001
 43
0.0000001
 44
0.0000000001
 40
0.0
 40
0.0
 40
0.0
 40
0.0
 40
0.2177661967
 40
0.4515813729
 40
0.7110776032
 40
1.0
 40
1.0
 40
1.0
 40
1.0
 10
60.7024094727
 20
183.6744468263
 30
0.0
 10
60.6992465321
 20
183.6003907689
 30
0.0
 10
60.6661281212
 20
183.4470474237
 30
0.0
 10
60.5443166895
 20
183.2344405331
 30
0.0
 10
60.3573618514
 20
183.0418093948
 30
0.0
 10
60.2024207396
 20
182.9356485022
 30
0.0
 10
60.1172523651
 20
182.8864768118
 30
0.0
  0
SPLINE
  5
36F
100
AcDbEntity
  8
0
100
AcDbSpline
 62
7
  6
CONTINUOUS
 70
0
 71
3
 72
17
 73
13
 74
0
 42
0.0000001
 43
0.0000001
 44
0.0000000001
 40
0.0
 40
0.0
 40
0.0
 40
0.0
 40
0.0428584629
 40
0.08748393
 40
0.135317815
 40
0.1872795469
 40
0.3045398917
 40
0.4382057949
 40
0.5825481992
 40
0.7297130515
 40
0.8713063844
 40
1.0
 40
1.0
 40
1.0
 40
1.0
 10
46.2100243412
 20
213.0561485421
 30
0.0
 10
46.2100216476
 20
213.0205653662
 30
0.0
 10
46.2195597707
 20
212.9476257808
 30
0.0
 10
46.2613697582
 20
212.8422956017
 30
0.0
 10
46.3292633131
 20
212.742447745
 30
0.0
 10
46.4570482158
 20
212.6141926637
 30
0.0
 10
46.6748005202
 20
212.481645518
 30
0.0
 10
46.9878878303
 20
212.3770626126
 30
0.0
 10
47.3392517336
 20
212.3276786609
 30
0.0
 10
47.7004032602
 20
212.3376760972
 30
0.0
 10
48.0418663623
 20
212.4059781168
 30
0.0
 10
48.251374288
 20
212.4924239976
 30
0.0
 10
48.3439072363
 20
212.5458476013
 30
0.0
  0
SPLINE
  5
370
100
AcDbEntity
  8
0
100
AcDbSpline
 62
7
  6
CONTINUOUS
 70
0
 71
3
 72
15
 73
11
 74
0
 42
0.0000001
 43
0.0000001
 44
0.0000000001
 40
0.0
 40
0.0
 40
0.0
 40
0.0
 40
0.1141469224
 40
0.2373360366
 40
0.366976904
 40
0.5000005214
 40
0.6330240662
 40
0.7626647219
 40
0.8858535023
 40
1.0
 40
1.0
 40
1.0
 40
1.0
 10
49.1977597726
 20
193.2387635465
 30
0.0
 10
49.3256690042
 20
193.1649167879
 30
0.0
 10
49.6054018561
 20
193.0346764274
 30
0.0
 10
50.0608951762
 20
192.896207147
 30
0.0
 10
50.5540615569
 20
192.8110263387
 30
0.0
 10
51.0663224037
 20
192.7822530227
 30
0.0
 10
51.5785828409
 20
192.81102877
 30
0.0
 10
52.0717480119
 20
192.8962119199
 30
0.0
 10
52.527239371
 20
193.0346833656
 30
0.0
 10
52.8069705092
 20
193.1649251232
 30
0.0
 10
52.9348787324
 20
193.2387725295
 30
0.0
  0
SPLINE
  5
371
100
AcDbEntity
  8
0
100
AcDbSpline
 62
7
  6
CONTINUOUS
 70
0
 71
3
 72
11
 73
7
 74
0
 42
0.0000001
 43
0.0000001
 44
0.0000000001
 40
0.0
 40
0.0
 40
0.0
 40
0.0
 40
0.217765741
 40
0.4515807317
 40
0.7110771318
 40
1.0
 40
1.0
 40
1.0
 40
1.0
 10
33.5752888232
 20
202.8529503659
 30
0.0
 10
33.5794679738
 20
202.7551011481
 30
0.0
 10
33.6232273007
 20
202.5524906245
 30
0.0
 10
33.7841766616
 20
202.2715764937
 30
0.0
 10
34.0311997342
 20
202.0170565774
 30
0.0
 10
34.235922892
 20
201.8767886789
 30
0.0
 10
34.3484555445
 20
201.8118193915
 30
0.0
  0
SPLINE
  5
372
100
AcDbEntity
  8
0
100
AcDbSpline
 62
7
  6
CONTINUOUS
 70
0
 71
3
 72
14
 73
10
 74
0
 42
0.0000001
 43
0.0000001
 44
0.0000000001
 40
0.0
 40
0.0
 40
0.0
 40
0.0
 40
0.1080477053
 40
0.2181300025
 40
0.3321016202
 40
0.4515004859
 40
0.5774546212
 40
0.7107147396
 40
1.0
 40
1.0
 40
1.0
 40
1.0
 10
36.4600249014
 20
214.2809021705
 30
0.0
 10
36.4600250848
 20
214.0726550618
 30
0.0
 10
36.4962203737
 20
213.6513967007
 30
0.0
 10
36.6576104279
 20
213.0291818465
 30
0.0
 10
36.9240439859
 20
212.420357302
 30
0.0
 10
37.2921647172
 20
211.8311648848
 30
0.0
 10
37.7577583932
 20
211.2667555801
 30
0.0
 10
38.5228044049
 20
210.5345592903
 30
0.0
 10
39.1990160956
 20
210.0689905466
 30
0.0
 10
39.6818778705
 20
209.7902164776
 30
0.0
  0
SPLINE
  5
373
100
AcDbEntity
  8
0
100
AcDbSpline
 62
7
  6
CONTINUOUS
 70
0
 71
3
 72
11
 73
7
 74
0
 42
0.0000001
 43
0.0000001
 44
0.0000000001
 40
0.0
 40
0.0
 40
0.0
 40
0.0
 40
0.217765741
 40
0.4515807317
 40
0.7110771318
 40
1.0
 40
1.0
 40
1.0
 40
1.0
 10
33.5753188517
 20
198.6888773331
 30
0.0
 10
33.5794980023
 20
198.5910281153
 30
0.0
 10
33.6232573292
 20
198.3884175917
 30
0.0
 10
33.7842066901
 20
198.1075034609
 30
0.0
 10
34.0312297627
 20
197.8529835446
 30
0.0
 10
34.2359529205
 20
197.7127156461
 30
0.0
 10
34.3484855729
 20
197.6477463587
 30
0.0
  0
SPLINE
  5
374
100
AcDbEntity
  8
0
100
AcDbSpline
 62
7
  6
CONTINUOUS
 70
0
 71
3
 72
24
 73
20
 74
0
 42
0.0000001
 43
0.0000001
 44
0.0000000001
 40
0.0
 40
0.0
 40
0.0
 40
0.0
 40
0.0213337331
 40
0.042895788
 40
0.0874738786
 40
0.1352526343
 40
0.1871568157
 40
0.2435978714
 40
0.3045499569
 40
0.3696426441
 40
0.4382452139
 40
0.5095370864
 40
0.5825668873
 40
0.6563040949
 40
0.7296868697
 40
0.8016689705
 40
0.8712672461
 40
0.937611742
 40
1.0
 40
1.0
 40
1.0
 40
1.0
 10
58.9600074009
 20
202.4416171432
 30
0.0
 10
58.9599996348
 20
202.278475102
 30
0.0
 10
58.938924221
 20
201.9500436171
 30
0.0
 10
58.811925564
 20
201.2917790716
 30
0.0
 10
58.4875959739
 20
200.4737204629
 30
0.0
 10
57.8630237554
 20
199.5555750472
 30
0.0
 10
57.0165394045
 20
198.7053910995
 30
0.0
 10
55.9676298154
 20
197.938986834
 30
0.0
 10
54.7386306752
 20
197.2705310975
 30
0.0
 10
53.3552747194
 20
196.7132286725
 30
0.0
 10
51.8466295818
 20
196.2784360355
 30
0.0
 10
50.2445908513
 20
195.9752275053
 30
0.0
 10
48.5831922012
 20
195.8100065016
 30
0.0
 10
46.8978349901
 20
195.7862870399
 30
0.0
 10
45.2244641801
 20
195.9045761083
 30
0.0
 10
43.5987806663
 20
196.1623472896
 30
0.0
 10
42.0552680017
 20
196.5541820458
 30
0.0
 10
40.6269402194
 20
197.0717038898
 30
0.0
 10
39.7415018516
 20
197.5082675319
 30
0.0
 10
39.3283259519
 20
197.7468093523
 30
0.0
  0
SPLINE
  5
375
100
AcDbEntity
  8
0
100
AcDbSpline
 62
7
  6
CONTINUOUS
 70
0
 71
3
 72
11
 73
7
 74
0
 42
0.0000001
 43
0.0000001
 44
0.0000000001
 40
0.0
 40
0.0
 40
0.0
 40
0.0
 40
0.2177661967
 40
0.4515813729
 40
0.7110776032
 40
1.0
 40
1.0
 40
1.0
 40
1.0
 10
59.6038555147
 20
200.8351253907
 30
0.0
 10
59.6067930291
 20
200.9039033929
 30
0.0
 10
59.6375510551
 20
201.0463177923
 30
0.0
 10
59.7506808545
 20
201.2437719604
 30
0.0
 10
59.9243112195
 20
201.4226740696
 30
0.0
 10
60.068209511
 20
201.5212687608
 30
0.0
 10
60.1473078436
 20
201.5669359318
 30
0.0
  0
SPLINE
  5
376
100
AcDbEntity
  8
0
100
AcDbSpline
 62
7
  6
CONTINUOUS
 70
0
 71
3
 72
13
 73
9
 74
0
 42
0.0000001
 43
0.0000001
 44
0.0000000001
 40
0.0
 40
0.0
 40
0.0
 40
0.0
 40
0.1142483233
 40
0.2375469957
 40
0.4999994774
 40
0.7624522452
 40
0.8857512516
 40
1.0
 40
1.0
 40
1.0
 40
1.0
 10
46.1466518667
 20
193.4837016851
 30
0.0
 10
46.2365592809
 20
193.535609445
 30
0.0
 10
46.4331925109
 20
193.6271788341
 30
0.0
 10
46.8689699418
 20
193.7595301986
 30
0.0
 10
47.4600708445
 20
193.8238235889
 30
0.0
 10
48.0511723157
 20
193.7595329317
 30
0.0
 10
48.4869513796
 20
193.6271837108
 30
0.0
 10
48.6835858145
 20
193.5356153039
 30
0.0
 10
48.7734939375
 20
193.4837079993
 30
0.0
  0
SPLINE
  5
377
100
AcDbEntity
  8
0
100
AcDbSpline
 62
7
  6
CONTINUOUS
 70
0
 71
3
 72
11
 73
7
 74
0
 42
0.0000001
 43
0.0000001
 44
0.0000000001
 40
0.0
 40
0.0
 40
0.0
 40
0.0
 40
0.2889228682
 40
0.5484192683
 40
0.782234259
 40
1.0
 40
1.0
 40
1.0
 40
1.0
 10
34.8028295989
 20
182.8864159634
 30
0.0
 10
34.7176596029
 20
182.935587771
 30
0.0
 10
34.5627155033
 20
183.0417491036
 30
0.0
 10
34.3757568417
 20
183.2343817287
 30
0.0
 10
34.2539428071
 20
183.4469907346
 30
0.0
 10
34.2208236936
 20
183.6003358935
 30
0.0
 10
34.2176607162
 20
183.6743927766
 30
0.0
  0
SPLINE
  5
378
100
AcDbEntity
  8
0
100
AcDbSpline
 62
7
  6
CONTINUOUS
 70
0
 71
3
 72
11
 73
7
 74
0
 42
0.0000001
 43
0.0000001
 44
0.0000000001
 40
0.0
 40
0.0
 40
0.0
 40
0.0
 40
0.2177753738
 40
0.4509336309
 40
0.7102261693
 40
1.0
 40
1.0
 40
1.0
 40
1.0
 10
45.2100888817
 20
179.5797227787
 30
0.0
 10
45.2100888828
 20
179.4940254421
 30
0.0
 10
45.2417382128
 20
179.3153840983
 30
0.0
 10
45.377170578
 20
179.0665404265
 30
0.0
 10
45.5912002598
 20
178.8415183282
 30
0.0
 10
45.770341621
 20
178.7181872806
 30
0.0
 10
45.8690947367
 20
178.6611734325
 30
0.0
  0
SPLINE
  5
379
100
AcDbEntity
  8
0
100
AcDbSpline
 62
7
  6
CONTINUOUS
 70
0
 71
3
 72
14
 73
10
 74
0
 42
0.0000001
 43
0.0000001
 44
0.0000000001
 40
0.0
 40
0.0
 40
0.0
 40
0.0
 40
0.1080463613
 40
0.2181291605
 40
0.3321024386
 40
0.4515010471
 40
0.577458788
 40
0.7107176033
 40
1.0
 40
1.0
 40
1.0
 40
1.0
 10
35.9600325211
 20
211.0148924928
 30
0.0
 10
35.9600225212
 20
210.7971822813
 30
0.0
 10
35.9978637462
 20
210.3567770142
 30
0.0
 10
36.1665783433
 20
209.7062739882
 30
0.0
 10
36.4451489772
 20
209.0697833495
 30
0.0
 10
36.8299827766
 20
208.4537859421
 30
0.0
 10
37.3167605738
 20
207.8637313083
 30
0.0
 10
38.1165778282
 20
207.0982532443
 30
0.0
 10
38.8235208342
 20
206.6115275094
 30
0.0
 10
39.3283259519
 20
206.3200847321
 30
0.0
  0
SPLINE
  5
37A
100
AcDbEntity
  8
0
100
AcDbSpline
 62
7
  6
CONTINUOUS
 70
0
 71
3
 72
17
 73
13
 74
0
 42
0.0000001
 43
0.0000001
 44
0.0000000001
 40
0.0
 40
0.0
 40
0.0
 40
0.0
 40
0.0428572827
 40
0.0874860934
 40
0.1353200924
 40
0.1872833297
 40
0.3045486557
 40
0.4382179215
 40
0.582562828
 40
0.7297192441
 40
0.8713072941
 40
1.0
 40
1.0
 40
1.0
 40
1.0
 10
49.7100629949
 20
177.7017672193
 30
0.0
 10
49.7100625072
 20
177.6377192215
 30
0.0
 10
49.6929476091
 20
177.5064174751
 30
0.0
 10
49.6176433511
 20
177.3168314599
 30
0.0
 10
49.4954473071
 20
177.137093719
 30
0.0
 10
49.2654260062
 20
176.9062240033
 30
0.0
 10
48.8734526106
 20
176.6676442886
 30
0.0
 10
48.3098821213
 20
176.479383016
 30
0.0
 10
47.6774271616
 20
176.3905072788
 30
0.0
 10
47.0273715206
 20
176.4085154091
 30
0.0
 10
46.4127620591
 20
176.5314649648
 30
0.0
 10
46.035653676
 20
176.6870572
 30
0.0
 10
45.8690947367
 20
176.7832178731
 30
0.0
  0
SPLINE
  5
37B
100
AcDbEntity
  8
0
100
AcDbSpline
 62
7
  6
CONTINUOUS
 70
0
 71
3
 72
15
 73
11
 74
0
 42
0.0000001
 43
0.0000001
 44
0.0000000001
 40
0.0
 40
0.0
 40
0.0
 40
0.0
 40
0.1141469224
 40
0.2373360366
 40
0.366976904
 40
0.5000005214
 40
0.6330240662
 40
0.7626647219
 40
0.8858535023
 40
1.0
 40
1.0
 40
1.0
 40
1.0
 10
41.9852706045
 20
193.2387462099
 30
0.0
 10
42.1131798362
 20
193.1648994512
 30
0.0
 10
42.392912688
 20
193.0346590907
 30
0.0
 10
42.8484060081
 20
192.8961898103
 30
0.0
 10
43.3415723889
 20
192.811009002
 30
0.0
 10
43.8538332356
 20
192.782235686
 30
0.0
 10
44.3660936729
 20
192.8110114333
 30
0.0
 10
44.8592588439
 20
192.8961945832
 30
0.0
 10
45.314750203
 20
193.0346660289
 30
0.0
 10
45.5944813412
 20
193.1649077865
 30
0.0
 10
45.7223895644
 20
193.2387551928
 30
0.0
  0
SPLINE
  5
37C
100
AcDbEntity
  8
0
100
AcDbSpline
 62
7
  6
CONTINUOUS
 70
0
 71
3
 72
17
 73
13
 74
0
 42
0.0000001
 43
0.0000001
 44
0.0000000001
 40
0.0
 40
0.0
 40
0.0
 40
0.0
 40
0.0428584629
 40
0.08748393
 40
0.135317815
 40
0.1872795469
 40
0.3045398917
 40
0.4382057949
 40
0.5825481992
 40
0.7297130515
 40
0.8713063844
 40
1.0
 40
1.0
 40
1.0
 40
1.0
 10
50.4526473645
 20
215.5056134653
 30
0.0
 10
50.4526446709
 20
215.4700302894
 30
0.0
 10
50.462182794
 20
215.397090704
 30
0.0
 10
50.5039927815
 20
215.2917605249
 30
0.0
 10
50.5718863364
 20
215.1919126682
 30
0.0
 10
50.699671239
 20
215.0636575869
 30
0.0
 10
50.9174235434
 20
214.9311104413
 30
0.0
 10
51.2305108535
 20
214.8265275358
 30
0.0
 10
51.5818747569
 20
214.7771435841
 30
0.0
 10
51.9430262835
 20
214.7871410205
 30
0.0
 10
52.2844893855
 20
214.85544304
 30
0.0
 10
52.4939973112
 20
214.9418889208
 30
0.0
 10
52.5865302596
 20
214.9953125246
 30
0.0
  0
SPLINE
  5
37D
100
AcDbEntity
  8
0
100
AcDbSpline
 62
7
  6
CONTINUOUS
 70
0
 71
3
 72
24
 73
20
 74
0
 42
0.0000001
 43
0.0000001
 44
0.0000000001
 40
0.0
 40
0.0
 40
0.0
 40
0.0
 40
0.0213334558
 40
0.0428952526
 40
0.0874727306
 40
0.135250944
 40
0.1871553771
 40
0.2435970404
 40
0.3045493929
 40
0.369642025
 40
0.4382445306
 40
0.509536476
 40
0.5825663888
 40
0.6563036904
 40
0.7296865576
 40
0.8016687518
 40
0.8712670919
 40
0.9376116889
 40
1.0
 40
1.0
 40
1.0
 40
1.0
 10
59.2100072635
 20
200.8086123039
 30
0.0
 10
59.2099995522
 20
200.6419258653
 30
0.0
 10
59.1884676319
 20
200.3063586361
 30
0.0
 10
59.0587092136
 20
199.6337929567
 30
0.0
 10
58.727338442
 20
198.7979591236
 30
0.0
 10
58.0891968729
 20
197.8598568221
 30
0.0
 10
57.2243136537
 20
196.9911841533
 30
0.0
 10
56.1525967599
 20
196.2081103723
 30
0.0
 10
54.8968755618
 20
195.5251181301
 30
0.0
 10
53.4834461232
 20
194.955698676
 30
0.0
 10
51.9420051164
 20
194.5114527597
 30
0.0
 10
50.3051388053
 20
194.2016511796
 30
0.0
 10
48.6076207491
 20
194.0328370343
 30
0.0
 10
46.8856230355
 20
194.0086010099
 30
0.0
 10
45.1758723703
 20
194.1294609062
 30
0.0
 10
43.5148459221
 20
194.3928356425
 30
0.0
 10
41.9377765268
 20
194.7931884244
 30
0.0
 10
40.4783965038
 20
195.3219612203
 30
0.0
 10
39.5737083315
 20
195.7680157628
 30
0.0
 10
39.1515499926
 20
196.0117434796
 30
0.0
  0
SPLINE
  5
37E
100
AcDbEntity
  8
0
100
AcDbSpline
 62
7
  6
CONTINUOUS
 70
0
 71
3
 72
11
 73
7
 74
0
 42
0.0000001
 43
0.0000001
 44
0.0000000001
 40
0.0
 40
0.0
 40
0.0
 40
0.0
 40
0.2897766779
 40
0.5490706103
 40
0.7822286453
 40
1.0
 40
1.0
 40
1.0
 40
1.0
 10
31.8683221787
 20
184.8663848126
 30
0.0
 10
31.7695682584
 20
184.9233991252
 30
0.0
 10
31.590426105
 20
185.0467314948
 30
0.0
 10
31.3763968503
 20
185.2717554048
 30
0.0
 10
31.240966618
 20
185.5205987413
 30
0.0
 10
31.2093205354
 20
185.6992385475
 30
0.0
 10
31.2093211879
 20
185.7849341588
 30
0.0
  0
SPLINE
  5
37F
100
AcDbEntity
  8
0
100
AcDbSpline
 62
7
  6
CONTINUOUS
 70
0
 71
3
 72
11
 73
7
 74
0
 42
0.0000001
 43
0.0000001
 44
0.0000000001
 40
0.0
 40
0.0
 40
0.0
 40
0.0
 40
0.2177753738
 40
0.4509336309
 40
0.7102261693
 40
1.0
 40
1.0
 40
1.0
 40
1.0
 10
31.2093163238
 20
187.6628897182
 30
0.0
 10
31.2093163249
 20
187.5771923816
 30
0.0
 10
31.2409656549
 20
187.3985510378
 30
0.0
 10
31.3763980201
 20
187.149707366
 30
0.0
 10
31.5904277019
 20
186.9246852677
 30
0.0
 10
31.769569063
 20
186.8013542201
 30
0.0
 10
31.8683221787
 20
186.744340372
 30
0.0
  0
SPLINE
  5
380
100
AcDbEntity
  8
0
100
AcDbSpline
 62
7
  6
CONTINUOUS
 70
0
 71
3
 72
12
 73
8
 74
0
 42
0.0000001
 43
0.0000001
 44
0.0000000001
 40
0.0
 40
0.0
 40
0.0
 40
0.0
 40
0.1138581796
 40
0.2365894277
 40
0.49798703
 40
0.7606288852
 40
1.0
 40
1.0
 40
1.0
 40
1.0
 10
52.4805309232
 20
178.4774399499
 30
0.0
 10
52.3860979166
 20
178.4229193536
 30
0.0
 10
52.1799304612
 20
178.3263901381
 30
0.0
 10
51.7232723571
 20
178.1852468339
 30
0.0
 10
51.101987111
 20
178.1126822824
 30
0.0
 10
50.3695577293
 20
178.1828977093
 30
0.0
 10
49.9073906506
 20
178.339529258
 30
0.0
 10
49.7053363548
 20
178.4478222548
 30
0.0
  0
SPLINE
  5
381
100
AcDbEntity
  8
0
100
AcDbSpline
 62
7
  6
CONTINUOUS
 70
0
 71
3
 72
14
 73
10
 74
0
 42
0.0000001
 43
0.0000001
 44
0.0000000001
 40
0.0
 40
0.0
 40
0.0
 40
0.0
 40
0.1080463821
 40
0.2181291861
 40
0.3321024731
 40
0.4515010961
 40
0.5774587717
 40
0.7107176015
 40
1.0
 40
1.0
 40
1.0
 40
1.0
 10
35.7100328194
 20
202.4416171132
 30
0.0
 10
35.7100225251
 20
202.2191740329
 30
0.0
 10
35.7486869705
 20
201.7691947325
 30
0.0
 10
35.9210689975
 20
201.1045502688
 30
0.0
 10
36.2056953341
 20
200.4542227021
 30
0.0
 10
36.5988954021
 20
199.8248343749
 30
0.0
 10
37.096254961
 20
199.2219523058
 30
0.0
 10
37.9134595591
 20
198.4398335734
 30
0.0
 10
38.635770858
 20
197.9425267993
 30
0.0
 10
39.1515499926
 20
197.6447483138
 30
0.0
  0
SPLINE
  5
382
100
AcDbEntity
  8
0
100
AcDbSpline
 62
7
  6
CONTINUOUS
 70
0
 71
3
 72
11
 73
7
 74
0
 42
0.0000001
 43
0.0000001
 44
0.0000000001
 40
0.0
 40
0.0
 40
0.0
 40
0.0
 40
0.2590104209
 40
0.5206584756
 40
0.7715118421
 40
1.0
 40
1.0
 40
1.0
 40
1.0
 10
34.1969726215
 20
184.5577166236
 30
0.0
 10
33.9944065077
 20
184.5171340801
 30
0.0
 10
33.5794267677
 20
184.4712374245
 30
0.0
 10
32.9622505969
 20
184.5011755382
 30
0.0
 10
32.3818109748
 20
184.6257525784
 30
0.0
 10
32.0261529272
 20
184.7752632489
 30
0.0
 10
31.8683221787
 20
184.8663848126
 30
0.0
  0
SPLINE
  5
383
100
AcDbEntity
  8
0
100
AcDbSpline
 62
7
  6
CONTINUOUS
 70
0
 71
3
 72
12
 73
8
 74
0
 42
0.0000001
 43
0.0000001
 44
0.0000000001
 40
0.0
 40
0.0
 40
0.0
 40
0.0
 40
0.2393699441
 40
0.5020115216
 40
0.7634096302
 40
0.8861413221
 40
1.0
 40
1.0
 40
1.0
 40
1.0
 10
45.2148197541
 20
178.4478168893
 30
0.0
 10
45.0127670076
 20
178.3395214107
 30
0.0
 10
44.5506006521
 20
178.1828852677
 30
0.0
 10
43.818169658
 20
178.1126644886
 30
0.0
 10
43.1968807823
 20
178.1852255427
 30
0.0
 10
42.7402185931
 20
178.3263668663
 30
0.0
 10
42.5340488258
 20
178.4228954399
 30
0.0
 10
42.4396146305
 20
178.4774158146
 30
0.0
  0
SPLINE
  5
384
100
AcDbEntity
  8
0
100
AcDbSpline
 62
7
  6
CONTINUOUS
 70
0
 71
3
 72
11
 73
7
 74
0
 42
0.0000001
 43
0.0000001
 44
0.0000000001
 40
0.0
 40
0.0
 40
0.0
 40
0.0
 40
0.2897766779
 40
0.5490706103
 40
0.7822286453
 40
1.0
 40
1.0
 40
1.0
 40
1.0
 10
45.8690947367
 20
176.7832178731
 30
0.0
 10
45.7703408163
 20
176.8402321857
 30
0.0
 10
45.5911986629
 20
176.9635645553
 30
0.0
 10
45.3771694082
 20
177.1885884653
 30
0.0
 10
45.2417391759
 20
177.4374318018
 30
0.0
 10
45.2100930933
 20
177.616071608
 30
0.0
 10
45.2100937458
 20
177.7017672193
 30
0.0
  0
SPLINE
  5
385
100
AcDbEntity
  8
0
100
AcDbSpline
 62
7
  6
CONTINUOUS
 70
0
 71
3
 72
9
 73
5
 74
0
 42
0.0000001
 43
0.0000001
 44
0.0000000001
 40
0.0
 40
0.0
 40
0.0
 40
0.0
 40
0.2542741163
 40
1.0
 40
1.0
 40
1.0
 40
1.0
 10
23.944321716
 20
173.944439384
 30
0.0
 10
23.9422093421
 20
173.9221071423
 30
0.0
 10
23.9348783228
 20
173.8341916299
 30
0.0
 10
23.9315224273
 20
173.7459325488
 30
0.0
 10
23.9315224273
 20
173.6801450224
 30
0.0
  0
SPLINE
  5
386
100
AcDbEntity
  8
0
100
AcDbSpline
 62
7
  6
CONTINUOUS
 70
0
 71
3
 72
9
 73
5
 74
0
 42
0.0000001
 43
0.0000001
 44
0.0000000001
 40
0.0
 40
0.0
 40
0.0
 40
0.0
 40
0.2541008487
 40
1.0
 40
1.0
 40
1.0
 40
1.0
 10
23.9315224273
 20
173.6801450224
 30
0.0
 10
23.9315224273
 20
173.6571868864
 30
0.0
 10
23.9327211914
 20
173.5668426743
 30
0.0
 10
23.9388171945
 20
173.4765453473
 30
0.0
 10
23.9464183797
 20
173.409583035
 30
0.0
  0
SPLINE
  5
387
100
AcDbEntity
  8
0
100
AcDbSpline
 62
7
  6
CONTINUOUS
 70
0
 71
3
 72
9
 73
5
 74
0
 42
0.0000001
 43
0.0000001
 44
0.0000000001
 40
0.0
 40
0.0
 40
0.0
 40
0.0
 40
0.2392749145
 40
1.0
 40
1.0
 40
1.0
 40
1.0
 10
24.4221329549
 20
158.2730963132
 30
0.0
 10
24.3482911185
 20
158.6253360156
 30
0.0
 10
24.0830709727
 20
160.106461203
 30
0.0
 10
23.9840519817
 20
161.6152587669
 30
0.0
 10
23.9840519817
 20
162.759474936
 30
0.0
  0
SPLINE
  5
388
100
AcDbEntity
  8
0
100
AcDbSpline
 62
7
  6
CONTINUOUS
 70
0
 71
3
 72
9
 73
5
 74
0
 42
0.0000001
 43
0.0000001
 44
0.0000000001
 40
0.0
 40
0.0
 40
0.0
 40
0.0
 40
0.4775300783
 40
1.0
 40
1.0
 40
1.0
 40
1.0
 10
31.1339650871
 20
146.9367139146
 30
0.0
 10
31.1161239746
 20
146.9483576924
 30
0.0
 10
31.0833729002
 20
146.9803235073
 30
0.0
 10
31.0635302285
 20
147.0211289372
 30
0.0
 10
31.0560018892
 20
147.0431892098
 30
0.0
  0
SPLINE
  5
389
100
AcDbEntity
  8
0
100
AcDbSpline
 62
7
  6
CONTINUOUS
 70
0
 71
3
 72
9
 73
5
 74
0
 42
0.0000001
 43
0.0000001
 44
0.0000000001
 40
0.0
 40
0.0
 40
0.0
 40
0.0
 40
0.2409871976
 40
1.0
 40
1.0
 40
1.0
 40
1.0
 10
31.0560018892
 20
147.0431892098
 30
0.0
 10
31.0544077334
 20
147.0478605606
 30
0.0
 10
31.0483140576
 20
147.067421534
 30
0.0
 10
31.0442273253
 20
147.0875853363
 30
0.0
 10
31.0420821873
 20
147.1029826437
 30
0.0
  0
SPLINE
  5
38A
100
AcDbEntity
  8
0
100
AcDbSpline
 62
7
  6
CONTINUOUS
 70
0
 71
3
 72
11
 73
7
 74
0
 42
0.0000001
 43
0.0000001
 44
0.0000000001
 40
0.0
 40
0.0
 40
0.0
 40
0.0
 40
0.2731873751
 40
0.5270451484
 40
0.7669650936
 40
1.0
 40
1.0
 40
1.0
 40
1.0
 10
23.9315224273
 20
156.5335942626
 30
0.0
 10
23.9315224273
 20
156.3880121024
 30
0.0
 10
23.9548729445
 20
156.1061692084
 30
0.0
 10
24.074851271
 20
155.7115099223
 30
0.0
 10
24.2833418144
 20
155.3788408316
 30
0.0
 10
24.4814023408
 20
155.2143004666
 30
0.0
 10
24.5889501582
 20
155.15220911
 30
0.0
  0
SPLINE
  5
38B
100
AcDbEntity
  8
0
100
AcDbSpline
 62
7
  6
CONTINUOUS
 70
0
 71
3
 72
9
 73
5
 74
0
 42
0.0000001
 43
0.0000001
 44
0.0000000001
 40
0.0
 40
0.0
 40
0.0
 40
0.0
 40
0.5210727192
 40
1.0
 40
1.0
 40
1.0
 40
1.0
 10
24.3933267555
 20
158.2355046873
 30
0.0
 10
24.249690782
 20
157.962540207
 30
0.0
 10
24.0258051795
 20
157.4096616718
 30
0.0
 10
23.9315224273
 20
156.8170954412
 30
0.0
 10
23.9315224273
 20
156.5335942626
 30
0.0
  0
SPLINE
  5
38C
100
AcDbEntity
  8
0
100
AcDbSpline
 62
7
  6
CONTINUOUS
 70
0
 71
3
 72
9
 73
5
 74
0
 42
0.0000001
 43
0.0000001
 44
0.0000000001
 40
0.0
 40
0.0
 40
0.0
 40
0.0
 40
0.4749086667
 40
1.0
 40
1.0
 40
1.0
 40
1.0
 10
24.0193912762
 20
156.4111210165
 30
0.0
 10
24.0193912762
 20
156.6872234345
 30
0.0
 10
24.1096356124
 20
157.2690196326
 30
0.0
 10
24.3220237893
 20
157.8145659695
 30
0.0
 10
24.4592063414
 20
158.087284454
 30
0.0
  0
SPLINE
  5
38D
100
AcDbEntity
  8
0
100
AcDbSpline
 62
7
  6
CONTINUOUS
 70
0
 71
3
 72
11
 73
7
 74
0
 42
0.0000001
 43
0.0000001
 44
0.0000000001
 40
0.0
 40
0.0
 40
0.0
 40
0.0
 40
0.2177761818
 40
0.4509348599
 40
0.7102271681
 40
1.0
 40
1.0
 40
1.0
 40
1.0
 10
24.5889565816
 20
155.152220236
 30
0.0
 10
24.4982450036
 20
155.20459141
 30
0.0
 10
24.3284926577
 20
155.347263089
 30
0.0
 10
24.1478536284
 20
155.6426913689
 30
0.0
 10
24.0404622202
 20
156.0067572144
 30
0.0
 10
24.0193912762
 20
156.271748568
 30
0.0
 10
24.0193912762
 20
156.4111210165
 30
0.0
  0
SPLINE
  5
38E
100
AcDbEntity
  8
0
100
AcDbSpline
 62
7
  6
CONTINUOUS
 70
0
 71
3
 72
9
 73
5
 74
0
 42
0.0000001
 43
0.0000001
 44
0.0000000001
 40
0.0
 40
0.0
 40
0.0
 40
0.0
 40
0.2592908879
 40
1.0
 40
1.0
 40
1.0
 40
1.0
 10
35.9918502633
 20
144.245297362
 30
0.0
 10
35.9925830426
 20
144.2400376405
 30
0.0
 10
35.9958386119
 20
144.2198176666
 30
0.0
 10
36.0008703216
 20
144.1998613421
 30
0.0
 10
36.005769963
 20
144.185503935
 30
0.0
  0
SPLINE
  5
38F
100
AcDbEntity
  8
0
100
AcDbSpline
 62
7
  6
CONTINUOUS
 70
0
 71
3
 72
8
 73
4
 74
0
 42
0.0000001
 43
0.0000001
 44
0.0000000001
 40
0.0
 40
0.0
 40
0.0
 40
0.0
 40
1.0
 40
1.0
 40
1.0
 40
1.0
 10
36.005769963
 20
144.185503935
 30
0.0
 10
36.0095486244
 20
144.1744313326
 30
0.0
 10
36.0140449675
 20
144.1635690017
 30
0.0
 10
36.0193204345
 20
144.1531262887
 30
0.0
  0
SPLINE
  5
390
100
AcDbEntity
  8
0
100
AcDbSpline
 62
7
  6
CONTINUOUS
 70
0
 71
3
 72
9
 73
5
 74
0
 42
0.0000001
 43
0.0000001
 44
0.0000000001
 40
0.0
 40
0.0
 40
0.0
 40
0.0
 40
0.2594208707
 40
1.0
 40
1.0
 40
1.0
 40
1.0
 10
36.0193204345
 20
144.1531262887
 30
0.0
 10
36.0218657511
 20
144.1480878702
 30
0.0
 10
36.0323713873
 20
144.1290325421
 30
0.0
 10
36.0458488859
 20
144.1115539547
 30
0.0
 10
36.0573507722
 20
144.1002674143
 30
0.0
  0
SPLINE
  5
391
100
AcDbEntity
  8
0
100
AcDbSpline
 62
7
  6
CONTINUOUS
 70
0
 71
3
 72
9
 73
5
 74
0
 42
0.0000001
 43
0.0000001
 44
0.0000000001
 40
0.0
 40
0.0
 40
0.0
 40
0.0
 40
0.2392749145
 40
1.0
 40
1.0
 40
1.0
 40
1.0
 10
29.3719010309
 20
155.4154110316
 30
0.0
 10
29.2980591945
 20
155.7676507339
 30
0.0
 10
29.0328390487
 20
157.2487759213
 30
0.0
 10
28.9338200577
 20
158.7575734853
 30
0.0
 10
28.9338200577
 20
159.9017896544
 30
0.0
  0
SPLINE
  5
392
100
AcDbEntity
  8
0
100
AcDbSpline
 62
7
  6
CONTINUOUS
 70
0
 71
3
 72
8
 73
4
 74
0
 42
0.0000001
 43
0.0000001
 44
0.0000000001
 40
0.0
 40
0.0
 40
0.0
 40
0.0
 40
1.0
 40
1.0
 40
1.0
 40
1.0
 10
36.0915584827
 20
144.0742205222
 30
0.0
 10
36.0791473127
 20
144.0813873842
 30
0.0
 10
36.0675801947
 20
144.0902295118
 30
0.0
 10
36.0573507602
 20
144.1002674261
 30
0.0
  0
SPLINE
  5
393
100
AcDbEntity
  8
0
100
AcDbSpline
 62
7
  6
CONTINUOUS
 70
0
 71
3
 72
9
 73
5
 74
0
 42
0.0000001
 43
0.0000001
 44
0.0000000001
 40
0.0
 40
0.0
 40
0.0
 40
0.0
 40
0.22871072
 40
1.0
 40
1.0
 40
1.0
 40
1.0
 10
36.0573507602
 20
144.1002674261
 30
0.0
 10
36.0485974676
 20
144.1088568355
 30
0.0
 10
36.014219261
 20
144.1504687492
 30
0.0
 10
35.9975570015
 20
144.2043357056
 30
0.0
 10
35.9918502631
 20
144.2452973636
 30
0.0
  0
SPLINE
  5
394
100
AcDbEntity
  8
0
100
AcDbSpline
 62
7
  6
CONTINUOUS
 70
0
 71
3
 72
9
 73
5
 74
0
 42
0.0000001
 43
0.0000001
 44
0.0000000001
 40
0.0
 40
0.0
 40
0.0
 40
0.0
 40
0.2610046213
 40
1.0
 40
1.0
 40
1.0
 40
1.0
 10
48.0257826367
 20
148.8792892823
 30
0.0
 10
48.0257826367
 20
148.4867316456
 30
0.0
 10
48.0599233513
 20
146.9831747869
 30
0.0
 10
48.2358178866
 20
145.4807324371
 30
0.0
 10
48.4638636098
 20
144.3929106595
 30
0.0
  0
SPLINE
  5
395
100
AcDbEntity
  8
0
100
AcDbSpline
 62
7
  6
CONTINUOUS
 70
0
 71
3
 72
9
 73
5
 74
0
 42
0.0000001
 43
0.0000001
 44
0.0000000001
 40
0.0
 40
0.0
 40
0.0
 40
0.0
 40
0.5380266128
 40
1.0
 40
1.0
 40
1.0
 40
1.0
 10
55.0838128421
 20
133.2227969916
 30
0.0
 10
55.0888452773
 20
133.1866753269
 30
0.0
 10
55.1075899295
 20
133.1195454684
 30
0.0
 10
55.1564024939
 20
133.0673798368
 30
0.0
 10
55.1835210617
 20
133.0517201501
 30
0.0
  0
SPLINE
  5
396
100
AcDbEntity
  8
0
100
AcDbSpline
 62
7
  6
CONTINUOUS
 70
0
 71
3
 72
14
 73
10
 74
0
 42
0.0000001
 43
0.0000001
 44
0.0000000001
 40
0.0
 40
0.0
 40
0.0
 40
0.0
 40
0.2892812548
 40
0.4225394212
 40
0.5484967217
 40
0.6678951303
 40
0.7818688101
 40
0.8919525182
 40
1.0
 40
1.0
 40
1.0
 40
1.0
 10
181.6692410127
 20
110.5048198266
 30
0.0
 10
181.6692410127
 20
111.5185716373
 30
0.0
 10
181.5508832632
 20
113.0065891351
 30
0.0
 10
181.0934346494
 20
114.8768841118
 30
0.0
 10
180.6279979663
 20
116.1231477664
 30
0.0
 10
180.0348351009
 20
117.2384266272
 30
0.0
 10
179.3184037549
 20
118.2114809891
 30
0.0
 10
178.48533395
 20
119.0312589918
 30
0.0
 10
177.8549058389
 20
119.4712225218
 30
0.0
 10
177.5269837196
 20
119.6605238915
 30
0.0
  0
SPLINE
  5
397
100
AcDbEntity
  8
0
100
AcDbSpline
 62
7
  6
CONTINUOUS
 70
0
 71
3
 72
24
 73
20
 74
0
 42
0.0000001
 43
0.0000001
 44
0.0000000001
 40
0.0
 40
0.0
 40
0.0
 40
0.0
 40
0.0623883696
 40
0.1287326464
 40
0.1983306168
 40
0.2703124702
 40
0.3436952532
 40
0.4174325667
 40
0.490462367
 40
0.5617540732
 40
0.6303563599
 40
0.6954488669
 40
0.7564011923
 40
0.8128429503
 40
0.8647476459
 40
0.9125262826
 40
0.9571042564
 40
0.9786662968
 40
1.0
 40
1.0
 40
1.0
 40
1.0
 10
155.1528471172
 20
95.1956640564
 30
0.0
 10
155.1528471172
 20
95.9216747001
 30
0.0
 10
155.2512027995
 20
97.4207308324
 30
0.0
 10
155.6559263946
 20
99.6968402072
 30
0.0
 10
156.3139267084
 20
102.0291150069
 30
0.0
 10
157.2111288078
 20
104.367679215
 30
0.0
 10
158.3284377007
 20
106.6629665216
 30
0.0
 10
159.6420205062
 20
108.8660022905
 30
0.0
 10
161.1238569458
 20
110.9297967162
 30
0.0
 10
162.7423780167
 20
112.8103669719
 30
0.0
 10
164.4632500471
 20
114.4677354976
 30
0.0
 10
166.2502504319
 20
115.866776892
 30
0.0
 10
168.0663022118
 20
116.9778267714
 30
0.0
 10
169.874422097
 20
117.7770144529
 30
0.0
 10
171.638929747
 20
118.2456791591
 30
0.0
 10
173.3241434267
 20
118.3701828662
 30
0.0
 10
174.6490026766
 20
118.1751656915
 30
0.0
 10
175.6131352224
 20
117.8416834487
 30
0.0
 10
176.06200047
 20
117.619568199
 30
0.0
 10
176.2770063286
 20
117.4954505861
 30
0.0
  0
SPLINE
  5
398
100
AcDbEntity
  8
0
100
AcDbSpline
 62
7
  6
CONTINUOUS
 70
0
 71
3
 72
11
 73
7
 74
0
 42
0.0000001
 43
0.0000001
 44
0.0000000001
 40
0.0
 40
0.0
 40
0.0
 40
0.0
 40
0.2898012489
 40
0.5490510236
 40
0.7822290598
 40
1.0
 40
1.0
 40
1.0
 40
1.0
 10
185.5583003415
 20
132.7544368751
 30
0.0
 10
185.5583003415
 20
133.0078676661
 30
0.0
 10
185.520026598
 20
133.4896707092
 30
0.0
 10
185.324690553
 20
134.1515841897
 30
0.0
 10
184.9963473735
 20
134.6887614172
 30
0.0
 10
184.6876616167
 20
134.948141648
 30
0.0
 10
184.5227344699
 20
135.0433602217
 30
0.0
  0
SPLINE
  5
399
100
AcDbEntity
  8
0
100
AcDbSpline
 62
7
  6
CONTINUOUS
 70
0
 71
3
 72
15
 73
11
 74
0
 42
0.0000001
 43
0.0000001
 44
0.0000000001
 40
0.0
 40
0.0
 40
0.0
 40
0.0
 40
0.1141543519
 40
0.237325601
 40
0.366974755
 40
0.4999984147
 40
0.6330222943
 40
0.7626720931
 40
0.8858443543
 40
1.0
 40
1.0
 40
1.0
 40
1.0
 10
182.0227811554
 20
89.8880952492
 30
0.0
 10
182.2648159324
 20
90.0278332587
 30
0.0
 10
182.7428779513
 20
90.3629513541
 30
0.0
 10
183.4006651859
 20
90.9783646904
 30
0.0
 10
184.0068516699
 20
91.705829174
 30
0.0
 10
184.5386050671
 20
92.5180552836
 30
0.0
 10
184.9761332486
 20
93.3846838474
 30
0.0
 10
185.3030405887
 20
94.273394629
 30
0.0
 10
185.5071099517
 20
95.1507692558
 30
0.0
 10
185.5583003415
 20
95.7323476665
 30
0.0
 10
185.5583003415
 20
96.0118281042
 30
0.0
  0
SPLINE
  5
39A
100
AcDbEntity
  8
0
100
AcDbSpline
 62
7
  6
CONTINUOUS
 70
0
 71
3
 72
11
 73
7
 74
0
 42
0.0000001
 43
0.0000001
 44
0.0000000001
 40
0.0
 40
0.0
 40
0.0
 40
0.0
 40
0.2177798624
 40
0.4509243774
 40
0.7102597636
 40
1.0
 40
1.0
 40
1.0
 40
1.0
 10
148.988041962
 20
73.4950111232
 30
0.0
 10
148.8973202
 20
73.5473667247
 30
0.0
 10
148.7276049135
 20
73.6900771095
 30
0.0
 10
148.546922824
 20
73.9854853493
 30
0.0
 10
148.4395684794
 20
74.3495641726
 30
0.0
 10
148.4184748394
 20
74.6145529659
 30
0.0
 10
148.4184748394
 20
74.753908759
 30
0.0
  0
SPLINE
  5
39B
100
AcDbEntity
  8
0
100
AcDbSpline
 62
7
  6
CONTINUOUS
 70
0
 71
3
 72
17
 73
13
 74
0
 42
0.0000001
 43
0.0000001
 44
0.0000000001
 40
0.0
 40
0.0
 40
0.0
 40
0.0
 40
0.1286927192
 40
0.2702772184
 40
0.4174336658
 40
0.5617787524
 40
0.695449257
 40
0.8127115591
 40
0.8646775202
 40
0.9125099615
 40
0.9571398666
 40
1.0
 40
1.0
 40
1.0
 40
1.0
 10
179.9183436921
 20
129.3135849111
 30
0.0
 10
179.9183436921
 20
129.548648144
 30
0.0
 10
179.984096584
 20
130.0428872468
 30
0.0
 10
180.2295544989
 20
130.7685641122
 30
0.0
 10
180.6077412292
 20
131.4676344028
 30
0.0
 10
181.088301108
 20
132.0827654815
 30
0.0
 10
181.6319578611
 20
132.564276922
 30
0.0
 10
182.1240526504
 20
132.8332972048
 30
0.0
 10
182.5089706195
 20
132.9357673335
 30
0.0
 10
182.7739015055
 20
132.955195042
 30
0.0
 10
183.0206040278
 20
132.9191012548
 30
0.0
 10
183.1700426638
 20
132.8569557188
 30
0.0
 10
183.2378476742
 20
132.8178253931
 30
0.0
  0
SPLINE
  5
39C
100
AcDbEntity
  8
0
100
AcDbSpline
 62
7
  6
CONTINUOUS
 70
0
 71
3
 72
17
 73
13
 74
0
 42
0.0000001
 43
0.0000001
 44
0.0000000001
 40
0.0
 40
0.0
 40
0.0
 40
0.0
 40
0.1286927192
 40
0.2702772184
 40
0.4174336658
 40
0.5617787524
 40
0.695449257
 40
0.8127115591
 40
0.8646775202
 40
0.9125099615
 40
0.9571398666
 40
1.0
 40
1.0
 40
1.0
 40
1.0
 10
148.4184748394
 20
111.1272357074
 30
0.0
 10
148.4184748394
 20
111.3622989403
 30
0.0
 10
148.4842277313
 20
111.8565380431
 30
0.0
 10
148.7296856462
 20
112.5822149085
 30
0.0
 10
149.1078723765
 20
113.2812851991
 30
0.0
 10
149.5884322553
 20
113.8964162778
 30
0.0
 10
150.1320890084
 20
114.3779277183
 30
0.0
 10
150.6241837977
 20
114.6469480011
 30
0.0
 10
151.0091017668
 20
114.7494181298
 30
0.0
 10
151.2740326528
 20
114.7688458383
 30
0.0
 10
151.5207351751
 20
114.7327520511
 30
0.0
 10
151.6701738111
 20
114.6706065151
 30
0.0
 10
151.7379788215
 20
114.6314761894
 30
0.0
  0
SPLINE
  5
39D
100
AcDbEntity
  8
0
100
AcDbSpline
 62
7
  6
CONTINUOUS
 70
0
 71
3
 72
17
 73
13
 74
0
 42
0.0000001
 43
0.0000001
 44
0.0000000001
 40
0.0
 40
0.0
 40
0.0
 40
0.0
 40
0.1286927192
 40
0.2702772184
 40
0.4174336658
 40
0.5617787524
 40
0.695449257
 40
0.8127115591
 40
0.8646775202
 40
0.9125099615
 40
0.9571398666
 40
1.0
 40
1.0
 40
1.0
 40
1.0
 10
148.4184748394
 20
74.753908759
 30
0.0
 10
148.4184748394
 20
74.9889719918
 30
0.0
 10
148.4842277313
 20
75.4832110946
 30
0.0
 10
148.7296856462
 20
76.20888796
 30
0.0
 10
149.1078723765
 20
76.9079582507
 30
0.0
 10
149.5884322553
 20
77.5230893294
 30
0.0
 10
150.1320890084
 20
78.0046007699
 30
0.0
 10
150.6241837977
 20
78.2736210527
 30
0.0
 10
151.0091017668
 20
78.3760911813
 30
0.0
 10
151.2740326528
 20
78.3955188899
 30
0.0
 10
151.5207351751
 20
78.3594251027
 30
0.0
 10
151.6701738111
 20
78.2972795666
 30
0.0
 10
151.7379788215
 20
78.258149241
 30
0.0
  0
SPLINE
  5
39E
100
AcDbEntity
  8
0
100
AcDbSpline
 62
7
  6
CONTINUOUS
 70
0
 71
3
 72
11
 73
7
 74
0
 42
0.0000001
 43
0.0000001
 44
0.0000000001
 40
0.0
 40
0.0
 40
0.0
 40
0.0
 40
0.2177798624
 40
0.4509243774
 40
0.7102597636
 40
1.0
 40
1.0
 40
1.0
 40
1.0
 10
148.988041962
 20
109.8683380717
 30
0.0
 10
148.8973202
 20
109.9206936731
 30
0.0
 10
148.7276049135
 20
110.063404058
 30
0.0
 10
148.546922824
 20
110.3588122978
 30
0.0
 10
148.4395684794
 20
110.722891121
 30
0.0
 10
148.4184748394
 20
110.9878799144
 30
0.0
 10
148.4184748394
 20
111.1272357074
 30
0.0
  0
SPLINE
  5
39F
100
AcDbEntity
  8
0
100
AcDbSpline
 62
7
  6
CONTINUOUS
 70
0
 71
3
 72
11
 73
7
 74
0
 42
0.0000001
 43
0.0000001
 44
0.0000000001
 40
0.0
 40
0.0
 40
0.0
 40
0.0
 40
0.289799778
 40
0.5490490151
 40
0.7822276429
 40
1.0
 40
1.0
 40
1.0
 40
1.0
 10
175.6587936291
 20
138.469894982
 30
0.0
 10
175.8782616515
 20
138.5966041475
 30
0.0
 10
176.3146337244
 20
138.8043496789
 30
0.0
 10
176.9855077376
 20
138.9661335477
 30
0.0
 10
177.6148645052
 20
138.9503718819
 30
0.0
 10
177.9938252485
 20
138.8127424186
 30
0.0
 10
178.1587469436
 20
138.7175270124
 30
0.0
  0
SPLINE
  5
3A0
100
AcDbEntity
  8
0
100
AcDbSpline
 62
7
  6
CONTINUOUS
 70
0
 71
3
 72
15
 73
11
 74
0
 42
0.0000001
 43
0.0000001
 44
0.0000000001
 40
0.0
 40
0.0
 40
0.0
 40
0.0
 40
0.114155658
 40
0.2373279333
 40
0.3669777387
 40
0.5000016213
 40
0.633025278
 40
0.7626744253
 40
0.8858456604
 40
1.0
 40
1.0
 40
1.0
 40
1.0
 10
140.3036017684
 20
113.9751752028
 30
0.0
 10
140.3036017684
 20
114.2546556707
 30
0.0
 10
140.354792175
 20
114.8362341454
 30
0.0
 10
140.5588615677
 20
115.7136088486
 30
0.0
 10
140.8857689577
 20
116.6023196743
 30
0.0
 10
141.3232971684
 20
117.4689482411
 30
0.0
 10
141.8550505777
 20
118.2811743239
 30
0.0
 10
142.4612370485
 20
119.0086387422
 30
0.0
 10
143.1190242317
 20
119.6240520146
 30
0.0
 10
143.5970862036
 20
119.9591700634
 30
0.0
 10
143.8391209545
 20
120.0989080578
 30
0.0
  0
SPLINE
  5
3A1
100
AcDbEntity
  8
0
100
AcDbSpline
 62
7
  6
CONTINUOUS
 70
0
 71
3
 72
11
 73
7
 74
0
 42
0.0000001
 43
0.0000001
 44
0.0000000001
 40
0.0
 40
0.0
 40
0.0
 40
0.0
 40
0.2177798624
 40
0.4509243774
 40
0.7102597636
 40
1.0
 40
1.0
 40
1.0
 40
1.0
 10
180.4879108148
 20
128.0546872754
 30
0.0
 10
180.3971890527
 20
128.1070428768
 30
0.0
 10
180.2274737662
 20
128.2497532617
 30
0.0
 10
180.0467916767
 20
128.5451615015
 30
0.0
 10
179.9394373321
 20
128.9092403247
 30
0.0
 10
179.9183436921
 20
129.174229118
 30
0.0
 10
179.9183436921
 20
129.3135849111
 30
0.0
  0
SPLINE
  5
3A2
100
AcDbEntity
  8
0
100
AcDbSpline
 62
7
  6
CONTINUOUS
 70
0
 71
3
 72
11
 73
7
 74
0
 42
0.0000001
 43
0.0000001
 44
0.0000000001
 40
0.0
 40
0.0
 40
0.0
 40
0.0
 40
0.2177709505
 40
0.4509489942
 40
0.7101987597
 40
1.0
 40
1.0
 40
1.0
 40
1.0
 10
141.33916764
 20
74.9436430854
 30
0.0
 10
141.1742404766
 20
75.0388616486
 30
0.0
 10
140.8655547174
 20
75.2982419108
 30
0.0
 10
140.5372115455
 20
75.8354191467
 30
0.0
 10
140.341875503
 20
76.4973326202
 30
0.0
 10
140.3036017684
 20
76.9791356484
 30
0.0
 10
140.3036017684
 20
77.232566432
 30
0.0
  0
SPLINE
  5
3A3
100
AcDbEntity
  8
0
100
AcDbSpline
 62
7
  6
CONTINUOUS
 70
0
 71
3
 72
14
 73
10
 74
0
 42
0.0000001
 43
0.0000001
 44
0.0000000001
 40
0.0
 40
0.0
 40
0.0
 40
0.0
 40
0.1080468381
 40
0.2181300444
 40
0.332103614
 40
0.4515023497
 40
0.5774599686
 40
0.7107185822
 40
1.0
 40
1.0
 40
1.0
 40
1.0
 10
158.7773222082
 20
87.1844229122
 30
0.0
 10
158.4903920886
 20
87.3500606383
 30
0.0
 10
157.9387707116
 20
87.7350271233
 30
0.0
 10
157.2098369177
 20
88.4523293372
 30
0.0
 10
156.582957161
 20
89.3037491705
 30
0.0
 10
156.0639397657
 20
90.2796200801
 30
0.0
 10
155.6566786196
 20
91.3701027188
 30
0.0
 10
155.256410789
 20
93.0066137709
 30
0.0
 10
155.1528471172
 20
94.3086307616
 30
0.0
 10
155.1528471172
 20
95.1956640564
 30
0.0
  0
SPLINE
  5
3A4
100
AcDbEntity
  8
0
100
AcDbSpline
 62
7
  6
CONTINUOUS
 70
0
 71
3
 72
11
 73
7
 74
0
 42
0.0000001
 43
0.0000001
 44
0.0000000001
 40
0.0
 40
0.0
 40
0.0
 40
0.0
 40
0.2177723674
 40
0.4509510027
 40
0.7102002307
 40
1.0
 40
1.0
 40
1.0
 40
1.0
 10
147.7031551663
 20
71.2694762947
 30
0.0
 10
147.8680768607
 20
71.1742608689
 30
0.0
 10
148.2470376323
 20
71.0366314191
 30
0.0
 10
148.8763944034
 20
71.0208697641
 30
0.0
 10
149.5472684093
 20
71.1826536316
 30
0.0
 10
149.9836404648
 20
71.3903991633
 30
0.0
 10
150.2031084808
 20
71.517108325
 30
0.0
  0
SPLINE
  5
3A5
100
AcDbEntity
  8
0
100
AcDbSpline
 62
7
  6
CONTINUOUS
 70
0
 71
3
 72
17
 73
13
 74
0
 42
0.0000001
 43
0.0000001
 44
0.0000000001
 40
0.0
 40
0.0
 40
0.0
 40
0.0
 40
0.0469625764
 40
0.0945745545
 40
0.1434417645
 40
0.1940923725
 40
0.3021802278
 40
0.4211641867
 40
0.5515845754
 40
0.6927302937
 40
0.8429654548
 40
1.0
 40
1.0
 40
1.0
 40
1.0
 10
157.5273448172
 20
85.0193496068
 30
0.0
 10
157.8072182282
 20
84.8577855739
 30
0.0
 10
158.3954705332
 20
84.5731562101
 30
0.0
 10
159.3394971938
 20
84.2743991912
 30
0.0
 10
160.3406641357
 20
84.1040756919
 30
0.0
 10
161.7715822687
 20
84.0483318211
 30
0.0
 10
163.6798503337
 20
84.3246440683
 30
0.0
 10
166.0096368992
 20
85.1516189846
 30
0.0
 10
168.3731606551
 20
86.4515303375
 30
0.0
 10
170.7087868297
 20
88.1877060036
 30
0.0
 10
172.9550052046
 20
90.3122951539
 30
0.0
 10
174.3307133569
 20
91.9236847034
 30
0.0
 10
174.9911830647
 20
92.7789335519
 30
0.0
  0
SPLINE
  5
3A6
100
AcDbEntity
  8
0
100
AcDbSpline
 62
7
  6
CONTINUOUS
 70
0
 71
3
 72
11
 73
7
 74
0
 42
0.0000001
 43
0.0000001
 44
0.0000000001
 40
0.0
 40
0.0
 40
0.0
 40
0.0
 40
0.2660555568
 40
0.5231985671
 40
0.7686140004
 40
1.0
 40
1.0
 40
1.0
 40
1.0
 10
179.5302921925
 20
100.6347721637
 30
0.0
 10
179.8730104084
 20
101.4678693607
 30
0.0
 10
180.4802379632
 20
103.1346915192
 30
0.0
 10
181.1549471941
 20
105.6517929982
 30
0.0
 10
181.5690943634
 20
108.1059788669
 30
0.0
 10
181.6692410127
 20
109.7213706963
 30
0.0
 10
181.6692410127
 20
110.5048198266
 30
0.0
  0
SPLINE
  5
3A7
100
AcDbEntity
  8
0
100
AcDbSpline
 62
7
  6
CONTINUOUS
 70
0
 71
3
 72
11
 73
7
 74
0
 42
0.0000001
 43
0.0000001
 44
0.0000000001
 40
0.0
 40
0.0
 40
0.0
 40
0.0
 40
0.2177798624
 40
0.4509243774
 40
0.7102597636
 40
1.0
 40
1.0
 40
1.0
 40
1.0
 10
151.7379788215
 20
114.6314761894
 30
0.0
 10
151.8287005835
 20
114.579120588
 30
0.0
 10
151.99841587
 20
114.4364102032
 30
0.0
 10
152.1790979595
 20
114.1410019634
 30
0.0
 10
152.2864523041
 20
113.7769231401
 30
0.0
 10
152.3075459441
 20
113.5119343468
 30
0.0
 10
152.3075459441
 20
113.3725785537
 30
0.0
  0
SPLINE
  5
3A8
100
AcDbEntity
  8
0
100
AcDbSpline
 62
7
  6
CONTINUOUS
 70
0
 71
3
 72
11
 73
7
 74
0
 42
0.0000001
 43
0.0000001
 44
0.0000000001
 40
0.0
 40
0.0
 40
0.0
 40
0.0
 40
0.232068565
 40
0.4774996705
 40
0.7342809358
 40
1.0
 40
1.0
 40
1.0
 40
1.0
 10
179.9014814196
 20
109.4842094419
 30
0.0
 10
179.9014814196
 20
108.8418844988
 30
0.0
 10
179.8246061151
 20
107.5195078948
 30
0.0
 10
179.5050481754
 20
105.5095696246
 30
0.0
 10
178.9832448965
 20
103.446439545
 30
0.0
 10
178.5127569307
 20
102.0769806373
 30
0.0
 10
178.2469465617
 20
101.3912317342
 30
0.0
  0
SPLINE
  5
3A9
100
AcDbEntity
  8
0
100
AcDbSpline
 62
7
  6
CONTINUOUS
 70
0
 71
3
 72
17
 73
13
 74
0
 42
0.0000001
 43
0.0000001
 44
0.0000000001
 40
0.0
 40
0.0
 40
0.0
 40
0.0
 40
0.1570593979
 40
0.3070108481
 40
0.4477481061
 40
0.5778095265
 40
0.6966317374
 40
0.804851663
 40
0.8556829602
 40
0.9047989324
 40
0.9527104784
 40
1.0
 40
1.0
 40
1.0
 40
1.0
 10
173.7008914002
 20
93.5209286411
 30
0.0
 10
173.1267711372
 20
92.8078197076
 30
0.0
 10
171.9361467088
 20
91.4669603288
 30
0.0
 10
170.0033403302
 20
89.7054550188
 30
0.0
 10
168.0040151855
 20
88.2738630484
 30
0.0
 10
165.9881839192
 20
87.2098289584
 30
0.0
 10
164.00584875
 20
86.542129656
 30
0.0
 10
162.3857278761
 20
86.3310134041
 30
0.0
 10
161.1710499433
 20
86.3918654042
 30
0.0
 10
160.3201460139
 20
86.5441000097
 30
0.0
 10
159.5171022185
 20
86.8030334311
 30
0.0
 10
159.0160503194
 20
87.0466110242
 30
0.0
 10
158.7773222082
 20
87.1844229122
 30
0.0
  0
SPLINE
  5
3AA
100
AcDbEntity
  8
0
100
AcDbSpline
 62
7
  6
CONTINUOUS
 70
0
 71
3
 72
11
 73
7
 74
0
 42
0.0000001
 43
0.0000001
 44
0.0000000001
 40
0.0
 40
0.0
 40
0.0
 40
0.0
 40
0.2898012489
 40
0.5490510236
 40
0.7822290598
 40
1.0
 40
1.0
 40
1.0
 40
1.0
 10
146.6675892947
 20
73.5583996413
 30
0.0
 10
146.6675892947
 20
73.3049688503
 30
0.0
 10
146.7058630382
 20
72.8231658072
 30
0.0
 10
146.9011990832
 20
72.1612523267
 30
0.0
 10
147.2295422627
 20
71.6240750992
 30
0.0
 10
147.5382280195
 20
71.3646948684
 30
0.0
 10
147.7031551663
 20
71.2694762947
 30
0.0
  0
SPLINE
  5
3AB
100
AcDbEntity
  8
0
100
AcDbSpline
 62
7
  6
CONTINUOUS
 70
0
 71
3
 72
25
 73
21
 74
0
 42
0.0000001
 43
0.0000001
 44
0.0000000001
 40
0.0
 40
0.0
 40
0.0
 40
0.0
 40
0.0623837441
 40
0.128723062
 40
0.1983157075
 40
0.270292138
 40
0.3436694829
 40
0.4174012771
 40
0.4904255851
 40
0.5617119132
 40
0.6303089954
 40
0.6953965296
 40
0.7563441821
 40
0.812781621
 40
0.8646823709
 40
0.9124574024
 40
0.935102057
 40
0.9571074775
 40
0.978667899
 40
1.0
 40
1.0
 40
1.0
 40
1.0
 10
151.9708680738
 20
94.9915351808
 30
0.0
 10
151.9708680738
 20
95.8212627136
 30
0.0
 10
152.0832749833
 20
97.5344714122
 30
0.0
 10
152.5458166109
 20
100.1357399289
 30
0.0
 10
153.297817294
 20
102.8011964692
 30
0.0
 10
154.3231914192
 20
105.4738416234
 30
0.0
 10
155.6001171938
 20
108.0970286981
 30
0.0
 10
157.1013563762
 20
110.61478536
 30
0.0
 10
158.7948844367
 20
112.9734079161
 30
0.0
 10
160.6446247817
 20
115.1226299621
 30
0.0
 10
162.6113301759
 20
117.0167657093
 30
0.0
 10
164.6536328949
 20
118.6156624161
 30
0.0
 10
166.7290581247
 20
119.8854517758
 30
0.0
 10
168.7956802878
 20
120.7987421035
 30
0.0
 10
170.8115945533
 20
121.3345765034
 30
0.0
 10
172.4466217574
 20
121.4546229915
 30
0.0
 10
173.6729098099
 20
121.3395408693
 30
0.0
 10
174.5362961418
 20
121.1554120061
 30
0.0
 10
175.3541122201
 20
120.8727198586
 30
0.0
 10
175.8670432615
 20
120.618854272
 30
0.0
 10
176.1127643248
 20
120.4770055181
 30
0.0
  0
SPLINE
  5
3AC
100
AcDbEntity
  8
0
100
AcDbSpline
 62
7
  6
CONTINUOUS
 70
0
 71
3
 72
17
 73
13
 74
0
 42
0.0000001
 43
0.0000001
 44
0.0000000001
 40
0.0
 40
0.0
 40
0.0
 40
0.0
 40
0.1286927192
 40
0.2702772184
 40
0.4174336658
 40
0.5617787524
 40
0.695449257
 40
0.8127115591
 40
0.8646775202
 40
0.9125099615
 40
0.9571398666
 40
1.0
 40
1.0
 40
1.0
 40
1.0
 10
183.8074147968
 20
131.5589277574
 30
0.0
 10
183.8074147968
 20
131.3238645246
 30
0.0
 10
183.7416619049
 20
130.8296254217
 30
0.0
 10
183.49620399
 20
130.1039485563
 30
0.0
 10
183.1180172597
 20
129.4048782657
 30
0.0
 10
182.6374573809
 20
128.789747187
 30
0.0
 10
182.0938006278
 20
128.3082357465
 30
0.0
 10
181.6017058385
 20
128.0392154637
 30
0.0
 10
181.2167878694
 20
127.9367453351
 30
0.0
 10
180.9518569834
 20
127.9173176265
 30
0.0
 10
180.7051544611
 20
127.9534114137
 30
0.0
 10
180.5557158251
 20
128.0155569497
 30
0.0
 10
180.4879108148
 20
128.0546872754
 30
0.0
  0
SPLINE
  5
3AD
100
AcDbEntity
  8
0
100
AcDbSpline
 62
7
  6
CONTINUOUS
 70
0
 71
3
 72
11
 73
7
 74
0
 42
0.0000001
 43
0.0000001
 44
0.0000000001
 40
0.0
 40
0.0
 40
0.0
 40
0.0
 40
0.2177798624
 40
0.4509243774
 40
0.7102597636
 40
1.0
 40
1.0
 40
1.0
 40
1.0
 10
183.2378476742
 20
96.4444984447
 30
0.0
 10
183.3285694362
 20
96.3921428432
 30
0.0
 10
183.4982847227
 20
96.2494324584
 30
0.0
 10
183.6789668123
 20
95.9540242186
 30
0.0
 10
183.7863211568
 20
95.5899453953
 30
0.0
 10
183.8074147968
 20
95.324956602
 30
0.0
 10
183.8074147968
 20
95.1856008089
 30
0.0
  0
SPLINE
  5
3AE
100
AcDbEntity
  8
0
100
AcDbSpline
 62
7
  6
CONTINUOUS
 70
0
 71
3
 72
17
 73
13
 74
0
 42
0.0000001
 43
0.0000001
 44
0.0000000001
 40
0.0
 40
0.0
 40
0.0
 40
0.0
 40
0.1286927192
 40
0.2702772184
 40
0.4174336658
 40
0.5617787524
 40
0.695449257
 40
0.8127115591
 40
0.8646775202
 40
0.9125099615
 40
0.9571398666
 40
1.0
 40
1.0
 40
1.0
 40
1.0
 10
183.8074147968
 20
95.1856008089
 30
0.0
 10
183.8074147968
 20
94.9505375761
 30
0.0
 10
183.7416619049
 20
94.4562984733
 30
0.0
 10
183.49620399
 20
93.7306216079
 30
0.0
 10
183.1180172597
 20
93.0315513172
 30
0.0
 10
182.6374573809
 20
92.4164202385
 30
0.0
 10
182.0938006278
 20
91.9349087981
 30
0.0
 10
181.6017058385
 20
91.6658885152
 30
0.0
 10
181.2167878694
 20
91.5634183866
 30
0.0
 10
180.9518569834
 20
91.543990678
 30
0.0
 10
180.7051544611
 20
91.5800844652
 30
0.0
 10
180.5557158251
 20
91.6422300013
 30
0.0
 10
180.4879108148
 20
91.6813603269
 30
0.0
  0
SPLINE
  5
3AF
100
AcDbEntity
  8
0
100
AcDbSpline
 62
7
  6
CONTINUOUS
 70
0
 71
3
 72
15
 73
11
 74
0
 42
0.0000001
 43
0.0000001
 44
0.0000000001
 40
0.0
 40
0.0
 40
0.0
 40
0.0
 40
0.1141543519
 40
0.237325601
 40
0.366974755
 40
0.4999984147
 40
0.6330222943
 40
0.7626720931
 40
0.8858443543
 40
1.0
 40
1.0
 40
1.0
 40
1.0
 10
150.2031084808
 20
116.4247412671
 30
0.0
 10
149.9610737038
 20
116.2850032576
 30
0.0
 10
149.4830116849
 20
115.9498851623
 30
0.0
 10
148.8252244503
 20
115.334471826
 30
0.0
 10
148.2190379663
 20
114.6070073424
 30
0.0
 10
147.6872845691
 20
113.7947812328
 30
0.0
 10
147.2497563876
 20
112.928152669
 30
0.0
 10
146.9228490475
 20
112.0394418874
 30
0.0
 10
146.7187796845
 20
111.1620672606
 30
0.0
 10
146.6675892947
 20
110.5804888499
 30
0.0
 10
146.6675892947
 20
110.3010084121
 30
0.0
  0
SPLINE
  5
3B0
100
AcDbEntity
  8
0
100
AcDbSpline
 62
7
  6
CONTINUOUS
 70
0
 71
3
 72
17
 73
13
 74
0
 42
0.0000001
 43
0.0000001
 44
0.0000000001
 40
0.0
 40
0.0
 40
0.0
 40
0.0
 40
0.1286927192
 40
0.2702772184
 40
0.4174336658
 40
0.5617787524
 40
0.695449257
 40
0.8127115591
 40
0.8646775202
 40
0.9125099615
 40
0.9571398666
 40
1.0
 40
1.0
 40
1.0
 40
1.0
 10
152.3075459441
 20
113.3725785537
 30
0.0
 10
152.3075459441
 20
113.1375153209
 30
0.0
 10
152.2417930522
 20
112.6432762181
 30
0.0
 10
151.9963351373
 20
111.9175993527
 30
0.0
 10
151.618148407
 20
111.218529062
 30
0.0
 10
151.1375885282
 20
110.6033979833
 30
0.0
 10
150.5939317751
 20
110.1218865428
 30
0.0
 10
150.1018369858
 20
109.85286626
 30
0.0
 10
149.7169190167
 20
109.7503961314
 30
0.0
 10
149.4519881307
 20
109.7309684228
 30
0.0
 10
149.2052856084
 20
109.76706221
 30
0.0
 10
149.0558469724
 20
109.8292077461
 30
0.0
 10
148.988041962
 20
109.8683380717
 30
0.0
  0
SPLINE
  5
3B1
100
AcDbEntity
  8
0
100
AcDbSpline
 62
7
  6
CONTINUOUS
 70
0
 71
3
 72
11
 73
7
 74
0
 42
0.0000001
 43
0.0000001
 44
0.0000000001
 40
0.0
 40
0.0
 40
0.0
 40
0.0
 40
0.2177798624
 40
0.4509243774
 40
0.7102597636
 40
1.0
 40
1.0
 40
1.0
 40
1.0
 10
183.2378476742
 20
132.8178253931
 30
0.0
 10
183.3285694362
 20
132.7654697917
 30
0.0
 10
183.4982847227
 20
132.6227594069
 30
0.0
 10
183.6789668123
 20
132.3273511671
 30
0.0
 10
183.7863211568
 20
131.9632723438
 30
0.0
 10
183.8074147968
 20
131.6982835505
 30
0.0
 10
183.8074147968
 20
131.5589277574
 30
0.0
  0
SPLINE
  5
3B2
100
AcDbEntity
  8
0
100
AcDbSpline
 62
7
  6
CONTINUOUS
 70
0
 71
3
 72
11
 73
7
 74
0
 42
0.0000001
 43
0.0000001
 44
0.0000000001
 40
0.0
 40
0.0
 40
0.0
 40
0.0
 40
0.2177723674
 40
0.4509510027
 40
0.7102002307
 40
1.0
 40
1.0
 40
1.0
 40
1.0
 10
184.5227344699
 20
135.0433602217
 30
0.0
 10
184.3578127756
 20
135.1385756475
 30
0.0
 10
183.9788520039
 20
135.2762050972
 30
0.0
 10
183.3494952328
 20
135.2919667522
 30
0.0
 10
182.678621227
 20
135.1301828847
 30
0.0
 10
182.2422491714
 20
134.9224373531
 30
0.0
 10
182.0227811554
 20
134.7957281914
 30
0.0
  0
SPLINE
  5
3B3
100
AcDbEntity
  8
0
100
AcDbSpline
 62
7
  6
CONTINUOUS
 70
0
 71
3
 72
17
 73
13
 74
0
 42
0.0000001
 43
0.0000001
 44
0.0000000001
 40
0.0
 40
0.0
 40
0.0
 40
0.0
 40
0.1286927192
 40
0.2702772184
 40
0.4174336658
 40
0.5617787524
 40
0.695449257
 40
0.8127115591
 40
0.8646775202
 40
0.9125099615
 40
0.9571398666
 40
1.0
 40
1.0
 40
1.0
 40
1.0
 10
152.3075459441
 20
76.9992516053
 30
0.0
 10
152.3075459441
 20
76.7641883724
 30
0.0
 10
152.2417930522
 20
76.2699492696
 30
0.0
 10
151.9963351373
 20
75.5442724042
 30
0.0
 10
151.618148407
 20
74.8452021136
 30
0.0
 10
151.1375885282
 20
74.2300710349
 30
0.0
 10
150.5939317751
 20
73.7485595944
 30
0.0
 10
150.1018369858
 20
73.4795393116
 30
0.0
 10
149.7169190167
 20
73.3770691829
 30
0.0
 10
149.4519881307
 20
73.3576414744
 30
0.0
 10
149.2052856084
 20
73.3937352615
 30
0.0
 10
149.0558469724
 20
73.4558807976
 30
0.0
 10
148.988041962
 20
73.4950111232
 30
0.0
  0
SPLINE
  5
3B4
100
AcDbEntity
  8
0
100
AcDbSpline
 62
7
  6
CONTINUOUS
 70
0
 71
3
 72
15
 73
11
 74
0
 42
0.0000001
 43
0.0000001
 44
0.0000000001
 40
0.0
 40
0.0
 40
0.0
 40
0.0
 40
0.0953001223
 40
0.1969030554
 40
0.3072532249
 40
0.4275722163
 40
0.5580096936
 40
0.6978661258
 40
0.8457998378
 40
1.0
 40
1.0
 40
1.0
 40
1.0
 10
158.2904497944
 20
87.5685878142
 30
0.0
 10
158.781710292
 20
87.3893960715
 30
0.0
 10
159.84937083
 20
87.152851285
 30
0.0
 10
161.5474837286
 20
87.1812114384
 30
0.0
 10
163.3384159945
 20
87.5739598997
 30
0.0
 10
165.1833764459
 20
88.3172740829
 30
0.0
 10
167.0446590757
 20
89.3921579842
 30
0.0
 10
168.8828222315
 20
90.7742480844
 30
0.0
 10
170.6579334861
 20
92.4325960052
 30
0.0
 10
171.7560783245
 20
93.6783631899
 30
0.0
 10
172.2866837287
 20
94.3374250912
 30
0.0
  0
SPLINE
  5
3B5
100
AcDbEntity
  8
0
100
AcDbSpline
 62
7
  6
CONTINUOUS
 70
0
 71
3
 72
11
 73
7
 74
0
 42
0.0000001
 43
0.0000001
 44
0.0000000001
 40
0.0
 40
0.0
 40
0.0
 40
0.0
 40
0.2657185421
 40
0.5224994463
 40
0.7679311202
 40
1.0
 40
1.0
 40
1.0
 40
1.0
 10
176.8329431406
 20
102.2082717711
 30
0.0
 10
177.0987198255
 20
102.8939753337
 30
0.0
 10
177.569145647
 20
104.263342457
 30
0.0
 10
178.0908822602
 20
106.3263299749
 30
0.0
 10
178.4103968805
 20
108.3361278079
 30
0.0
 10
178.4872619693
 20
109.6584114286
 30
0.0
 10
178.4872619693
 20
110.3006909509
 30
0.0
  0
SPLINE
  5
3B6
100
AcDbEntity
  8
0
100
AcDbSpline
 62
7
  6
CONTINUOUS
 70
0
 71
3
 72
11
 73
7
 74
0
 42
0.0000001
 43
0.0000001
 44
0.0000000001
 40
0.0
 40
0.0
 40
0.0
 40
0.0
 40
0.2833208077
 40
0.5428189299
 40
0.7801724789
 40
1.0
 40
1.0
 40
1.0
 40
1.0
 10
178.4872619693
 20
110.3006909509
 30
0.0
 10
178.4872619693
 20
111.0167407814
 30
0.0
 10
178.398608533
 20
112.3913841432
 30
0.0
 10
177.9592311771
 20
114.3236645962
 30
0.0
 10
177.2252387554
 20
115.9931129033
 30
0.0
 10
176.5237353322
 20
116.9286220841
 30
0.0
 10
176.1341201043
 20
117.3246895575
 30
0.0
  0
SPLINE
  5
3B7
100
AcDbEntity
  8
0
100
AcDbSpline
 62
7
  6
CONTINUOUS
 70
0
 71
3
 72
14
 73
10
 74
0
 42
0.0000001
 43
0.0000001
 44
0.0000000001
 40
0.0
 40
0.0
 40
0.0
 40
0.0
 40
0.1080468381
 40
0.2181300444
 40
0.332103614
 40
0.4515023497
 40
0.5774599686
 40
0.7107185822
 40
1.0
 40
1.0
 40
1.0
 40
1.0
 10
176.2770063286
 20
117.4954505861
 30
0.0
 10
176.5639364482
 20
117.32981286
 30
0.0
 10
177.1155578252
 20
116.944846375
 30
0.0
 10
177.8444916191
 20
116.2275441611
 30
0.0
 10
178.4713713757
 20
115.3761243278
 30
0.0
 10
178.9903887711
 20
114.4002534182
 30
0.0
 10
179.3976499172
 20
113.3097707795
 30
0.0
 10
179.7979177478
 20
111.6732597274
 30
0.0
 10
179.9014814196
 20
110.3712427367
 30
0.0
 10
179.9014814196
 20
109.4842094419
 30
0.0
  0
SPLINE
  5
3B8
100
AcDbEntity
  8
0
100
AcDbSpline
 62
7
  6
CONTINUOUS
 70
0
 71
3
 72
11
 73
7
 74
0
 42
0.0000001
 43
0.0000001
 44
0.0000000001
 40
0.0
 40
0.0
 40
0.0
 40
0.0
 40
0.2177798624
 40
0.4509243774
 40
0.7102597636
 40
1.0
 40
1.0
 40
1.0
 40
1.0
 10
151.7379788215
 20
78.258149241
 30
0.0
 10
151.8287005835
 20
78.2057936396
 30
0.0
 10
151.99841587
 20
78.0630832547
 30
0.0
 10
152.1790979595
 20
77.7676750149
 30
0.0
 10
152.2864523041
 20
77.4035961917
 30
0.0
 10
152.3075459441
 20
77.1386073983
 30
0.0
 10
152.3075459441
 20
76.9992516053
 30
0.0
  0
SPLINE
  5
3B9
100
AcDbEntity
  8
0
100
AcDbSpline
 62
7
  6
CONTINUOUS
 70
0
 71
3
 72
25
 73
21
 74
0
 42
0.0000001
 43
0.0000001
 44
0.0000000001
 40
0.0
 40
0.0
 40
0.0
 40
0.0
 40
0.0213321504
 40
0.0428926083
 40
0.0648980348
 40
0.0875426824
 40
0.1353176563
 40
0.1872183556
 40
0.2436557534
 40
0.304603346
 40
0.369690809
 40
0.4382878469
 40
0.5095741296
 40
0.5825982717
 40
0.6563297772
 40
0.7297069419
 40
0.8016834895
 40
0.871276388
 40
0.93761608
 40
1.0
 40
1.0
 40
1.0
 40
1.0
 10
177.5269837196
 20
119.6605238915
 30
0.0
 10
177.2812620762
 20
119.8023729493
 30
0.0
 10
176.7683306738
 20
120.0562405264
 30
0.0
 10
175.9505125569
 20
120.3389305638
 30
0.0
 10
175.0871261575
 20
120.5230610821
 30
0.0
 10
173.8608385448
 20
120.6381405261
 30
0.0
 10
172.2258131183
 20
120.5180948023
 30
0.0
 10
170.2099007667
 20
119.9822605182
 30
0.0
 10
168.1432803885
 20
119.0689713776
 30
0.0
 10
166.0678568948
 20
117.7991835862
 30
0.0
 10
164.0255556354
 20
116.2002888654
 30
0.0
 10
162.0588512163
 20
114.3061552269
 30
0.0
 10
160.209112372
 20
112.1569364181
 30
0.0
 10
158.5155871674
 20
109.7983200424
 30
0.0
 10
157.0143508801
 20
107.2805715663
 30
0.0
 10
155.7374244577
 20
104.6573900507
 30
0.0
 10
154.7120469992
 20
101.9847435158
 30
0.0
 10
153.9600400571
 20
99.3192784287
 30
0.0
 10
153.4974957046
 20
96.7179994972
 30
0.0
 10
153.3850875241
 20
95.0047835379
 30
0.0
 10
153.3850875241
 20
94.1750536717
 30
0.0
  0
SPLINE
  5
3BA
100
AcDbEntity
  8
0
100
AcDbSpline
 62
7
  6
CONTINUOUS
 70
0
 71
3
 72
14
 73
10
 74
0
 42
0.0000001
 43
0.0000001
 44
0.0000000001
 40
0.0
 40
0.0
 40
0.0
 40
0.0
 40
0.2892812548
 40
0.4225394212
 40
0.5484967217
 40
0.6678951303
 40
0.7818688101
 40
0.8919525182
 40
1.0
 40
1.0
 40
1.0
 40
1.0
 10
153.3850875241
 20
94.1750536717
 30
0.0
 10
153.3850875241
 20
93.161301861
 30
0.0
 10
153.5034452736
 20
91.6732843632
 30
0.0
 10
153.9608938874
 20
89.8029893865
 30
0.0
 10
154.4263305704
 20
88.5567257319
 30
0.0
 10
155.0194934359
 20
87.4414468711
 30
0.0
 10
155.7359247819
 20
86.4683925092
 30
0.0
 10
156.5689945868
 20
85.6486145065
 30
0.0
 10
157.1994226979
 20
85.2086509765
 30
0.0
 10
157.5273448172
 20
85.0193496068
 30
0.0
  0
SPLINE
  5
3BB
100
AcDbEntity
  8
0
100
AcDbSpline
 62
7
  6
CONTINUOUS
 70
0
 71
3
 72
14
 73
10
 74
0
 42
0.0000001
 43
0.0000001
 44
0.0000000001
 40
0.0
 40
0.0
 40
0.0
 40
0.0
 40
0.108046919
 40
0.218130189
 40
0.3321037033
 40
0.4515022462
 40
0.5774596389
 40
0.7107181929
 40
1.0
 40
1.0
 40
1.0
 40
1.0
 10
156.1131253114
 20
85.8358309983
 30
0.0
 10
155.7852049321
 20
86.0251314048
 30
0.0
 10
155.1547801968
 20
86.4650935479
 30
0.0
 10
154.3217127013
 20
87.2848676619
 30
0.0
 10
153.6052794225
 20
88.257918628
 30
0.0
 10
153.0121171958
 20
89.3731980345
 30
0.0
 10
152.546676512
 20
90.6194623475
 30
0.0
 10
152.0892266864
 20
92.4897608368
 30
0.0
 10
151.9708680738
 20
93.9777814783
 30
0.0
 10
151.9708680738
 20
94.9915351808
 30
0.0
  0
SPLINE
  5
3BC
100
AcDbEntity
  8
0
100
AcDbSpline
 62
7
  6
CONTINUOUS
 70
0
 71
3
 72
9
 73
5
 74
0
 42
0.0000001
 43
0.0000001
 44
0.0000000001
 40
0.0
 40
0.0
 40
0.0
 40
0.0
 40
0.4735421412
 40
1.0
 40
1.0
 40
1.0
 40
1.0
 10
48.4638636098
 20
144.3929106595
 30
0.0
 10
48.1555734368
 20
145.8635138319
 30
0.0
 10
47.8816169633
 20
149.0512439617
 30
0.0
 10
48.1858535989
 20
152.2243398284
 30
0.0
 10
48.4638636098
 20
153.8715172211
 30
0.0
  0
SPLINE
  5
3BD
100
AcDbEntity
  8
0
100
AcDbSpline
 62
7
  6
CONTINUOUS
 70
0
 71
3
 72
8
 73
4
 74
0
 42
0.0000001
 43
0.0000001
 44
0.0000000001
 40
0.0
 40
0.0
 40
0.0
 40
0.0
 40
1.0
 40
1.0
 40
1.0
 40
1.0
 10
55.1835210617
 20
133.0517201501
 30
0.0
 10
55.1711098916
 20
133.0588870122
 30
0.0
 10
55.1595427737
 20
133.0677291398
 30
0.0
 10
55.1493133392
 20
133.0777670541
 30
0.0
  0
SPLINE
  5
3BE
100
AcDbEntity
  8
0
100
AcDbSpline
 62
7
  6
CONTINUOUS
 70
0
 71
3
 72
9
 73
5
 74
0
 42
0.0000001
 43
0.0000001
 44
0.0000000001
 40
0.0
 40
0.0
 40
0.0
 40
0.0
 40
0.5114817926
 40
1.0
 40
1.0
 40
1.0
 40
1.0
 10
75.949015342
 20
187.4544954407
 30
0.0
 10
76.5926038707
 20
187.5020626693
 30
0.0
 10
77.8592721789
 20
187.5097588356
 30
0.0
 10
79.1132625704
 20
187.3215540874
 30
0.0
 10
79.7128052255
 20
187.1785115315
 30
0.0
  0
SPLINE
  5
3BF
100
AcDbEntity
  8
0
100
AcDbSpline
 62
7
  6
CONTINUOUS
 70
0
 71
3
 72
9
 73
5
 74
0
 42
0.0000001
 43
0.0000001
 44
0.0000000001
 40
0.0
 40
0.0
 40
0.0
 40
0.0
 40
0.2533174454
 40
1.0
 40
1.0
 40
1.0
 40
1.0
 10
55.2294710947
 20
173.0431363572
 30
0.0
 10
55.523050847
 20
173.4521750858
 30
0.0
 10
56.7060707134
 20
175.0494305897
 30
0.0
 10
57.9853497786
 20
176.5758099623
 30
0.0
 10
58.9932609782
 20
177.665144529
 30
0.0
  0
SPLINE
  5
3C0
100
AcDbEntity
  8
0
100
AcDbSpline
 62
7
  6
CONTINUOUS
 70
0
 71
3
 72
9
 73
5
 74
0
 42
0.0000001
 43
0.0000001
 44
0.0000000001
 40
0.0
 40
0.0
 40
0.0
 40
0.0
 40
0.4755960726
 40
1.0
 40
1.0
 40
1.0
 40
1.0
 10
55.0799469605
 20
172.6233953996
 30
0.0
 10
55.0799469605
 20
172.6948238272
 30
0.0
 10
55.112344498
 20
172.8448903213
 30
0.0
 10
55.1835476578
 20
172.9791521619
 30
0.0
 10
55.2294710947
 20
173.0431363572
 30
0.0
  0
SPLINE
  5
3C1
100
AcDbEntity
  8
0
100
AcDbSpline
 62
7
  6
CONTINUOUS
 70
0
 71
3
 72
13
 73
9
 74
0
 42
0.0000001
 43
0.0000001
 44
0.0000000001
 40
0.0
 40
0.0
 40
0.0
 40
0.0
 40
0.1142481057
 40
0.2375464672
 40
0.499998393
 40
0.7624511984
 40
0.8857505872
 40
1.0
 40
1.0
 40
1.0
 40
1.0
 10
51.7212037337
 20
165.3211059048
 30
0.0
 10
51.9511200807
 20
165.4538473772
 30
0.0
 10
52.4053361068
 20
165.7722361032
 30
0.0
 10
53.2556459118
 20
166.5681012413
 30
0.0
 10
54.1538289086
 20
167.7949790182
 30
0.0
 10
54.7672383236
 20
169.1862723414
 30
0.0
 10
55.0313216467
 20
170.3206026695
 30
0.0
 10
55.0799469605
 20
170.8731649462
 30
0.0
 10
55.0799469605
 20
171.1386521171
 30
0.0
  0
SPLINE
  5
3C2
100
AcDbEntity
  8
0
100
AcDbSpline
 62
7
  6
CONTINUOUS
 70
0
 71
3
 72
9
 73
5
 74
0
 42
0.0000001
 43
0.0000001
 44
0.0000000001
 40
0.0
 40
0.0
 40
0.0
 40
0.0
 40
0.5120126894
 40
1.0
 40
1.0
 40
1.0
 40
1.0
 10
50.193050208
 20
164.1167492638
 30
0.0
 10
50.211194128
 20
164.2242499065
 30
0.0
 10
50.2975254552
 20
164.4251534922
 30
0.0
 10
50.4486521556
 20
164.5864022942
 30
0.0
 10
50.538637018
 20
164.6383547686
 30
0.0
  0
ENDSEC
  0
SECTION
  2
OBJECTS
  0
DICTIONARY
  5
C
100
AcDbDictionary
280
0
281
1
  3
ACAD_GROUP
350
D
  3
ACAD_MLINESTYLE
350
17
  3
ACAD_LAYOUT
350
1A
  3
ACAD_PLOTSETTINGS
350
19
  3
ACAD_PLOTSTYLENAME
350
E
  0
DICTIONARY
  5
D
102
{ACAD_REACTORS
330
C
102
}
100
AcDbDictionary
280
0
281
1
  0
ACDBDICTIONARYWDFLT
  5
E
102
{ACAD_REACTORS
330
C
102
}
100
AcDbDictionary
281
1
  3
Normal
350
F
100
AcDbDictionaryWithDefault
340
F
  0
DICTIONARY
  5
17
102
{ACAD_REACTORS
330
C
102
}
100
AcDbDictionary
280
0
281
1
  3
Standard
350
18
  0
DICTIONARY
  5
19
102
{ACAD_REACTORS
330
C
102
}
100
AcDbDictionary
281
1
  0
DICTIONARY
  5
1A
102
{ACAD_REACTORS
330
C
102
}
100
AcDbDictionary
281
1
  3
Model
350
3C3
  3
Layout1
350
3C4
  0
ACDBPLACEHOLDER
  5
F
102
{ACAD_REACTORS
330
E
102
}
  0
MLINESTYLE
  5
18
102
{ACAD_REACTORS
330
17
102
}
100
AcDbMlineStyle
  2
STANDARD
 70
0
  3

 62
256
 51
90.0
 52
90.0
 71
2
 49
0.5
 62
256
  6
BYLAYER
 49
-0.5
 62
256
  6
BYLAYER
  0
LAYOUT
  5
3C3
102
{ACAD_REACTORS
330
1A
102
}
100
AcDbPlotSettings
  1

  2
none_device
  4

  6

 40
0.0
 41
0.0
 42
0.0
 43
0.0
 44
210.0
 45
297.0
 46
0.0
 47
0.0
 48
0.0
 49
0.0
140
0.0
141
0.0
142
1.0
143
1.0
 70
1024
 72
1
 73
0
 74
0
  7

 75
0
147
1.0
148
0.0
149
0.0
100
AcDbLayout
  1
Model
 70
0
 71
0
 10
0.0
 20
0.0
 11
210.0
 21
297.0
 12
0.0
 22
0.0
 32
0.0
 14
0.0
 24
0.0
 34
0.0
 15
0.0
 25
0.0
 35
0.0
146
0.0
 13
0.0
 23
0.0
 33
0.0
 16
1.0
 26
0.0
 36
0.0
 17
0.0
 27
1.0
 37
0.0
 76
0
330
210
345
0
346
0
  0
LAYOUT
  5
3C4
102
{ACAD_REACTORS
330
1A
102
}
100
AcDbPlotSettings
  1

  2
none_device
  4

  6

 40
0.0
 41
0.0
 42
0.0
 43
0.0
 44
210.0
 45
297.0
 46
0.0
 47
0.0
 48
0.0
 49
0.0
140
0.0
141
0.0
142
1.0
143
1.0
 70
0
 72
1
 73
0
 74
0
  7

 75
0
147
1.0
148
0.0
149
0.0
100
AcDbLayout
  1
Layout1
 70
0
 71
1
 10
0.0
 20
0.0
 11
210.0
 21
297.0
 12
0.0
 22
0.0
 32
0.0
 14
0.0
 24
0.0
 34
0.0
 15
0.0
 25
0.0
 35
0.0
146
0.0
 13
0.0
 23
0.0
 33
0.0
 16
1.0
 26
0.0
 36
0.0
 17
0.0
 27
1.0
 37
0.0
 76
0
330
211
345
0
346
0
  0
ENDSEC
  0
EOF
