999
DXF file: C:\Users\sesa63760\Dev\_Creo\CAD\MCADID0000248_3D-CAD\drw0001_1.dxf
999
Pro/ENGINEER 2019471 by Parametric Technology Corporation
  0
SECTION
  2
HEADER
  9
$ACADVER
  1
AC1024
  9
$DWGCODEPAGE
  3
ANSI_1252
  9
$EXTMAX
 10
425.2510787422
 20
601.4265256497
 30
0.0
  9
$EXTMIN
 10
0.0
 20
0.0
 30
0.0
  9
$LIMMIN
 10
0.0
 20
0.0
  9
$LIMMAX
 10
425.2510787422
 20
601.4265256497
  9
$VIEWCTR
 10
212.6255393711
 20
300.7132628248
  9
$VIEWSIZE
 40
601.4265256497
  9
$CLAYER
  8
0
  9
$LTSCALE
 40
39.2040994498
  9
$CELTYPE
  6
BYLAYER
  9
$DIMSCALE
 40
1.0
  9
$DIMASZ
 40
5.0625128422
  9
$DIMEXO
 40
1.0
  9
$DIMDLI
 40
27.0864687107
  9
$DIMEXE
 40
1.0
  9
$DIMCEN
 40
6.4152162736
  9
$DIMLFAC
 40
1.0
  9
$DIMBLK
  1
_FILLED
  9
$DIMALT
 70
0
  9
$DIMALTF
 40
0.0393700787
  9
$DIMTXT
 40
7.087517979
  9
$DIMTOL
 70
1
  9
$DIMLIM
 70
0
  9
$DIMTFAC
 40
1.0
  9
$DIMTP
 40
0.01
  9
$DIMTM
 40
0.01
  9
$DIMGAP
 40
0.625
  9
$DIMDSEP
 70
46
  9
$AUNITS
 70
0
  9
$PDMODE
 70
3
  9
$PDSIZE
 40
0.3125
  9
$HANDSEED
  5
2F0
  9
$TILEMODE
 70
1
  9
$MEASUREMENT
 70
1
  9
$INSUNITS
 70
4
  0
ENDSEC
  0
SECTION
  2
CLASSES
  0
CLASS
  1
ACDBDICTIONARYWDFLT
  2
AcDbDictionaryWithDefault
  3
AutoCAD 2000
 90
0
 91
1
280
0
281
0
  0
CLASS
  1
ACDBPLACEHOLDER
  2
AcDbPlaceHolder
  3
AutoCAD 2000
 90
0
 91
1
280
0
281
0
  0
CLASS
  1
LAYOUT
  2
AcDbLayout
  3
AutoCAD 2000
 90
0
 91
0
280
0
281
0
  0
ENDSEC
  0
SECTION
  2
TABLES
  0
TABLE
  2
VPORT
  5
8
100
AcDbSymbolTable
 70
2
  0
VPORT
  5
1F4
100
AcDbSymbolTableRecord
100
AcDbViewportTableRecord
  2
*ACTIVE
 70
0
 10
0.0
 20
0.0
 11
1.0
 21
1.0
 12
212.6255393711
 22
300.7132628248
 13
0.0
 23
0.0
 14
1.0
 24
1.0
 15
0.0
 25
0.0
 16
0.0
 26
0.0
 36
1.0
 17
0.0
 27
0.0
 37
0.0
 40
601.4265256497
 41
0.7070707071
 42
50.0
 43
0.0
 44
0.0
 50
0.0
 51
0.0
 71
0
 72
100
 73
1
 74
1
 75
0
 76
0
 77
0
 78
0
  0
ENDTAB
  0
TABLE
  2
LTYPE
  5
5
100
AcDbSymbolTable
 70
6
  0
LTYPE
  5
14
100
AcDbSymbolTableRecord
100
AcDbLinetypeTableRecord
  2
BYBLOCK
 70
0
  3

 72
65
 73
0
 40
0.0
  0
LTYPE
  5
15
100
AcDbSymbolTableRecord
100
AcDbLinetypeTableRecord
  2
BYLAYER
 70
0
  3

 72
65
 73
0
 40
0.0
  0
LTYPE
  5
16
100
AcDbSymbolTableRecord
100
AcDbLinetypeTableRecord
  2
CONTINUOUS
 70
64
  3
Solid line
 72
65
 73
0
 40
0.0
  0
LTYPE
  5
1F5
100
AcDbSymbolTableRecord
100
AcDbLinetypeTableRecord
  2
CENTER
 70
64
  3
____ _ ____ _ ____ _ ____ _ ____ _ ____ _ ____
 72
65
 73
4
 40
0.6
 49
0.375
 74
0
 49
-0.075
 74
0
 49
0.075
 74
0
 49
-0.075
 74
0
  0
LTYPE
  5
1F6
100
AcDbSymbolTableRecord
100
AcDbLinetypeTableRecord
  2
HIDDEN
 70
64
  3
- - - - - - - - - - - - - - - - - - - -
 72
65
 73
2
 40
0.2
 49
0.1
 74
0
 49
-0.1
 74
0
  0
LTYPE
  5
1F7
100
AcDbSymbolTableRecord
100
AcDbLinetypeTableRecord
  2
PHANTOM
 70
64
  3
_____ _ _ _____ _ _ _____ _ _ _____
 72
65
 73
6
 40
0.8
 49
0.45
 74
0
 49
-0.05
 74
0
 49
0.1
 74
0
 49
-0.05
 74
0
 49
0.1
 74
0
 49
-0.05
 74
0
  0
LTYPE
  5
1F8
100
AcDbSymbolTableRecord
100
AcDbLinetypeTableRecord
  2
DOT
 70
64
  3
. . . . . . . . . . . . . . . . . . . .
 72
65
 73
2
 40
0.2
 49
0.1
 74
0
 49
-0.1
 74
0
  0
LTYPE
  5
1F9
100
AcDbSymbolTableRecord
100
AcDbLinetypeTableRecord
  2
DASHED
 70
64
  3
- - - - - - - - - - - - - - - - - - - -
 72
65
 73
2
 40
0.2
 49
0.1
 74
0
 49
-0.1
 74
0
  0
ENDTAB
  0
TABLE
  2
LAYER
  5
2
100
AcDbSymbolTable
 70
36
  0
LAYER
  5
10
100
AcDbSymbolTableRecord
100
AcDbLayerTableRecord
  2
0
 70
0
 62
7
  6
CONTINUOUS
370
-3
390
F
  0
LAYER
  5
1FA
100
AcDbSymbolTableRecord
100
AcDbLayerTableRecord
  2
DEFAULT_1
 70
0
 62
7
  6
CENTER
370
-3
390
F
  0
LAYER
  5
1FB
100
AcDbSymbolTableRecord
100
AcDbLayerTableRecord
  2
DEFAULT_2
 70
0
 62
8
  6
HIDDEN
370
-3
390
F
  0
LAYER
  5
1FC
100
AcDbSymbolTableRecord
100
AcDbLayerTableRecord
  2
DEFAULT_3
 70
0
 62
7
  6
PHANTOM
370
-3
390
F
  0
LAYER
  5
1FD
100
AcDbSymbolTableRecord
100
AcDbLayerTableRecord
  2
00_COMPONENTS
 70
0
 62
7
  6
CONTINUOUS
370
-3
390
F
  0
LAYER
  5
1FE
100
AcDbSymbolTableRecord
100
AcDbLayerTableRecord
  2
01_1_DEFAULT_DATUMS
 70
0
 62
7
  6
CONTINUOUS
370
-3
390
F
  0
LAYER
  5
1FF
100
AcDbSymbolTableRecord
100
AcDbLayerTableRecord
  2
01_PLANES
 70
0
 62
7
  6
CONTINUOUS
370
-3
390
F
  0
LAYER
  5
200
100
AcDbSymbolTableRecord
100
AcDbLayerTableRecord
  2
02_COORD_SYS
 70
0
 62
7
  6
CONTINUOUS
370
-3
390
F
  0
LAYER
  5
201
100
AcDbSymbolTableRecord
100
AcDbLayerTableRecord
  2
03_AXES
 70
0
 62
7
  6
CONTINUOUS
370
-3
390
F
  0
LAYER
  5
202
100
AcDbSymbolTableRecord
100
AcDbLayerTableRecord
  2
04_POINTS
 70
0
 62
7
  6
CONTINUOUS
370
-3
390
F
  0
LAYER
  5
203
100
AcDbSymbolTableRecord
100
AcDbLayerTableRecord
  2
05_CURVES
 70
0
 62
7
  6
CONTINUOUS
370
-3
390
F
  0
LAYER
  5
204
100
AcDbSymbolTableRecord
100
AcDbLayerTableRecord
  2
06_SURFS
 70
0
 62
7
  6
CONTINUOUS
370
-3
390
F
  0
LAYER
  5
205
100
AcDbSymbolTableRecord
100
AcDbLayerTableRecord
  2
07_COSMETICS
 70
0
 62
7
  6
CONTINUOUS
370
-3
390
F
  0
LAYER
  5
206
100
AcDbSymbolTableRecord
100
AcDbLayerTableRecord
  2
10_NOTES
 70
0
 62
7
  6
CONTINUOUS
370
-3
390
F
  0
LAYER
  5
207
100
AcDbSymbolTableRecord
100
AcDbLayerTableRecord
  2
11_NOTES_PUB
 70
0
 62
7
  6
CONTINUOUS
370
-3
390
F
  0
LAYER
  5
208
100
AcDbSymbolTableRecord
100
AcDbLayerTableRecord
  2
13_REF_GTOL
 70
0
 62
7
  6
CONTINUOUS
370
-3
390
F
  0
LAYER
  5
209
100
AcDbSymbolTableRecord
100
AcDbLayerTableRecord
  2
16_MISC
 70
0
 62
7
  6
CONTINUOUS
370
-3
390
F
  0
LAYER
  5
20A
100
AcDbSymbolTableRecord
100
AcDbLayerTableRecord
  2
17_NO_PRINT
 70
0
 62
7
  6
CONTINUOUS
370
-3
390
F
  0
LAYER
  5
20B
100
AcDbSymbolTableRecord
100
AcDbLayerTableRecord
  2
18_DATUM_CAMS_JOINTS
 70
0
 62
7
  6
CONTINUOUS
370
-3
390
F
  0
LAYER
  5
20C
100
AcDbSymbolTableRecord
100
AcDbLayerTableRecord
  2
19_DATUM_FUNCTIONAL
 70
0
 62
7
  6
CONTINUOUS
370
-3
390
F
  0
LAYER
  5
20D
100
AcDbSymbolTableRecord
100
AcDbLayerTableRecord
  2
20_DATUM_KINEMATIC_SCHEME
 70
0
 62
7
  6
CONTINUOUS
370
-3
390
F
  0
ENDTAB
  0
TABLE
  2
STYLE
  5
3
100
AcDbSymbolTable
 70
1
  0
STYLE
  5
11
100
AcDbSymbolTableRecord
100
AcDbTextStyleTableRecord
  2
STANDARD
 70
0
 40
0.0
 41
0.8
 50
0.0
 71
0
 42
0.2
  3
txt
  4

  0
STYLE
  5
20E
100
AcDbSymbolTableRecord
100
AcDbTextStyleTableRecord
  2
TEXTSTYLE_1
 70
0
 40
0.0
 41
0.8
 50
0.0
 71
0
 42
0.2
  3
gdt
  4

  0
ENDTAB
  0
TABLE
  2
VIEW
  5
6
100
AcDbSymbolTable
 70
0
  0
ENDTAB
  0
TABLE
  2
UCS
  5
7
100
AcDbSymbolTable
 70
0
  0
ENDTAB
  0
TABLE
  2
APPID
  5
9
100
AcDbSymbolTable
 70
1
  0
APPID
  5
20F
100
AcDbSymbolTableRecord
100
AcDbRegAppTableRecord
  2
ACAD
 70
0
  0
ENDTAB
  0
TABLE
  2
BLOCK_RECORD
  5
1
100
AcDbSymbolTable
 70
0
  0
BLOCK_RECORD
  5
210
100
AcDbSymbolTableRecord
100
AcDbBlockTableRecord
  2
*Model_Space
  0
BLOCK_RECORD
  5
211
100
AcDbSymbolTableRecord
100
AcDbBlockTableRecord
  2
*Paper_Space
  0
BLOCK_RECORD
  5
212
100
AcDbSymbolTableRecord
100
AcDbBlockTableRecord
  2
_FILLED
  0
ENDTAB
  0
TABLE
  2
DIMSTYLE
  5
A
100
AcDbSymbolTable
 70
1
100
AcDbDimStyleTable
 71
0
  0
DIMSTYLE
105
213
100
AcDbSymbolTableRecord
100
AcDbDimStyleTableRecord
  2
STANDARD
 70
0
  3

  4

 40
1.0
 41
5.0625128422
 42
1.0
 43
0.38
 44
1.0
 45
0.0
 46
0.0
 47
0.01
 48
0.01
140
7.087517979
141
0.09
142
0.0
143
25.4
144
1.0
145
0.0
146
1.0
147
0.625
 71
1
 72
0
 73
0
 74
0
 75
0
 76
0
 77
1
 78
8
 79
2
170
0
171
1
172
0
173
0
174
0
175
0
176
0
177
0
178
0
270
2
179
2
271
2
272
2
273
2
274
2
275
0
280
0
281
0
282
0
283
1
284
8
285
0
286
0
287
3
288
0
340
11
278
46
341
212
342
212
343
212
344
212
  0
ENDTAB
  0
ENDSEC
  0
SECTION
  2
BLOCKS
  0
BLOCK
  5
20
100
AcDbEntity
  8
0
100
AcDbBlockBegin
  2
*Model_Space
 70
0
 10
0.0
 20
0.0
 30
0.0
  3
*Model_Space
  1

  0
ENDBLK
  5
21
100
AcDbEntity
  8
0
100
AcDbBlockEnd
  0
BLOCK
  5
1C
100
AcDbEntity
  8
0
100
AcDbBlockBegin
  2
*Paper_Space
 70
0
 10
0.0
 20
0.0
 30
0.0
  3
*Paper_Space
  1

  0
ENDBLK
  5
1D
100
AcDbEntity
  8
0
100
AcDbBlockEnd
  0
BLOCK
  5
214
100
AcDbEntity
  8
0
100
AcDbBlockBegin
  2
_FILLED
 70
64
 10
0.0
 20
0.0
  3
_FILLED
  1

  0
SOLID
  5
215
100
AcDbEntity
  8
0
  6
BYBLOCK
 62
0
100
AcDbTrace
 10
0.0
 20
0.0
 11
-1.0
 21
0.25
 12
-1.0
 22
-0.25
 13
-1.0
 23
-0.25
  0
ENDBLK
  5
216
100
AcDbEntity
  8
0
  6
BYBLOCK
 62
0
100
AcDbBlockEnd
  0
ENDSEC
  0
SECTION
  2
ENTITIES
  0
LINE
  5
217
100
AcDbEntity
  8
0
100
AcDbLine
 62
7
  6
CONTINUOUS
 10
49.334017764
 20
253.7801034753
 11
49.334017764
 21
319.1002968457
  0
LINE
  5
218
100
AcDbEntity
  8
0
100
AcDbLine
 62
7
  6
CONTINUOUS
 10
63.9710671943
 20
243.3328131256
 11
65.5680739844
 21
228.4036986087
  0
LINE
  5
219
100
AcDbEntity
  8
0
100
AcDbLine
 62
7
  6
CONTINUOUS
 10
63.9710671943
 20
243.3328131256
 11
63.9710671943
 21
245.3295902227
  0
LINE
  5
21A
100
AcDbEntity
  8
0
100
AcDbLine
 62
7
  6
CONTINUOUS
 10
63.9710671943
 20
327.5509508308
 11
63.9710671943
 21
334.0013199262
  0
LINE
  5
21B
100
AcDbEntity
  8
0
100
AcDbLine
 62
7
  6
CONTINUOUS
 10
66.7994825431
 20
335.8792472668
 11
66.7994825431
 21
335.6342965417
  0
LINE
  5
21C
100
AcDbEntity
  8
0
100
AcDbLine
 62
7
  6
CONTINUOUS
 10
70.3350311689
 20
333.8380434942
 11
70.3350311689
 21
333.5930927691
  0
LINE
  5
21D
100
AcDbEntity
  8
0
100
AcDbLine
 62
7
  6
CONTINUOUS
 10
156.2667143555
 20
176.0399988005
 11
65.5680739844
 21
228.4036986087
  0
LINE
  5
21E
100
AcDbEntity
  8
0
100
AcDbLine
 62
7
  6
CONTINUOUS
 10
103.7810132294
 20
357.2304165143
 11
112.6198111946
 21
372.5397486518
  0
LINE
  5
21F
100
AcDbEntity
  8
0
100
AcDbLine
 62
7
  6
CONTINUOUS
 10
103.0743568751
 20
222.7538061318
 11
49.334017764
 21
253.7801034753
  0
LINE
  5
220
100
AcDbEntity
  8
0
100
AcDbLine
 62
7
  6
CONTINUOUS
 10
97.9123340013
 20
302.6482648049
 11
97.9123340013
 21
307.9553946139
  0
LINE
  5
221
100
AcDbEntity
  8
0
100
AcDbLine
 62
7
  6
CONTINUOUS
 10
103.0743568751
 20
288.0739995022
 11
103.0743568751
 21
222.7538061318
  0
LINE
  5
222
100
AcDbEntity
  8
0
100
AcDbLine
 62
7
  6
CONTINUOUS
 10
116.1553598203
 20
370.4985448792
 11
107.3165618552
 21
355.1892127417
  0
LINE
  5
223
100
AcDbEntity
  8
0
100
AcDbLine
 62
7
  6
CONTINUOUS
 10
118.2766889958
 20
369.2738226156
 11
109.4378910306
 21
353.9644904781
  0
LINE
  5
224
100
AcDbEntity
  8
0
100
AcDbLine
 62
7
  6
CONTINUOUS
 10
158.6451999588
 20
399.1123606273
 11
112.6198111946
 21
372.5397486518
  0
LINE
  5
225
100
AcDbEntity
  8
0
100
AcDbLine
 62
7
  6
CONTINUOUS
 10
162.1807485846
 20
397.0711568547
 11
116.1553598203
 21
370.4985448792
  0
LINE
  5
226
100
AcDbEntity
  8
0
100
AcDbLine
 62
7
  6
CONTINUOUS
 10
113.1152313636
 20
293.8710664871
 11
113.1152313636
 21
228.5508731168
  0
LINE
  5
227
100
AcDbEntity
  8
0
100
AcDbLine
 62
7
  6
CONTINUOUS
 10
164.30207776
 20
395.8464345911
 11
162.1300185714
 21
394.5924031194
  0
LINE
  5
228
100
AcDbEntity
  8
0
100
AcDbLine
 62
7
  6
CONTINUOUS
 10
123.0296771903
 20
372.017945249
 11
118.2766889958
 21
369.2738226156
  0
LINE
  5
229
100
AcDbEntity
  8
0
100
AcDbLine
 62
7
  6
CONTINUOUS
 10
126.1220029793
 20
372.0240565199
 11
162.1264093139
 21
392.8110861273
  0
LINE
  5
22A
100
AcDbEntity
  8
0
100
AcDbLine
 62
7
  6
CONTINUOUS
 10
103.7810132294
 20
357.2304165143
 11
66.7994825431
 21
335.8792472668
  0
LINE
  5
22B
100
AcDbEntity
  8
0
100
AcDbLine
 62
7
  6
CONTINUOUS
 10
63.9710671943
 20
334.0013199262
 11
66.7994825431
 21
335.6342965417
  0
LINE
  5
22C
100
AcDbEntity
  8
0
100
AcDbLine
 62
7
  6
CONTINUOUS
 10
167.4275208315
 20
391.5339579547
 11
168.5447448943
 21
392.1789837179
  0
LINE
  5
22D
100
AcDbEntity
  8
0
100
AcDbLine
 62
7
  6
CONTINUOUS
 10
107.3165618552
 20
355.1892127417
 11
70.3350311689
 21
333.8380434942
  0
LINE
  5
22E
100
AcDbEntity
  8
0
100
AcDbLine
 62
7
  6
CONTINUOUS
 10
208.9273538231
 20
413.8538101093
 11
204.8261515673
 21
411.4859940169
  0
LINE
  5
22F
100
AcDbEntity
  8
0
100
AcDbLine
 62
7
  6
CONTINUOUS
 10
167.6566233878
 20
389.6182877739
 11
131.6522170532
 21
368.8312581664
  0
LINE
  5
230
100
AcDbEntity
  8
0
100
AcDbLine
 62
7
  6
CONTINUOUS
 10
75.2847756932
 20
334.2462978461
 11
109.4378910306
 21
353.9644904781
  0
LINE
  5
231
100
AcDbEntity
  8
0
100
AcDbLine
 62
7
  6
CONTINUOUS
 10
49.334017764
 20
319.1002968457
 11
63.9710671943
 21
327.5509508308
  0
LINE
  5
232
100
AcDbEntity
  8
0
100
AcDbLine
 62
7
  6
CONTINUOUS
 10
172.3677076697
 20
389.9718450625
 11
132.1501422258
 21
366.752361429
  0
LINE
  5
233
100
AcDbEntity
  8
0
100
AcDbLine
 62
7
  6
CONTINUOUS
 10
212.4629024489
 20
411.8126063367
 11
208.361700193
 21
409.4447902443
  0
LINE
  5
234
100
AcDbEntity
  8
0
100
AcDbLine
 62
7
  6
CONTINUOUS
 10
123.0296771903
 20
372.017945249
 11
123.0296771903
 21
357.7291529492
  0
LINE
  5
235
100
AcDbEntity
  8
0
100
AcDbLine
 62
7
  6
CONTINUOUS
 10
132.1501422258
 20
352.4635691292
 11
132.1501422258
 21
366.752361429
  0
LINE
  5
236
100
AcDbEntity
  8
0
100
AcDbLine
 62
7
  6
CONTINUOUS
 10
78.8203854151
 20
332.2050588004
 11
123.0296771903
 21
357.7291529492
  0
LINE
  5
237
100
AcDbEntity
  8
0
100
AcDbLine
 62
7
  6
CONTINUOUS
 10
172.3677076697
 20
386.2143080944
 11
210.4830293685
 21
408.2200679807
  0
LINE
  5
238
100
AcDbEntity
  8
0
100
AcDbLine
 62
7
  6
CONTINUOUS
 10
132.1501422258
 20
352.4635691292
 11
172.3677076697
 21
375.6830527628
  0
LINE
  5
239
100
AcDbEntity
  8
0
100
AcDbLine
 62
7
  6
CONTINUOUS
 10
237.5979633311
 20
410.8781780749
 11
239.0501692351
 21
411.4958388486
  0
LINE
  5
23A
100
AcDbEntity
  8
0
100
AcDbLine
 62
7
  6
CONTINUOUS
 10
241.171539626
 20
405.3081843038
 11
244.6690605826
 21
406.7957705297
  0
LINE
  5
23B
100
AcDbEntity
  8
0
100
AcDbLine
 62
7
  6
CONTINUOUS
 10
134.682039709
 20
289.0947323885
 11
134.682039709
 21
278.8909932035
  0
LINE
  5
23C
100
AcDbEntity
  8
0
100
AcDbLine
 62
7
  6
CONTINUOUS
 10
135.0355945716
 20
279.1506814753
 11
135.0355945716
 21
309.9563743732
  0
LINE
  5
23D
100
AcDbEntity
  8
0
100
AcDbLine
 62
7
  6
CONTINUOUS
 10
139.9792893936
 20
281.069618391
 11
139.9792893936
 21
303.4349473405
  0
LINE
  5
23E
100
AcDbEntity
  8
0
100
AcDbLine
 62
7
  6
CONTINUOUS
 10
93.1746752911
 20
320.6518671232
 11
96.00309064
 21
322.2848437387
  0
LINE
  5
23F
100
AcDbEntity
  8
0
100
AcDbLine
 62
7
  6
CONTINUOUS
 10
235.3025188978
 20
402.4639090351
 11
231.9791308629
 21
400.545161512
  0
LINE
  5
240
100
AcDbEntity
  8
0
100
AcDbLine
 62
7
  6
CONTINUOUS
 10
90.8412367499
 20
318.4881712544
 11
93.6696520987
 21
320.1211478699
  0
LINE
  5
241
100
AcDbEntity
  8
0
100
AcDbLine
 62
7
  6
CONTINUOUS
 10
258.8112550856
 20
398.6309554393
 11
255.313734129
 21
397.1433692134
  0
LINE
  5
242
100
AcDbEntity
  8
0
100
AcDbLine
 62
7
  6
CONTINUOUS
 10
49.334017764
 20
319.1002968457
 11
103.0743568751
 21
288.0739995022
  0
LINE
  5
243
100
AcDbEntity
  8
0
100
AcDbLine
 62
7
  6
CONTINUOUS
 10
104.4884308935
 20
310.0375029652
 11
93.1746752911
 21
320.6518671232
  0
LINE
  5
244
100
AcDbEntity
  8
0
100
AcDbLine
 62
7
  6
CONTINUOUS
 10
102.0135704072
 20
307.9554552473
 11
90.8412367499
 21
318.4881712544
  0
LINE
  5
245
100
AcDbEntity
  8
0
100
AcDbLine
 62
7
  6
CONTINUOUS
 10
93.6696520987
 20
320.1211478699
 11
104.841985756
 21
309.5884318628
  0
LINE
  5
246
100
AcDbEntity
  8
0
100
AcDbLine
 62
7
  6
CONTINUOUS
 10
157.6631057763
 20
252.393288495
 11
156.1547133288
 21
266.4940197659
  0
LINE
  5
247
100
AcDbEntity
  8
0
100
AcDbLine
 62
7
  6
CONTINUOUS
 10
157.6631057763
 20
284.6451339716
 11
156.2667143555
 21
297.6988589528
  0
LINE
  5
248
100
AcDbEntity
  8
0
100
AcDbLine
 62
7
  6
CONTINUOUS
 10
153.1267698979
 20
295.8444176529
 11
154.1083839701
 21
286.428374066
  0
LINE
  5
249
100
AcDbEntity
  8
0
100
AcDbLine
 62
7
  6
CONTINUOUS
 10
154.1083839701
 20
286.428374066
 11
154.1083839701
 21
272.9123663756
  0
LINE
  5
24A
100
AcDbEntity
  8
0
100
AcDbLine
 62
7
  6
CONTINUOUS
 10
157.6631057763
 20
252.393288495
 11
157.6631057763
 21
187.4813463332
  0
LINE
  5
24B
100
AcDbEntity
  8
0
100
AcDbLine
 62
7
  6
CONTINUOUS
 10
157.6631057763
 20
266.0869773307
 11
157.6631057763
 21
284.6451339716
  0
LINE
  5
24C
100
AcDbEntity
  8
0
100
AcDbLine
 62
7
  6
CONTINUOUS
 10
162.1264093139
 20
386.4254362484
 11
162.1264093139
 21
392.8110861273
  0
LINE
  5
24D
100
AcDbEntity
  8
0
100
AcDbLine
 62
7
  6
CONTINUOUS
 10
97.9123340013
 20
307.9553946139
 11
93.3161590594
 21
305.3018076137
  0
LINE
  5
24E
100
AcDbEntity
  8
0
100
AcDbLine
 62
7
  6
CONTINUOUS
 10
104.4884308935
 20
310.0375029652
 11
107.3168462423
 21
311.6704795807
  0
LINE
  5
24F
100
AcDbEntity
  8
0
100
AcDbLine
 62
7
  6
CONTINUOUS
 10
102.0135704072
 20
307.9554552473
 11
104.841985756
 21
309.5884318628
  0
LINE
  5
250
100
AcDbEntity
  8
0
100
AcDbLine
 62
7
  6
CONTINUOUS
 10
303.0816322798
 20
421.955385961
 11
311.5668783263
 21
426.8543158075
  0
LINE
  5
251
100
AcDbEntity
  8
0
100
AcDbLine
 62
7
  6
CONTINUOUS
 10
253.5459783105
 20
388.5021741082
 11
256.5151957801
 21
390.2165532575
  0
LINE
  5
252
100
AcDbEntity
  8
0
100
AcDbLine
 62
7
  6
CONTINUOUS
 10
267.3345582409
 20
395.1662086678
 11
265.882352337
 21
394.5485478941
  0
LINE
  5
253
100
AcDbEntity
  8
0
100
AcDbLine
 62
7
  6
CONTINUOUS
 10
134.682039709
 20
278.8909932035
 11
156.1547133288
 21
266.4940197659
  0
LINE
  5
254
100
AcDbEntity
  8
0
100
AcDbLine
 62
7
  6
CONTINUOUS
 10
135.0355945716
 20
279.1506814753
 11
157.6631057763
 21
266.0869773307
  0
LINE
  5
255
100
AcDbEntity
  8
0
100
AcDbLine
 62
7
  6
CONTINUOUS
 10
59.3748922524
 20
324.8973638307
 11
113.1152313636
 21
293.8710664871
  0
LINE
  5
256
100
AcDbEntity
  8
0
100
AcDbLine
 62
7
  6
CONTINUOUS
 10
154.1083839701
 20
272.9123663756
 11
139.9792893936
 21
281.069618391
  0
LINE
  5
257
100
AcDbEntity
  8
0
100
AcDbLine
 62
7
  6
CONTINUOUS
 10
96.00309064
 20
322.2848437387
 11
107.3168462423
 21
311.6704795807
  0
LINE
  5
258
100
AcDbEntity
  8
0
100
AcDbLine
 62
7
  6
CONTINUOUS
 10
172.3677076697
 20
375.6830527628
 11
172.3677076697
 21
389.9718450625
  0
LINE
  5
259
100
AcDbEntity
  8
0
100
AcDbLine
 62
7
  6
CONTINUOUS
 10
156.2667143555
 20
176.0399988005
 11
157.6631057763
 21
187.4813463332
  0
LINE
  5
25A
100
AcDbEntity
  8
0
100
AcDbLine
 62
7
  6
CONTINUOUS
 10
260.2635198688
 20
384.2155313311
 11
263.5869079037
 21
386.1342788543
  0
LINE
  5
25B
100
AcDbEntity
  8
0
100
AcDbLine
 62
7
  6
CONTINUOUS
 10
267.3345582409
 20
387.2770309152
 11
315.2407122057
 21
414.9354967038
  0
LINE
  5
25C
100
AcDbEntity
  8
0
100
AcDbLine
 62
7
  6
CONTINUOUS
 10
135.0355945716
 20
309.9563743732
 11
279.9918812004
 21
393.6464259168
  0
LINE
  5
25D
100
AcDbEntity
  8
0
100
AcDbLine
 62
7
  6
CONTINUOUS
 10
103.0743568751
 20
288.0739995022
 11
113.1152313636
 21
293.8710664871
  0
LINE
  5
25E
100
AcDbEntity
  8
0
100
AcDbLine
 62
7
  6
CONTINUOUS
 10
232.2624045721
 20
361.5992785343
 11
194.0787973625
 21
339.5540942253
  0
LINE
  5
25F
100
AcDbEntity
  8
0
100
AcDbLine
 62
7
  6
CONTINUOUS
 10
97.9123340013
 20
307.9553946139
 11
63.9710671943
 21
327.5509508308
  0
LINE
  5
260
100
AcDbEntity
  8
0
100
AcDbLine
 62
7
  6
CONTINUOUS
 10
102.0135704072
 20
307.9554552473
 11
134.682039709
 21
289.0947323885
  0
LINE
  5
261
100
AcDbEntity
  8
0
100
AcDbLine
 62
7
  6
CONTINUOUS
 10
104.841985756
 20
309.5884318628
 11
135.0355945716
 21
292.1565380475
  0
LINE
  5
262
100
AcDbEntity
  8
0
100
AcDbLine
 62
7
  6
CONTINUOUS
 10
104.4884308935
 20
310.0375029652
 11
135.0355945716
 21
292.4014887726
  0
LINE
  5
263
100
AcDbEntity
  8
0
100
AcDbLine
 62
7
  6
CONTINUOUS
 10
63.9710671943
 20
334.0013199262
 11
90.8412367499
 21
318.4881712544
  0
LINE
  5
264
100
AcDbEntity
  8
0
100
AcDbLine
 62
7
  6
CONTINUOUS
 10
66.7994825431
 20
335.6342965417
 11
93.6696520987
 21
320.1211478699
  0
LINE
  5
265
100
AcDbEntity
  8
0
100
AcDbLine
 62
7
  6
CONTINUOUS
 10
66.7994825431
 20
335.8792472668
 11
93.1746752911
 21
320.6518671232
  0
LINE
  5
266
100
AcDbEntity
  8
0
100
AcDbLine
 62
7
  6
CONTINUOUS
 10
75.2847756932
 20
334.2462978461
 11
96.00309064
 21
322.2848437387
  0
LINE
  5
267
100
AcDbEntity
  8
0
100
AcDbLine
 62
7
  6
CONTINUOUS
 10
134.682039709
 20
289.0947323885
 11
135.0355945716
 21
289.2988561651
  0
LINE
  5
268
100
AcDbEntity
  8
0
100
AcDbLine
 62
7
  6
CONTINUOUS
 10
208.5745467281
 20
331.1851587576
 11
246.7581539376
 21
353.2303430667
  0
LINE
  5
269
100
AcDbEntity
  8
0
100
AcDbLine
 62
7
  6
CONTINUOUS
 10
156.2667143555
 20
297.6988589528
 11
301.2230009843
 21
381.3889104964
  0
LINE
  5
26A
100
AcDbEntity
  8
0
100
AcDbLine
 62
7
  6
CONTINUOUS
 10
139.9792893936
 20
303.4349473405
 11
153.1267698979
 21
295.8444176529
  0
LINE
  5
26B
100
AcDbEntity
  8
0
100
AcDbLine
 62
7
  6
CONTINUOUS
 10
135.0355945716
 20
309.9563743732
 11
156.2667143555
 21
297.6988589528
  0
LINE
  5
26C
100
AcDbEntity
  8
0
100
AcDbLine
 62
7
  6
CONTINUOUS
 10
200.0893360091
 20
276.7501064009
 11
198.8211910053
 21
288.6049601832
  0
LINE
  5
26D
100
AcDbEntity
  8
0
100
AcDbLine
 62
7
  6
CONTINUOUS
 10
198.8351199822
 20
288.61258086
 11
200.0893360091
 21
276.8879377272
  0
LINE
  5
26E
100
AcDbEntity
  8
0
100
AcDbLine
 62
7
  6
CONTINUOUS
 10
200.0893360091
 20
276.8879377272
 11
200.0893360091
 21
211.9759955654
  0
LINE
  5
26F
100
AcDbEntity
  8
0
100
AcDbLine
 62
7
  6
CONTINUOUS
 10
134.682039709
 20
278.8909932035
 11
135.0596546319
 21
279.1090079796
  0
LINE
  5
270
100
AcDbEntity
  8
0
100
AcDbLine
 62
7
  6
CONTINUOUS
 10
153.8331922882
 20
289.0681252119
 11
139.9792893936
 21
281.069618391
  0
LINE
  5
271
100
AcDbEntity
  8
0
100
AcDbLine
 62
7
  6
CONTINUOUS
 10
157.6631057763
 20
284.6451339716
 11
302.6193924051
 21
368.3351855152
  0
LINE
  5
272
100
AcDbEntity
  8
0
100
AcDbLine
 62
7
  6
CONTINUOUS
 10
200.0893360091
 20
211.9759955654
 11
198.6929445883
 21
200.5346480327
  0
LINE
  5
273
100
AcDbEntity
  8
0
100
AcDbLine
 62
7
  6
CONTINUOUS
 10
239.4817035247
 20
400.1480363541
 11
241.171539626
 21
405.3081843038
  0
LINE
  5
274
100
AcDbEntity
  8
0
100
AcDbLine
 62
7
  6
CONTINUOUS
 10
302.6193924051
 20
355.1484196265
 11
360.7078675326
 21
388.6856161882
  0
LINE
  5
275
100
AcDbEntity
  8
0
100
AcDbLine
 62
7
  6
CONTINUOUS
 10
156.1547133288
 20
266.4940197659
 11
156.5563891436
 21
266.7259260215
  0
LINE
  5
276
100
AcDbEntity
  8
0
100
AcDbLine
 62
7
  6
CONTINUOUS
 10
103.7810132294
 20
357.2304165143
 11
109.4378910306
 21
353.9644904781
  0
LINE
  5
277
100
AcDbEntity
  8
0
100
AcDbLine
 62
7
  6
CONTINUOUS
 10
255.313734129
 20
397.1433692134
 11
253.6238980276
 21
391.9832212637
  0
LINE
  5
278
100
AcDbEntity
  8
0
100
AcDbLine
 62
7
  6
CONTINUOUS
 10
256.657618749
 20
321.6578020977
 11
302.6193924051
 21
350.9757502494
  0
LINE
  5
279
100
AcDbEntity
  8
0
100
AcDbLine
 62
7
  6
CONTINUOUS
 10
256.657618749
 20
321.6571609743
 11
210.0483075352
 21
294.7474232278
  0
LINE
  5
27A
100
AcDbEntity
  8
0
100
AcDbLine
 62
7
  6
CONTINUOUS
 10
264.9657890061
 20
321.7617584492
 11
255.8964481507
 21
316.5256033205
  0
LINE
  5
27B
100
AcDbEntity
  8
0
100
AcDbLine
 62
7
  6
CONTINUOUS
 10
372.8669474585
 20
381.665726931
 11
381.3521935051
 21
386.5646567774
  0
LINE
  5
27C
100
AcDbEntity
  8
0
100
AcDbLine
 62
7
  6
CONTINUOUS
 10
265.2799166163
 20
318.8252355143
 11
360.8730973671
 21
374.0156547111
  0
LINE
  5
27D
100
AcDbEntity
  8
0
100
AcDbLine
 62
7
  6
CONTINUOUS
 10
103.0743568751
 20
222.7538061318
 11
113.1152313636
 21
228.5508731168
  0
LINE
  5
27E
100
AcDbEntity
  8
0
100
AcDbLine
 62
7
  6
CONTINUOUS
 10
157.6631057763
 20
252.393288495
 11
200.0893360091
 21
276.8879377272
  0
LINE
  5
27F
100
AcDbEntity
  8
0
100
AcDbLine
 62
7
  6
CONTINUOUS
 10
200.0893360091
 20
276.7501064009
 11
256.6576429862
 21
309.4096387107
  0
LINE
  5
280
100
AcDbEntity
  8
0
100
AcDbLine
 62
7
  6
CONTINUOUS
 10
157.6631057763
 20
266.0869773307
 11
210.0483075353
 21
294.7474232278
  0
LINE
  5
281
100
AcDbEntity
  8
0
100
AcDbLine
 62
7
  6
CONTINUOUS
 10
123.0296771903
 20
357.7291529492
 11
132.1501422258
 21
352.4635691292
  0
LINE
  5
282
100
AcDbEntity
  8
0
100
AcDbLine
 62
7
  6
CONTINUOUS
 10
112.6198111946
 20
372.5397486518
 11
118.2766889958
 21
369.2738226156
  0
LINE
  5
283
100
AcDbEntity
  8
0
100
AcDbLine
 62
7
  6
CONTINUOUS
 10
132.1501422258
 20
366.752361429
 11
123.0296771903
 21
372.017945249
  0
LINE
  5
284
100
AcDbEntity
  8
0
100
AcDbLine
 62
7
  6
CONTINUOUS
 10
232.2624045721
 20
361.5992785343
 11
232.2624045721
 21
344.861268225
  0
LINE
  5
285
100
AcDbEntity
  8
0
100
AcDbLine
 62
7
  6
CONTINUOUS
 10
233.3169959058
 20
345.470133181
 11
233.3169959058
 21
357.3231756515
  0
LINE
  5
286
100
AcDbEntity
  8
0
100
AcDbLine
 62
7
  6
CONTINUOUS
 10
237.4931466861
 20
406.1933639902
 11
237.5979633311
 21
410.8781780749
  0
LINE
  5
287
100
AcDbEntity
  8
0
100
AcDbLine
 62
7
  6
CONTINUOUS
 10
239.4037838075
 20
396.6669891986
 11
239.4817035247
 21
400.1480363541
  0
LINE
  5
288
100
AcDbEntity
  8
0
100
AcDbLine
 62
7
  6
CONTINUOUS
 10
266.1266341783
 20
310.9099633165
 11
256.6576429862
 21
305.4430713358
  0
LINE
  5
289
100
AcDbEntity
  8
0
100
AcDbLine
 62
7
  6
CONTINUOUS
 10
371.4689820843
 20
367.8982562114
 11
266.1777979404
 21
307.1087255671
  0
LINE
  5
28A
100
AcDbEntity
  8
0
100
AcDbLine
 62
7
  6
CONTINUOUS
 10
131.6522170532
 20
368.8312581664
 11
126.1220029793
 21
372.0240565199
  0
LINE
  5
28B
100
AcDbEntity
  8
0
100
AcDbLine
 62
7
  6
CONTINUOUS
 10
194.0787973625
 20
339.5540942253
 11
208.5745467281
 21
331.1851587576
  0
LINE
  5
28C
100
AcDbEntity
  8
0
100
AcDbLine
 62
7
  6
CONTINUOUS
 10
255.4237289087
 20
320.9447785952
 11
256.6576429862
 21
309.4096387107
  0
LINE
  5
28D
100
AcDbEntity
  8
0
100
AcDbLine
 62
7
  6
CONTINUOUS
 10
256.6576429862
 20
309.4096387107
 11
256.6576429862
 21
244.6355278752
  0
LINE
  5
28E
100
AcDbEntity
  8
0
100
AcDbLine
 62
7
  6
CONTINUOUS
 10
253.6238980276
 20
391.9832212637
 11
253.5459783105
 21
388.5021741082
  0
LINE
  5
28F
100
AcDbEntity
  8
0
100
AcDbLine
 62
7
  6
CONTINUOUS
 10
258.7064384405
 20
393.9461413546
 11
258.8112550856
 21
398.6309554393
  0
LINE
  5
290
100
AcDbEntity
  8
0
100
AcDbLine
 62
7
  6
CONTINUOUS
 10
266.5175380723
 20
287.2395389833
 11
373.2902174916
 21
348.8844062179
  0
LINE
  5
291
100
AcDbEntity
  8
0
100
AcDbLine
 62
7
  6
CONTINUOUS
 10
264.9657890061
 20
321.7617584492
 11
266.1266341783
 21
310.9099633165
  0
LINE
  5
292
100
AcDbEntity
  8
0
100
AcDbLine
 62
7
  6
CONTINUOUS
 10
266.1266341783
 20
310.9099633165
 11
266.5570967072
 21
278.9285306288
  0
LINE
  5
293
100
AcDbEntity
  8
0
100
AcDbLine
 62
7
  6
CONTINUOUS
 10
266.5570967072
 20
278.9285306288
 11
266.5175380723
 21
287.239538983
  0
LINE
  5
294
100
AcDbEntity
  8
0
100
AcDbLine
 62
7
  6
CONTINUOUS
 10
267.3345582409
 20
395.1662086678
 11
267.3345582409
 21
386.3387607198
  0
LINE
  5
295
100
AcDbEntity
  8
0
100
AcDbLine
 62
7
  6
CONTINUOUS
 10
266.5175380723
 20
270.6631996182
 11
266.5570967072
 21
278.9285306289
  0
LINE
  5
296
100
AcDbEntity
  8
0
100
AcDbLine
 62
7
  6
CONTINUOUS
 10
266.5570967072
 20
278.9285306289
 11
266.1266341783
 21
247.4441420106
  0
LINE
  5
297
100
AcDbEntity
  8
0
100
AcDbLine
 62
7
  6
CONTINUOUS
 10
265.882352337
 20
394.5485478941
 11
265.7775356919
 21
389.8637338094
  0
LINE
  5
298
100
AcDbEntity
  8
0
100
AcDbLine
 62
7
  6
CONTINUOUS
 10
256.6576429862
 20
244.6355278752
 11
255.2612515654
 21
233.1941803425
  0
LINE
  5
299
100
AcDbEntity
  8
0
100
AcDbLine
 62
7
  6
CONTINUOUS
 10
266.1266341783
 20
247.4441420106
 11
265.2524456128
 21
240.2814689681
  0
LINE
  5
29A
100
AcDbEntity
  8
0
100
AcDbLine
 62
7
  6
CONTINUOUS
 10
256.6576429862
 20
273.2131124747
 11
381.815022173
 21
345.47232771
  0
LINE
  5
29B
100
AcDbEntity
  8
0
100
AcDbLine
 62
7
  6
CONTINUOUS
 10
373.2902174916
 20
332.3080668527
 11
266.5175380723
 21
270.6631996181
  0
LINE
  5
29C
100
AcDbEntity
  8
0
100
AcDbLine
 62
7
  6
CONTINUOUS
 10
162.1264093139
 20
392.8110861273
 11
167.6566233878
 21
389.6182877739
  0
LINE
  5
29D
100
AcDbEntity
  8
0
100
AcDbLine
 62
7
  6
CONTINUOUS
 10
162.1300185714
 20
394.5924031194
 11
167.4275208315
 21
391.5339579547
  0
LINE
  5
29E
100
AcDbEntity
  8
0
100
AcDbLine
 62
7
  6
CONTINUOUS
 10
168.5447448943
 20
392.1789837179
 11
172.3677076697
 21
389.9718450625
  0
LINE
  5
29F
100
AcDbEntity
  8
0
100
AcDbLine
 62
7
  6
CONTINUOUS
 10
158.6451999588
 20
399.1123606273
 11
164.30207776
 21
395.8464345911
  0
LINE
  5
2A0
100
AcDbEntity
  8
0
100
AcDbLine
 62
7
  6
CONTINUOUS
 10
233.3169959058
 20
357.3231756515
 11
243.5821785468
 21
351.3967037652
  0
LINE
  5
2A1
100
AcDbEntity
  8
0
100
AcDbLine
 62
7
  6
CONTINUOUS
 10
261.1656832007
 20
324.5333917312
 11
264.9657890061
 21
321.7617584492
  0
LINE
  5
2A2
100
AcDbEntity
  8
0
100
AcDbLine
 62
7
  6
CONTINUOUS
 10
266.2249472434
 20
254.634841646
 11
371.4689820843
 21
315.3971507899
  0
LINE
  5
2A3
100
AcDbEntity
  8
0
100
AcDbLine
 62
7
  6
CONTINUOUS
 10
360.73044442
 20
309.0137986481
 11
266.22241854
 21
254.4498901683
  0
LINE
  5
2A4
100
AcDbEntity
  8
0
100
AcDbLine
 62
7
  6
CONTINUOUS
 10
157.6631057763
 20
187.4813463332
 11
256.6576429862
 21
244.6355278752
  0
LINE
  5
2A5
100
AcDbEntity
  8
0
100
AcDbLine
 62
7
  6
CONTINUOUS
 10
246.7581539376
 20
353.2303430667
 11
232.2624045721
 21
361.5992785343
  0
LINE
  5
2A6
100
AcDbEntity
  8
0
100
AcDbLine
 62
7
  6
CONTINUOUS
 10
303.3748825606
 20
328.5843441935
 11
292.7789978434
 21
334.7017426933
  0
LINE
  5
2A7
100
AcDbEntity
  8
0
100
AcDbLine
 62
7
  6
CONTINUOUS
 10
292.6672028754
 20
344.627479645
 11
292.7789978434
 21
334.7017426933
  0
LINE
  5
2A8
100
AcDbEntity
  8
0
100
AcDbLine
 62
7
  6
CONTINUOUS
 10
292.6384527064
 20
269.8845951065
 11
292.6363448963
 21
269.6998866302
  0
LINE
  5
2A9
100
AcDbEntity
  8
0
100
AcDbLine
 62
7
  6
CONTINUOUS
 10
266.1266341783
 20
247.4441420106
 11
256.3086118969
 21
241.7757380394
  0
LINE
  5
2AA
100
AcDbEntity
  8
0
100
AcDbLine
 62
7
  6
CONTINUOUS
 10
265.2524456128
 20
240.2814689681
 11
255.4344233315
 21
234.6130649969
  0
LINE
  5
2AB
100
AcDbEntity
  8
0
100
AcDbLine
 62
7
  6
CONTINUOUS
 10
156.2667143555
 20
176.0399988005
 11
255.2612515654
 21
233.1941803425
  0
LINE
  5
2AC
100
AcDbEntity
  8
0
100
AcDbLine
 62
7
  6
CONTINUOUS
 10
372.8669474585
 20
300.015485218
 11
381.3521935051
 21
304.9144150645
  0
LINE
  5
2AD
100
AcDbEntity
  8
0
100
AcDbLine
 62
7
  6
CONTINUOUS
 10
372.8669474585
 20
300.015485218
 11
359.0057659828
 21
308.0180610318
  0
LINE
  5
2AE
100
AcDbEntity
  8
0
100
AcDbLine
 62
7
  6
CONTINUOUS
 10
301.2230009843
 20
381.3889104964
 11
302.6193924051
 21
368.3351855152
  0
LINE
  5
2AF
100
AcDbEntity
  8
0
100
AcDbLine
 62
7
  6
CONTINUOUS
 10
305.1961179679
 20
309.5704942
 11
305.2356766028
 21
301.2594858459
  0
LINE
  5
2B0
100
AcDbEntity
  8
0
100
AcDbLine
 62
7
  6
CONTINUOUS
 10
302.6193924051
 20
368.3351855152
 11
302.6193924051
 21
350.9757502494
  0
LINE
  5
2B1
100
AcDbEntity
  8
0
100
AcDbLine
 62
7
  6
CONTINUOUS
 10
305.2356766028
 20
301.2594858459
 11
305.1961179679
 21
292.9941548349
  0
LINE
  5
2B2
100
AcDbEntity
  8
0
100
AcDbLine
 62
7
  6
CONTINUOUS
 10
303.0816322798
 20
421.955385961
 11
302.9203527264
 21
407.8223763016
  0
LINE
  5
2B3
100
AcDbEntity
  8
0
100
AcDbLine
 62
7
  6
CONTINUOUS
 10
204.8261515673
 20
411.4859940169
 11
210.4830293685
 21
408.2200679807
  0
LINE
  5
2B4
100
AcDbEntity
  8
0
100
AcDbLine
 62
7
  6
CONTINUOUS
 10
261.9602716186
 20
383.2359334131
 11
260.2635198688
 21
384.2155313311
  0
LINE
  5
2B5
100
AcDbEntity
  8
0
100
AcDbLine
 62
7
  6
CONTINUOUS
 10
208.9273538231
 20
413.8538101093
 11
231.9791308629
 21
400.545161512
  0
LINE
  5
2B6
100
AcDbEntity
  8
0
100
AcDbLine
 62
7
  6
CONTINUOUS
 10
239.4037825505
 20
396.6669885109
 11
253.5459770535
 21
388.5021734205
  0
LINE
  5
2B7
100
AcDbEntity
  8
0
100
AcDbLine
 62
7
  6
CONTINUOUS
 10
235.3025188978
 20
402.4639090351
 11
239.4795616121
 21
400.0523468564
  0
LINE
  5
2B8
100
AcDbEntity
  8
0
100
AcDbLine
 62
7
  6
CONTINUOUS
 10
256.5158106522
 20
390.2166863995
 11
263.5869079037
 21
386.1342788543
  0
LINE
  5
2B9
100
AcDbEntity
  8
0
100
AcDbLine
 62
7
  6
CONTINUOUS
 10
239.4817035247
 20
400.148036354
 11
253.6238980276
 21
391.9832212636
  0
LINE
  5
2BA
100
AcDbEntity
  8
0
100
AcDbLine
 62
7
  6
CONTINUOUS
 10
210.4830293685
 20
408.2200679807
 11
164.30207776
 21
395.8464345911
  0
LINE
  5
2BB
100
AcDbEntity
  8
0
100
AcDbLine
 62
7
  6
CONTINUOUS
 10
208.361700193
 20
409.4447902443
 11
162.1807485846
 21
397.0711568547
  0
LINE
  5
2BC
100
AcDbEntity
  8
0
100
AcDbLine
 62
7
  6
CONTINUOUS
 10
158.6451999588
 20
399.1123606273
 11
204.8261515673
 21
411.4859940169
  0
LINE
  5
2BD
100
AcDbEntity
  8
0
100
AcDbLine
 62
7
  6
CONTINUOUS
 10
265.7775356919
 20
389.8637338095
 11
258.7064384404
 21
393.9461413547
  0
LINE
  5
2BE
100
AcDbEntity
  8
0
100
AcDbLine
 62
7
  6
CONTINUOUS
 10
240.8304485117
 20
404.2666154718
 11
237.493146686
 21
406.1933639903
  0
LINE
  5
2BF
100
AcDbEntity
  8
0
100
AcDbLine
 62
7
  6
CONTINUOUS
 10
241.171539626
 20
405.3081843038
 11
255.313734129
 21
397.1433692134
  0
LINE
  5
2C0
100
AcDbEntity
  8
0
100
AcDbLine
 62
7
  6
CONTINUOUS
 10
244.6690605826
 20
406.7957705297
 11
237.5979633311
 21
410.8781780749
  0
LINE
  5
2C1
100
AcDbEntity
  8
0
100
AcDbLine
 62
7
  6
CONTINUOUS
 10
258.8112550856
 20
398.6309554393
 11
265.882352337
 21
394.5485478941
  0
LINE
  5
2C2
100
AcDbEntity
  8
0
100
AcDbLine
 62
7
  6
CONTINUOUS
 10
239.0501692351
 20
411.4958388486
 11
267.3345582409
 21
395.1662086678
  0
LINE
  5
2C3
100
AcDbEntity
  8
0
100
AcDbLine
 62
7
  6
CONTINUOUS
 10
279.9918812004
 20
393.6464259168
 11
301.2230009843
 21
381.3889104964
  0
LINE
  5
2C4
100
AcDbEntity
  8
0
100
AcDbLine
 62
7
  6
CONTINUOUS
 10
360.8730973671
 20
374.0156547111
 11
371.4689820843
 21
367.8982562114
  0
LINE
  5
2C5
100
AcDbEntity
  8
0
100
AcDbLine
 62
7
  6
CONTINUOUS
 10
360.7078675326
 20
388.6856161882
 11
360.8730973671
 21
374.0156547111
  0
LINE
  5
2C6
100
AcDbEntity
  8
0
100
AcDbLine
 62
7
  6
CONTINUOUS
 10
360.7325522301
 20
309.1985071244
 11
360.73044442
 21
309.013798648
  0
LINE
  5
2C7
100
AcDbEntity
  8
0
100
AcDbLine
 62
7
  6
CONTINUOUS
 10
303.0816322798
 20
421.955385961
 11
315.2407122057
 21
414.9354967038
  0
LINE
  5
2C8
100
AcDbEntity
  8
0
100
AcDbLine
 62
7
  6
CONTINUOUS
 10
360.7078675326
 20
388.6856161882
 11
372.8669474585
 21
381.665726931
  0
LINE
  5
2C9
100
AcDbEntity
  8
0
100
AcDbLine
 62
7
  6
CONTINUOUS
 10
373.1918531834
 20
352.8189119254
 11
372.8669474585
 21
381.665726931
  0
LINE
  5
2CA
100
AcDbEntity
  8
0
100
AcDbLine
 62
7
  6
CONTINUOUS
 10
381.3521935051
 20
386.5646567774
 11
381.815022173
 21
345.4723277099
  0
LINE
  5
2CB
100
AcDbEntity
  8
0
100
AcDbLine
 62
7
  6
CONTINUOUS
 10
373.2902174916
 20
348.8844062177
 11
373.3297761265
 21
340.5733978635
  0
LINE
  5
2CC
100
AcDbEntity
  8
0
100
AcDbLine
 62
7
  6
CONTINUOUS
 10
373.3297761265
 20
340.5733978635
 11
373.2902174916
 21
332.3080668531
  0
LINE
  5
2CD
100
AcDbEntity
  8
0
100
AcDbLine
 62
7
  6
CONTINUOUS
 10
372.8669474585
 20
300.015485218
 11
373.1918531834
 21
328.4871398953
  0
LINE
  5
2CE
100
AcDbEntity
  8
0
100
AcDbLine
 62
7
  6
CONTINUOUS
 10
381.815022173
 20
345.4723277099
 11
381.3521935051
 21
304.9144150645
  0
LINE
  5
2CF
100
AcDbEntity
  8
0
100
AcDbLine
 62
7
  6
CONTINUOUS
 10
311.5668783263
 20
426.8543158075
 11
381.3521935051
 21
386.5646567774
  0
ARC
  5
2D0
100
AcDbEntity
  8
0
100
AcDbCircle
 62
7
  6
CONTINUOUS
 10
372.4394283661
 20
378.3356047335
 40
9.0218034303
100
AcDbArc
 50
0.0015222224
 51
0.7414973483
  0
ARC
  5
2D1
100
AcDbEntity
  8
0
100
AcDbCircle
 62
7
  6
CONTINUOUS
 10
372.6277598627
 20
378.3356972281
 40
8.8334719317
100
AcDbArc
 50
359.3511895656
 51
0.0009547365
  0
SPLINE
  5
2D2
100
AcDbEntity
  8
0
100
AcDbSpline
 62
7
  6
CONTINUOUS
 70
0
 71
3
 72
9
 73
5
 74
0
 42
0.0000001
 43
0.0000001
 44
0.0000000001
 40
0.0
 40
0.0
 40
0.0
 40
0.0
 40
0.2615810237
 40
1.0
 40
1.0
 40
1.0
 40
1.0
 10
305.1961179679
 20
292.9941548349
 30
0.0
 10
305.189012383
 20
291.509522925
 30
0.0
 10
305.0267002286
 20
285.8365819919
 30
0.0
 10
304.3019894474
 20
280.1704350795
 30
0.0
 10
303.3748825606
 20
276.0832387721
 30
0.0
  0
SPLINE
  5
2D3
100
AcDbEntity
  8
0
100
AcDbSpline
 62
7
  6
CONTINUOUS
 70
0
 71
3
 72
9
 73
5
 74
0
 42
0.0000001
 43
0.0000001
 44
0.0000000001
 40
0.0
 40
0.0
 40
0.0
 40
0.0
 40
0.2590229323
 40
1.0
 40
1.0
 40
1.0
 40
1.0
 10
303.3748825606
 20
328.5843441935
 30
0.0
 10
303.6668499738
 20
326.9600641905
 30
0.0
 10
304.6714505191
 20
320.6685499053
 30
0.0
 10
305.1736473337
 20
314.2914262957
 30
0.0
 10
305.1961179679
 20
309.5704942
 30
0.0
  0
SPLINE
  5
2D4
100
AcDbEntity
  8
0
100
AcDbSpline
 62
7
  6
CONTINUOUS
 70
0
 71
3
 72
9
 73
5
 74
0
 42
0.0000001
 43
0.0000001
 44
0.0000000001
 40
0.0
 40
0.0
 40
0.0
 40
0.0
 40
0.2472614202
 40
1.0
 40
1.0
 40
1.0
 40
1.0
 10
266.3819600221
 20
266.1188873179
 30
0.0
 10
266.4027879298
 20
266.493041926
 30
0.0
 10
266.4770847152
 20
268.0067771654
 30
0.0
 10
266.5120781454
 20
269.5224093994
 30
0.0
 10
266.5175380723
 20
270.6631996182
 30
0.0
  0
SPLINE
  5
2D5
100
AcDbEntity
  8
0
100
AcDbSpline
 62
7
  6
CONTINUOUS
 70
0
 71
3
 72
9
 73
5
 74
0
 42
0.0000001
 43
0.0000001
 44
0.0000000001
 40
0.0
 40
0.0
 40
0.0
 40
0.0
 40
0.2474370574
 40
1.0
 40
1.0
 40
1.0
 40
1.0
 10
266.5175380723
 20
287.239538983
 30
0.0
 10
266.5156917514
 20
287.6274388416
 30
0.0
 10
266.4986290448
 20
289.1950526202
 30
0.0
 10
266.4435839439
 20
290.7622259545
 30
0.0
 10
266.3819600221
 20
291.9403997894
 30
0.0
  0
SPLINE
  5
2D6
100
AcDbEntity
  8
0
100
AcDbSpline
 62
7
  6
CONTINUOUS
 70
0
 71
3
 72
9
 73
5
 74
0
 42
0.0000001
 43
0.0000001
 44
0.0000000001
 40
0.0
 40
0.0
 40
0.0
 40
0.0
 40
0.4774239891
 40
1.0
 40
1.0
 40
1.0
 40
1.0
 10
342.8774112548
 20
408.9581209884
 30
0.0
 10
344.9730803656
 20
408.1919274547
 30
0.0
 10
349.2070168779
 20
406.1493073119
 30
0.0
 10
353.0657433073
 20
403.4831748981
 30
0.0
 10
354.9833660981
 20
401.9705992621
 30
0.0
  0
SPLINE
  5
2D7
100
AcDbEntity
  8
0
100
AcDbSpline
 62
7
  6
CONTINUOUS
 70
0
 71
3
 72
9
 73
5
 74
0
 42
0.0000001
 43
0.0000001
 44
0.0000000001
 40
0.0
 40
0.0
 40
0.0
 40
0.0
 40
0.2572801326
 40
1.0
 40
1.0
 40
1.0
 40
1.0
 10
382.035682735
 20
354.7793716088
 30
0.0
 10
382.1158638286
 20
354.1950111329
 30
0.0
 10
382.3917932871
 20
351.9190758084
 30
0.0
 10
382.5221112904
 20
349.6245300925
 30
0.0
 10
382.5221112904
 20
347.9217841348
 30
0.0
  0
SPLINE
  5
2D8
100
AcDbEntity
  8
0
100
AcDbSpline
 62
7
  6
CONTINUOUS
 70
0
 71
3
 72
10
 73
6
 74
0
 42
0.0000001
 43
0.0000001
 44
0.0000000001
 40
0.0
 40
0.0
 40
0.0
 40
0.0
 40
0.521089853
 40
0.7715113179
 40
1.0
 40
1.0
 40
1.0
 40
1.0
 10
368.2424432482
 20
313.5417798182
 30
0.0
 10
368.7506227749
 20
312.9299372452
 30
0.0
 10
369.3637394293
 20
311.8943705773
 30
0.0
 10
369.8177555777
 20
310.4328593049
 30
0.0
 10
369.9064033297
 20
309.7007119403
 30
0.0
 10
369.9064033297
 20
309.3519605857
 30
0.0
  0
SPLINE
  5
2D9
100
AcDbEntity
  8
0
100
AcDbSpline
 62
7
  6
CONTINUOUS
 70
0
 71
3
 72
13
 73
9
 74
0
 42
0.0000001
 43
0.0000001
 44
0.0000000001
 40
0.0
 40
0.0
 40
0.0
 40
0.0
 40
0.0928367915
 40
0.19123637
 40
0.2992859675
 40
0.4190480797
 40
0.6925308638
 40
1.0
 40
1.0
 40
1.0
 40
1.0
 10
306.9741879212
 20
414.6789340516
 30
0.0
 10
307.1097021058
 20
414.7571863892
 30
0.0
 10
307.4166106971
 20
414.874117847
 30
0.0
 10
307.9259903732
 20
414.9076821745
 30
0.0
 10
308.4712987785
 20
414.806815096
 30
0.0
 10
309.2583673638
 20
414.4872901032
 30
0.0
 10
310.2216173725
 20
413.7744518481
 30
0.0
 10
310.8579849744
 20
413.020047058
 30
0.0
 10
311.1513696929
 20
412.5928159402
 30
0.0
  0
SPLINE
  5
2DA
100
AcDbEntity
  8
0
100
AcDbSpline
 62
7
  6
CONTINUOUS
 70
0
 71
3
 72
11
 73
7
 74
0
 42
0.0000001
 43
0.0000001
 44
0.0000000001
 40
0.0
 40
0.0
 40
0.0
 40
0.0
 40
0.2897016594
 40
0.5490895814
 40
0.7822189142
 40
1.0
 40
1.0
 40
1.0
 40
1.0
 10
369.9064033297
 20
309.3519605857
 30
0.0
 10
369.9064033297
 20
309.123954739
 30
0.0
 10
369.8718345327
 20
308.6903337162
 30
0.0
 10
369.6962324072
 20
308.094556762
 30
0.0
 10
369.400555206
 20
307.6111178748
 30
0.0
 10
369.1228238006
 20
307.3776488169
 30
0.0
 10
368.974391817
 20
307.2919371274
 30
0.0
  0
SPLINE
  5
2DB
100
AcDbEntity
  8
0
100
AcDbSpline
 62
7
  6
CONTINUOUS
 70
0
 71
3
 72
15
 73
11
 74
0
 42
0.0000001
 43
0.0000001
 44
0.0000000001
 40
0.0
 40
0.0
 40
0.0
 40
0.0
 40
0.0869313433
 40
0.1864011611
 40
0.3037885282
 40
0.4375986154
 40
0.5820965189
 40
0.729420053
 40
0.8711665023
 40
1.0
 40
1.0
 40
1.0
 40
1.0
 10
364.4744273161
 20
381.4819063756
 30
0.0
 10
364.6991925326
 20
381.6116965055
 30
0.0
 10
365.2639345106
 20
381.7567788861
 30
0.0
 10
366.1729031023
 20
381.5747449716
 30
0.0
 10
367.1015345891
 20
381.0674976089
 30
0.0
 10
367.9919900924
 20
380.2790172354
 30
0.0
 10
368.7781577897
 20
379.2726638142
 30
0.0
 10
369.3971311558
 20
378.1286622266
 30
0.0
 10
369.798799702
 20
376.9411565582
 30
0.0
 10
369.9064033297
 20
376.1323691747
 30
0.0
 10
369.9064033297
 20
375.7477161266
 30
0.0
  0
SPLINE
  5
2DC
100
AcDbEntity
  8
0
100
AcDbSpline
 62
7
  6
CONTINUOUS
 70
0
 71
3
 72
9
 73
5
 74
0
 42
0.0000001
 43
0.0000001
 44
0.0000000001
 40
0.0
 40
0.0
 40
0.0
 40
0.0
 40
0.2533003685
 40
1.0
 40
1.0
 40
1.0
 40
1.0
 10
382.5221112904
 20
347.9217841348
 30
0.0
 10
382.5221112904
 20
347.6965580946
 30
0.0
 10
382.5153801472
 20
346.8074093325
 30
0.0
 10
382.4814361963
 20
345.9184321755
 30
0.0
 10
382.439718211
 20
345.2558043045
 30
0.0
  0
SPLINE
  5
2DD
100
AcDbEntity
  8
0
100
AcDbSpline
 62
7
  6
CONTINUOUS
 70
0
 71
3
 72
9
 73
5
 74
0
 42
0.0000001
 43
0.0000001
 44
0.0000000001
 40
0.0
 40
0.0
 40
0.0
 40
0.0
 40
0.2544224188
 40
1.0
 40
1.0
 40
1.0
 40
1.0
 10
382.439718211
 20
345.2558043045
 30
0.0
 10
382.423013386
 20
344.9904731171
 30
0.0
 10
382.3470245245
 20
343.948285559
 30
0.0
 10
382.2290372266
 20
342.9090586836
 30
0.0
 10
382.1152635175
 20
342.1383260378
 30
0.0
  0
SPLINE
  5
2DE
100
AcDbEntity
  8
0
100
AcDbSpline
 62
7
  6
CONTINUOUS
 70
0
 71
3
 72
11
 73
7
 74
0
 42
0.0000001
 43
0.0000001
 44
0.0000000001
 40
0.0
 40
0.0
 40
0.0
 40
0.0
 40
0.2897016594
 40
0.5490895814
 40
0.7822189142
 40
1.0
 40
1.0
 40
1.0
 40
1.0
 10
369.9064033297
 20
375.7477161266
 30
0.0
 10
369.9064033297
 20
375.5197102799
 30
0.0
 10
369.8718345327
 20
375.0860892571
 30
0.0
 10
369.6962324072
 20
374.4903123029
 30
0.0
 10
369.400555206
 20
374.0068734157
 30
0.0
 10
369.1228238006
 20
373.7734043578
 30
0.0
 10
368.974391817
 20
373.6876926683
 30
0.0
  0
SPLINE
  5
2DF
100
AcDbEntity
  8
0
100
AcDbSpline
 62
7
  6
CONTINUOUS
 70
0
 71
3
 72
9
 73
5
 74
0
 42
0.0000001
 43
0.0000001
 44
0.0000000001
 40
0.0
 40
0.0
 40
0.0
 40
0.0
 40
0.2521620571
 40
1.0
 40
1.0
 40
1.0
 40
1.0
 10
373.1918531834
 20
352.8189119254
 30
0.0
 10
373.2066591825
 20
352.4884167202
 30
0.0
 10
373.2589866977
 20
351.1774939839
 30
0.0
 10
373.2855475553
 20
349.8655290363
 30
0.0
 10
373.2902174916
 20
348.8844062177
 30
0.0
  0
SPLINE
  5
2E0
100
AcDbEntity
  8
0
100
AcDbSpline
 62
7
  6
CONTINUOUS
 70
0
 71
3
 72
9
 73
5
 74
0
 42
0.0000001
 43
0.0000001
 44
0.0000000001
 40
0.0
 40
0.0
 40
0.0
 40
0.0
 40
0.252294666
 40
1.0
 40
1.0
 40
1.0
 40
1.0
 10
373.2902174916
 20
332.3080668531
 30
0.0
 10
373.2886790051
 20
331.9866174383
 30
0.0
 10
373.2760070928
 20
330.7125562839
 30
0.0
 10
373.2368100345
 20
329.4387431244
 30
0.0
 10
373.1918531834
 20
328.4871398954
 30
0.0
  0
SPLINE
  5
2E1
100
AcDbEntity
  8
0
100
AcDbSpline
 62
7
  6
CONTINUOUS
 70
0
 71
3
 72
13
 73
9
 74
0
 42
0.0000001
 43
0.0000001
 44
0.0000000001
 40
0.0
 40
0.0
 40
0.0
 40
0.0
 40
0.0879956454
 40
0.1844393956
 40
0.2943760036
 40
0.4188996139
 40
0.7015264355
 40
1.0
 40
1.0
 40
1.0
 40
1.0
 10
368.974391817
 20
307.2919371274
 30
0.0
 10
368.7981170517
 20
307.1901476912
 30
0.0
 10
368.3796989577
 20
307.054467671
 30
0.0
 10
367.6883833672
 20
307.0960943239
 30
0.0
 10
366.9601129466
 20
307.355900996
 30
0.0
 10
365.9404101241
 20
307.9943768326
 30
0.0
 10
364.8098630682
 20
309.207827543
 30
0.0
 10
364.1655882308
 20
310.4066959703
 30
0.0
 10
363.926501516
 20
311.0544130283
 30
0.0
  0
SPLINE
  5
2E2
100
AcDbEntity
  8
0
100
AcDbSpline
 62
7
  6
CONTINUOUS
 70
0
 71
3
 72
9
 73
5
 74
0
 42
0.0000001
 43
0.0000001
 44
0.0000000001
 40
0.0
 40
0.0
 40
0.0
 40
0.0
 40
0.5247224499
 40
1.0
 40
1.0
 40
1.0
 40
1.0
 10
306.6926105128
 20
410.0175205574
 30
0.0
 10
306.4892709177
 20
410.4432543809
 30
0.0
 10
306.1745084916
 20
411.2916904036
 30
0.0
 10
306.0421764085
 20
412.1915675822
 30
0.0
 10
306.0421764085
 20
412.6189105933
 30
0.0
  0
SPLINE
  5
2E3
100
AcDbEntity
  8
0
100
AcDbSpline
 62
7
  6
CONTINUOUS
 70
0
 71
3
 72
9
 73
5
 74
0
 42
0.0000001
 43
0.0000001
 44
0.0000000001
 40
0.0
 40
0.0
 40
0.0
 40
0.0
 40
0.2408937201
 40
1.0
 40
1.0
 40
1.0
 40
1.0
 10
305.1961179679
 20
309.5704942
 30
0.0
 10
305.1888124546
 20
311.105334383
 30
0.0
 10
305.0040008601
 20
317.4757058277
 30
0.0
 10
304.23056663
 20
323.8239823864
 30
0.0
 10
303.3748825606
 20
328.5843441935
 30
0.0
  0
SPLINE
  5
2E4
100
AcDbEntity
  8
0
100
AcDbSpline
 62
7
  6
CONTINUOUS
 70
0
 71
3
 72
9
 73
5
 74
0
 42
0.0000001
 43
0.0000001
 44
0.0000000001
 40
0.0
 40
0.0
 40
0.0
 40
0.0
 40
0.2387486996
 40
1.0
 40
1.0
 40
1.0
 40
1.0
 10
303.3748825606
 20
276.0832387721
 30
0.0
 10
303.6746589351
 20
277.4048176627
 30
0.0
 10
304.756836431
 20
282.9792793907
 30
0.0
 10
305.175437942
 20
288.6732964454
 30
0.0
 10
305.1961179679
 20
292.9941548349
 30
0.0
  0
SPLINE
  5
2E5
100
AcDbEntity
  8
0
100
AcDbSpline
 62
7
  6
CONTINUOUS
 70
0
 71
3
 72
11
 73
7
 74
0
 42
0.0000001
 43
0.0000001
 44
0.0000000001
 40
0.0
 40
0.0
 40
0.0
 40
0.0
 40
0.2897016594
 40
0.5490895814
 40
0.7822189142
 40
1.0
 40
1.0
 40
1.0
 40
1.0
 10
306.0421764085
 20
412.6189105933
 30
0.0
 10
306.0421764085
 20
412.84691644
 30
0.0
 10
306.0767452056
 20
413.2805374628
 30
0.0
 10
306.2523473311
 20
413.876314417
 30
0.0
 10
306.5480245322
 20
414.3597533042
 30
0.0
 10
306.8257559376
 20
414.5932223621
 30
0.0
 10
306.9741879212
 20
414.6789340516
 30
0.0
  0
SPLINE
  5
2E6
100
AcDbEntity
  8
0
100
AcDbSpline
 62
7
  6
CONTINUOUS
 70
0
 71
3
 72
9
 73
5
 74
0
 42
0.0000001
 43
0.0000001
 44
0.0000000001
 40
0.0
 40
0.0
 40
0.0
 40
0.0
 40
0.2514761777
 40
1.0
 40
1.0
 40
1.0
 40
1.0
 10
373.1918531834
 20
328.4871398953
 30
0.0
 10
373.1825215256
 20
328.2896163688
 30
0.0
 10
373.1427297264
 20
327.5042896047
 30
0.0
 10
373.0921435817
 20
326.7195070979
 30
0.0
 10
373.048025219
 20
326.1325744665
 30
0.0
  0
SPLINE
  5
2E7
100
AcDbEntity
  8
0
100
AcDbSpline
 62
7
  6
CONTINUOUS
 70
0
 71
3
 72
9
 73
5
 74
0
 42
0.0000001
 43
0.0000001
 44
0.0000000001
 40
0.0
 40
0.0
 40
0.0
 40
0.0
 40
0.2577071862
 40
1.0
 40
1.0
 40
1.0
 40
1.0
 10
373.048025219
 20
326.1325744665
 30
0.0
 10
372.9781218674
 20
325.2026089012
 30
0.0
 10
372.6459871813
 20
321.5990647566
 30
0.0
 10
372.0632037619
 20
318.0168062805
 30
0.0
 10
371.4689820843
 20
315.3971507899
 30
0.0
  0
SPLINE
  5
2E8
100
AcDbEntity
  8
0
100
AcDbSpline
 62
7
  6
CONTINUOUS
 70
0
 71
3
 72
9
 73
5
 74
0
 42
0.0000001
 43
0.0000001
 44
0.0000000001
 40
0.0
 40
0.0
 40
0.0
 40
0.0
 40
0.256863542
 40
1.0
 40
1.0
 40
1.0
 40
1.0
 10
371.4689820843
 20
367.8982562114
 30
0.0
 10
371.698980351
 20
366.6187244266
 30
0.0
 10
372.5177431417
 20
361.6241302268
 30
0.0
 10
373.0235239358
 20
356.5763084399
 30
0.0
 10
373.1918531834
 20
352.8189119254
 30
0.0
  0
SPLINE
  5
2E9
100
AcDbEntity
  8
0
100
AcDbSpline
 62
7
  6
CONTINUOUS
 70
0
 71
3
 72
11
 73
7
 74
0
 42
0.0000001
 43
0.0000001
 44
0.0000000001
 40
0.0
 40
0.0
 40
0.0
 40
0.0
 40
0.2897016594
 40
0.5490895814
 40
0.7822189142
 40
1.0
 40
1.0
 40
1.0
 40
1.0
 10
363.5424158034
 20
379.4218829173
 30
0.0
 10
363.5424158034
 20
379.6498887641
 30
0.0
 10
363.5769846005
 20
380.0835097869
 30
0.0
 10
363.7525867259
 20
380.679286741
 30
0.0
 10
364.0482639271
 20
381.1627256282
 30
0.0
 10
364.3259953325
 20
381.3961946862
 30
0.0
 10
364.4744273161
 20
381.4819063756
 30
0.0
  0
SPLINE
  5
2EA
100
AcDbEntity
  8
0
100
AcDbSpline
 62
7
  6
CONTINUOUS
 70
0
 71
3
 72
15
 73
11
 74
0
 42
0.0000001
 43
0.0000001
 44
0.0000000001
 40
0.0
 40
0.0
 40
0.0
 40
0.0
 40
0.0869313433
 40
0.1864011611
 40
0.3037885282
 40
0.4375986154
 40
0.5820965189
 40
0.729420053
 40
0.8711665023
 40
1.0
 40
1.0
 40
1.0
 40
1.0
 10
368.974391817
 20
373.6876926683
 30
0.0
 10
368.7496266006
 20
373.5579025385
 30
0.0
 10
368.1848846226
 20
373.4128201578
 30
0.0
 10
367.2759160308
 20
373.5948540724
 30
0.0
 10
366.347284544
 20
374.102101435
 30
0.0
 10
365.4568290407
 20
374.8905818085
 30
0.0
 10
364.6706613434
 20
375.8969352297
 30
0.0
 10
364.0516879774
 20
377.0409368173
 30
0.0
 10
363.6500194312
 20
378.2284424858
 30
0.0
 10
363.5424158034
 20
379.0372298692
 30
0.0
 10
363.5424158034
 20
379.4218829173
 30
0.0
  0
SPLINE
  5
2EB
100
AcDbEntity
  8
0
100
AcDbSpline
 62
7
  6
CONTINUOUS
 70
0
 71
3
 72
11
 73
7
 74
0
 42
0.0000001
 43
0.0000001
 44
0.0000000001
 40
0.0
 40
0.0
 40
0.0
 40
0.0
 40
0.2364802725
 40
0.4983629818
 40
0.761137492
 40
1.0
 40
1.0
 40
1.0
 40
1.0
 10
235.3019039254
 20
402.4637758171
 30
0.0
 10
235.6075727234
 20
402.6402760374
 30
0.0
 10
236.1872091899
 20
403.1251019874
 30
0.0
 10
236.8681331847
 20
404.0446959747
 30
0.0
 10
237.3410373192
 20
405.0905609369
 30
0.0
 10
237.4851719473
 20
405.8369304461
 30
0.0
 10
237.4931466861
 20
406.1933639902
 30
0.0
  0
SPLINE
  5
2EC
100
AcDbEntity
  8
0
100
AcDbSpline
 62
7
  6
CONTINUOUS
 70
0
 71
3
 72
11
 73
7
 74
0
 42
0.0000001
 43
0.0000001
 44
0.0000000001
 40
0.0
 40
0.0
 40
0.0
 40
0.0
 40
0.2364802737
 40
0.4983629837
 40
0.7611374929
 40
1.0
 40
1.0
 40
1.0
 40
1.0
 10
256.5151957801
 20
390.2165532575
 30
0.0
 10
256.8208645711
 20
390.3930534737
 30
0.0
 10
257.400501013
 20
390.8778794274
 30
0.0
 10
258.0814249718
 20
391.7974734009
 30
0.0
 10
258.5543290825
 20
392.8433383363
 30
0.0
 10
258.698463702
 20
393.5897078218
 30
0.0
 10
258.7064384405
 20
393.9461413546
 30
0.0
  0
SPLINE
  5
2ED
100
AcDbEntity
  8
0
100
AcDbSpline
 62
7
  6
CONTINUOUS
 70
0
 71
3
 72
11
 73
7
 74
0
 42
0.0000001
 43
0.0000001
 44
0.0000000001
 40
0.0
 40
0.0
 40
0.0
 40
0.0
 40
0.2388627391
 40
0.5016373327
 40
0.7635199577
 40
1.0
 40
1.0
 40
1.0
 40
1.0
 10
265.7775356919
 20
389.8637338094
 30
0.0
 10
265.7695609453
 20
389.507299913
 30
0.0
 10
265.625426106
 20
388.7609299231
 30
0.0
 10
265.1525215721
 20
387.7150647387
 30
0.0
 10
264.4715975475
 20
386.7954711696
 30
0.0
 10
263.8919613571
 20
386.3106456417
 30
0.0
 10
263.5862928505
 20
386.1341455897
 30
0.0
  0
ENDSEC
  0
SECTION
  2
OBJECTS
  0
DICTIONARY
  5
C
100
AcDbDictionary
280
0
281
1
  3
ACAD_GROUP
350
D
  3
ACAD_MLINESTYLE
350
17
  3
ACAD_LAYOUT
350
1A
  3
ACAD_PLOTSETTINGS
350
19
  3
ACAD_PLOTSTYLENAME
350
E
  0
DICTIONARY
  5
D
102
{ACAD_REACTORS
330
C
102
}
100
AcDbDictionary
280
0
281
1
  0
ACDBDICTIONARYWDFLT
  5
E
102
{ACAD_REACTORS
330
C
102
}
100
AcDbDictionary
281
1
  3
Normal
350
F
100
AcDbDictionaryWithDefault
340
F
  0
DICTIONARY
  5
17
102
{ACAD_REACTORS
330
C
102
}
100
AcDbDictionary
280
0
281
1
  3
Standard
350
18
  0
DICTIONARY
  5
19
102
{ACAD_REACTORS
330
C
102
}
100
AcDbDictionary
281
1
  0
DICTIONARY
  5
1A
102
{ACAD_REACTORS
330
C
102
}
100
AcDbDictionary
281
1
  3
Model
350
2EE
  3
Layout1
350
2EF
  0
ACDBPLACEHOLDER
  5
F
102
{ACAD_REACTORS
330
E
102
}
  0
MLINESTYLE
  5
18
102
{ACAD_REACTORS
330
17
102
}
100
AcDbMlineStyle
  2
STANDARD
 70
0
  3

 62
256
 51
90.0
 52
90.0
 71
2
 49
0.5
 62
256
  6
BYLAYER
 49
-0.5
 62
256
  6
BYLAYER
  0
LAYOUT
  5
2EE
102
{ACAD_REACTORS
330
1A
102
}
100
AcDbPlotSettings
  1

  2
none_device
  4

  6

 40
0.0
 41
0.0
 42
0.0
 43
0.0
 44
210.0
 45
297.0
 46
0.0
 47
0.0
 48
0.0
 49
0.0
140
0.0
141
0.0
142
1.0
143
1.0
 70
1024
 72
1
 73
0
 74
0
  7

 75
0
147
1.0
148
0.0
149
0.0
100
AcDbLayout
  1
Model
 70
0
 71
0
 10
0.0
 20
0.0
 11
210.0
 21
297.0
 12
0.0
 22
0.0
 32
0.0
 14
0.0
 24
0.0
 34
0.0
 15
0.0
 25
0.0
 35
0.0
146
0.0
 13
0.0
 23
0.0
 33
0.0
 16
1.0
 26
0.0
 36
0.0
 17
0.0
 27
1.0
 37
0.0
 76
0
330
210
345
0
346
0
  0
LAYOUT
  5
2EF
102
{ACAD_REACTORS
330
1A
102
}
100
AcDbPlotSettings
  1

  2
none_device
  4

  6

 40
0.0
 41
0.0
 42
0.0
 43
0.0
 44
210.0
 45
297.0
 46
0.0
 47
0.0
 48
0.0
 49
0.0
140
0.0
141
0.0
142
1.0
143
1.0
 70
0
 72
1
 73
0
 74
0
  7

 75
0
147
1.0
148
0.0
149
0.0
100
AcDbLayout
  1
Layout1
 70
0
 71
1
 10
0.0
 20
0.0
 11
210.0
 21
297.0
 12
0.0
 22
0.0
 32
0.0
 14
0.0
 24
0.0
 34
0.0
 15
0.0
 25
0.0
 35
0.0
146
0.0
 13
0.0
 23
0.0
 33
0.0
 16
1.0
 26
0.0
 36
0.0
 17
0.0
 27
1.0
 37
0.0
 76
0
330
211
345
0
346
0
  0
ENDSEC
  0
EOF
