  0
SECTION
  2
HEADER
  9
$ACADVER
  1
AC1009
  9
$DWGCODEPAGE
  3
ansi_1250
  9
$INSBASE
 10
0.0
 20
0.0
 30
0.0
  9
$EXTMIN
 10
-20.649496
 20
-4.036433
 30
0.0
  9
$EXTMAX
 10
3.936898
 20
6.279417
 30
0.0
  9
$LIMMIN
 10
0.0
 20
0.0
  9
$LIMMAX
 10
0.0
 20
0.0
  9
$ORTHOMODE
 70
     0
  9
$REGENMODE
 70
     1
  9
$FILLMODE
 70
     1
  9
$QTEXTMODE
 70
     0
  9
$MIRRTEXT
 70
     1
  9
$DRAGMODE
 70
     2
  9
$LTSCALE
 40
1.0
  9
$OSMODE
 70
     0
  9
$ATTMODE
 70
     1
  9
$TEXTSIZE
 40
0.2
  9
$TRACEWID
 40
0.05
  9
$TEXTSTYLE
  7
STANDARD
  9
$CLAYER
  8
0
  9
$CELTYPE
  6
CONTINUOUS
  9
$CECOLOR
 62
   256
  9
$DIMSCALE
 40
1.0
  9
$DIMASZ
 40
0.18
  9
$DIMEXO
 40
0.0625
  9
$DIMDLI
 40
0.38
  9
$DIMRND
 40
0.0
  9
$DIMDLE
 40
0.0
  9
$DIMEXE
 40
0.18
  9
$DIMTP
 40
0.0
  9
$DIMTM
 40
0.0
  9
$DIMTXT
 40
0.18
  9
$DIMCEN
 40
0.09
  9
$DIMTSZ
 40
0.0
  9
$DIMTOL
 70
     0
  9
$DIMLIM
 70
     0
  9
$DIMTIH
 70
     1
  9
$DIMTOH
 70
     1
  9
$DIMSE1
 70
     0
  9
$DIMSE2
 70
     0
  9
$DIMTAD
 70
     0
  9
$DIMZIN
 70
     0
  9
$DIMBLK
  1

  9
$DIMASO
 70
     1
  9
$DIMSHO
 70
     1
  9
$DIMPOST
  1

  9
$DIMAPOST
  1

  9
$DIMALT
 70
     0
  9
$DIMALTD
 70
     2
  9
$DIMALTF
 40
25.4
  9
$DIMLFAC
 40
1.0
  9
$DIMTOFL
 70
     0
  9
$DIMTVP
 40
0.0
  9
$DIMTIX
 70
     0
  9
$DIMSOXD
 70
     0
  9
$DIMSAH
 70
     0
  9
$DIMBLK1
  1

  9
$DIMBLK2
  1

  9
$DIMSTYLE
  2
STANDARD
  9
$DIMCLRD
 70
     0
  9
$DIMCLRE
 70
     0
  9
$DIMCLRT
 70
     0
  9
$DIMTFAC
 40
1.0
  9
$DIMGAP
 40
0.09
  9
$LUNITS
 70
     2
  9
$LUPREC
 70
     4
  9
$AXISMODE
 70
     0
  9
$AXISUNIT
 10
0.0
 20
0.0
  9
$SKETCHINC
 40
0.1
  9
$FILLETRAD
 40
0.0
  9
$AUNITS
 70
     0
  9
$AUPREC
 70
     0
  9
$MENU
  1
acad
  9
$ELEVATION
 40
0.0
  9
$PELEVATION
 40
0.0
  9
$THICKNESS
 40
0.0
  9
$LIMCHECK
 70
     0
  9
$BLIPMODE
 70
     1
  9
$CHAMFERA
 40
0.0
  9
$CHAMFERB
 40
0.0
  9
$SKPOLY
 70
     0
  9
$TDCREATE
 40
0.000000000
  9
$TDUPDATE
 40
0.000000000
  9
$TDINDWG
 40
0.0000000000
  9
$TDUSRTIMER
 40
0.0000000000
  9
$USRTIMER
 70
     1
  9
$ANGBASE
 50
0.0
  9
$ANGDIR
 70
     0
  9
$PDMODE
 70
     0
  9
$PDSIZE
 40
0.0
  9
$PLINEWID
 40
0.0
  9
$COORDS
 70
     0
  9
$SPLFRAME
 70
     0
  9
$SPLINETYPE
 70
     6
  9
$SPLINESEGS
 70
     8
  9
$ATTDIA
 70
     0
  9
$ATTREQ
 70
     1
  9
$HANDLING
 70
     1
  9
$HANDSEED
  5
274
  9
$SURFTAB1
 70
     6
  9
$SURFTAB2
 70
     6
  9
$SURFTYPE
 70
     6
  9
$SURFU
 70
     6
  9
$SURFV
 70
     6
  9
$UCSNAME
  2

  9
$UCSORG
 10
0.0
 20
0.0
 30
0.0
  9
$UCSXDIR
 10
1.0
 20
0.0
 30
0.0
  9
$UCSYDIR
 10
0.0
 20
1.0
 30
0.0
  9
$PUCSNAME
  2

  9
$PUCSORG
 10
0.0
 20
0.0
 30
0.0
  9
$PUCSXDIR
 10
1.0
 20
0.0
 30
0.0
  9
$PUCSYDIR
 10
0.0
 20
1.0
 30
0.0
  9
$USERI1
 70
     0
  9
$USERI2
 70
     0
  9
$USERI3
 70
     0
  9
$USERI4
 70
     0
  9
$USERI5
 70
     0
  9
$USERR1
 40
0.0
  9
$USERR2
 40
0.0
  9
$USERR3
 40
0.0
  9
$USERR4
 40
0.0
  9
$USERR5
 40
0.0
  9
$WORLDVIEW
 70
     1
  9
$SHADEDGE
 70
     3
  9
$SHADEDIF
 70
    70
  9
$TILEMODE
 70
     1
  9
$MAXACTVP
 70
    16
  9
$PINSBASE
 10
0.0
 20
0.0
 30
0.0
  9
$PLIMCHECK
 70
     0
  9
$PEXTMIN
 10
1.000000E+20
 20
1.000000E+20
 30
1.000000E+20
  9
$PEXTMAX
 10
-1.000000E+20
 20
-1.000000E+20
 30
-1.000000E+20
  9
$PLIMMIN
 10
0.0
 20
0.0
  9
$PLIMMAX
 10
12.0
 20
9.0
  9
$UNITMODE
 70
     0
  9
$VISRETAIN
 70
     0
  9
$PLINEGEN
 70
     1
  9
$PSLTSCALE
 70
     0
  9
$TREEDEPTH
 70
  3020
  0
ENDSEC
  0
SECTION
  2
TABLES
  0
TABLE
  2
VPORT
 70
     1
  0
VPORT
  2
*ACTIVE
 70
     0
 10
0.0
 20
0.0
 11
1.0
 21
1.0
 12
6.591288
 22
4.579184
 13
0.0
 23
0.0
 14
1.0
 24
1.0
 15
0.0
 25
0.0
 16
0.0
 26
0.0
 36
1.0
 17
0.0
 27
0.0
 37
0.0
 40
9.158369
 41
0.688564
 42
50.0
 43
0.0
 44
0.0
 50
0.0
 51
0.0
 71
     0
 72
   100
 73
     1
 74
     1
 75
     0
 76
     0
 77
     0
 78
     0
  0
ENDTAB
  0
TABLE
  2
LTYPE
 70
     5
  0
LTYPE
  2
CONTINUOUS
 70
    64
  3
Solid line
 72
    65
 73
     0
 40
0.0
  0
LTYPE
  2
CENTER
 70
    64
  3
Center ____ _ ____ _ ____ _ ____ _ ____ _ ____
 72
    65
 73
     4
 40
50.8
 49
31.75
 49
-6.35
 49
6.35
 49
-6.35
  0
LTYPE
  2
HIDDEN
 70
    64
  3
Hidden __ __ __ __ __ __ __ __ __ __ __ __ __ __
 72
    65
 73
     2
 40
9.525
 49
6.35
 49
-3.175
  0
LTYPE
  2
CENTER2
 70
    64
  3
Center (.5x) ___ _ ___ _ ___ _ ___ _ ___ _ ___
 72
    65
 73
     4
 40
28.575
 49
19.05
 49
-3.175
 49
3.175
 49
-3.175
  0
LTYPE
  2
HIDDEN2
 70
    64
  3
Hidden (.5x) _ _ _ _ _ _ _ _ _ _ _ _ _ _ _ _ _
 72
    65
 73
     2
 40
4.7625
 49
3.175
 49
-1.5875
  0
ENDTAB
  0
TABLE
  2
LAYER
 70
     1
  0
LAYER
  2
0
 70
     0
 62
     7
  6
CONTINUOUS
  0
ENDTAB
  0
TABLE
  2
STYLE
 70
     1
  0
STYLE
  2
STANDARD
 70
     0
 40
0.0
 41
1.0
 50
0.0
 71
     0
 42
0.0
  3
txt
  4

  0
ENDTAB
  0
TABLE
  2
VIEW
 70
     0
  0
ENDTAB
  0
TABLE
  2
UCS
 70
     0
  0
ENDTAB
  0
TABLE
  2
APPID
 70
     1
  0
APPID
  2
ACAD
 70
     0
  0
ENDTAB
  0
TABLE
  2
DIMSTYLE
 70
     1
  0
DIMSTYLE
  2
STANDARD
 70
     0
  3

  4

  5

  6

  7

 40
1.0
 41
0.18
 42
0.0625
 43
0.38
 44
0.18
 45
0.0
 46
0.0
 47
0.0
 48
0.0
 71
     0
 72
     0
 73
     1
 74
     1
 75
     0
 76
     0
 77
     0
 78
     0
140
0.18
141
0.09
142
0.0
143
25.4
144
1.0
145
0.0
146
1.0
147
0.09
170
     0
171
     2
172
     0
173
     0
174
     0
175
     0
176
     0
177
     0
178
     0
  0
ENDTAB
  0
ENDSEC
  0
SECTION
  2
BLOCKS
  0
ENDSEC
  0
SECTION
  2
ENTITIES
  0
LINE
  8
0
  6
CONTINUOUS
 62
     7
  5
180
 10
-14.586614
 20
4.248031
 30
0.0
 11
-14.586614
 21
4.035433
 31
0.0
  0
LINE
  8
0
  6
CONTINUOUS
 62
     7
  5
181
 10
-14.692913
 20
4.248031
 30
0.0
 11
-14.586614
 21
4.248031
 31
0.0
  0
LINE
  8
0
  6
CONTINUOUS
 62
     7
  5
182
 10
-14.692913
 20
4.035433
 30
0.0
 11
-14.692913
 21
4.248031
 31
0.0
  0
LINE
  8
0
  6
CONTINUOUS
 62
     7
  5
183
 10
-15.649606
 20
4.248031
 30
0.0
 11
-14.692913
 21
4.248031
 31
0.0
  0
LINE
  8
0
  6
CONTINUOUS
 62
     7
  5
184
 10
-16.606299
 20
4.248031
 30
0.0
 11
-15.649606
 21
4.248031
 31
0.0
  0
LINE
  8
0
  6
CONTINUOUS
 62
     7
  5
185
 10
-16.606299
 20
4.248031
 30
0.0
 11
-16.606299
 21
4.035433
 31
0.0
  0
LINE
  8
0
  6
CONTINUOUS
 62
     7
  5
186
 10
-16.712598
 20
4.248031
 30
0.0
 11
-16.606299
 21
4.248031
 31
0.0
  0
LINE
  8
0
  6
CONTINUOUS
 62
     7
  5
187
 10
-16.712598
 20
4.035433
 30
0.0
 11
-16.712598
 21
4.248031
 31
0.0
  0
LINE
  8
0
  6
CONTINUOUS
 62
     7
  5
188
 10
-16.632874
 20
4.354331
 30
0.0
 11
-16.367126
 21
4.354331
 31
0.0
  0
LINE
  8
0
  6
CONTINUOUS
 62
     7
  5
189
 10
-14.932087
 20
4.354331
 30
0.0
 11
-14.666339
 21
4.354331
 31
0.0
  0
LINE
  8
0
  6
CONTINUOUS
 62
     7
  5
18A
 10
-14.586614
 20
6.161417
 30
0.0
 11
-16.712598
 21
6.161417
 31
0.0
  0
LINE
  8
0
  6
CONTINUOUS
 62
     7
  5
18B
 10
-14.374016
 20
5.73622
 30
0.0
 11
-16.925197
 21
5.73622
 31
0.0
  0
LINE
  8
0
  6
CONTINUOUS
 62
     7
  5
18C
 10
-14.374016
 20
5.523622
 30
0.0
 11
-16.925197
 21
5.523622
 31
0.0
  0
LINE
  8
0
  6
CONTINUOUS
 62
     7
  5
18D
 10
-14.586614
 20
5.098425
 30
0.0
 11
-16.712598
 21
5.098425
 31
0.0
  0
LINE
  8
0
  6
CONTINUOUS
 62
     7
  5
18E
 10
-17.938976
 20
4.123622
 30
0.0
 11
-17.992126
 21
4.123622
 31
0.0
  0
LINE
  8
0
  6
CONTINUOUS
 62
     7
  5
18F
 10
-17.992126
 20
4.036433
 30
0.0
 11
-17.992126
 21
4.123622
 31
0.0
  0
LINE
  8
0
  6
CONTINUOUS
 62
     7
  5
190
 10
-16.982283
 20
4.123622
 30
0.0
 11
-17.011811
 21
4.123622
 31
0.0
  0
LINE
  8
0
  6
CONTINUOUS
 62
     7
  5
191
 10
-17.540945
 20
4.123622
 30
0.0
 11
-17.938976
 21
4.123622
 31
0.0
  0
LINE
  8
0
  6
CONTINUOUS
 62
     7
  5
192
 10
-16.929134
 20
4.036433
 30
0.0
 11
-16.929134
 21
4.123622
 31
0.0
  0
LINE
  8
0
  6
CONTINUOUS
 62
     7
  5
193
 10
-16.929134
 20
4.123622
 30
0.0
 11
-16.982283
 21
4.123622
 31
0.0
  0
LINE
  8
0
  6
CONTINUOUS
 62
     7
  5
194
 10
-17.952264
 20
4.167717
 30
0.0
 11
-17.81939
 21
4.167717
 31
0.0
  0
LINE
  8
0
  6
CONTINUOUS
 62
     7
  5
195
 10
-17.011762
 20
4.167717
 30
0.0
 11
-16.968996
 21
4.167717
 31
0.0
  0
LINE
  8
0
  6
CONTINUOUS
 62
     7
  5
196
 10
-17.408415
 20
4.917323
 30
0.0
 11
-17.978515
 21
4.917323
 31
0.0
  0
LINE
  8
0
  6
CONTINUOUS
 62
     7
  5
197
 10
-16.942745
 20
4.917323
 30
0.0
 11
-17.14264
 21
4.917323
 31
0.0
  0
LINE
  8
0
  6
CONTINUOUS
 62
     7
  5
198
 10
-17.408406
 20
4.54252
 30
0.0
 11
-18.005413
 21
4.54252
 31
0.0
  0
LINE
  8
0
  6
CONTINUOUS
 62
     7
  5
199
 10
-16.915846
 20
4.54252
 30
0.0
 11
-17.143189
 21
4.54252
 31
0.0
  0
LINE
  8
0
  6
CONTINUOUS
 62
     7
  5
19A
 10
-17.408406
 20
4.366142
 30
0.0
 11
-18.005413
 21
4.366142
 31
0.0
  0
LINE
  8
0
  6
CONTINUOUS
 62
     7
  5
19B
 10
-16.915846
 20
4.366142
 30
0.0
 11
-17.143189
 21
4.366142
 31
0.0
  0
LINE
  8
0
  6
CONTINUOUS
 62
     7
  5
19C
 10
-17.40841
 20
4.785039
 30
0.0
 11
-17.992126
 21
4.785039
 31
0.0
  0
LINE
  8
0
  6
CONTINUOUS
 62
     7
  5
19D
 10
-16.929134
 20
4.785039
 30
0.0
 11
-17.142857
 21
4.785039
 31
0.0
  0
LINE
  8
0
  6
CONTINUOUS
 62
     7
  5
19E
 10
-17.540945
 20
4.3
 30
0.0
 11
-17.540945
 21
4.036433
 31
0.0
  0
LINE
  8
0
  6
CONTINUOUS
 62
     7
  5
19F
 10
-17.011811
 20
4.3
 30
0.0
 11
-17.011811
 21
4.036433
 31
0.0
  0
LINE
  8
0
  6
CONTINUOUS
 62
     7
  5
1A0
 10
-17.174695
 20
4.3
 30
0.0
 11
-17.011811
 21
4.3
 31
0.0
  0
LINE
  8
0
  6
CONTINUOUS
 62
     7
  5
1A1
 10
-17.174695
 20
4.3
 30
0.0
 11
-17.178803
 21
4.294321
 31
0.0
  0
LINE
  8
0
  6
CONTINUOUS
 62
     7
  5
1A2
 10
-17.178803
 20
4.294321
 30
0.0
 11
-17.183073
 21
4.288964
 31
0.0
  0
LINE
  8
0
  6
CONTINUOUS
 62
     7
  5
1A3
 10
-17.183073
 20
4.288964
 30
0.0
 11
-17.18745
 21
4.28397
 31
0.0
  0
LINE
  8
0
  6
CONTINUOUS
 62
     7
  5
1A4
 10
-17.18745
 20
4.28397
 30
0.0
 11
-17.192125
 21
4.279119
 31
0.0
  0
LINE
  8
0
  6
CONTINUOUS
 62
     7
  5
1A5
 10
-17.192125
 20
4.279119
 30
0.0
 11
-17.197194
 21
4.27436
 31
0.0
  0
LINE
  8
0
  6
CONTINUOUS
 62
     7
  5
1A6
 10
-17.197194
 20
4.27436
 30
0.0
 11
-17.202607
 21
4.269784
 31
0.0
  0
LINE
  8
0
  6
CONTINUOUS
 62
     7
  5
1A7
 10
-17.202607
 20
4.269784
 30
0.0
 11
-17.208302
 21
4.265479
 31
0.0
  0
LINE
  8
0
  6
CONTINUOUS
 62
     7
  5
1A8
 10
-17.208302
 20
4.265479
 30
0.0
 11
-17.214201
 21
4.261514
 31
0.0
  0
LINE
  8
0
  6
CONTINUOUS
 62
     7
  5
1A9
 10
-17.214201
 20
4.261514
 30
0.0
 11
-17.220215
 21
4.257947
 31
0.0
  0
LINE
  8
0
  6
CONTINUOUS
 62
     7
  5
1AA
 10
-17.220215
 20
4.257947
 30
0.0
 11
-17.22625
 21
4.254811
 31
0.0
  0
LINE
  8
0
  6
CONTINUOUS
 62
     7
  5
1AB
 10
-17.22625
 20
4.254811
 30
0.0
 11
-17.232289
 21
4.252088
 31
0.0
  0
LINE
  8
0
  6
CONTINUOUS
 62
     7
  5
1AC
 10
-17.232289
 20
4.252088
 30
0.0
 11
-17.238671
 21
4.249637
 31
0.0
  0
LINE
  8
0
  6
CONTINUOUS
 62
     7
  5
1AD
 10
-17.238671
 20
4.249637
 30
0.0
 11
-17.24537
 21
4.24751
 31
0.0
  0
LINE
  8
0
  6
CONTINUOUS
 62
     7
  5
1AE
 10
-17.24537
 20
4.24751
 30
0.0
 11
-17.252279
 21
4.245775
 31
0.0
  0
LINE
  8
0
  6
CONTINUOUS
 62
     7
  5
1AF
 10
-17.252279
 20
4.245775
 30
0.0
 11
-17.259281
 21
4.244474
 31
0.0
  0
LINE
  8
0
  6
CONTINUOUS
 62
     7
  5
1B0
 10
-17.259281
 20
4.244474
 30
0.0
 11
-17.26625
 21
4.243624
 31
0.0
  0
LINE
  8
0
  6
CONTINUOUS
 62
     7
  5
1B1
 10
-17.26625
 20
4.243624
 30
0.0
 11
-17.273065
 21
4.243216
 31
0.0
  0
LINE
  8
0
  6
CONTINUOUS
 62
     7
  5
1B2
 10
-17.273065
 20
4.243216
 30
0.0
 11
-17.279691
 21
4.243216
 31
0.0
  0
LINE
  8
0
  6
CONTINUOUS
 62
     7
  5
1B3
 10
-17.279691
 20
4.243216
 30
0.0
 11
-17.286506
 21
4.243624
 31
0.0
  0
LINE
  8
0
  6
CONTINUOUS
 62
     7
  5
1B4
 10
-17.286506
 20
4.243624
 30
0.0
 11
-17.293475
 21
4.244474
 31
0.0
  0
LINE
  8
0
  6
CONTINUOUS
 62
     7
  5
1B5
 10
-17.293475
 20
4.244474
 30
0.0
 11
-17.300477
 21
4.245775
 31
0.0
  0
LINE
  8
0
  6
CONTINUOUS
 62
     7
  5
1B6
 10
-17.300477
 20
4.245775
 30
0.0
 11
-17.307386
 21
4.24751
 31
0.0
  0
LINE
  8
0
  6
CONTINUOUS
 62
     7
  5
1B7
 10
-17.307386
 20
4.24751
 30
0.0
 11
-17.314085
 21
4.249637
 31
0.0
  0
LINE
  8
0
  6
CONTINUOUS
 62
     7
  5
1B8
 10
-17.314085
 20
4.249637
 30
0.0
 11
-17.320467
 21
4.252088
 31
0.0
  0
LINE
  8
0
  6
CONTINUOUS
 62
     7
  5
1B9
 10
-17.320467
 20
4.252088
 30
0.0
 11
-17.326506
 21
4.254811
 31
0.0
  0
LINE
  8
0
  6
CONTINUOUS
 62
     7
  5
1BA
 10
-17.326506
 20
4.254811
 30
0.0
 11
-17.332541
 21
4.257947
 31
0.0
  0
LINE
  8
0
  6
CONTINUOUS
 62
     7
  5
1BB
 10
-17.332541
 20
4.257947
 30
0.0
 11
-17.338555
 21
4.261514
 31
0.0
  0
LINE
  8
0
  6
CONTINUOUS
 62
     7
  5
1BC
 10
-17.338555
 20
4.261514
 30
0.0
 11
-17.344454
 21
4.265479
 31
0.0
  0
LINE
  8
0
  6
CONTINUOUS
 62
     7
  5
1BD
 10
-17.344454
 20
4.265479
 30
0.0
 11
-17.350149
 21
4.269784
 31
0.0
  0
LINE
  8
0
  6
CONTINUOUS
 62
     7
  5
1BE
 10
-17.350149
 20
4.269784
 30
0.0
 11
-17.355562
 21
4.27436
 31
0.0
  0
LINE
  8
0
  6
CONTINUOUS
 62
     7
  5
1BF
 10
-17.355562
 20
4.27436
 30
0.0
 11
-17.360631
 21
4.279119
 31
0.0
  0
LINE
  8
0
  6
CONTINUOUS
 62
     7
  5
1C0
 10
-17.360631
 20
4.279119
 30
0.0
 11
-17.365306
 21
4.28397
 31
0.0
  0
LINE
  8
0
  6
CONTINUOUS
 62
     7
  5
1C1
 10
-17.365306
 20
4.28397
 30
0.0
 11
-17.369683
 21
4.288964
 31
0.0
  0
LINE
  8
0
  6
CONTINUOUS
 62
     7
  5
1C2
 10
-17.369683
 20
4.288964
 30
0.0
 11
-17.373953
 21
4.294321
 31
0.0
  0
LINE
  8
0
  6
CONTINUOUS
 62
     7
  5
1C3
 10
-17.373953
 20
4.294321
 30
0.0
 11
-17.378061
 21
4.3
 31
0.0
  0
LINE
  8
0
  6
CONTINUOUS
 62
     7
  5
1C4
 10
-17.540945
 20
4.3
 30
0.0
 11
-17.378061
 21
4.3
 31
0.0
  0
LINE
  8
0
  6
CONTINUOUS
 62
     7
  5
1C5
 10
-1.2369
 20
4.3
 30
0.0
 11
-1.241008
 21
4.294321
 31
0.0
  0
LINE
  8
0
  6
CONTINUOUS
 62
     7
  5
1C6
 10
-1.241008
 20
4.294321
 30
0.0
 11
-1.245278
 21
4.288964
 31
0.0
  0
LINE
  8
0
  6
CONTINUOUS
 62
     7
  5
1C7
 10
-1.245278
 20
4.288964
 30
0.0
 11
-1.249654
 21
4.28397
 31
0.0
  0
LINE
  8
0
  6
CONTINUOUS
 62
     7
  5
1C8
 10
-1.249654
 20
4.28397
 30
0.0
 11
-1.25433
 21
4.279119
 31
0.0
  0
LINE
  8
0
  6
CONTINUOUS
 62
     7
  5
1C9
 10
-1.25433
 20
4.279119
 30
0.0
 11
-1.259398
 21
4.27436
 31
0.0
  0
LINE
  8
0
  6
CONTINUOUS
 62
     7
  5
1CA
 10
-1.259398
 20
4.27436
 30
0.0
 11
-1.264812
 21
4.269784
 31
0.0
  0
LINE
  8
0
  6
CONTINUOUS
 62
     7
  5
1CB
 10
-1.264812
 20
4.269784
 30
0.0
 11
-1.270507
 21
4.265479
 31
0.0
  0
LINE
  8
0
  6
CONTINUOUS
 62
     7
  5
1CC
 10
-1.270507
 20
4.265479
 30
0.0
 11
-1.276405
 21
4.261514
 31
0.0
  0
LINE
  8
0
  6
CONTINUOUS
 62
     7
  5
1CD
 10
-1.276405
 20
4.261514
 30
0.0
 11
-1.28242
 21
4.257947
 31
0.0
  0
LINE
  8
0
  6
CONTINUOUS
 62
     7
  5
1CE
 10
-1.28242
 20
4.257947
 30
0.0
 11
-1.288455
 21
4.254811
 31
0.0
  0
LINE
  8
0
  6
CONTINUOUS
 62
     7
  5
1CF
 10
-1.288455
 20
4.254811
 30
0.0
 11
-1.294494
 21
4.252088
 31
0.0
  0
LINE
  8
0
  6
CONTINUOUS
 62
     7
  5
1D0
 10
-1.294494
 20
4.252088
 30
0.0
 11
-1.300876
 21
4.249637
 31
0.0
  0
LINE
  8
0
  6
CONTINUOUS
 62
     7
  5
1D1
 10
-1.300876
 20
4.249637
 30
0.0
 11
-1.307575
 21
4.24751
 31
0.0
  0
LINE
  8
0
  6
CONTINUOUS
 62
     7
  5
1D2
 10
-1.307575
 20
4.24751
 30
0.0
 11
-1.314484
 21
4.245775
 31
0.0
  0
LINE
  8
0
  6
CONTINUOUS
 62
     7
  5
1D3
 10
-1.314484
 20
4.245775
 30
0.0
 11
-1.321485
 21
4.244474
 31
0.0
  0
LINE
  8
0
  6
CONTINUOUS
 62
     7
  5
1D4
 10
-1.321485
 20
4.244474
 30
0.0
 11
-1.328455
 21
4.243624
 31
0.0
  0
LINE
  8
0
  6
CONTINUOUS
 62
     7
  5
1D5
 10
-1.328455
 20
4.243624
 30
0.0
 11
-1.33527
 21
4.243216
 31
0.0
  0
LINE
  8
0
  6
CONTINUOUS
 62
     7
  5
1D6
 10
-1.33527
 20
4.243216
 30
0.0
 11
-1.341896
 21
4.243216
 31
0.0
  0
LINE
  8
0
  6
CONTINUOUS
 62
     7
  5
1D7
 10
-1.341896
 20
4.243216
 30
0.0
 11
-1.34871
 21
4.243624
 31
0.0
  0
LINE
  8
0
  6
CONTINUOUS
 62
     7
  5
1D8
 10
-1.34871
 20
4.243624
 30
0.0
 11
-1.35568
 21
4.244474
 31
0.0
  0
LINE
  8
0
  6
CONTINUOUS
 62
     7
  5
1D9
 10
-1.35568
 20
4.244474
 30
0.0
 11
-1.362681
 21
4.245775
 31
0.0
  0
LINE
  8
0
  6
CONTINUOUS
 62
     7
  5
1DA
 10
-1.362681
 20
4.245775
 30
0.0
 11
-1.369591
 21
4.24751
 31
0.0
  0
LINE
  8
0
  6
CONTINUOUS
 62
     7
  5
1DB
 10
-1.369591
 20
4.24751
 30
0.0
 11
-1.37629
 21
4.249637
 31
0.0
  0
LINE
  8
0
  6
CONTINUOUS
 62
     7
  5
1DC
 10
-1.37629
 20
4.249637
 30
0.0
 11
-1.382672
 21
4.252088
 31
0.0
  0
LINE
  8
0
  6
CONTINUOUS
 62
     7
  5
1DD
 10
-1.382672
 20
4.252088
 30
0.0
 11
-1.388711
 21
4.254811
 31
0.0
  0
LINE
  8
0
  6
CONTINUOUS
 62
     7
  5
1DE
 10
-1.388711
 20
4.254811
 30
0.0
 11
-1.394745
 21
4.257947
 31
0.0
  0
LINE
  8
0
  6
CONTINUOUS
 62
     7
  5
1DF
 10
-1.394745
 20
4.257947
 30
0.0
 11
-1.40076
 21
4.261514
 31
0.0
  0
LINE
  8
0
  6
CONTINUOUS
 62
     7
  5
1E0
 10
-1.40076
 20
4.261514
 30
0.0
 11
-1.406659
 21
4.265479
 31
0.0
  0
LINE
  8
0
  6
CONTINUOUS
 62
     7
  5
1E1
 10
-1.406659
 20
4.265479
 30
0.0
 11
-1.412353
 21
4.269784
 31
0.0
  0
LINE
  8
0
  6
CONTINUOUS
 62
     7
  5
1E2
 10
-1.412353
 20
4.269784
 30
0.0
 11
-1.417767
 21
4.27436
 31
0.0
  0
LINE
  8
0
  6
CONTINUOUS
 62
     7
  5
1E3
 10
-1.417767
 20
4.27436
 30
0.0
 11
-1.422835
 21
4.279119
 31
0.0
  0
LINE
  8
0
  6
CONTINUOUS
 62
     7
  5
1E4
 10
-1.422835
 20
4.279119
 30
0.0
 11
-1.427511
 21
4.28397
 31
0.0
  0
LINE
  8
0
  6
CONTINUOUS
 62
     7
  5
1E5
 10
-1.427511
 20
4.28397
 30
0.0
 11
-1.431887
 21
4.288964
 31
0.0
  0
LINE
  8
0
  6
CONTINUOUS
 62
     7
  5
1E6
 10
-1.431887
 20
4.288964
 30
0.0
 11
-1.436158
 21
4.294321
 31
0.0
  0
LINE
  8
0
  6
CONTINUOUS
 62
     7
  5
1E7
 10
-1.436158
 20
4.294321
 30
0.0
 11
-1.440265
 21
4.3
 31
0.0
  0
LINE
  8
0
  6
CONTINUOUS
 62
     7
  5
1E8
 10
-1.60315
 20
4.3
 30
0.0
 11
-1.440265
 21
4.3
 31
0.0
  0
LINE
  8
0
  6
CONTINUOUS
 62
     7
  5
1E9
 10
-1.60315
 20
4.3
 30
0.0
 11
-1.60315
 21
4.035433
 31
0.0
  0
LINE
  8
0
  6
CONTINUOUS
 62
     7
  5
1EA
 10
-1.074016
 20
4.3
 30
0.0
 11
-1.074016
 21
4.035433
 31
0.0
  0
LINE
  8
0
  6
CONTINUOUS
 62
     7
  5
1EB
 10
-1.2369
 20
4.3
 30
0.0
 11
-1.074016
 21
4.3
 31
0.0
  0
LINE
  8
0
  6
CONTINUOUS
 62
     7
  5
1EC
 10
0.551181
 20
4.036433
 30
0.0
 11
0.07874
 21
4.036433
 31
0.0
  0
LINE
  8
0
  6
CONTINUOUS
 62
     7
  5
1ED
 10
3.425197
 20
-0.19685
 30
0.0
 11
1.062992
 21
-0.19685
 31
0.0
  0
ARC
  8
0
  6
CONTINUOUS
 62
     7
  5
1EE
 10
3.425197
 20
0.0
 30
0.0
 40
0.19685
 50
270.0
 51
90.0
  0
ARC
  8
0
  6
CONTINUOUS
 62
     7
  5
1EF
 10
1.062992
 20
0.0
 30
0.0
 40
0.19685
 50
90.0
 51
270.0
  0
LINE
  8
0
  6
CONTINUOUS
 62
     7
  5
1F0
 10
1.062992
 20
0.19685
 30
0.0
 11
3.425197
 21
0.19685
 31
0.0
  0
LINE
  8
0
  6
CONTINUOUS
 62
     7
  5
1F1
 10
-20.531496
 20
2.227559
 30
0.0
 11
-20.531496
 21
2.631102
 31
0.0
  0
LINE
  8
0
  6
CONTINUOUS
 62
     7
  5
1F2
 10
-20.531496
 20
-3.833661
 30
0.0
 11
-20.531496
 21
-3.430118
 31
0.0
  0
LINE
  8
0
  6
CONTINUOUS
 62
     7
  5
1F3
 10
0.0
 20
-4.035433
 30
0.0
 11
0.0
 21
-4.036433
 31
0.0
  0
LINE
  8
0
  6
CONTINUOUS
 62
     7
  5
1F4
 10
0.0
 20
2.455606
 30
0.0
 11
0.0
 21
2.441437
 31
0.0
  0
LINE
  8
0
  6
CONTINUOUS
 62
     7
  5
1F5
 10
0.0
 20
2.441437
 30
0.0
 11
0.0
 21
-2.441437
 31
0.0
  0
LINE
  8
0
  6
CONTINUOUS
 62
     7
  5
1F6
 10
0.0
 20
-2.441437
 30
0.0
 11
0.0
 21
-2.455606
 31
0.0
  0
LINE
  8
0
  6
CONTINUOUS
 62
     7
  5
1F7
 10
0.0
 20
4.036433
 30
0.0
 11
0.0
 21
4.035433
 31
0.0
  0
LINE
  8
0
  6
CONTINUOUS
 62
     7
  5
1F8
 10
-1.003937
 20
-4.035433
 30
0.0
 11
-1.003937
 21
-4.036433
 31
0.0
  0
LINE
  8
0
  6
CONTINUOUS
 62
     7
  5
1F9
 10
-1.003937
 20
-2.441437
 30
0.0
 11
-1.003937
 21
-2.455606
 31
0.0
  0
LINE
  8
0
  6
CONTINUOUS
 62
     7
  5
1FA
 10
-1.003937
 20
2.441437
 30
0.0
 11
-1.003937
 21
-2.441437
 31
0.0
  0
LINE
  8
0
  6
CONTINUOUS
 62
     7
  5
1FB
 10
-1.003937
 20
2.455606
 30
0.0
 11
-1.003937
 21
2.441437
 31
0.0
  0
LINE
  8
0
  6
CONTINUOUS
 62
     7
  5
1FC
 10
0.0
 20
4.036433
 30
0.0
 11
-1.003937
 21
4.036433
 31
0.0
  0
LINE
  8
0
  6
CONTINUOUS
 62
     7
  5
1FD
 10
-1.003937
 20
4.036433
 30
0.0
 11
-1.003937
 21
4.035433
 31
0.0
  0
LINE
  8
0
  6
CONTINUOUS
 62
     7
  5
1FE
 10
0.0
 20
2.542323
 30
0.0
 11
-1.003937
 21
2.542323
 31
0.0
  0
LINE
  8
0
  6
CONTINUOUS
 62
     7
  5
1FF
 10
0.0
 20
-2.542323
 30
0.0
 11
-1.003937
 21
-2.542323
 31
0.0
  0
LINE
  8
0
  6
CONTINUOUS
 62
     7
  5
200
 10
0.0
 20
-4.036433
 30
0.0
 11
-1.003937
 21
-4.036433
 31
0.0
  0
LINE
  8
0
  6
CONTINUOUS
 62
     7
  5
201
 10
-1.003937
 20
-2.623031
 30
0.0
 11
-1.003937
 21
-2.455606
 31
0.0
  0
LINE
  8
0
  6
CONTINUOUS
 62
     7
  5
202
 10
-1.003937
 20
-2.824803
 30
0.0
 11
-1.003937
 21
-2.623031
 31
0.0
  0
LINE
  8
0
  6
CONTINUOUS
 62
     7
  5
203
 10
-1.003937
 20
-3.430118
 30
0.0
 11
-1.003937
 21
-2.824803
 31
0.0
  0
LINE
  8
0
  6
CONTINUOUS
 62
     7
  5
204
 10
-1.003937
 20
-3.833661
 30
0.0
 11
-1.003937
 21
-3.430118
 31
0.0
  0
LINE
  8
0
  6
CONTINUOUS
 62
     7
  5
205
 10
-1.003937
 20
-4.035433
 30
0.0
 11
-1.003937
 21
-3.833661
 31
0.0
  0
LINE
  8
0
  6
CONTINUOUS
 62
     7
  5
206
 10
-16.846457
 20
-4.035433
 30
0.0
 11
-1.003937
 21
-4.035433
 31
0.0
  0
LINE
  8
0
  6
CONTINUOUS
 62
     7
  5
207
 10
-16.846457
 20
-2.824803
 30
0.0
 11
-1.003937
 21
-2.824803
 31
0.0
  0
LINE
  8
0
  6
CONTINUOUS
 62
     7
  5
208
 10
-1.003937
 20
2.455606
 30
0.0
 11
-1.003937
 21
2.623031
 31
0.0
  0
LINE
  8
0
  6
CONTINUOUS
 62
     7
  5
209
 10
-1.003937
 20
2.623031
 30
0.0
 11
-1.003937
 21
2.824803
 31
0.0
  0
LINE
  8
0
  6
CONTINUOUS
 62
     7
  5
20A
 10
-16.846457
 20
2.824803
 30
0.0
 11
-1.003937
 21
2.824803
 31
0.0
  0
LINE
  8
0
  6
CONTINUOUS
 62
     7
  5
20B
 10
-1.003937
 20
2.824803
 30
0.0
 11
-1.003937
 21
3.430118
 31
0.0
  0
LINE
  8
0
  6
CONTINUOUS
 62
     7
  5
20C
 10
-1.003937
 20
3.430118
 30
0.0
 11
-1.003937
 21
3.833661
 31
0.0
  0
LINE
  8
0
  6
CONTINUOUS
 62
     7
  5
20D
 10
-1.003937
 20
3.833661
 30
0.0
 11
-1.003937
 21
4.035433
 31
0.0
  0
LINE
  8
0
  6
CONTINUOUS
 62
     7
  5
20E
 10
-16.846457
 20
4.035433
 30
0.0
 11
-1.003937
 21
4.035433
 31
0.0
  0
LINE
  8
0
  6
CONTINUOUS
 62
     7
  5
20F
 10
-20.531496
 20
-3.833661
 30
0.0
 11
-20.531496
 21
-4.035433
 31
0.0
  0
LINE
  8
0
  6
CONTINUOUS
 62
     7
  5
210
 10
-20.531496
 20
2.227559
 30
0.0
 11
-20.531496
 21
-3.430118
 31
0.0
  0
LINE
  8
0
  6
CONTINUOUS
 62
     7
  5
211
 10
-20.531496
 20
4.035433
 30
0.0
 11
-20.531496
 21
2.631102
 31
0.0
  0
LINE
  8
0
  6
CONTINUOUS
 62
     7
  5
212
 10
-20.350394
 20
-4.035433
 30
0.0
 11
-20.531496
 21
-4.035433
 31
0.0
  0
LINE
  8
0
  6
CONTINUOUS
 62
     7
  5
213
 10
-20.531496
 20
4.035433
 30
0.0
 11
-20.350394
 21
4.035433
 31
0.0
  0
LINE
  8
0
  6
CONTINUOUS
 62
     7
  5
214
 10
-20.350394
 20
-4.035433
 30
0.0
 11
-20.350394
 21
-3.833661
 31
0.0
  0
LINE
  8
0
  6
CONTINUOUS
 62
     7
  5
215
 10
-20.350394
 20
-3.833661
 30
0.0
 11
-20.350394
 21
-3.430118
 31
0.0
  0
LINE
  8
0
  6
CONTINUOUS
 62
     7
  5
216
 10
-20.350394
 20
-3.430118
 30
0.0
 11
-20.350394
 21
-2.824803
 31
0.0
  0
LINE
  8
0
  6
CONTINUOUS
 62
     7
  5
217
 10
-20.350394
 20
-2.824803
 30
0.0
 11
-20.350394
 21
-2.623031
 31
0.0
  0
LINE
  8
0
  6
CONTINUOUS
 62
     7
  5
218
 10
-20.350394
 20
-2.623031
 30
0.0
 11
-20.350394
 21
2.623031
 31
0.0
  0
LINE
  8
0
  6
CONTINUOUS
 62
     7
  5
219
 10
-20.350394
 20
2.623031
 30
0.0
 11
-20.350394
 21
2.824803
 31
0.0
  0
LINE
  8
0
  6
CONTINUOUS
 62
     7
  5
21A
 10
-20.350394
 20
2.824803
 30
0.0
 11
-20.350394
 21
3.430118
 31
0.0
  0
LINE
  8
0
  6
CONTINUOUS
 62
     7
  5
21B
 10
-20.350394
 20
3.430118
 30
0.0
 11
-20.350394
 21
3.833661
 31
0.0
  0
LINE
  8
0
  6
CONTINUOUS
 62
     7
  5
21C
 10
-20.350394
 20
3.833661
 30
0.0
 11
-20.350394
 21
4.035433
 31
0.0
  0
LINE
  8
0
  6
CONTINUOUS
 62
     7
  5
21D
 10
-20.350394
 20
-4.035433
 30
0.0
 11
-20.07874
 21
-4.035433
 31
0.0
  0
LINE
  8
0
  6
CONTINUOUS
 62
     7
  5
21E
 10
-20.350394
 20
-2.824803
 30
0.0
 11
-20.07874
 21
-2.824803
 31
0.0
  0
LINE
  8
0
  6
CONTINUOUS
 62
     7
  5
21F
 10
-20.350394
 20
2.824803
 30
0.0
 11
-20.07874
 21
2.824803
 31
0.0
  0
LINE
  8
0
  6
CONTINUOUS
 62
     7
  5
220
 10
-20.350394
 20
4.035433
 30
0.0
 11
-20.07874
 21
4.035433
 31
0.0
  0
LINE
  8
0
  6
CONTINUOUS
 62
     7
  5
221
 10
-20.07874
 20
-4.036433
 30
0.0
 11
-16.846457
 21
-4.036433
 31
0.0
  0
LINE
  8
0
  6
CONTINUOUS
 62
     7
  5
222
 10
-16.846457
 20
-4.036433
 30
0.0
 11
-16.846457
 21
-3.834661
 31
0.0
  0
LINE
  8
0
  6
CONTINUOUS
 62
     7
  5
223
 10
-20.07874
 20
-4.036433
 30
0.0
 11
-20.07874
 21
-3.834661
 31
0.0
  0
LINE
  8
0
  6
CONTINUOUS
 62
     7
  5
224
 10
-16.846457
 20
-3.834661
 30
0.0
 11
-16.846457
 21
-3.431118
 31
0.0
  0
LINE
  8
0
  6
CONTINUOUS
 62
     7
  5
225
 10
-20.07874
 20
-3.834661
 30
0.0
 11
-20.07874
 21
-3.431118
 31
0.0
  0
LINE
  8
0
  6
CONTINUOUS
 62
     7
  5
226
 10
-16.846457
 20
-3.431118
 30
0.0
 11
-16.846457
 21
-2.825803
 31
0.0
  0
LINE
  8
0
  6
CONTINUOUS
 62
     7
  5
227
 10
-20.07874
 20
-3.431118
 30
0.0
 11
-20.07874
 21
-2.825803
 31
0.0
  0
LINE
  8
0
  6
CONTINUOUS
 62
     7
  5
228
 10
-20.07874
 20
-2.825803
 30
0.0
 11
-16.846457
 21
-2.825803
 31
0.0
  0
LINE
  8
0
  6
CONTINUOUS
 62
     7
  5
229
 10
-16.846457
 20
-2.825803
 30
0.0
 11
-16.846457
 21
-2.624031
 31
0.0
  0
LINE
  8
0
  6
CONTINUOUS
 62
     7
  5
22A
 10
-20.07874
 20
-2.825803
 30
0.0
 11
-20.07874
 21
-2.624031
 31
0.0
  0
LINE
  8
0
  6
CONTINUOUS
 62
     7
  5
22B
 10
-16.846457
 20
-2.624031
 30
0.0
 11
-16.846457
 21
2.624031
 31
0.0
  0
LINE
  8
0
  6
CONTINUOUS
 62
     7
  5
22C
 10
-20.07874
 20
-2.624031
 30
0.0
 11
-20.07874
 21
2.624031
 31
0.0
  0
LINE
  8
0
  6
CONTINUOUS
 62
     7
  5
22D
 10
-16.846457
 20
2.624031
 30
0.0
 11
-16.846457
 21
2.825803
 31
0.0
  0
LINE
  8
0
  6
CONTINUOUS
 62
     7
  5
22E
 10
-20.07874
 20
2.825803
 30
0.0
 11
-16.846457
 21
2.825803
 31
0.0
  0
LINE
  8
0
  6
CONTINUOUS
 62
     7
  5
22F
 10
-20.07874
 20
2.624031
 30
0.0
 11
-20.07874
 21
2.825803
 31
0.0
  0
LINE
  8
0
  6
CONTINUOUS
 62
     7
  5
230
 10
-16.846457
 20
2.825803
 30
0.0
 11
-16.846457
 21
3.431118
 31
0.0
  0
LINE
  8
0
  6
CONTINUOUS
 62
     7
  5
231
 10
-20.07874
 20
2.825803
 30
0.0
 11
-20.07874
 21
3.431118
 31
0.0
  0
LINE
  8
0
  6
CONTINUOUS
 62
     7
  5
232
 10
-16.846457
 20
3.431118
 30
0.0
 11
-16.846457
 21
3.834661
 31
0.0
  0
LINE
  8
0
  6
CONTINUOUS
 62
     7
  5
233
 10
-20.07874
 20
3.431118
 30
0.0
 11
-20.07874
 21
3.834661
 31
0.0
  0
LINE
  8
0
  6
CONTINUOUS
 62
     7
  5
234
 10
-16.846457
 20
3.834661
 30
0.0
 11
-16.846457
 21
4.036433
 31
0.0
  0
LINE
  8
0
  6
CONTINUOUS
 62
     7
  5
235
 10
-20.07874
 20
4.036433
 30
0.0
 11
-16.846457
 21
4.036433
 31
0.0
  0
LINE
  8
0
  6
CONTINUOUS
 62
     7
  5
236
 10
-20.07874
 20
3.834661
 30
0.0
 11
-20.07874
 21
4.036433
 31
0.0
  0
LINE
  8
0
  6
CONTINUOUS
 62
     7
  5
237
 10
0.0
 20
-4.035433
 30
0.0
 11
0.0
 21
-3.026575
 31
0.0
  0
LINE
  8
0
  6
CONTINUOUS
 62
     7
  5
238
 10
0.0
 20
-3.026575
 30
0.0
 11
0.0
 21
-2.455606
 31
0.0
  0
LINE
  8
0
  6
CONTINUOUS
 62
     7
  5
239
 10
0.0
 20
2.455606
 30
0.0
 11
0.0
 21
3.026575
 31
0.0
  0
LINE
  8
0
  6
CONTINUOUS
 62
     7
  5
23A
 10
0.0
 20
3.026575
 30
0.0
 11
0.0
 21
4.035433
 31
0.0
  0
LINE
  8
0
  6
CONTINUOUS
 62
     7
  5
23B
 10
3.744094
 20
-0.748031
 30
0.0
 11
3.744094
 21
0.748031
 31
0.0
  0
LINE
  8
0
  6
CONTINUOUS
 62
     7
  5
23C
 10
3.818898
 20
-0.673228
 30
0.0
 11
3.818898
 21
0.673228
 31
0.0
  0
LINE
  8
0
  6
CONTINUOUS
 62
     7
  5
23D
 10
0.826772
 20
3.543307
 30
0.0
 11
0.826772
 21
-3.543307
 31
0.0
  0
LINE
  8
0
  6
CONTINUOUS
 62
     7
  5
23E
 10
0.669291
 20
-3.026575
 30
0.0
 11
0.0
 21
-3.026575
 31
0.0
  0
LINE
  8
0
  6
CONTINUOUS
 62
     7
  5
23F
 10
0.669291
 20
3.026575
 30
0.0
 11
0.669291
 21
-3.026575
 31
0.0
  0
LINE
  8
0
  6
CONTINUOUS
 62
     7
  5
240
 10
0.0
 20
3.026575
 30
0.0
 11
0.669291
 21
3.026575
 31
0.0
  0
LINE
  8
0
  6
CONTINUOUS
 62
     7
  5
241
 10
0.669291
 20
4.035433
 30
0.0
 11
0.669291
 21
3.026575
 31
0.0
  0
LINE
  8
0
  6
CONTINUOUS
 62
     7
  5
242
 10
0.669291
 20
4.035433
 30
0.0
 11
0.0
 21
4.035433
 31
0.0
  0
LINE
  8
0
  6
CONTINUOUS
 62
     7
  5
243
 10
0.0
 20
-4.035433
 30
0.0
 11
0.669291
 21
-4.035433
 31
0.0
  0
LINE
  8
0
  6
CONTINUOUS
 62
     7
  5
244
 10
0.669291
 20
-3.026575
 30
0.0
 11
0.669291
 21
-4.035433
 31
0.0
  0
LINE
  8
0
  6
CONTINUOUS
 62
     7
  5
245
 10
-16.632874
 20
4.354331
 30
0.0
 11
-16.632874
 21
4.248031
 31
0.0
  0
LINE
  8
0
  6
CONTINUOUS
 62
     7
  5
246
 10
-16.367126
 20
4.248031
 30
0.0
 11
-16.367126
 21
4.354331
 31
0.0
  0
LINE
  8
0
  6
CONTINUOUS
 62
     7
  5
247
 10
-14.932087
 20
4.354331
 30
0.0
 11
-14.932087
 21
4.248031
 31
0.0
  0
LINE
  8
0
  6
CONTINUOUS
 62
     7
  5
248
 10
-14.666339
 20
4.248031
 30
0.0
 11
-14.666339
 21
4.354331
 31
0.0
  0
LINE
  8
0
  6
CONTINUOUS
 62
     7
  5
249
 10
-14.586614
 20
5.73622
 30
0.0
 11
-14.586614
 21
6.161417
 31
0.0
  0
LINE
  8
0
  6
CONTINUOUS
 62
     7
  5
24A
 10
-16.712598
 20
6.161417
 30
0.0
 11
-16.712598
 21
5.73622
 31
0.0
  0
LINE
  8
0
  6
CONTINUOUS
 62
     7
  5
24B
 10
-14.374016
 20
5.523622
 30
0.0
 11
-14.374016
 21
5.73622
 31
0.0
  0
LINE
  8
0
  6
CONTINUOUS
 62
     7
  5
24C
 10
-16.925197
 20
5.73622
 30
0.0
 11
-16.925197
 21
5.523622
 31
0.0
  0
LINE
  8
0
  6
CONTINUOUS
 62
     7
  5
24D
 10
-14.586614
 20
5.098425
 30
0.0
 11
-14.374016
 21
5.523622
 31
0.0
  0
LINE
  8
0
  6
CONTINUOUS
 62
     7
  5
24E
 10
-16.925197
 20
5.523622
 30
0.0
 11
-16.712598
 21
5.098425
 31
0.0
  0
LINE
  8
0
  6
CONTINUOUS
 62
     7
  5
24F
 10
-14.586614
 20
4.248031
 30
0.0
 11
-14.586614
 21
5.098425
 31
0.0
  0
LINE
  8
0
  6
CONTINUOUS
 62
     7
  5
250
 10
-16.712598
 20
5.098425
 30
0.0
 11
-16.712598
 21
4.248031
 31
0.0
  0
LINE
  8
0
  6
CONTINUOUS
 62
     7
  5
251
 10
-17.952264
 20
4.167717
 30
0.0
 11
-17.952264
 21
4.123622
 31
0.0
  0
LINE
  8
0
  6
CONTINUOUS
 62
     7
  5
252
 10
-17.81939
 20
4.123622
 30
0.0
 11
-17.81939
 21
4.167717
 31
0.0
  0
LINE
  8
0
  6
CONTINUOUS
 62
     7
  5
253
 10
-16.968996
 20
4.123622
 30
0.0
 11
-16.968996
 21
4.167717
 31
0.0
  0
LINE
  8
0
  6
CONTINUOUS
 62
     7
  5
254
 10
-16.942745
 20
4.785039
 30
0.0
 11
-16.942745
 21
4.917323
 31
0.0
  0
LINE
  8
0
  6
CONTINUOUS
 62
     7
  5
255
 10
-17.978515
 20
4.917323
 30
0.0
 11
-17.978515
 21
4.785039
 31
0.0
  0
LINE
  8
0
  6
CONTINUOUS
 62
     7
  5
256
 10
-16.915846
 20
4.366142
 30
0.0
 11
-16.915846
 21
4.54252
 31
0.0
  0
LINE
  8
0
  6
CONTINUOUS
 62
     7
  5
257
 10
-18.005413
 20
4.54252
 30
0.0
 11
-18.005413
 21
4.366142
 31
0.0
  0
LINE
  8
0
  6
CONTINUOUS
 62
     7
  5
258
 10
-16.929134
 20
4.123622
 30
0.0
 11
-16.929134
 21
4.366142
 31
0.0
  0
LINE
  8
0
  6
CONTINUOUS
 62
     7
  5
259
 10
-17.992126
 20
4.366142
 30
0.0
 11
-17.992126
 21
4.123622
 31
0.0
  0
LINE
  8
0
  6
CONTINUOUS
 62
     7
  5
25A
 10
-16.929134
 20
4.54252
 30
0.0
 11
-16.929134
 21
4.785039
 31
0.0
  0
LINE
  8
0
  6
CONTINUOUS
 62
     7
  5
25B
 10
-17.992126
 20
4.785039
 30
0.0
 11
-17.992126
 21
4.54252
 31
0.0
  0
ARC
  8
0
  6
CONTINUOUS
 62
     7
  5
25C
 10
-17.276378
 20
5.57874
 30
0.0
 40
0.132283
 50
0.0
 51
180.0
  0
LINE
  8
0
  6
CONTINUOUS
 62
     7
  5
25D
 10
-17.408661
 20
5.57874
 30
0.0
 11
-17.408661
 21
4.3
 31
0.0
  0
LINE
  8
0
  6
CONTINUOUS
 62
     7
  5
25E
 10
-17.144094
 20
4.3
 30
0.0
 11
-17.144094
 21
5.57874
 31
0.0
  0
ARC
  8
0
  6
CONTINUOUS
 62
     7
  5
25F
 10
-1.338583
 20
5.57874
 30
0.0
 40
0.132283
 50
0.0
 51
180.0
  0
LINE
  8
0
  6
CONTINUOUS
 62
     7
  5
260
 10
-1.470866
 20
5.57874
 30
0.0
 11
-1.470866
 21
4.3
 31
0.0
  0
LINE
  8
0
  6
CONTINUOUS
 62
     7
  5
261
 10
-1.206299
 20
4.3
 30
0.0
 11
-1.206299
 21
5.57874
 31
0.0
  0
LINE
  8
0
  6
CONTINUOUS
 62
     7
  5
262
 10
0.551181
 20
4.035433
 30
0.0
 11
0.551181
 21
4.036433
 31
0.0
  0
LINE
  8
0
  6
CONTINUOUS
 62
     7
  5
263
 10
0.07874
 20
4.036433
 30
0.0
 11
0.07874
 21
4.035433
 31
0.0
  0
LINE
  8
0
  6
CONTINUOUS
 62
     7
  5
264
 10
-20.350394
 20
2.631102
 30
0.0
 11
-20.531496
 21
2.631102
 31
0.0
  0
LINE
  8
0
  6
CONTINUOUS
 62
     7
  5
265
 10
-20.531496
 20
2.227559
 30
0.0
 11
-20.350394
 21
2.227559
 31
0.0
  0
LINE
  8
0
  6
CONTINUOUS
 62
     7
  5
266
 10
-20.350394
 20
-3.430118
 30
0.0
 11
-20.531496
 21
-3.430118
 31
0.0
  0
LINE
  8
0
  6
CONTINUOUS
 62
     7
  5
267
 10
-20.531496
 20
-3.833661
 30
0.0
 11
-20.350394
 21
-3.833661
 31
0.0
  0
LINE
  8
0
  6
CONTINUOUS
 62
     7
  5
268
 10
0.826772
 20
-0.748031
 30
0.0
 11
3.744094
 21
-0.748031
 31
0.0
  0
LINE
  8
0
  6
CONTINUOUS
 62
     7
  5
269
 10
3.744094
 20
0.748031
 30
0.0
 11
0.826772
 21
0.748031
 31
0.0
  0
LINE
  8
0
  6
CONTINUOUS
 62
     7
  5
26A
 10
3.744094
 20
-0.748031
 30
0.0
 11
3.818898
 21
-0.673228
 31
0.0
  0
LINE
  8
0
  6
CONTINUOUS
 62
     7
  5
26B
 10
3.818898
 20
0.673228
 30
0.0
 11
3.744094
 21
0.748031
 31
0.0
  0
LINE
  8
0
  6
CONTINUOUS
 62
     7
  5
26C
 10
0.826772
 20
3.543307
 30
0.0
 11
0.669291
 21
3.543307
 31
0.0
  0
LINE
  8
0
  6
CONTINUOUS
 62
     7
  5
26D
 10
0.669291
 20
-3.543307
 30
0.0
 11
0.826772
 21
-3.543307
 31
0.0
  0
LINE
  8
0
  6
CONTINUOUS
 62
     3
  5
26E
 10
-20.649496
 20
0.0
 30
0.0
 11
3.936898
 21
0.0
 31
0.0
  0
LINE
  8
0
  6
CONTINUOUS
 62
     3
  5
26F
 10
-15.649606
 20
6.279417
 30
0.0
 11
-15.649606
 21
4.130031
 31
0.0
  0
LINE
  8
0
  6
CONTINUOUS
 62
     3
  5
270
 10
-17.46063
 20
4.05748
 30
0.0
 11
-17.46063
 21
4.930551
 31
0.0
  0
LINE
  8
0
  6
CONTINUOUS
 62
     3
  5
271
 10
0.314961
 20
3.342372
 30
0.0
 11
0.314961
 21
4.09953
 31
0.0
  0
ENDSEC
  0
EOF
