999
DXF file: C:\Users\sesa63760\Dev\_Creo\CAD\MCADID0000213_3D-CAD\drw0001_4.dxf
999
Pro/ENGINEER 2019471 by Parametric Technology Corporation
  0
SECTION
  2
HEADER
  9
$ACADVER
  1
AC1024
  9
$DWGCODEPAGE
  3
ANSI_1252
  9
$EXTMAX
 10
236.5486764194
 20
334.5474137931
 30
0.0
  9
$EXTMIN
 10
0.0
 20
0.0
 30
0.0
  9
$LIMMIN
 10
0.0
 20
0.0
  9
$LIMMAX
 10
236.5486764194
 20
334.5474137931
  9
$VIEWCTR
 10
118.2743382097
 20
167.2737068966
  9
$VIEWSIZE
 40
334.5474137931
  9
$CLAYER
  8
0
  9
$LTSCALE
 40
21.8075351213
  9
$CELTYPE
  6
BYLAYER
  9
$DIMSCALE
 40
1.0
  9
$DIMASZ
 40
2.8160556717
  9
$DIMEXO
 40
1.0
  9
$DIMDLI
 40
15.0670242656
  9
$DIMEXE
 40
1.0
  9
$DIMCEN
 40
3.5685057471
  9
$DIMLFAC
 40
1.0
  9
$DIMBLK
  1
_FILLED
  9
$DIMALT
 70
0
  9
$DIMALTF
 40
0.0393700787
  9
$DIMTXT
 40
3.9424779403
  9
$DIMTOL
 70
1
  9
$DIMLIM
 70
0
  9
$DIMTFAC
 40
1.0
  9
$DIMTP
 40
0.01
  9
$DIMTM
 40
0.01
  9
$DIMGAP
 40
0.625
  9
$DIMDSEP
 70
46
  9
$AUNITS
 70
0
  9
$PDMODE
 70
3
  9
$PDSIZE
 40
0.3125
  9
$HANDSEED
  5
2CE
  9
$TILEMODE
 70
1
  9
$MEASUREMENT
 70
1
  9
$INSUNITS
 70
4
  0
ENDSEC
  0
SECTION
  2
CLASSES
  0
CLASS
  1
ACDBDICTIONARYWDFLT
  2
AcDbDictionaryWithDefault
  3
AutoCAD 2000
 90
0
 91
1
280
0
281
0
  0
CLASS
  1
ACDBPLACEHOLDER
  2
AcDbPlaceHolder
  3
AutoCAD 2000
 90
0
 91
1
280
0
281
0
  0
CLASS
  1
LAYOUT
  2
AcDbLayout
  3
AutoCAD 2000
 90
0
 91
0
280
0
281
0
  0
ENDSEC
  0
SECTION
  2
TABLES
  0
TABLE
  2
VPORT
  5
8
100
AcDbSymbolTable
 70
2
  0
VPORT
  5
1F4
100
AcDbSymbolTableRecord
100
AcDbViewportTableRecord
  2
*ACTIVE
 70
0
 10
0.0
 20
0.0
 11
1.0
 21
1.0
 12
118.2743382097
 22
167.2737068966
 13
0.0
 23
0.0
 14
1.0
 24
1.0
 15
0.0
 25
0.0
 16
0.0
 26
0.0
 36
1.0
 17
0.0
 27
0.0
 37
0.0
 40
334.5474137931
 41
0.7070707071
 42
50.0
 43
0.0
 44
0.0
 50
0.0
 51
0.0
 71
0
 72
100
 73
1
 74
1
 75
0
 76
0
 77
0
 78
0
  0
ENDTAB
  0
TABLE
  2
LTYPE
  5
5
100
AcDbSymbolTable
 70
6
  0
LTYPE
  5
14
100
AcDbSymbolTableRecord
100
AcDbLinetypeTableRecord
  2
BYBLOCK
 70
0
  3

 72
65
 73
0
 40
0.0
  0
LTYPE
  5
15
100
AcDbSymbolTableRecord
100
AcDbLinetypeTableRecord
  2
BYLAYER
 70
0
  3

 72
65
 73
0
 40
0.0
  0
LTYPE
  5
16
100
AcDbSymbolTableRecord
100
AcDbLinetypeTableRecord
  2
CONTINUOUS
 70
64
  3
Solid line
 72
65
 73
0
 40
0.0
  0
LTYPE
  5
1F5
100
AcDbSymbolTableRecord
100
AcDbLinetypeTableRecord
  2
CENTER
 70
64
  3
____ _ ____ _ ____ _ ____ _ ____ _ ____ _ ____
 72
65
 73
4
 40
0.6
 49
0.375
 74
0
 49
-0.075
 74
0
 49
0.075
 74
0
 49
-0.075
 74
0
  0
LTYPE
  5
1F6
100
AcDbSymbolTableRecord
100
AcDbLinetypeTableRecord
  2
HIDDEN
 70
64
  3
- - - - - - - - - - - - - - - - - - - -
 72
65
 73
2
 40
0.2
 49
0.1
 74
0
 49
-0.1
 74
0
  0
LTYPE
  5
1F7
100
AcDbSymbolTableRecord
100
AcDbLinetypeTableRecord
  2
PHANTOM
 70
64
  3
_____ _ _ _____ _ _ _____ _ _ _____
 72
65
 73
6
 40
0.8
 49
0.45
 74
0
 49
-0.05
 74
0
 49
0.1
 74
0
 49
-0.05
 74
0
 49
0.1
 74
0
 49
-0.05
 74
0
  0
LTYPE
  5
1F8
100
AcDbSymbolTableRecord
100
AcDbLinetypeTableRecord
  2
DOT
 70
64
  3
. . . . . . . . . . . . . . . . . . . .
 72
65
 73
2
 40
0.2
 49
0.1
 74
0
 49
-0.1
 74
0
  0
LTYPE
  5
1F9
100
AcDbSymbolTableRecord
100
AcDbLinetypeTableRecord
  2
DASHED
 70
64
  3
- - - - - - - - - - - - - - - - - - - -
 72
65
 73
2
 40
0.2
 49
0.1
 74
0
 49
-0.1
 74
0
  0
ENDTAB
  0
TABLE
  2
LAYER
  5
2
100
AcDbSymbolTable
 70
36
  0
LAYER
  5
10
100
AcDbSymbolTableRecord
100
AcDbLayerTableRecord
  2
0
 70
0
 62
7
  6
CONTINUOUS
370
-3
390
F
  0
LAYER
  5
1FA
100
AcDbSymbolTableRecord
100
AcDbLayerTableRecord
  2
DEFAULT_1
 70
0
 62
7
  6
CENTER
370
-3
390
F
  0
LAYER
  5
1FB
100
AcDbSymbolTableRecord
100
AcDbLayerTableRecord
  2
DEFAULT_2
 70
0
 62
8
  6
HIDDEN
370
-3
390
F
  0
LAYER
  5
1FC
100
AcDbSymbolTableRecord
100
AcDbLayerTableRecord
  2
DEFAULT_3
 70
0
 62
7
  6
PHANTOM
370
-3
390
F
  0
LAYER
  5
1FD
100
AcDbSymbolTableRecord
100
AcDbLayerTableRecord
  2
00_COMPONENTS
 70
0
 62
7
  6
CONTINUOUS
370
-3
390
F
  0
LAYER
  5
1FE
100
AcDbSymbolTableRecord
100
AcDbLayerTableRecord
  2
01_1_DEFAULT_DATUMS
 70
0
 62
7
  6
CONTINUOUS
370
-3
390
F
  0
LAYER
  5
1FF
100
AcDbSymbolTableRecord
100
AcDbLayerTableRecord
  2
01_PLANES
 70
0
 62
7
  6
CONTINUOUS
370
-3
390
F
  0
LAYER
  5
200
100
AcDbSymbolTableRecord
100
AcDbLayerTableRecord
  2
02_COORD_SYS
 70
0
 62
7
  6
CONTINUOUS
370
-3
390
F
  0
LAYER
  5
201
100
AcDbSymbolTableRecord
100
AcDbLayerTableRecord
  2
03_AXES
 70
0
 62
7
  6
CONTINUOUS
370
-3
390
F
  0
LAYER
  5
202
100
AcDbSymbolTableRecord
100
AcDbLayerTableRecord
  2
04_POINTS
 70
0
 62
7
  6
CONTINUOUS
370
-3
390
F
  0
LAYER
  5
203
100
AcDbSymbolTableRecord
100
AcDbLayerTableRecord
  2
05_CURVES
 70
0
 62
7
  6
CONTINUOUS
370
-3
390
F
  0
LAYER
  5
204
100
AcDbSymbolTableRecord
100
AcDbLayerTableRecord
  2
06_SURFS
 70
0
 62
7
  6
CONTINUOUS
370
-3
390
F
  0
LAYER
  5
205
100
AcDbSymbolTableRecord
100
AcDbLayerTableRecord
  2
07_COSMETICS
 70
0
 62
7
  6
CONTINUOUS
370
-3
390
F
  0
LAYER
  5
206
100
AcDbSymbolTableRecord
100
AcDbLayerTableRecord
  2
10_NOTES
 70
0
 62
7
  6
CONTINUOUS
370
-3
390
F
  0
LAYER
  5
207
100
AcDbSymbolTableRecord
100
AcDbLayerTableRecord
  2
11_NOTES_PUB
 70
0
 62
7
  6
CONTINUOUS
370
-3
390
F
  0
LAYER
  5
208
100
AcDbSymbolTableRecord
100
AcDbLayerTableRecord
  2
13_REF_GTOL
 70
0
 62
7
  6
CONTINUOUS
370
-3
390
F
  0
LAYER
  5
209
100
AcDbSymbolTableRecord
100
AcDbLayerTableRecord
  2
16_MISC
 70
0
 62
7
  6
CONTINUOUS
370
-3
390
F
  0
LAYER
  5
20A
100
AcDbSymbolTableRecord
100
AcDbLayerTableRecord
  2
17_NO_PRINT
 70
0
 62
7
  6
CONTINUOUS
370
-3
390
F
  0
LAYER
  5
20B
100
AcDbSymbolTableRecord
100
AcDbLayerTableRecord
  2
18_DATUM_CAMS_JOINTS
 70
0
 62
7
  6
CONTINUOUS
370
-3
390
F
  0
LAYER
  5
20C
100
AcDbSymbolTableRecord
100
AcDbLayerTableRecord
  2
19_DATUM_FUNCTIONAL
 70
0
 62
7
  6
CONTINUOUS
370
-3
390
F
  0
LAYER
  5
20D
100
AcDbSymbolTableRecord
100
AcDbLayerTableRecord
  2
20_DATUM_KINEMATIC_SCHEME
 70
0
 62
7
  6
CONTINUOUS
370
-3
390
F
  0
LAYER
  5
20E
100
AcDbSymbolTableRecord
100
AcDbLayerTableRecord
  2
_1
 70
0
 62
7
  6
CONTINUOUS
370
-3
390
F
  0
ENDTAB
  0
TABLE
  2
STYLE
  5
3
100
AcDbSymbolTable
 70
1
  0
STYLE
  5
11
100
AcDbSymbolTableRecord
100
AcDbTextStyleTableRecord
  2
STANDARD
 70
0
 40
0.0
 41
0.8
 50
0.0
 71
0
 42
0.2
  3
txt
  4

  0
STYLE
  5
20F
100
AcDbSymbolTableRecord
100
AcDbTextStyleTableRecord
  2
TEXTSTYLE_1
 70
0
 40
0.0
 41
0.8
 50
0.0
 71
0
 42
0.2
  3
gdt
  4

  0
ENDTAB
  0
TABLE
  2
VIEW
  5
6
100
AcDbSymbolTable
 70
0
  0
ENDTAB
  0
TABLE
  2
UCS
  5
7
100
AcDbSymbolTable
 70
0
  0
ENDTAB
  0
TABLE
  2
APPID
  5
9
100
AcDbSymbolTable
 70
1
  0
APPID
  5
210
100
AcDbSymbolTableRecord
100
AcDbRegAppTableRecord
  2
ACAD
 70
0
  0
ENDTAB
  0
TABLE
  2
BLOCK_RECORD
  5
1
100
AcDbSymbolTable
 70
0
  0
BLOCK_RECORD
  5
211
100
AcDbSymbolTableRecord
100
AcDbBlockTableRecord
  2
*Model_Space
  0
BLOCK_RECORD
  5
212
100
AcDbSymbolTableRecord
100
AcDbBlockTableRecord
  2
*Paper_Space
  0
BLOCK_RECORD
  5
213
100
AcDbSymbolTableRecord
100
AcDbBlockTableRecord
  2
_FILLED
  0
ENDTAB
  0
TABLE
  2
DIMSTYLE
  5
A
100
AcDbSymbolTable
 70
1
100
AcDbDimStyleTable
 71
0
  0
DIMSTYLE
105
214
100
AcDbSymbolTableRecord
100
AcDbDimStyleTableRecord
  2
STANDARD
 70
0
  3

  4

 40
1.0
 41
2.8160556717
 42
1.0
 43
0.38
 44
1.0
 45
0.0
 46
0.0
 47
0.01
 48
0.01
140
3.9424779403
141
0.09
142
0.0
143
25.4
144
1.0
145
0.0
146
1.0
147
0.625
 71
1
 72
0
 73
0
 74
0
 75
0
 76
0
 77
1
 78
8
 79
2
170
0
171
1
172
0
173
0
174
0
175
0
176
0
177
0
178
0
270
2
179
2
271
2
272
2
273
2
274
2
275
0
280
0
281
0
282
0
283
1
284
8
285
0
286
0
287
3
288
0
340
11
278
46
341
213
342
213
343
213
344
213
  0
ENDTAB
  0
ENDSEC
  0
SECTION
  2
BLOCKS
  0
BLOCK
  5
20
100
AcDbEntity
  8
0
100
AcDbBlockBegin
  2
*Model_Space
 70
0
 10
0.0
 20
0.0
 30
0.0
  3
*Model_Space
  1

  0
ENDBLK
  5
21
100
AcDbEntity
  8
0
100
AcDbBlockEnd
  0
BLOCK
  5
1C
100
AcDbEntity
  8
0
100
AcDbBlockBegin
  2
*Paper_Space
 70
0
 10
0.0
 20
0.0
 30
0.0
  3
*Paper_Space
  1

  0
ENDBLK
  5
1D
100
AcDbEntity
  8
0
100
AcDbBlockEnd
  0
BLOCK
  5
215
100
AcDbEntity
  8
0
100
AcDbBlockBegin
  2
_FILLED
 70
64
 10
0.0
 20
0.0
  3
_FILLED
  1

  0
SOLID
  5
216
100
AcDbEntity
  8
0
  6
BYBLOCK
 62
0
100
AcDbTrace
 10
0.0
 20
0.0
 11
-1.0
 21
0.25
 12
-1.0
 22
-0.25
 13
-1.0
 23
-0.25
  0
ENDBLK
  5
217
100
AcDbEntity
  8
0
  6
BYBLOCK
 62
0
100
AcDbBlockEnd
  0
ENDSEC
  0
SECTION
  2
ENTITIES
  0
LINE
  5
218
100
AcDbEntity
  8
_1
100
AcDbLine
 62
7
  6
CONTINUOUS
 10
193.7075598261
 20
37.5089182156
 11
48.9833579726
 21
37.5089182156
  0
LINE
  5
219
100
AcDbEntity
  8
_1
100
AcDbLine
 62
7
  6
CONTINUOUS
 10
26.3454588993
 20
132.5089182156
 11
26.9841956651
 21
59.3169344347
  0
LINE
  5
21A
100
AcDbEntity
  8
_1
100
AcDbLine
 62
7
  6
CONTINUOUS
 10
26.9841956651
 20
205.7009019966
 11
26.3454588993
 21
132.5089182156
  0
LINE
  5
21B
100
AcDbEntity
  8
_1
100
AcDbLine
 62
7
  6
CONTINUOUS
 10
87.8454588993
 20
233.5089182156
 11
87.8454588993
 21
227.5089182156
  0
LINE
  5
21C
100
AcDbEntity
  8
_1
100
AcDbLine
 62
7
  6
CONTINUOUS
 10
92.8454588993
 20
227.5089182156
 11
92.8454588993
 21
233.5089182156
  0
LINE
  5
21D
100
AcDbEntity
  8
_1
100
AcDbLine
 62
7
  6
CONTINUOUS
 10
101.3454588993
 20
253.8089182156
 11
101.3454588993
 21
252.3089182156
  0
LINE
  5
21E
100
AcDbEntity
  8
_1
100
AcDbLine
 62
7
  6
CONTINUOUS
 10
101.3454588993
 20
233.5089182156
 11
101.3454588993
 21
250.8089182156
  0
LINE
  5
21F
100
AcDbEntity
  8
_1
100
AcDbLine
 62
7
  6
CONTINUOUS
 10
101.3454588993
 20
281.4089182156
 11
101.3454588993
 21
283.4089182156
  0
LINE
  5
220
100
AcDbEntity
  8
_1
100
AcDbLine
 62
7
  6
CONTINUOUS
 10
101.8454588993
 20
251.8089182156
 11
101.8454588993
 21
251.6749436194
  0
LINE
  5
221
100
AcDbEntity
  8
_1
100
AcDbLine
 62
7
  6
CONTINUOUS
 10
102.3454588993
 20
238.0089182156
 11
102.3454588993
 21
240.0089182156
  0
LINE
  5
222
100
AcDbEntity
  8
_1
100
AcDbLine
 62
7
  6
CONTINUOUS
 10
102.9454588993
 20
233.5089182156
 11
102.9454588993
 21
238.0089182156
  0
LINE
  5
223
100
AcDbEntity
  8
_1
100
AcDbLine
 62
7
  6
CONTINUOUS
 10
103.2507147877
 20
283.5402547988
 11
103.2507147877
 21
281.4089182156
  0
LINE
  5
224
100
AcDbEntity
  8
_1
100
AcDbLine
 62
7
  6
CONTINUOUS
 10
104.1954588993
 20
293.0089182156
 11
104.1954588993
 21
254.8089182156
  0
LINE
  5
225
100
AcDbEntity
  8
_1
100
AcDbLine
 62
7
  6
CONTINUOUS
 10
104.3583070057
 20
250.8089182156
 11
104.3583070057
 21
240.6504005739
  0
LINE
  5
226
100
AcDbEntity
  8
_1
100
AcDbLine
 62
7
  6
CONTINUOUS
 10
104.3583070057
 20
252.3089182156
 11
104.3583070057
 21
253.8089182156
  0
LINE
  5
227
100
AcDbEntity
  8
_1
100
AcDbLine
 62
7
  6
CONTINUOUS
 10
105.2627113753
 20
251.6749436194
 11
105.2627113753
 21
251.8089182156
  0
LINE
  5
228
100
AcDbEntity
  8
_1
100
AcDbLine
 62
7
  6
CONTINUOUS
 10
105.4307615628
 20
254.7463563788
 11
105.4307615628
 21
240.8116356689
  0
LINE
  5
229
100
AcDbEntity
  8
_1
100
AcDbLine
 62
7
  6
CONTINUOUS
 10
110.316919865
 20
254.6462622154
 11
110.316919865
 21
251.81113422
  0
LINE
  5
22A
100
AcDbEntity
  8
_1
100
AcDbLine
 62
7
  6
CONTINUOUS
 10
110.316919865
 20
251.6464941687
 11
110.316919865
 21
238.0089182156
  0
LINE
  5
22B
100
AcDbEntity
  8
_1
100
AcDbLine
 62
7
  6
CONTINUOUS
 10
110.3184360882
 20
251.8089182156
 11
110.3184360882
 21
251.6749436194
  0
LINE
  5
22C
100
AcDbEntity
  8
_1
100
AcDbLine
 62
7
  6
CONTINUOUS
 10
110.7891020211
 20
253.8089182156
 11
110.7891020211
 21
252.3089182156
  0
LINE
  5
22D
100
AcDbEntity
  8
_1
100
AcDbLine
 62
7
  6
CONTINUOUS
 10
110.7891020211
 20
250.8089182156
 11
110.7891020211
 21
238.0089182156
  0
LINE
  5
22E
100
AcDbEntity
  8
_1
100
AcDbLine
 62
7
  6
CONTINUOUS
 10
111.4397787107
 20
257.8089182156
 11
111.4397787107
 21
269.0089182156
  0
LINE
  5
22F
100
AcDbEntity
  8
_1
100
AcDbLine
 62
7
  6
CONTINUOUS
 10
112.0232521449
 20
293.0089182156
 11
112.0232521449
 21
270.2023596131
  0
LINE
  5
230
100
AcDbEntity
  8
_1
100
AcDbLine
 62
7
  6
CONTINUOUS
 10
112.0232521449
 20
256.3207964652
 11
112.0232521449
 21
254.8089182156
  0
LINE
  5
231
100
AcDbEntity
  8
_1
100
AcDbLine
 62
7
  6
CONTINUOUS
 10
112.2516270774
 20
254.8089182156
 11
112.2516270774
 21
255.983547431
  0
LINE
  5
232
100
AcDbEntity
  8
_1
100
AcDbLine
 62
7
  6
CONTINUOUS
 10
112.2516270774
 20
270.4558114032
 11
112.2516270774
 21
293.0089182156
  0
LINE
  5
233
100
AcDbEntity
  8
_1
100
AcDbLine
 62
7
  6
CONTINUOUS
 10
114.3454588993
 20
227.6089182156
 11
114.3454588993
 21
227.5089182156
  0
LINE
  5
234
100
AcDbEntity
  8
_1
100
AcDbLine
 62
7
  6
CONTINUOUS
 10
114.9509790115
 20
293.0089182156
 11
114.9509790115
 21
271.0089182156
  0
LINE
  5
235
100
AcDbEntity
  8
_1
100
AcDbLine
 62
7
  6
CONTINUOUS
 10
115.4855486478
 20
271.0089182156
 11
115.4855486478
 21
293.0089182156
  0
LINE
  5
236
100
AcDbEntity
  8
_1
100
AcDbLine
 62
7
  6
CONTINUOUS
 10
117.2454588993
 20
289.0089182156
 11
117.2454588993
 21
293.0089182156
  0
LINE
  5
237
100
AcDbEntity
  8
_1
100
AcDbLine
 62
7
  6
CONTINUOUS
 10
117.3454588993
 20
289.0089182156
 11
117.3454588993
 21
291.0089182156
  0
LINE
  5
238
100
AcDbEntity
  8
_1
100
AcDbLine
 62
7
  6
CONTINUOUS
 10
125.3454588993
 20
289.0089182156
 11
125.3454588993
 21
291.0089182156
  0
LINE
  5
239
100
AcDbEntity
  8
_1
100
AcDbLine
 62
7
  6
CONTINUOUS
 10
125.4454588993
 20
293.0089182156
 11
125.4454588993
 21
289.0089182156
  0
LINE
  5
23A
100
AcDbEntity
  8
_1
100
AcDbLine
 62
7
  6
CONTINUOUS
 10
127.2053690619
 20
293.0089182156
 11
127.2053690619
 21
271.0089182156
  0
LINE
  5
23B
100
AcDbEntity
  8
_1
100
AcDbLine
 62
7
  6
CONTINUOUS
 10
127.7399387871
 20
271.0089182156
 11
127.7399387871
 21
293.0089182156
  0
LINE
  5
23C
100
AcDbEntity
  8
_1
100
AcDbLine
 62
7
  6
CONTINUOUS
 10
128.3454588993
 20
227.5089182156
 11
128.3454588993
 21
227.6089182156
  0
LINE
  5
23D
100
AcDbEntity
  8
_1
100
AcDbLine
 62
7
  6
CONTINUOUS
 10
130.4392907213
 20
293.0089182156
 11
130.4392907213
 21
270.4558114032
  0
LINE
  5
23E
100
AcDbEntity
  8
_1
100
AcDbLine
 62
7
  6
CONTINUOUS
 10
130.4392907213
 20
255.983547431
 11
130.4392907213
 21
254.8089182156
  0
LINE
  5
23F
100
AcDbEntity
  8
_1
100
AcDbLine
 62
7
  6
CONTINUOUS
 10
130.6676657038
 20
254.8089182156
 11
130.6676657038
 21
256.3207965219
  0
LINE
  5
240
100
AcDbEntity
  8
_1
100
AcDbLine
 62
7
  6
CONTINUOUS
 10
130.6676657038
 20
270.2023595695
 11
130.6676657038
 21
293.0089182156
  0
LINE
  5
241
100
AcDbEntity
  8
_1
100
AcDbLine
 62
7
  6
CONTINUOUS
 10
131.251139088
 20
269.0089182156
 11
131.251139088
 21
257.8089182156
  0
LINE
  5
242
100
AcDbEntity
  8
_1
100
AcDbLine
 62
7
  6
CONTINUOUS
 10
131.9018157776
 20
238.0089182156
 11
131.9018157776
 21
250.8089182156
  0
LINE
  5
243
100
AcDbEntity
  8
_1
100
AcDbLine
 62
7
  6
CONTINUOUS
 10
131.9018157776
 20
252.3089182156
 11
131.9018157776
 21
253.8089182156
  0
LINE
  5
244
100
AcDbEntity
  8
_1
100
AcDbLine
 62
7
  6
CONTINUOUS
 10
132.3724817105
 20
251.6749436194
 11
132.3724817105
 21
251.8089182156
  0
LINE
  5
245
100
AcDbEntity
  8
_1
100
AcDbLine
 62
7
  6
CONTINUOUS
 10
132.3739979337
 20
238.0089182156
 11
132.3739979337
 21
251.646532754
  0
LINE
  5
246
100
AcDbEntity
  8
_1
100
AcDbLine
 62
7
  6
CONTINUOUS
 10
132.3739979337
 20
251.8110606289
 11
132.3739979337
 21
254.646618086
  0
LINE
  5
247
100
AcDbEntity
  8
_1
100
AcDbLine
 62
7
  6
CONTINUOUS
 10
137.260156277
 20
240.8116356661
 11
137.260156277
 21
254.7463563642
  0
LINE
  5
248
100
AcDbEntity
  8
_1
100
AcDbLine
 62
7
  6
CONTINUOUS
 10
137.4282064234
 20
251.8089182156
 11
137.4282064234
 21
251.6749436194
  0
LINE
  5
249
100
AcDbEntity
  8
_1
100
AcDbLine
 62
7
  6
CONTINUOUS
 10
138.332610793
 20
253.8089182156
 11
138.332610793
 21
252.3089182156
  0
LINE
  5
24A
100
AcDbEntity
  8
_1
100
AcDbLine
 62
7
  6
CONTINUOUS
 10
138.332610793
 20
250.8089182156
 11
138.332610793
 21
240.6504005739
  0
LINE
  5
24B
100
AcDbEntity
  8
_1
100
AcDbLine
 62
7
  6
CONTINUOUS
 10
138.4954588993
 20
254.8089182156
 11
138.4954588993
 21
293.0089182156
  0
LINE
  5
24C
100
AcDbEntity
  8
_1
100
AcDbLine
 62
7
  6
CONTINUOUS
 10
139.440203011
 20
281.4089182156
 11
139.440203011
 21
283.5402547988
  0
LINE
  5
24D
100
AcDbEntity
  8
_1
100
AcDbLine
 62
7
  6
CONTINUOUS
 10
139.7454588993
 20
233.5089182156
 11
139.7454588993
 21
238.0089182156
  0
LINE
  5
24E
100
AcDbEntity
  8
_1
100
AcDbLine
 62
7
  6
CONTINUOUS
 10
140.3454588993
 20
238.0089182156
 11
140.3454588993
 21
240.0089182156
  0
LINE
  5
24F
100
AcDbEntity
  8
_1
100
AcDbLine
 62
7
  6
CONTINUOUS
 10
140.839206945
 20
251.6749436194
 11
140.839206945
 21
251.8089182156
  0
LINE
  5
250
100
AcDbEntity
  8
_1
100
AcDbLine
 62
7
  6
CONTINUOUS
 10
141.3216223192
 20
238.0089182156
 11
141.3216223192
 21
250.8089182156
  0
LINE
  5
251
100
AcDbEntity
  8
_1
100
AcDbLine
 62
7
  6
CONTINUOUS
 10
141.3216223192
 20
252.3089182156
 11
141.3216223192
 21
253.8089182156
  0
LINE
  5
252
100
AcDbEntity
  8
_1
100
AcDbLine
 62
7
  6
CONTINUOUS
 10
141.3454588993
 20
238.0089182156
 11
141.3454588993
 21
233.5089182156
  0
LINE
  5
253
100
AcDbEntity
  8
_1
100
AcDbLine
 62
7
  6
CONTINUOUS
 10
141.3454588993
 20
281.4089182156
 11
141.3454588993
 21
283.4089182156
  0
LINE
  5
254
100
AcDbEntity
  8
_1
100
AcDbLine
 62
7
  6
CONTINUOUS
 10
149.8454588993
 20
233.5089182156
 11
149.8454588993
 21
227.5089182156
  0
LINE
  5
255
100
AcDbEntity
  8
_1
100
AcDbLine
 62
7
  6
CONTINUOUS
 10
154.8454588993
 20
227.5089182156
 11
154.8454588993
 21
233.5089182156
  0
LINE
  5
256
100
AcDbEntity
  8
_1
100
AcDbLine
 62
7
  6
CONTINUOUS
 10
48.9833579726
 20
227.5089182156
 11
193.7075598261
 21
227.5089182156
  0
LINE
  5
257
100
AcDbEntity
  8
_1
100
AcDbLine
 62
7
  6
CONTINUOUS
 10
114.3454588993
 20
227.6089182156
 11
128.3454588993
 21
227.6089182156
  0
LINE
  5
258
100
AcDbEntity
  8
_1
100
AcDbLine
 62
7
  6
CONTINUOUS
 10
87.8454588993
 20
233.5089182156
 11
154.8454588993
 21
233.5089182156
  0
LINE
  5
259
100
AcDbEntity
  8
_1
100
AcDbLine
 62
7
  6
CONTINUOUS
 10
101.3454588993
 20
238.0089182156
 11
141.3454588993
 21
238.0089182156
  0
LINE
  5
25A
100
AcDbEntity
  8
_1
100
AcDbLine
 62
7
  6
CONTINUOUS
 10
102.3454588993
 20
240.0089182156
 11
110.316919865
 21
240.0089182156
  0
LINE
  5
25B
100
AcDbEntity
  8
_1
100
AcDbLine
 62
7
  6
CONTINUOUS
 10
132.3739979337
 20
240.0089182156
 11
140.3454588993
 21
240.0089182156
  0
LINE
  5
25C
100
AcDbEntity
  8
_1
100
AcDbLine
 62
7
  6
CONTINUOUS
 10
136.5236462712
 20
240.8606823185
 11
136.1672715275
 21
240.8606823185
  0
LINE
  5
25D
100
AcDbEntity
  8
_1
100
AcDbLine
 62
7
  6
CONTINUOUS
 10
106.5236462712
 20
240.8606823185
 11
106.1672715275
 21
240.8606823185
  0
LINE
  5
25E
100
AcDbEntity
  8
_1
100
AcDbLine
 62
7
  6
CONTINUOUS
 10
101.3454588993
 20
250.8089182156
 11
104.3583070057
 21
250.8089182156
  0
LINE
  5
25F
100
AcDbEntity
  8
_1
100
AcDbLine
 62
7
  6
CONTINUOUS
 10
110.7891020211
 20
250.8089182156
 11
131.9018157776
 21
250.8089182156
  0
LINE
  5
260
100
AcDbEntity
  8
_1
100
AcDbLine
 62
7
  6
CONTINUOUS
 10
138.332610793
 20
250.8089182156
 11
141.3216223192
 21
250.8089182156
  0
LINE
  5
261
100
AcDbEntity
  8
_1
100
AcDbLine
 62
7
  6
CONTINUOUS
 10
140.839206945
 20
251.6749436194
 11
137.4282064234
 21
251.6749436194
  0
LINE
  5
262
100
AcDbEntity
  8
_1
100
AcDbLine
 62
7
  6
CONTINUOUS
 10
132.3724817105
 20
251.6749436194
 11
110.3184360882
 21
251.6749436194
  0
LINE
  5
263
100
AcDbEntity
  8
_1
100
AcDbLine
 62
7
  6
CONTINUOUS
 10
105.2627113753
 20
251.6749436194
 11
101.8454588993
 21
251.6749436194
  0
LINE
  5
264
100
AcDbEntity
  8
_1
100
AcDbLine
 62
7
  6
CONTINUOUS
 10
105.2627113753
 20
251.8089182156
 11
101.8454588993
 21
251.8089182156
  0
LINE
  5
265
100
AcDbEntity
  8
_1
100
AcDbLine
 62
7
  6
CONTINUOUS
 10
110.3184360882
 20
251.8089182156
 11
132.3724817105
 21
251.8089182156
  0
LINE
  5
266
100
AcDbEntity
  8
_1
100
AcDbLine
 62
7
  6
CONTINUOUS
 10
137.4282064234
 20
251.8089182156
 11
140.839206945
 21
251.8089182156
  0
LINE
  5
267
100
AcDbEntity
  8
_1
100
AcDbLine
 62
7
  6
CONTINUOUS
 10
141.3216223192
 20
252.3089182156
 11
138.332610793
 21
252.3089182156
  0
LINE
  5
268
100
AcDbEntity
  8
_1
100
AcDbLine
 62
7
  6
CONTINUOUS
 10
131.9018157776
 20
252.3089182156
 11
110.7891020211
 21
252.3089182156
  0
LINE
  5
269
100
AcDbEntity
  8
_1
100
AcDbLine
 62
7
  6
CONTINUOUS
 10
104.3583070057
 20
252.3089182156
 11
101.3454588993
 21
252.3089182156
  0
LINE
  5
26A
100
AcDbEntity
  8
_1
100
AcDbLine
 62
7
  6
CONTINUOUS
 10
216.3454588993
 20
132.5089182156
 11
215.7067221335
 21
205.7009019966
  0
LINE
  5
26B
100
AcDbEntity
  8
_1
100
AcDbLine
 62
7
  6
CONTINUOUS
 10
215.7067221335
 20
59.3169344347
 11
216.3454588993
 21
132.5089182156
  0
LINE
  5
26C
100
AcDbEntity
  8
_1
100
AcDbLine
 62
7
  6
CONTINUOUS
 10
101.3454588993
 20
253.8089182156
 11
104.3583070057
 21
253.8089182156
  0
LINE
  5
26D
100
AcDbEntity
  8
_1
100
AcDbLine
 62
7
  6
CONTINUOUS
 10
110.7891020211
 20
253.8089182156
 11
131.9018157776
 21
253.8089182156
  0
LINE
  5
26E
100
AcDbEntity
  8
_1
100
AcDbLine
 62
7
  6
CONTINUOUS
 10
138.332610793
 20
253.8089182156
 11
141.3216223192
 21
253.8089182156
  0
LINE
  5
26F
100
AcDbEntity
  8
_1
100
AcDbLine
 62
7
  6
CONTINUOUS
 10
102.3454494186
 20
254.8089182156
 11
110.3451672778
 21
254.8089182156
  0
LINE
  5
270
100
AcDbEntity
  8
_1
100
AcDbLine
 62
7
  6
CONTINUOUS
 10
110.4100603204
 20
254.8089182156
 11
132.2808574783
 21
254.8089182156
  0
LINE
  5
271
100
AcDbEntity
  8
_1
100
AcDbLine
 62
7
  6
CONTINUOUS
 10
132.3457505209
 20
254.8089182156
 11
140.3454684656
 21
254.8089182156
  0
LINE
  5
272
100
AcDbEntity
  8
_1
100
AcDbLine
 62
7
  6
CONTINUOUS
 10
131.251139088
 20
257.8089182156
 11
111.4397787107
 21
257.8089182156
  0
LINE
  5
273
100
AcDbEntity
  8
_1
100
AcDbLine
 62
7
  6
CONTINUOUS
 10
111.4397787107
 20
269.0089182156
 11
131.251139088
 21
269.0089182156
  0
LINE
  5
274
100
AcDbEntity
  8
_1
100
AcDbLine
 62
7
  6
CONTINUOUS
 10
129.5079558711
 20
271.0089182156
 11
113.1829619276
 21
271.0089182156
  0
LINE
  5
275
100
AcDbEntity
  8
_1
100
AcDbLine
 62
7
  6
CONTINUOUS
 10
101.3454588993
 20
281.4089182156
 11
103.2507147877
 21
281.4089182156
  0
LINE
  5
276
100
AcDbEntity
  8
_1
100
AcDbLine
 62
7
  6
CONTINUOUS
 10
139.440203011
 20
281.4089182156
 11
141.3454588993
 21
281.4089182156
  0
LINE
  5
277
100
AcDbEntity
  8
_1
100
AcDbLine
 62
7
  6
CONTINUOUS
 10
101.3454588993
 20
283.4089182156
 11
103.2507147877
 21
283.4089182156
  0
LINE
  5
278
100
AcDbEntity
  8
_1
100
AcDbLine
 62
7
  6
CONTINUOUS
 10
139.440203011
 20
283.4089182156
 11
141.3454588993
 21
283.4089182156
  0
LINE
  5
279
100
AcDbEntity
  8
_1
100
AcDbLine
 62
7
  6
CONTINUOUS
 10
117.2454588993
 20
289.0089182156
 11
125.4454588993
 21
289.0089182156
  0
LINE
  5
27A
100
AcDbEntity
  8
_1
100
AcDbLine
 62
7
  6
CONTINUOUS
 10
117.3454588993
 20
291.0089182156
 11
125.3454588993
 21
291.0089182156
  0
LINE
  5
27B
100
AcDbEntity
  8
_1
100
AcDbLine
 62
7
  6
CONTINUOUS
 10
121.5236462712
 20
291.8606823185
 11
121.1672715275
 21
291.8606823185
  0
LINE
  5
27C
100
AcDbEntity
  8
_1
100
AcDbLine
 62
7
  6
CONTINUOUS
 10
104.1954588993
 20
293.0089182156
 11
138.4954588993
 21
293.0089182156
  0
ARC
  5
27D
100
AcDbEntity
  8
_1
100
AcDbCircle
 62
7
  6
CONTINUOUS
 10
48.9833579726
 20
59.5089182156
 40
22.0
100
AcDbArc
 50
180.5
 51
270.0
  0
CIRCLE
  5
27E
100
AcDbEntity
  8
_1
100
AcDbCircle
 62
7
  6
CONTINUOUS
 10
45.3314799218
 20
56.4949392381
 40
7.0
  0
ARC
  5
27F
100
AcDbEntity
  8
_1
100
AcDbCircle
 62
7
  6
CONTINUOUS
 10
117.4036047973
 20
272.8857108765
 40
24.4771519386
100
AcDbArc
 50
25.8034480413
 51
30.4801472924
  0
ARC
  5
280
100
AcDbEntity
  8
_1
100
AcDbCircle
 62
7
  6
CONTINUOUS
 10
117.5868351355
 20
272.978132562
 40
24.2721453797
100
AcDbArc
 50
11.8067832647
 51
20.3249520779
  0
ARC
  5
281
100
AcDbEntity
  8
_1
100
AcDbCircle
 62
7
  6
CONTINUOUS
 10
48.9833579726
 20
205.5089182156
 40
22.0
100
AcDbArc
 50
90.0
 51
179.5
  0
ARC
  5
282
100
AcDbEntity
  8
_1
100
AcDbCircle
 62
7
  6
CONTINUOUS
 10
106.5236462712
 20
231.8606823185
 40
9.0
100
AcDbArc
 50
65.0662293461
 51
90.0
  0
ARC
  5
283
100
AcDbEntity
  8
_1
100
AcDbCircle
 62
7
  6
CONTINUOUS
 10
106.1672715275
 20
231.8606823185
 40
9.0
100
AcDbArc
 50
90.0
 51
115.1282487797
  0
ARC
  5
284
100
AcDbEntity
  8
_1
100
AcDbCircle
 62
7
  6
CONTINUOUS
 10
121.1672715275
 20
282.8606823185
 40
9.0
100
AcDbArc
 50
90.0
 51
115.1282487797
  0
ARC
  5
285
100
AcDbEntity
  8
_1
100
AcDbCircle
 62
7
  6
CONTINUOUS
 10
105.1672715275
 20
275.2606823185
 40
9.0
100
AcDbArc
 50
100.5364621531
 51
115.1282487797
  0
CIRCLE
  5
286
100
AcDbEntity
  8
_1
100
AcDbCircle
 62
7
  6
CONTINUOUS
 10
45.3314799218
 20
208.5228971932
 40
7.0
  0
ARC
  5
287
100
AcDbEntity
  8
_1
100
AcDbCircle
 62
7
  6
CONTINUOUS
 10
102.3454588993
 20
250.8089182156
 40
1.0
100
AcDbArc
 50
120.0
 51
179.9999999999
  0
ARC
  5
288
100
AcDbEntity
  8
_1
100
AcDbCircle
 62
7
  6
CONTINUOUS
 10
102.3454588993
 20
253.8089182156
 40
1.0
100
AcDbArc
 50
90.0
 51
180.0
  0
ARC
  5
289
100
AcDbEntity
  8
_1
100
AcDbCircle
 62
7
  6
CONTINUOUS
 10
101.8454588993
 20
252.3089182156
 40
0.5
100
AcDbArc
 50
180.0000000002
 51
270.0
  0
CIRCLE
  5
28A
100
AcDbEntity
  8
_1
100
AcDbCircle
 62
7
  6
CONTINUOUS
 10
121.3454588993
 20
132.5089182156
 40
90.0
  0
CIRCLE
  5
28B
100
AcDbEntity
  8
_1
100
AcDbCircle
 62
7
  6
CONTINUOUS
 10
121.3454588993
 20
132.5089182156
 40
80.0
  0
CIRCLE
  5
28C
100
AcDbEntity
  8
_1
100
AcDbCircle
 62
7
  6
CONTINUOUS
 10
121.3454588993
 20
132.5089182156
 40
43.0
  0
ARC
  5
28D
100
AcDbEntity
  8
_1
100
AcDbCircle
 62
7
  6
CONTINUOUS
 10
193.7075598261
 20
59.5089182156
 40
22.0
100
AcDbArc
 50
270.0
 51
359.5
  0
CIRCLE
  5
28E
100
AcDbEntity
  8
_1
100
AcDbCircle
 62
7
  6
CONTINUOUS
 10
121.3454588993
 20
132.5089182156
 40
19.0
  0
CIRCLE
  5
28F
100
AcDbEntity
  8
_1
100
AcDbCircle
 62
7
  6
CONTINUOUS
 10
197.3594378769
 20
56.4949392381
 40
7.0
  0
ARC
  5
290
100
AcDbEntity
  8
_1
100
AcDbCircle
 62
7
  6
CONTINUOUS
 10
136.5236462712
 20
231.8606823185
 40
9.0
100
AcDbArc
 50
64.8717512203
 51
90.0
  0
ARC
  5
291
100
AcDbEntity
  8
_1
100
AcDbCircle
 62
7
  6
CONTINUOUS
 10
136.1672715275
 20
231.8606823185
 40
9.0
100
AcDbArc
 50
90.0
 51
114.9337706539
  0
ARC
  5
292
100
AcDbEntity
  8
_1
100
AcDbCircle
 62
7
  6
CONTINUOUS
 10
125.1242126414
 20
273.0470211146
 40
24.2933468579
100
AcDbArc
 50
191.8139615894
 51
210.4219588466
  0
ARC
  5
293
100
AcDbEntity
  8
_1
100
AcDbCircle
 62
7
  6
CONTINUOUS
 10
121.3454588993
 20
273.0089182156
 40
22.0
100
AcDbArc
 50
154.2855124599
 51
219.8645957872
  0
ARC
  5
294
100
AcDbEntity
  8
_1
100
AcDbCircle
 62
7
  6
CONTINUOUS
 10
121.3454588993
 20
273.0089182156
 40
22.0
100
AcDbArc
 50
140.1354055965
 51
153.0376549631
  0
ARC
  5
295
100
AcDbEntity
  8
_1
100
AcDbCircle
 62
7
  6
CONTINUOUS
 10
121.3454588993
 20
273.0089182156
 40
22.0
100
AcDbArc
 50
65.3505549434
 51
114.6494736355
  0
ARC
  5
296
100
AcDbEntity
  8
_1
100
AcDbCircle
 62
7
  6
CONTINUOUS
 10
121.3454588993
 20
273.0089182156
 40
22.0
100
AcDbArc
 50
26.9623450369
 51
39.8645245839
  0
ARC
  5
297
100
AcDbEntity
  8
_1
100
AcDbCircle
 62
7
  6
CONTINUOUS
 10
121.3454588993
 20
273.0089182156
 40
22.0
100
AcDbArc
 50
320.1354751599
 51
25.7150219005
  0
ARC
  5
298
100
AcDbEntity
  8
_1
100
AcDbCircle
 62
7
  6
CONTINUOUS
 10
121.3454588993
 20
273.0089182156
 40
21.9507355072
100
AcDbArc
 50
154.2855125781
 51
219.8674260061
  0
ARC
  5
299
100
AcDbEntity
  8
_1
100
AcDbCircle
 62
7
  6
CONTINUOUS
 10
121.3454588993
 20
273.0089182156
 40
21.9507355072
100
AcDbArc
 50
140.1325027684
 51
153.2714921712
  0
ARC
  5
29A
100
AcDbEntity
  8
_1
100
AcDbCircle
 62
7
  6
CONTINUOUS
 10
121.3454588993
 20
273.0089182156
 40
21.9507355072
100
AcDbArc
 50
65.6040471897
 51
114.3959915151
  0
ARC
  5
29B
100
AcDbEntity
  8
_1
100
AcDbCircle
 62
7
  6
CONTINUOUS
 10
121.3454588993
 20
273.0089182156
 40
21.9507355072
100
AcDbArc
 50
31.6060967915
 51
39.8674260061
  0
ARC
  5
29C
100
AcDbEntity
  8
_1
100
AcDbCircle
 62
7
  6
CONTINUOUS
 10
121.3454588993
 20
273.0089182156
 40
21.9507355072
100
AcDbArc
 50
320.1325011248
 51
25.715021931
  0
ARC
  5
29D
100
AcDbEntity
  8
_1
100
AcDbCircle
 62
7
  6
CONTINUOUS
 10
121.3454588993
 20
273.0089182156
 40
20.6
100
AcDbArc
 50
346.1375678836
 51
13.8624321164
  0
ARC
  5
29E
100
AcDbEntity
  8
_1
100
AcDbCircle
 62
7
  6
CONTINUOUS
 10
121.3454588993
 20
273.0089182156
 40
20.6
100
AcDbArc
 50
76.1375678836
 51
103.8624321164
  0
ARC
  5
29F
100
AcDbEntity
  8
_1
100
AcDbCircle
 62
7
  6
CONTINUOUS
 10
121.3454588993
 20
273.0089182156
 40
20.6
100
AcDbArc
 50
166.1375678836
 51
193.8624321164
  0
ARC
  5
2A0
100
AcDbEntity
  8
_1
100
AcDbCircle
 62
7
  6
CONTINUOUS
 10
121.5236462712
 20
282.8606823185
 40
9.0
100
AcDbArc
 50
64.8717512203
 51
90.0
  0
ARC
  5
2A1
100
AcDbEntity
  8
_1
100
AcDbCircle
 62
7
  6
CONTINUOUS
 10
137.5236462712
 20
275.2606823185
 40
9.0
100
AcDbArc
 50
64.8717512203
 51
79.4635378543
  0
ARC
  5
2A2
100
AcDbEntity
  8
_1
100
AcDbCircle
 62
7
  6
CONTINUOUS
 10
193.7075598261
 20
205.5089182156
 40
22.0
100
AcDbArc
 50
0.5
 51
90.0
  0
CIRCLE
  5
2A3
100
AcDbEntity
  8
_1
100
AcDbCircle
 62
7
  6
CONTINUOUS
 10
197.3594378769
 20
208.5228971932
 40
7.0
  0
SPLINE
  5
2A4
100
AcDbEntity
  8
_1
100
AcDbSpline
 62
7
  6
CONTINUOUS
 70
0
 71
3
 72
9
 73
5
 74
0
 42
0.0000001
 43
0.0000001
 44
0.0000000001
 40
0.0
 40
0.0
 40
0.0
 40
0.0
 40
0.356910402
 40
1.0
 40
1.0
 40
1.0
 40
1.0
 10
132.2808574783
 20
254.8089182156
 30
0.0
 10
132.2920784024
 20
254.8089182156
 30
0.0
 10
132.3203600826
 20
254.7884300407
 30
0.0
 10
132.3378132737
 20
254.7633325994
 30
0.0
 10
132.348794192
 20
254.7463563788
 30
0.0
  0
SPLINE
  5
2A5
100
AcDbEntity
  8
_1
100
AcDbSpline
 62
7
  6
CONTINUOUS
 70
0
 71
3
 72
9
 73
5
 74
0
 42
0.0000001
 43
0.0000001
 44
0.0000000001
 40
0.0
 40
0.0
 40
0.0
 40
0.0
 40
0.6430896091
 40
1.0
 40
1.0
 40
1.0
 40
1.0
 10
110.3421235972
 20
254.7463563642
 30
0.0
 10
110.3531045171
 20
254.7633325886
 30
0.0
 10
110.3705577101
 20
254.788430035
 30
0.0
 10
110.3988393946
 20
254.8089182156
 30
0.0
 10
110.4100603204
 20
254.8089182156
 30
0.0
  0
SPLINE
  5
2A6
100
AcDbEntity
  8
_1
100
AcDbSpline
 62
7
  6
CONTINUOUS
 70
0
 71
3
 72
8
 73
4
 74
0
 42
0.0000001
 43
0.0000001
 44
0.0000000001
 40
0.0
 40
0.0
 40
0.0
 40
0.0
 40
1.0
 40
1.0
 40
1.0
 40
1.0
 10
110.3421235972
 20
254.7463563642
 30
0.0
 10
110.3364726273
 20
254.7376201075
 30
0.0
 10
110.3318769366
 20
254.7281416107
 30
0.0
 10
110.3282945648
 20
254.7183731791
 30
0.0
  0
SPLINE
  5
2A7
100
AcDbEntity
  8
_1
100
AcDbSpline
 62
7
  6
CONTINUOUS
 70
0
 71
3
 72
9
 73
5
 74
0
 42
0.0000001
 43
0.0000001
 44
0.0000000001
 40
0.0
 40
0.0
 40
0.0
 40
0.0
 40
0.2346180847
 40
1.0
 40
1.0
 40
1.0
 40
1.0
 10
110.3282945648
 20
254.7183731791
 30
0.0
 10
110.326322824
 20
254.7129966252
 30
0.0
 10
110.3191806796
 20
254.6896124644
 30
0.0
 10
110.316919865
 20
254.6649471095
 30
0.0
 10
110.316919865
 20
254.6462652047
 30
0.0
  0
SPLINE
  5
2A8
100
AcDbEntity
  8
_1
100
AcDbSpline
 62
7
  6
CONTINUOUS
 70
0
 71
3
 72
9
 73
5
 74
0
 42
0.0000001
 43
0.0000001
 44
0.0000000001
 40
0.0
 40
0.0
 40
0.0
 40
0.0
 40
0.2725582163
 40
1.0
 40
1.0
 40
1.0
 40
1.0
 10
132.3739979337
 20
254.6465937287
 30
0.0
 10
132.3739979337
 20
254.656008493
 30
0.0
 10
132.3723835669
 20
254.6904194375
 30
0.0
 10
132.3624414763
 20
254.7252580286
 30
0.0
 10
132.348794192
 20
254.7463563788
 30
0.0
  0
SPLINE
  5
2A9
100
AcDbEntity
  8
_1
100
AcDbSpline
 62
7
  6
CONTINUOUS
 70
0
 71
3
 72
8
 73
4
 74
0
 42
0.0000001
 43
0.0000001
 44
0.0000000001
 40
0.0
 40
0.0
 40
0.0
 40
0.0
 40
1.0
 40
1.0
 40
1.0
 40
1.0
 10
110.3184360882
 20
251.6749436194
 30
0.0
 10
110.317383172
 20
251.6655055859
 30
0.0
 10
110.316919865
 20
251.6559908265
 30
0.0
 10
110.316919865
 20
251.6464942424
 30
0.0
  0
SPLINE
  5
2AA
100
AcDbEntity
  8
_1
100
AcDbSpline
 62
7
  6
CONTINUOUS
 70
0
 71
3
 72
8
 73
4
 74
0
 42
0.0000001
 43
0.0000001
 44
0.0000000001
 40
0.0
 40
0.0
 40
0.0
 40
0.0
 40
1.0
 40
1.0
 40
1.0
 40
1.0
 10
132.3739979337
 20
251.6465302258
 30
0.0
 10
132.3739979337
 20
251.6560148324
 30
0.0
 10
132.3735332987
 20
251.6655174895
 30
0.0
 10
132.3724817105
 20
251.6749436194
 30
0.0
  0
SPLINE
  5
2AB
100
AcDbEntity
  8
_1
100
AcDbSpline
 62
7
  6
CONTINUOUS
 70
0
 71
3
 72
10
 73
6
 74
0
 42
0.0000001
 43
0.0000001
 44
0.0000000001
 40
0.0
 40
0.0
 40
0.0
 40
0.0
 40
0.221566926
 40
0.4621903904
 40
1.0
 40
1.0
 40
1.0
 40
1.0
 10
140.839206945
 20
251.6749436194
 30
0.0
 10
140.9046154827
 20
251.6362358992
 30
0.0
 10
141.0324548413
 20
251.5392160618
 30
0.0
 10
141.2460932885
 20
251.2675548623
 30
0.0
 10
141.3216223192
 20
250.9934021007
 30
0.0
 10
141.3216223192
 20
250.8089182156
 30
0.0
  0
SPLINE
  5
2AC
100
AcDbEntity
  8
_1
100
AcDbSpline
 62
7
  6
CONTINUOUS
 70
0
 71
3
 72
11
 73
7
 74
0
 42
0.0000001
 43
0.0000001
 44
0.0000000001
 40
0.0
 40
0.0
 40
0.0
 40
0.0
 40
0.2940743777
 40
0.5537356603
 40
0.7839514697
 40
1.0
 40
1.0
 40
1.0
 40
1.0
 10
141.3216223192
 20
252.3089182156
 30
0.0
 10
141.3216223192
 20
252.2336935447
 30
0.0
 10
141.2901088243
 20
252.0899297369
 30
0.0
 10
141.1676485721
 20
251.9246880335
 30
0.0
 10
141.00987816
 20
251.8282271221
 30
0.0
 10
140.894472486
 20
251.8089182156
 30
0.0
 10
140.839206945
 20
251.8089182156
 30
0.0
  0
SPLINE
  5
2AD
100
AcDbEntity
  8
_1
100
AcDbSpline
 62
7
  6
CONTINUOUS
 70
0
 71
3
 72
9
 73
5
 74
0
 42
0.0000001
 43
0.0000001
 44
0.0000000001
 40
0.0
 40
0.0
 40
0.0
 40
0.0
 40
0.4864581799
 40
1.0
 40
1.0
 40
1.0
 40
1.0
 10
140.3454588993
 20
254.8089182156
 30
0.0
 10
140.4510172041
 20
254.8089182156
 30
0.0
 10
140.6695404842
 20
254.7740967152
 30
0.0
 10
140.8643503773
 20
254.6671924561
 30
0.0
 10
140.951224507
 20
254.5974020024
 30
0.0
  0
SPLINE
  5
2AE
100
AcDbEntity
  8
_1
100
AcDbSpline
 62
7
  6
CONTINUOUS
 70
0
 71
3
 72
9
 73
5
 74
0
 42
0.0000001
 43
0.0000001
 44
0.0000000001
 40
0.0
 40
0.0
 40
0.0
 40
0.0
 40
0.4666154787
 40
1.0
 40
1.0
 40
1.0
 40
1.0
 10
140.951224507
 20
254.5974020024
 30
0.0
 10
141.0595252487
 20
254.51039845
 30
0.0
 10
141.2519654284
 20
254.2700834585
 30
0.0
 10
141.3216223192
 20
253.9677161845
 30
0.0
 10
141.3216223192
 20
253.8089182156
 30
0.0
  0
SPLINE
  5
2AF
100
AcDbEntity
  8
_1
100
AcDbSpline
 62
7
  6
CONTINUOUS
 70
0
 71
3
 72
11
 73
7
 74
0
 42
0.0000001
 43
0.0000001
 44
0.0000000001
 40
0.0
 40
0.0
 40
0.0
 40
0.0
 40
0.2783820455
 40
0.5429623559
 40
0.7847338696
 40
1.0
 40
1.0
 40
1.0
 40
1.0
 10
105.2627113753
 20
251.8089182156
 30
0.0
 10
105.1640547663
 20
251.8089182156
 30
0.0
 10
104.971493921
 20
251.8498699382
 30
0.0
 10
104.7211676601
 20
251.9744368916
 30
0.0
 10
104.5161417022
 20
252.1294597579
 30
0.0
 10
104.4046919124
 20
252.2483507468
 30
0.0
 10
104.3583070057
 20
252.3089182156
 30
0.0
  0
SPLINE
  5
2B0
100
AcDbEntity
  8
_1
100
AcDbSpline
 62
7
  6
CONTINUOUS
 70
0
 71
3
 72
9
 73
5
 74
0
 42
0.0000001
 43
0.0000001
 44
0.0000000001
 40
0.0
 40
0.0
 40
0.0
 40
0.0
 40
0.4695352584
 40
1.0
 40
1.0
 40
1.0
 40
1.0
 10
104.3583070057
 20
250.8089182156
 30
0.0
 10
104.452629938
 20
250.983096909
 30
0.0
 10
104.7175395354
 20
251.3192055971
 30
0.0
 10
105.0620891244
 20
251.5758016219
 30
0.0
 10
105.2627113753
 20
251.6749436194
 30
0.0
  0
SPLINE
  5
2B1
100
AcDbEntity
  8
_1
100
AcDbSpline
 62
7
  6
CONTINUOUS
 70
0
 71
3
 72
9
 73
5
 74
0
 42
0.0000001
 43
0.0000001
 44
0.0000000001
 40
0.0
 40
0.0
 40
0.0
 40
0.0
 40
0.251818404
 40
1.0
 40
1.0
 40
1.0
 40
1.0
 10
105.8078574783
 20
254.8089182156
 30
0.0
 10
105.7756860641
 20
254.8089182156
 30
0.0
 10
105.6480026162
 20
254.8042012481
 30
0.0
 10
105.520872412
 20
254.7782393752
 30
0.0
 10
105.4307615628
 20
254.7463563788
 30
0.0
  0
SPLINE
  5
2B2
100
AcDbEntity
  8
_1
100
AcDbSpline
 62
7
  6
CONTINUOUS
 70
0
 71
3
 72
11
 73
7
 74
0
 42
0.0000001
 43
0.0000001
 44
0.0000000001
 40
0.0
 40
0.0
 40
0.0
 40
0.0
 40
0.1869851187
 40
0.4238565848
 40
0.6982119677
 40
1.0
 40
1.0
 40
1.0
 40
1.0
 10
110.316919865
 20
254.6462622154
 30
0.0
 10
110.316919865
 20
254.5855131199
 30
0.0
 10
110.3550472769
 20
254.4494724801
 30
0.0
 10
110.457970128
 20
254.2475341449
 30
0.0
 10
110.6065719619
 20
254.0282077572
 30
0.0
 10
110.7246874559
 20
253.8828370837
 30
0.0
 10
110.7891020211
 20
253.8089182156
 30
0.0
  0
SPLINE
  5
2B3
100
AcDbEntity
  8
_1
100
AcDbSpline
 62
7
  6
CONTINUOUS
 70
0
 71
3
 72
16
 73
12
 74
0
 42
0.0000001
 43
0.0000001
 44
0.0000000001
 40
0.0
 40
0.0
 40
0.0
 40
0.0
 40
0.0130649328
 40
0.0365350316
 40
0.0694258944
 40
0.1106603216
 40
0.2143422533
 40
0.3411283729
 40
0.4862266847
 40
0.6460896215
 40
1.0
 40
1.0
 40
1.0
 40
1.0
 10
132.3739979337
 20
251.8110606289
 30
0.0
 10
132.3739979337
 20
251.8140665061
 30
0.0
 10
132.3705459275
 20
251.8220869885
 30
0.0
 10
132.3633092954
 20
251.8361072884
 30
0.0
 10
132.3511788752
 20
251.8551404739
 30
0.0
 10
132.3277516568
 20
251.8886246939
 30
0.0
 10
132.2888879159
 20
251.9376929341
 30
0.0
 10
132.231925358
 20
252.0026779977
 30
0.0
 10
132.1632656526
 20
252.0745109873
 30
0.0
 10
132.0544096255
 20
252.1800374728
 30
0.0
 10
131.9650435986
 20
252.2576126541
 30
0.0
 10
131.9018157776
 20
252.3089182156
 30
0.0
  0
SPLINE
  5
2B4
100
AcDbEntity
  8
_1
100
AcDbSpline
 62
7
  6
CONTINUOUS
 70
0
 71
3
 72
9
 73
5
 74
0
 42
0.0000001
 43
0.0000001
 44
0.0000000001
 40
0.0
 40
0.0
 40
0.0
 40
0.0
 40
0.2342164404
 40
1.0
 40
1.0
 40
1.0
 40
1.0
 10
130.4392907213
 20
270.4558114032
 30
0.0
 10
130.4546835263
 20
270.43403369
 30
0.0
 10
130.523045378
 20
270.3429667225
 30
0.0
 10
130.6019109091
 20
270.2596230453
 30
0.0
 10
130.6676657038
 20
270.2023595695
 30
0.0
  0
SPLINE
  5
2B5
100
AcDbEntity
  8
_1
100
AcDbSpline
 62
7
  6
CONTINUOUS
 70
0
 71
3
 72
9
 73
5
 74
0
 42
0.0000001
 43
0.0000001
 44
0.0000000001
 40
0.0
 40
0.0
 40
0.0
 40
0.0
 40
0.2401897675
 40
1.0
 40
1.0
 40
1.0
 40
1.0
 10
112.2516270774
 20
255.983547431
 30
0.0
 10
112.2366279052
 20
256.0125505365
 30
0.0
 10
112.1709104598
 20
256.1315440851
 30
0.0
 10
112.0915827294
 20
256.2433375555
 30
0.0
 10
112.0232521449
 20
256.3207964652
 30
0.0
  0
SPLINE
  5
2B6
100
AcDbEntity
  8
_1
100
AcDbSpline
 62
7
  6
CONTINUOUS
 70
0
 71
3
 72
16
 73
12
 74
0
 42
0.0000001
 43
0.0000001
 44
0.0000000001
 40
0.0
 40
0.0
 40
0.0
 40
0.0
 40
0.3539426572
 40
0.5138201522
 40
0.6589319494
 40
0.7857317734
 40
0.8894189838
 40
0.9306690104
 40
0.9635696614
 40
0.986987956
 40
1.0
 40
1.0
 40
1.0
 40
1.0
 10
110.7891020211
 20
252.3089182156
 30
0.0
 10
110.7258747376
 20
252.2576130902
 30
0.0
 10
110.6365093686
 20
252.1800386296
 30
0.0
 10
110.5276544698
 20
252.0745128822
 30
0.0
 10
110.4589935743
 20
252.002681232
 30
0.0
 10
110.4020354625
 20
251.9376941333
 30
0.0
 10
110.3631637204
 20
251.8886297924
 30
0.0
 10
110.3397394383
 20
251.8551398069
 30
0.0
 10
110.3276230624
 20
251.8361071626
 30
0.0
 10
110.3203782995
 20
251.8221201778
 30
0.0
 10
110.316919865
 20
251.8141276305
 30
0.0
 10
110.316919865
 20
251.81113422
 30
0.0
  0
SPLINE
  5
2B7
100
AcDbEntity
  8
_1
100
AcDbSpline
 62
7
  6
CONTINUOUS
 70
0
 71
3
 72
11
 73
7
 74
0
 42
0.0000001
 43
0.0000001
 44
0.0000000001
 40
0.0
 40
0.0
 40
0.0
 40
0.0
 40
0.3020952923
 40
0.5763962064
 40
0.813035859
 40
1.0
 40
1.0
 40
1.0
 40
1.0
 10
131.9018157776
 20
253.8089182156
 30
0.0
 10
131.9663191468
 20
253.8829389906
 30
0.0
 10
132.0845619935
 20
254.0284101766
 30
0.0
 10
132.2330485128
 20
254.2479172102
 30
0.0
 10
132.3361160447
 20
254.4497907876
 30
0.0
 10
132.3739979337
 20
254.5858539305
 30
0.0
 10
132.3739979337
 20
254.646618086
 30
0.0
  0
SPLINE
  5
2B8
100
AcDbEntity
  8
_1
100
AcDbSpline
 62
7
  6
CONTINUOUS
 70
0
 71
3
 72
9
 73
5
 74
0
 42
0.0000001
 43
0.0000001
 44
0.0000000001
 40
0.0
 40
0.0
 40
0.0
 40
0.0
 40
0.2340023934
 40
1.0
 40
1.0
 40
1.0
 40
1.0
 10
112.2516270774
 20
270.4558114032
 30
0.0
 10
112.2362478446
 20
270.434052892
 30
0.0
 10
112.1680989251
 20
270.3428198908
 30
0.0
 10
112.0890274332
 20
270.2596409421
 30
0.0
 10
112.0232521449
 20
270.2023596131
 30
0.0
  0
SPLINE
  5
2B9
100
AcDbEntity
  8
_1
100
AcDbSpline
 62
7
  6
CONTINUOUS
 70
0
 71
3
 72
10
 73
6
 74
0
 42
0.0000001
 43
0.0000001
 44
0.0000000001
 40
0.0
 40
0.0
 40
0.0
 40
0.0
 40
0.4832235433
 40
0.738268271
 40
1.0
 40
1.0
 40
1.0
 40
1.0
 10
112.0232521449
 20
270.2023596131
 30
0.0
 10
111.8574337922
 20
270.0579543833
 30
0.0
 10
111.6361787289
 20
269.7915090375
 30
0.0
 10
111.4699709203
 20
269.364302958
 30
0.0
 10
111.4397787107
 20
269.1280150517
 30
0.0
 10
111.4397787107
 20
269.0089182156
 30
0.0
  0
SPLINE
  5
2BA
100
AcDbEntity
  8
_1
100
AcDbSpline
 62
7
  6
CONTINUOUS
 70
0
 71
3
 72
9
 73
5
 74
0
 42
0.0000001
 43
0.0000001
 44
0.0000000001
 40
0.0
 40
0.0
 40
0.0
 40
0.0
 40
0.5149990137
 40
1.0
 40
1.0
 40
1.0
 40
1.0
 10
131.251139088
 20
269.0089182156
 30
0.0
 10
131.251139088
 20
269.2423734853
 30
0.0
 10
131.1320789895
 20
269.7019580625
 30
0.0
 10
130.8334641876
 20
270.0579716335
 30
0.0
 10
130.6676657038
 20
270.2023595695
 30
0.0
  0
SPLINE
  5
2BB
100
AcDbEntity
  8
_1
100
AcDbSpline
 62
7
  6
CONTINUOUS
 70
0
 71
3
 72
9
 73
5
 74
0
 42
0.0000001
 43
0.0000001
 44
0.0000000001
 40
0.0
 40
0.0
 40
0.0
 40
0.0
 40
0.7481815957
 40
1.0
 40
1.0
 40
1.0
 40
1.0
 10
137.260156277
 20
254.7463563642
 30
0.0
 10
137.1700454189
 20
254.7782393681
 30
0.0
 10
137.0429152005
 20
254.8042012471
 30
0.0
 10
136.9152317383
 20
254.8089182156
 30
0.0
 10
136.8830603204
 20
254.8089182156
 30
0.0
  0
SPLINE
  5
2BC
100
AcDbEntity
  8
_1
100
AcDbSpline
 62
7
  6
CONTINUOUS
 70
0
 71
3
 72
11
 73
7
 74
0
 42
0.0000001
 43
0.0000001
 44
0.0000000001
 40
0.0
 40
0.0
 40
0.0
 40
0.0
 40
0.1868879559
 40
0.4235553024
 40
0.697881164
 40
1.0
 40
1.0
 40
1.0
 40
1.0
 10
110.316919865
 20
251.6464941687
 30
0.0
 10
110.316919865
 20
251.5857623711
 30
0.0
 10
110.3548430926
 20
251.4497430364
 30
0.0
 10
110.4578754784
 20
251.2478991764
 30
0.0
 10
110.6063648624
 20
251.0284005171
 30
0.0
 10
110.7246016937
 20
250.8829355
 30
0.0
 10
110.7891020211
 20
250.8089182156
 30
0.0
  0
SPLINE
  5
2BD
100
AcDbEntity
  8
_1
100
AcDbSpline
 62
7
  6
CONTINUOUS
 70
0
 71
3
 72
9
 73
5
 74
0
 42
0.0000001
 43
0.0000001
 44
0.0000000001
 40
0.0
 40
0.0
 40
0.0
 40
0.0
 40
0.5117539931
 40
1.0
 40
1.0
 40
1.0
 40
1.0
 10
111.4397787107
 20
257.8089182156
 30
0.0
 10
111.4397787107
 20
257.5316680512
 30
0.0
 10
111.5495909277
 20
256.9845017104
 30
0.0
 10
111.8482660506
 20
256.5191590609
 30
0.0
 10
112.0232521449
 20
256.3207964652
 30
0.0
  0
SPLINE
  5
2BE
100
AcDbEntity
  8
_1
100
AcDbSpline
 62
7
  6
CONTINUOUS
 70
0
 71
3
 72
10
 73
6
 74
0
 42
0.0000001
 43
0.0000001
 44
0.0000000001
 40
0.0
 40
0.0
 40
0.0
 40
0.0
 40
0.2683584206
 40
0.5308960999
 40
1.0
 40
1.0
 40
1.0
 40
1.0
 10
137.260156277
 20
254.7463563642
 30
0.0
 10
137.3823355484
 20
254.7031269215
 30
0.0
 10
137.6126847642
 20
254.5841263196
 30
0.0
 10
137.9946368615
 20
254.2874368767
 30
0.0
 10
138.2247299674
 20
254.0081331973
 30
0.0
 10
138.332610793
 20
253.8089182156
 30
0.0
  0
SPLINE
  5
2BF
100
AcDbEntity
  8
_1
100
AcDbSpline
 62
7
  6
CONTINUOUS
 70
0
 71
3
 72
11
 73
7
 74
0
 42
0.0000001
 43
0.0000001
 44
0.0000000001
 40
0.0
 40
0.0
 40
0.0
 40
0.0
 40
0.3021115821
 40
0.5764296962
 40
0.8130883741
 40
1.0
 40
1.0
 40
1.0
 40
1.0
 10
131.9018157776
 20
250.8089182156
 30
0.0
 10
131.9663170683
 20
250.8829366054
 30
0.0
 10
132.0845557933
 20
251.0284035655
 30
0.0
 10
132.2330442856
 20
251.2479048555
 30
0.0
 10
132.3360875549
 20
251.4497579638
 30
0.0
 10
132.3739979337
 20
251.585790899
 30
0.0
 10
132.3739979337
 20
251.646532754
 30
0.0
  0
SPLINE
  5
2C0
100
AcDbEntity
  8
_1
100
AcDbSpline
 62
7
  6
CONTINUOUS
 70
0
 71
3
 72
9
 73
5
 74
0
 42
0.0000001
 43
0.0000001
 44
0.0000000001
 40
0.0
 40
0.0
 40
0.0
 40
0.0
 40
0.2400218293
 40
1.0
 40
1.0
 40
1.0
 40
1.0
 10
130.4392907213
 20
255.983547431
 30
0.0
 10
130.4542798982
 20
256.0125312091
 30
0.0
 10
130.5197268626
 20
256.1316813379
 30
0.0
 10
130.5993177688
 20
256.2433179525
 30
0.0
 10
130.6676657038
 20
256.3207965219
 30
0.0
  0
SPLINE
  5
2C1
100
AcDbEntity
  8
_1
100
AcDbSpline
 62
7
  6
CONTINUOUS
 70
0
 71
3
 72
9
 73
5
 74
0
 42
0.0000001
 43
0.0000001
 44
0.0000000001
 40
0.0
 40
0.0
 40
0.0
 40
0.0
 40
0.4882250955
 40
1.0
 40
1.0
 40
1.0
 40
1.0
 10
130.6676657038
 20
256.3207965219
 30
0.0
 10
130.842647727
 20
256.5191545141
 30
0.0
 10
131.1414843292
 20
256.984424401
 30
0.0
 10
131.251139088
 20
257.5316512885
 30
0.0
 10
131.251139088
 20
257.8089182156
 30
0.0
  0
SPLINE
  5
2C2
100
AcDbEntity
  8
_1
100
AcDbSpline
 62
7
  6
CONTINUOUS
 70
0
 71
3
 72
10
 73
6
 74
0
 42
0.0000001
 43
0.0000001
 44
0.0000000001
 40
0.0
 40
0.0
 40
0.0
 40
0.0
 40
0.4691038673
 40
0.7316415678
 40
1.0
 40
1.0
 40
1.0
 40
1.0
 10
104.3583070057
 20
253.8089182156
 30
0.0
 10
104.466187827
 20
254.0081331894
 30
0.0
 10
104.6962809352
 20
254.2874368722
 30
0.0
 10
105.078233041
 20
254.5841263286
 30
0.0
 10
105.308582281
 20
254.7031269368
 30
0.0
 10
105.4307615628
 20
254.7463563788
 30
0.0
  0
SPLINE
  5
2C3
100
AcDbEntity
  8
_1
100
AcDbSpline
 62
7
  6
CONTINUOUS
 70
0
 71
3
 72
9
 73
5
 74
0
 42
0.0000001
 43
0.0000001
 44
0.0000000001
 40
0.0
 40
0.0
 40
0.0
 40
0.0
 40
0.530464602
 40
1.0
 40
1.0
 40
1.0
 40
1.0
 10
137.4282064234
 20
251.6749436194
 30
0.0
 10
137.6288286215
 20
251.575801648
 30
0.0
 10
137.9733782161
 20
251.3192056398
 30
0.0
 10
138.2382878326
 20
250.9830969608
 30
0.0
 10
138.332610793
 20
250.8089182156
 30
0.0
  0
SPLINE
  5
2C4
100
AcDbEntity
  8
_1
100
AcDbSpline
 62
7
  6
CONTINUOUS
 70
0
 71
3
 72
11
 73
7
 74
0
 42
0.0000001
 43
0.0000001
 44
0.0000000001
 40
0.0
 40
0.0
 40
0.0
 40
0.0
 40
0.2152661381
 40
0.4570376169
 40
0.7216179596
 40
1.0
 40
1.0
 40
1.0
 40
1.0
 10
138.332610793
 20
252.3089182156
 30
0.0
 10
138.2862258846
 20
252.2483507447
 30
0.0
 10
138.1747760972
 20
252.1294597671
 30
0.0
 10
137.9697501432
 20
251.9744368945
 30
0.0
 10
137.7194238845
 20
251.8498699417
 30
0.0
 10
137.5268630304
 20
251.8089182156
 30
0.0
 10
137.4282064234
 20
251.8089182156
 30
0.0
  0
ELLIPSE
  5
2C5
100
AcDbEntity
  8
_1
100
AcDbEllipse
 62
7
  6
CONTINUOUS
 10
116.9491593243
 20
273.0089182156
 30
0.0
 11
24.9062808906
 21
0.0
 31
0.0
 40
0.9842981849
 41
-0.5238616326
 42
-0.2027129709
  0
ELLIPSE
  5
2C6
100
AcDbEntity
  8
_1
100
AcDbEllipse
 62
7
  6
CONTINUOUS
 10
125.7417584744
 20
273.0089182156
 30
0.0
 11
24.9062808906
 21
-0.0
 31
0.0
 40
0.9842981849
 41
2.7918623341
 42
2.9388796826
  0
ELLIPSE
  5
2C7
100
AcDbEntity
  8
_1
100
AcDbEllipse
 62
7
  6
CONTINUOUS
 10
125.7417584744
 20
273.0089182156
 30
0.0
 11
24.9062808906
 21
0.0
 31
0.0
 40
0.9842981849
 41
2.6163472468
 42
2.6975607867
  0
ELLIPSE
  5
2C8
100
AcDbEntity
  8
_1
100
AcDbEllipse
 62
7
  6
CONTINUOUS
 10
113.1829619276
 20
269.0089182156
 30
0.0
 11
-0.0
 21
2.0
 31
0.0
 40
0.6745085168
 41
-0.0
 42
0.7620146664
  0
ELLIPSE
  5
2C9
100
AcDbEntity
  8
_1
100
AcDbEllipse
 62
7
  6
CONTINUOUS
 10
129.5079558711
 20
269.0089182156
 30
0.0
 11
-0.0
 21
2.0
 31
0.0
 40
0.6745085168
 41
-0.7620146664
 42
0.0
  0
ELLIPSE
  5
2CA
100
AcDbEntity
  8
_1
100
AcDbEllipse
 62
7
  6
CONTINUOUS
 10
113.8574704444
 20
257.8089182156
 30
0.0
 11
0.0
 21
3.0
 31
0.0
 40
0.6745085168
 41
-4.0582742693
 42
-3.1415926536
  0
ELLIPSE
  5
2CB
100
AcDbEntity
  8
_1
100
AcDbEllipse
 62
7
  6
CONTINUOUS
 10
128.8334473543
 20
257.8089182156
 30
0.0
 11
-0.0
 21
3.0
 31
0.0
 40
0.6745085168
 41
-3.1415926536
 42
-2.2249110379
  0
ENDSEC
  0
SECTION
  2
OBJECTS
  0
DICTIONARY
  5
C
100
AcDbDictionary
280
0
281
1
  3
ACAD_GROUP
350
D
  3
ACAD_MLINESTYLE
350
17
  3
ACAD_LAYOUT
350
1A
  3
ACAD_PLOTSETTINGS
350
19
  3
ACAD_PLOTSTYLENAME
350
E
  0
DICTIONARY
  5
D
102
{ACAD_REACTORS
330
C
102
}
100
AcDbDictionary
280
0
281
1
  0
ACDBDICTIONARYWDFLT
  5
E
102
{ACAD_REACTORS
330
C
102
}
100
AcDbDictionary
281
1
  3
Normal
350
F
100
AcDbDictionaryWithDefault
340
F
  0
DICTIONARY
  5
17
102
{ACAD_REACTORS
330
C
102
}
100
AcDbDictionary
280
0
281
1
  3
Standard
350
18
  0
DICTIONARY
  5
19
102
{ACAD_REACTORS
330
C
102
}
100
AcDbDictionary
281
1
  0
DICTIONARY
  5
1A
102
{ACAD_REACTORS
330
C
102
}
100
AcDbDictionary
281
1
  3
Model
350
2CC
  3
Layout1
350
2CD
  0
ACDBPLACEHOLDER
  5
F
102
{ACAD_REACTORS
330
E
102
}
  0
MLINESTYLE
  5
18
102
{ACAD_REACTORS
330
17
102
}
100
AcDbMlineStyle
  2
STANDARD
 70
0
  3

 62
256
 51
90.0
 52
90.0
 71
2
 49
0.5
 62
256
  6
BYLAYER
 49
-0.5
 62
256
  6
BYLAYER
  0
LAYOUT
  5
2CC
102
{ACAD_REACTORS
330
1A
102
}
100
AcDbPlotSettings
  1

  2
none_device
  4

  6

 40
0.0
 41
0.0
 42
0.0
 43
0.0
 44
210.0
 45
297.0
 46
0.0
 47
0.0
 48
0.0
 49
0.0
140
0.0
141
0.0
142
1.0
143
1.0
 70
1024
 72
1
 73
0
 74
0
  7

 75
0
147
1.0
148
0.0
149
0.0
100
AcDbLayout
  1
Model
 70
0
 71
0
 10
0.0
 20
0.0
 11
210.0
 21
297.0
 12
0.0
 22
0.0
 32
0.0
 14
0.0
 24
0.0
 34
0.0
 15
0.0
 25
0.0
 35
0.0
146
0.0
 13
0.0
 23
0.0
 33
0.0
 16
1.0
 26
0.0
 36
0.0
 17
0.0
 27
1.0
 37
0.0
 76
0
330
211
345
0
346
0
  0
LAYOUT
  5
2CD
102
{ACAD_REACTORS
330
1A
102
}
100
AcDbPlotSettings
  1

  2
none_device
  4

  6

 40
0.0
 41
0.0
 42
0.0
 43
0.0
 44
210.0
 45
297.0
 46
0.0
 47
0.0
 48
0.0
 49
0.0
140
0.0
141
0.0
142
1.0
143
1.0
 70
0
 72
1
 73
0
 74
0
  7

 75
0
147
1.0
148
0.0
149
0.0
100
AcDbLayout
  1
Layout1
 70
0
 71
1
 10
0.0
 20
0.0
 11
210.0
 21
297.0
 12
0.0
 22
0.0
 32
0.0
 14
0.0
 24
0.0
 34
0.0
 15
0.0
 25
0.0
 35
0.0
146
0.0
 13
0.0
 23
0.0
 33
0.0
 16
1.0
 26
0.0
 36
0.0
 17
0.0
 27
1.0
 37
0.0
 76
0
330
212
345
0
346
0
  0
ENDSEC
  0
EOF
