999
DXF file: C:\Users\sesa63760\Dev\_Creo\CAD\MCADID0001003_3D-CAD\drw0001_1.dxf
999
Pro/ENGINEER 2019471 by Parametric Technology Corporation
  0
SECTION
  2
HEADER
  9
$ACADVER
  1
AC1024
  9
$DWGCODEPAGE
  3
ANSI_1252
  9
$EXTMAX
 10
681.8166580425
 20
964.2835592316
 30
0.0
  9
$EXTMIN
 10
0.0
 20
0.0
 30
0.0
  9
$LIMMIN
 10
0.0
 20
0.0
  9
$LIMMAX
 10
681.8166580425
 20
964.2835592316
  9
$VIEWCTR
 10
340.9083290213
 20
482.1417796158
  9
$VIEWSIZE
 40
964.2835592316
  9
$CLAYER
  8
0
  9
$LTSCALE
 40
62.8570023795
  9
$CELTYPE
  6
BYLAYER
  9
$DIMSCALE
 40
1.0
  9
$DIMASZ
 40
8.1168649767
  9
$DIMEXO
 40
1.0
  9
$DIMDLI
 40
43.4284743713
  9
$DIMEXE
 40
1.0
  9
$DIMCEN
 40
10.2856912985
  9
$DIMLFAC
 40
1.0
  9
$DIMBLK
  1
_FILLED
  9
$DIMALT
 70
0
  9
$DIMALTF
 40
0.0393700787
  9
$DIMTXT
 40
11.3636109674
  9
$DIMTOL
 70
1
  9
$DIMLIM
 70
0
  9
$DIMTFAC
 40
1.0
  9
$DIMTP
 40
0.01
  9
$DIMTM
 40
0.01
  9
$DIMGAP
 40
0.625
  9
$DIMDSEP
 70
46
  9
$AUNITS
 70
0
  9
$PDMODE
 70
3
  9
$PDSIZE
 40
0.3125
  9
$HANDSEED
  5
429
  9
$TILEMODE
 70
1
  9
$MEASUREMENT
 70
1
  9
$INSUNITS
 70
4
  0
ENDSEC
  0
SECTION
  2
CLASSES
  0
CLASS
  1
ACDBDICTIONARYWDFLT
  2
AcDbDictionaryWithDefault
  3
AutoCAD 2000
 90
0
 91
1
280
0
281
0
  0
CLASS
  1
ACDBPLACEHOLDER
  2
AcDbPlaceHolder
  3
AutoCAD 2000
 90
0
 91
1
280
0
281
0
  0
CLASS
  1
LAYOUT
  2
AcDbLayout
  3
AutoCAD 2000
 90
0
 91
0
280
0
281
0
  0
ENDSEC
  0
SECTION
  2
TABLES
  0
TABLE
  2
VPORT
  5
8
100
AcDbSymbolTable
 70
2
  0
VPORT
  5
1F4
100
AcDbSymbolTableRecord
100
AcDbViewportTableRecord
  2
*ACTIVE
 70
0
 10
0.0
 20
0.0
 11
1.0
 21
1.0
 12
340.9083290213
 22
482.1417796158
 13
0.0
 23
0.0
 14
1.0
 24
1.0
 15
0.0
 25
0.0
 16
0.0
 26
0.0
 36
1.0
 17
0.0
 27
0.0
 37
0.0
 40
964.2835592316
 41
0.7070707071
 42
50.0
 43
0.0
 44
0.0
 50
0.0
 51
0.0
 71
0
 72
100
 73
1
 74
1
 75
0
 76
0
 77
0
 78
0
  0
ENDTAB
  0
TABLE
  2
LTYPE
  5
5
100
AcDbSymbolTable
 70
6
  0
LTYPE
  5
14
100
AcDbSymbolTableRecord
100
AcDbLinetypeTableRecord
  2
BYBLOCK
 70
0
  3

 72
65
 73
0
 40
0.0
  0
LTYPE
  5
15
100
AcDbSymbolTableRecord
100
AcDbLinetypeTableRecord
  2
BYLAYER
 70
0
  3

 72
65
 73
0
 40
0.0
  0
LTYPE
  5
16
100
AcDbSymbolTableRecord
100
AcDbLinetypeTableRecord
  2
CONTINUOUS
 70
64
  3
Solid line
 72
65
 73
0
 40
0.0
  0
LTYPE
  5
1F5
100
AcDbSymbolTableRecord
100
AcDbLinetypeTableRecord
  2
CENTER
 70
64
  3
____ _ ____ _ ____ _ ____ _ ____ _ ____ _ ____
 72
65
 73
4
 40
0.6
 49
0.375
 74
0
 49
-0.075
 74
0
 49
0.075
 74
0
 49
-0.075
 74
0
  0
LTYPE
  5
1F6
100
AcDbSymbolTableRecord
100
AcDbLinetypeTableRecord
  2
HIDDEN
 70
64
  3
- - - - - - - - - - - - - - - - - - - -
 72
65
 73
2
 40
0.2
 49
0.1
 74
0
 49
-0.1
 74
0
  0
LTYPE
  5
1F7
100
AcDbSymbolTableRecord
100
AcDbLinetypeTableRecord
  2
PHANTOM
 70
64
  3
_____ _ _ _____ _ _ _____ _ _ _____
 72
65
 73
6
 40
0.8
 49
0.45
 74
0
 49
-0.05
 74
0
 49
0.1
 74
0
 49
-0.05
 74
0
 49
0.1
 74
0
 49
-0.05
 74
0
  0
LTYPE
  5
1F8
100
AcDbSymbolTableRecord
100
AcDbLinetypeTableRecord
  2
DOT
 70
64
  3
. . . . . . . . . . . . . . . . . . . .
 72
65
 73
2
 40
0.2
 49
0.1
 74
0
 49
-0.1
 74
0
  0
LTYPE
  5
1F9
100
AcDbSymbolTableRecord
100
AcDbLinetypeTableRecord
  2
DASHED
 70
64
  3
- - - - - - - - - - - - - - - - - - - -
 72
65
 73
2
 40
0.2
 49
0.1
 74
0
 49
-0.1
 74
0
  0
ENDTAB
  0
TABLE
  2
LAYER
  5
2
100
AcDbSymbolTable
 70
36
  0
LAYER
  5
10
100
AcDbSymbolTableRecord
100
AcDbLayerTableRecord
  2
0
 70
0
 62
7
  6
CONTINUOUS
370
-3
390
F
  0
LAYER
  5
1FA
100
AcDbSymbolTableRecord
100
AcDbLayerTableRecord
  2
DEFAULT_1
 70
0
 62
7
  6
CENTER
370
-3
390
F
  0
LAYER
  5
1FB
100
AcDbSymbolTableRecord
100
AcDbLayerTableRecord
  2
DEFAULT_2
 70
0
 62
8
  6
HIDDEN
370
-3
390
F
  0
LAYER
  5
1FC
100
AcDbSymbolTableRecord
100
AcDbLayerTableRecord
  2
DEFAULT_3
 70
0
 62
7
  6
PHANTOM
370
-3
390
F
  0
LAYER
  5
1FD
100
AcDbSymbolTableRecord
100
AcDbLayerTableRecord
  2
00_COMPONENTS
 70
0
 62
7
  6
CONTINUOUS
370
-3
390
F
  0
LAYER
  5
1FE
100
AcDbSymbolTableRecord
100
AcDbLayerTableRecord
  2
01_1_DEFAULT_DATUMS
 70
0
 62
7
  6
CONTINUOUS
370
-3
390
F
  0
LAYER
  5
1FF
100
AcDbSymbolTableRecord
100
AcDbLayerTableRecord
  2
01_PLANES
 70
0
 62
7
  6
CONTINUOUS
370
-3
390
F
  0
LAYER
  5
200
100
AcDbSymbolTableRecord
100
AcDbLayerTableRecord
  2
02_COORD_SYS
 70
0
 62
7
  6
CONTINUOUS
370
-3
390
F
  0
LAYER
  5
201
100
AcDbSymbolTableRecord
100
AcDbLayerTableRecord
  2
03_AXES
 70
0
 62
7
  6
CONTINUOUS
370
-3
390
F
  0
LAYER
  5
202
100
AcDbSymbolTableRecord
100
AcDbLayerTableRecord
  2
04_POINTS
 70
0
 62
7
  6
CONTINUOUS
370
-3
390
F
  0
LAYER
  5
203
100
AcDbSymbolTableRecord
100
AcDbLayerTableRecord
  2
05_CURVES
 70
0
 62
7
  6
CONTINUOUS
370
-3
390
F
  0
LAYER
  5
204
100
AcDbSymbolTableRecord
100
AcDbLayerTableRecord
  2
06_SURFS
 70
0
 62
7
  6
CONTINUOUS
370
-3
390
F
  0
LAYER
  5
205
100
AcDbSymbolTableRecord
100
AcDbLayerTableRecord
  2
07_COSMETICS
 70
0
 62
7
  6
CONTINUOUS
370
-3
390
F
  0
LAYER
  5
206
100
AcDbSymbolTableRecord
100
AcDbLayerTableRecord
  2
10_NOTES
 70
0
 62
7
  6
CONTINUOUS
370
-3
390
F
  0
LAYER
  5
207
100
AcDbSymbolTableRecord
100
AcDbLayerTableRecord
  2
11_NOTES_PUB
 70
0
 62
7
  6
CONTINUOUS
370
-3
390
F
  0
LAYER
  5
208
100
AcDbSymbolTableRecord
100
AcDbLayerTableRecord
  2
13_REF_GTOL
 70
0
 62
7
  6
CONTINUOUS
370
-3
390
F
  0
LAYER
  5
209
100
AcDbSymbolTableRecord
100
AcDbLayerTableRecord
  2
16_MISC
 70
0
 62
7
  6
CONTINUOUS
370
-3
390
F
  0
LAYER
  5
20A
100
AcDbSymbolTableRecord
100
AcDbLayerTableRecord
  2
17_NO_PRINT
 70
0
 62
7
  6
CONTINUOUS
370
-3
390
F
  0
LAYER
  5
20B
100
AcDbSymbolTableRecord
100
AcDbLayerTableRecord
  2
18_DATUM_CAMS_JOINTS
 70
0
 62
7
  6
CONTINUOUS
370
-3
390
F
  0
LAYER
  5
20C
100
AcDbSymbolTableRecord
100
AcDbLayerTableRecord
  2
19_DATUM_FUNCTIONAL
 70
0
 62
7
  6
CONTINUOUS
370
-3
390
F
  0
LAYER
  5
20D
100
AcDbSymbolTableRecord
100
AcDbLayerTableRecord
  2
20_DATUM_KINEMATIC_SCHEME
 70
0
 62
7
  6
CONTINUOUS
370
-3
390
F
  0
ENDTAB
  0
TABLE
  2
STYLE
  5
3
100
AcDbSymbolTable
 70
1
  0
STYLE
  5
11
100
AcDbSymbolTableRecord
100
AcDbTextStyleTableRecord
  2
STANDARD
 70
0
 40
0.0
 41
0.8
 50
0.0
 71
0
 42
0.2
  3
txt
  4

  0
STYLE
  5
20E
100
AcDbSymbolTableRecord
100
AcDbTextStyleTableRecord
  2
TEXTSTYLE_1
 70
0
 40
0.0
 41
0.8
 50
0.0
 71
0
 42
0.2
  3
gdt
  4

  0
ENDTAB
  0
TABLE
  2
VIEW
  5
6
100
AcDbSymbolTable
 70
0
  0
ENDTAB
  0
TABLE
  2
UCS
  5
7
100
AcDbSymbolTable
 70
0
  0
ENDTAB
  0
TABLE
  2
APPID
  5
9
100
AcDbSymbolTable
 70
1
  0
APPID
  5
20F
100
AcDbSymbolTableRecord
100
AcDbRegAppTableRecord
  2
ACAD
 70
0
  0
ENDTAB
  0
TABLE
  2
BLOCK_RECORD
  5
1
100
AcDbSymbolTable
 70
0
  0
BLOCK_RECORD
  5
210
100
AcDbSymbolTableRecord
100
AcDbBlockTableRecord
  2
*Model_Space
  0
BLOCK_RECORD
  5
211
100
AcDbSymbolTableRecord
100
AcDbBlockTableRecord
  2
*Paper_Space
  0
BLOCK_RECORD
  5
212
100
AcDbSymbolTableRecord
100
AcDbBlockTableRecord
  2
_FILLED
  0
ENDTAB
  0
TABLE
  2
DIMSTYLE
  5
A
100
AcDbSymbolTable
 70
1
100
AcDbDimStyleTable
 71
0
  0
DIMSTYLE
105
213
100
AcDbSymbolTableRecord
100
AcDbDimStyleTableRecord
  2
STANDARD
 70
0
  3

  4

 40
1.0
 41
8.1168649767
 42
1.0
 43
0.38
 44
1.0
 45
0.0
 46
0.0
 47
0.01
 48
0.01
140
11.3636109674
141
0.09
142
0.0
143
25.4
144
1.0
145
0.0
146
1.0
147
0.625
 71
1
 72
0
 73
0
 74
0
 75
0
 76
0
 77
1
 78
8
 79
2
170
0
171
1
172
0
173
0
174
0
175
0
176
0
177
0
178
0
270
2
179
2
271
2
272
2
273
2
274
2
275
0
280
0
281
0
282
0
283
1
284
8
285
0
286
0
287
3
288
0
340
11
278
46
341
212
342
212
343
212
344
212
  0
ENDTAB
  0
ENDSEC
  0
SECTION
  2
BLOCKS
  0
BLOCK
  5
20
100
AcDbEntity
  8
0
100
AcDbBlockBegin
  2
*Model_Space
 70
0
 10
0.0
 20
0.0
 30
0.0
  3
*Model_Space
  1

  0
ENDBLK
  5
21
100
AcDbEntity
  8
0
100
AcDbBlockEnd
  0
BLOCK
  5
1C
100
AcDbEntity
  8
0
100
AcDbBlockBegin
  2
*Paper_Space
 70
0
 10
0.0
 20
0.0
 30
0.0
  3
*Paper_Space
  1

  0
ENDBLK
  5
1D
100
AcDbEntity
  8
0
100
AcDbBlockEnd
  0
BLOCK
  5
214
100
AcDbEntity
  8
0
100
AcDbBlockBegin
  2
_FILLED
 70
64
 10
0.0
 20
0.0
  3
_FILLED
  1

  0
SOLID
  5
215
100
AcDbEntity
  8
0
  6
BYBLOCK
 62
0
100
AcDbTrace
 10
0.0
 20
0.0
 11
-1.0
 21
0.25
 12
-1.0
 22
-0.25
 13
-1.0
 23
-0.25
  0
ENDBLK
  5
216
100
AcDbEntity
  8
0
  6
BYBLOCK
 62
0
100
AcDbBlockEnd
  0
ENDSEC
  0
SECTION
  2
ENTITIES
  0
LINE
  5
217
100
AcDbEntity
  8
0
100
AcDbLine
 62
7
  6
CONTINUOUS
 10
330.0396661348
 20
74.4245700078
 11
153.7854960447
 21
176.1826604795
  0
LINE
  5
218
100
AcDbEntity
  8
0
100
AcDbLine
 62
7
  6
CONTINUOUS
 10
346.9944838755
 20
892.212335311
 11
193.1991918613
 21
803.4191120906
  0
LINE
  5
219
100
AcDbEntity
  8
0
100
AcDbLine
 62
7
  6
CONTINUOUS
 10
179.0926999265
 20
722.4428113742
 11
162.8293116706
 21
713.0531958351
  0
LINE
  5
21A
100
AcDbEntity
  8
0
100
AcDbLine
 62
7
  6
CONTINUOUS
 10
239.593716957
 20
754.3274290511
 11
153.7854960447
 21
704.7863253292
  0
LINE
  5
21B
100
AcDbEntity
  8
0
100
AcDbLine
 62
7
  6
CONTINUOUS
 10
514.9025346363
 20
180.6480063499
 11
518.2918721997
 21
180.3269935786
  0
LINE
  5
21C
100
AcDbEntity
  8
0
100
AcDbLine
 62
7
  6
CONTINUOUS
 10
186.1283609093
 20
785.1949684405
 11
193.1991918613
 21
803.4191120906
  0
LINE
  5
21D
100
AcDbEntity
  8
0
100
AcDbLine
 62
7
  6
CONTINUOUS
 10
175.6494058781
 20
649.5259943414
 11
184.9124661456
 21
654.8739927571
  0
LINE
  5
21E
100
AcDbEntity
  8
0
100
AcDbLine
 62
7
  6
CONTINUOUS
 10
175.6635480726
 20
339.6633272498
 11
289.4657872378
 21
273.9610602173
  0
LINE
  5
21F
100
AcDbEntity
  8
0
100
AcDbLine
 62
7
  6
CONTINUOUS
 10
153.7854960447
 20
704.7863253292
 11
153.7854960447
 21
176.1826604795
  0
LINE
  5
220
100
AcDbEntity
  8
0
100
AcDbLine
 62
7
  6
CONTINUOUS
 10
162.8293116706
 20
713.0531958351
 11
162.8293116706
 21
710.0077435477
  0
LINE
  5
221
100
AcDbEntity
  8
0
100
AcDbLine
 62
7
  6
CONTINUOUS
 10
200.334606383
 20
625.4367394122
 11
204.2591457066
 21
627.702559722
  0
LINE
  5
222
100
AcDbEntity
  8
0
100
AcDbLine
 62
7
  6
CONTINUOUS
 10
210.3156267344
 20
619.0028055836
 11
214.8771725208
 21
621.6363995509
  0
LINE
  5
223
100
AcDbEntity
  8
0
100
AcDbLine
 62
7
  6
CONTINUOUS
 10
213.9021099052
 20
618.7836455519
 11
216.8602299065
 21
620.4915067364
  0
LINE
  5
224
100
AcDbEntity
  8
0
100
AcDbLine
 62
7
  6
CONTINUOUS
 10
513.488315186
 20
181.4644878589
 11
514.9025346363
 21
180.6480063499
  0
LINE
  5
225
100
AcDbEntity
  8
0
100
AcDbLine
 62
7
  6
CONTINUOUS
 10
175.6494058781
 20
649.5259943414
 11
175.6494058781
 21
527.5242031739
  0
LINE
  5
226
100
AcDbEntity
  8
0
100
AcDbLine
 62
7
  6
CONTINUOUS
 10
175.6635480726
 20
526.430090144
 11
175.6635480726
 21
339.6633272498
  0
LINE
  5
227
100
AcDbEntity
  8
0
100
AcDbLine
 62
7
  6
CONTINUOUS
 10
216.3213198376
 20
603.0578396322
 11
217.5178266394
 21
603.7486390233
  0
LINE
  5
228
100
AcDbEntity
  8
0
100
AcDbLine
 62
7
  6
CONTINUOUS
 10
538.6212193903
 20
781.579090836
 11
384.8259273761
 21
692.7858676156
  0
LINE
  5
229
100
AcDbEntity
  8
0
100
AcDbLine
 62
7
  6
CONTINUOUS
 10
385.491369319
 20
691.8391594672
 11
386.2474135091
 21
692.2756591783
  0
LINE
  5
22A
100
AcDbEntity
  8
0
100
AcDbLine
 62
7
  6
CONTINUOUS
 10
536.1534269984
 20
778.823419799
 11
537.4686401356
 21
779.5827539252
  0
LINE
  5
22B
100
AcDbEntity
  8
0
100
AcDbLine
 62
7
  6
CONTINUOUS
 10
510.8746659844
 20
191.4350081225
 11
502.9899685244
 21
195.9871373406
  0
LINE
  5
22C
100
AcDbEntity
  8
0
100
AcDbLine
 62
7
  6
CONTINUOUS
 10
200.334606383
 20
625.4367394122
 11
200.334606383
 21
525.8041601931
  0
LINE
  5
22D
100
AcDbEntity
  8
0
100
AcDbLine
 62
7
  6
CONTINUOUS
 10
208.8220555232
 20
615.850596765
 11
208.8220555232
 21
524.0757248467
  0
LINE
  5
22E
100
AcDbEntity
  8
0
100
AcDbLine
 62
7
  6
CONTINUOUS
 10
210.3047704877
 20
619.0025035063
 11
210.3047704877
 21
624.2762173749
  0
LINE
  5
22F
100
AcDbEntity
  8
0
100
AcDbLine
 62
7
  6
CONTINUOUS
 10
216.1036201426
 20
523.6089443941
 11
216.1036201426
 21
529.1611609458
  0
LINE
  5
230
100
AcDbEntity
  8
0
100
AcDbLine
 62
7
  6
CONTINUOUS
 10
216.1036201426
 20
535.0399782339
 11
216.1036201426
 21
540.5921947856
  0
LINE
  5
231
100
AcDbEntity
  8
0
100
AcDbLine
 62
7
  6
CONTINUOUS
 10
216.1036201426
 20
546.4710120737
 11
216.1036201426
 21
552.0232286254
  0
LINE
  5
232
100
AcDbEntity
  8
0
100
AcDbLine
 62
7
  6
CONTINUOUS
 10
216.1036201426
 20
557.9020459135
 11
216.1036201426
 21
563.4542624653
  0
LINE
  5
233
100
AcDbEntity
  8
0
100
AcDbLine
 62
7
  6
CONTINUOUS
 10
216.3212926887
 20
572.4389832859
 11
216.3213198376
 21
603.0578396322
  0
LINE
  5
234
100
AcDbEntity
  8
0
100
AcDbLine
 62
7
  6
CONTINUOUS
 10
217.5178266394
 20
603.7486390233
 11
217.5178266394
 21
573.1297983809
  0
LINE
  5
235
100
AcDbEntity
  8
0
100
AcDbLine
 62
7
  6
CONTINUOUS
 10
223.174717394
 20
559.371854803
 11
223.174717394
 21
553.8196382512
  0
LINE
  5
236
100
AcDbEntity
  8
0
100
AcDbLine
 62
7
  6
CONTINUOUS
 10
223.174717394
 20
547.9408209632
 11
223.174717394
 21
542.3886044114
  0
LINE
  5
237
100
AcDbEntity
  8
0
100
AcDbLine
 62
7
  6
CONTINUOUS
 10
223.174717394
 20
536.5097871233
 11
223.174717394
 21
530.9575705716
  0
LINE
  5
238
100
AcDbEntity
  8
0
100
AcDbLine
 62
7
  6
CONTINUOUS
 10
223.174717394
 20
525.0787532835
 11
223.174717394
 21
519.5265367318
  0
LINE
  5
239
100
AcDbEntity
  8
0
100
AcDbLine
 62
7
  6
CONTINUOUS
 10
223.8328242015
 20
559.7518106774
 11
223.8327968076
 21
554.1995783648
  0
LINE
  5
23A
100
AcDbEntity
  8
0
100
AcDbLine
 62
7
  6
CONTINUOUS
 10
223.8328242015
 20
548.3207768376
 11
223.8327968076
 21
542.7685445249
  0
LINE
  5
23B
100
AcDbEntity
  8
0
100
AcDbLine
 62
7
  6
CONTINUOUS
 10
223.8328242015
 20
536.8897429978
 11
223.8327968076
 21
531.3375106851
  0
LINE
  5
23C
100
AcDbEntity
  8
0
100
AcDbLine
 62
7
  6
CONTINUOUS
 10
223.8328242015
 20
525.458709158
 11
223.8327968076
 21
519.9064768453
  0
LINE
  5
23D
100
AcDbEntity
  8
0
100
AcDbLine
 62
7
  6
CONTINUOUS
 10
227.7709306075
 20
551.1660734639
 11
227.7709306075
 21
556.7182900387
  0
LINE
  5
23E
100
AcDbEntity
  8
0
100
AcDbLine
 62
7
  6
CONTINUOUS
 10
536.1534269984
 20
759.7417583107
 11
386.2474135091
 21
673.19399769
  0
LINE
  5
23F
100
AcDbEntity
  8
0
100
AcDbLine
 62
7
  6
CONTINUOUS
 10
217.5178266394
 20
573.1297983809
 11
216.3212926887
 21
572.4389832859
  0
LINE
  5
240
100
AcDbEntity
  8
0
100
AcDbLine
 62
7
  6
CONTINUOUS
 10
217.5078846514
 20
570.5110989466
 11
218.6492021996
 21
571.1702093063
  0
LINE
  5
241
100
AcDbEntity
  8
0
100
AcDbLine
 62
7
  6
CONTINUOUS
 10
500.302968055
 20
732.5272149839
 11
432.4209996825
 21
693.3357762122
  0
LINE
  5
242
100
AcDbEntity
  8
0
100
AcDbLine
 62
7
  6
CONTINUOUS
 10
433.1493714995
 20
692.1232945324
 11
500.302968055
 21
730.8942101496
  0
LINE
  5
243
100
AcDbEntity
  8
0
100
AcDbLine
 62
7
  6
CONTINUOUS
 10
263.8123156474
 20
593.3843206413
 11
260.8541956549
 21
591.6764594518
  0
LINE
  5
244
100
AcDbEntity
  8
0
100
AcDbLine
 62
7
  6
CONTINUOUS
 10
216.4350239239
 20
564.1866307461
 11
216.8175140511
 21
564.4074602059
  0
LINE
  5
245
100
AcDbEntity
  8
0
100
AcDbLine
 62
7
  6
CONTINUOUS
 10
509.1842746815
 20
731.9231597106
 11
510.3368539361
 21
732.5885976814
  0
LINE
  5
246
100
AcDbEntity
  8
0
100
AcDbLine
 62
7
  6
CONTINUOUS
 10
502.9899685244
 20
726.7463544621
 11
501.7171757294
 21
726.0115115858
  0
LINE
  5
247
100
AcDbEntity
  8
0
100
AcDbLine
 62
7
  6
CONTINUOUS
 10
512.6214666723
 20
731.7231045383
 11
512.1823949513
 21
731.4696078751
  0
LINE
  5
248
100
AcDbEntity
  8
0
100
AcDbLine
 62
7
  6
CONTINUOUS
 10
538.6212193903
 20
745.9795854491
 11
537.4686401356
 21
745.3141474783
  0
LINE
  5
249
100
AcDbEntity
  8
0
100
AcDbLine
 62
7
  6
CONTINUOUS
 10
509.1842746815
 20
727.8406476249
 11
510.3368539361
 21
728.5060855957
  0
LINE
  5
24A
100
AcDbEntity
  8
0
100
AcDbLine
 62
7
  6
CONTINUOUS
 10
222.6626765906
 20
561.6890148084
 11
222.0433419344
 21
561.3314438204
  0
LINE
  5
24B
100
AcDbEntity
  8
0
100
AcDbLine
 62
7
  6
CONTINUOUS
 10
502.6719366597
 20
722.5296270063
 11
521.7283850727
 21
733.5318069531
  0
LINE
  5
24C
100
AcDbEntity
  8
0
100
AcDbLine
 62
7
  6
CONTINUOUS
 10
525.1861346125
 20
733.8951510488
 11
504.0861561101
 21
721.7131454973
  0
LINE
  5
24D
100
AcDbEntity
  8
0
100
AcDbLine
 62
7
  6
CONTINUOUS
 10
223.174717394
 20
559.371854803
 11
223.8328242015
 21
559.7518106774
  0
LINE
  5
24E
100
AcDbEntity
  8
0
100
AcDbLine
 62
7
  6
CONTINUOUS
 10
265.3493063435
 20
583.2153116194
 11
273.3875634151
 21
587.8561738285
  0
LINE
  5
24F
100
AcDbEntity
  8
0
100
AcDbLine
 62
7
  6
CONTINUOUS
 10
216.4350239246
 20
552.7555969048
 11
216.817514052
 21
552.9764263646
  0
LINE
  5
250
100
AcDbEntity
  8
0
100
AcDbLine
 62
7
  6
CONTINUOUS
 10
228.1023343896
 20
557.450658295
 11
228.8094382268
 21
557.8589024489
  0
LINE
  5
251
100
AcDbEntity
  8
0
100
AcDbLine
 62
7
  6
CONTINUOUS
 10
228.9023061685
 20
557.3715085592
 11
229.6094100057
 21
557.7797527131
  0
LINE
  5
252
100
AcDbEntity
  8
0
100
AcDbLine
 62
7
  6
CONTINUOUS
 10
176.6040202587
 20
526.9730687727
 11
175.6635480726
 21
526.430090144
  0
LINE
  5
253
100
AcDbEntity
  8
0
100
AcDbLine
 62
7
  6
CONTINUOUS
 10
223.8327968076
 20
554.1995783648
 11
223.174717394
 21
553.8196382512
  0
LINE
  5
254
100
AcDbEntity
  8
0
100
AcDbLine
 62
7
  6
CONTINUOUS
 10
222.8433136128
 20
553.0872699704
 11
223.4903762422
 21
553.4608495237
  0
LINE
  5
255
100
AcDbEntity
  8
0
100
AcDbLine
 62
7
  6
CONTINUOUS
 10
222.6626766205
 20
550.2579809524
 11
222.0433418448
 21
549.9004100323
  0
LINE
  5
256
100
AcDbEntity
  8
0
100
AcDbLine
 62
7
  6
CONTINUOUS
 10
488.445007455
 20
702.8438956697
 11
452.9271817118
 21
682.3377918208
  0
LINE
  5
257
100
AcDbEntity
  8
0
100
AcDbLine
 62
7
  6
CONTINUOUS
 10
234.4177562565
 20
555.0037155132
 11
233.7106524193
 21
554.5954713593
  0
LINE
  5
258
100
AcDbEntity
  8
0
100
AcDbLine
 62
7
  6
CONTINUOUS
 10
489.8586643538
 20
702.0266357609
 11
451.5129858132
 21
679.8865192464
  0
LINE
  5
259
100
AcDbEntity
  8
0
100
AcDbLine
 62
7
  6
CONTINUOUS
 10
223.174717394
 20
547.9408209632
 11
223.8328242015
 21
548.3207768376
  0
LINE
  5
25A
100
AcDbEntity
  8
0
100
AcDbLine
 62
7
  6
CONTINUOUS
 10
217.2349957035
 20
564.1074810088
 11
217.6560877591
 21
564.350296523
  0
LINE
  5
25B
100
AcDbEntity
  8
0
100
AcDbLine
 62
7
  6
CONTINUOUS
 10
217.2349956446
 20
552.6764472029
 11
217.6560876065
 21
552.9192627634
  0
LINE
  5
25C
100
AcDbEntity
  8
0
100
AcDbLine
 62
7
  6
CONTINUOUS
 10
501.3362266492
 20
227.822141718
 11
502.7504460995
 21
227.005660209
  0
LINE
  5
25D
100
AcDbEntity
  8
0
100
AcDbLine
 62
7
  6
CONTINUOUS
 10
234.842027859
 20
552.6358823534
 11
234.842027859
 21
547.0836657786
  0
LINE
  5
25E
100
AcDbEntity
  8
0
100
AcDbLine
 62
7
  6
CONTINUOUS
 10
235.549125398
 20
553.043964349
 11
235.5491388008
 21
547.4917189144
  0
LINE
  5
25F
100
AcDbEntity
  8
0
100
AcDbLine
 62
7
  6
CONTINUOUS
 10
239.4382410724
 20
544.4301010143
 11
239.4382410724
 21
549.9823320118
  0
LINE
  5
260
100
AcDbEntity
  8
0
100
AcDbLine
 62
7
  6
CONTINUOUS
 10
246.5093383239
 20
545.8999227554
 11
246.5093383239
 21
540.347693329
  0
LINE
  5
261
100
AcDbEntity
  8
0
100
AcDbLine
 62
7
  6
CONTINUOUS
 10
247.2164421611
 20
546.3082037482
 11
247.2164492655
 21
540.7557464619
  0
LINE
  5
262
100
AcDbEntity
  8
0
100
AcDbLine
 62
7
  6
CONTINUOUS
 10
251.1055515373
 20
503.4010270453
 11
251.1055515373
 21
508.9532435971
  0
LINE
  5
263
100
AcDbEntity
  8
0
100
AcDbLine
 62
7
  6
CONTINUOUS
 10
251.1055515373
 20
514.832060885
 11
251.1055515373
 21
520.384277322
  0
LINE
  5
264
100
AcDbEntity
  8
0
100
AcDbLine
 62
7
  6
CONTINUOUS
 10
251.1055515373
 20
526.2630947249
 11
251.1055515373
 21
531.8153112767
  0
LINE
  5
265
100
AcDbEntity
  8
0
100
AcDbLine
 62
7
  6
CONTINUOUS
 10
251.1055515373
 20
537.6941285647
 11
251.1055515373
 21
543.2463538661
  0
LINE
  5
266
100
AcDbEntity
  8
0
100
AcDbLine
 62
7
  6
CONTINUOUS
 10
258.1766487888
 20
539.1639374542
 11
258.1766487888
 21
533.6117209024
  0
LINE
  5
267
100
AcDbEntity
  8
0
100
AcDbLine
 62
7
  6
CONTINUOUS
 10
258.1766487888
 20
527.7329036144
 11
258.1766487888
 21
522.1806870626
  0
LINE
  5
268
100
AcDbEntity
  8
0
100
AcDbLine
 62
7
  6
CONTINUOUS
 10
258.1766487888
 20
516.3018697746
 11
258.1766487888
 21
510.7496532228
  0
LINE
  5
269
100
AcDbEntity
  8
0
100
AcDbLine
 62
7
  6
CONTINUOUS
 10
258.1766487888
 20
504.8708359348
 11
258.1766487888
 21
499.318619383
  0
LINE
  5
26A
100
AcDbEntity
  8
0
100
AcDbLine
 62
7
  6
CONTINUOUS
 10
258.5428166187
 20
539.3753432874
 11
258.5427891012
 21
533.8231109099
  0
LINE
  5
26B
100
AcDbEntity
  8
0
100
AcDbLine
 62
7
  6
CONTINUOUS
 10
258.5428166187
 20
527.9443094476
 11
258.5427891012
 21
522.3920770701
  0
LINE
  5
26C
100
AcDbEntity
  8
0
100
AcDbLine
 62
7
  6
CONTINUOUS
 10
258.5428166187
 20
516.5132756078
 11
258.5427891012
 21
510.9610432303
  0
LINE
  5
26D
100
AcDbEntity
  8
0
100
AcDbLine
 62
7
  6
CONTINUOUS
 10
258.5428166187
 20
505.082241768
 11
258.5427891012
 21
499.5300093905
  0
LINE
  5
26E
100
AcDbEntity
  8
0
100
AcDbLine
 62
7
  6
CONTINUOUS
 10
258.6771652284
 20
578.6042027746
 11
258.677192374
 21
547.985377775
  0
LINE
  5
26F
100
AcDbEntity
  8
0
100
AcDbLine
 62
7
  6
CONTINUOUS
 10
234.842027859
 20
552.6358823534
 11
235.5491316962
 21
553.0441265073
  0
LINE
  5
270
100
AcDbEntity
  8
0
100
AcDbLine
 62
7
  6
CONTINUOUS
 10
298.7288475053
 20
589.1635609095
 11
289.4657872378
 21
583.8155624938
  0
LINE
  5
271
100
AcDbEntity
  8
0
100
AcDbLine
 62
7
  6
CONTINUOUS
 10
216.4350239247
 20
541.324563065
 11
216.817514052
 21
541.5453925248
  0
LINE
  5
272
100
AcDbEntity
  8
0
100
AcDbLine
 62
7
  6
CONTINUOUS
 10
223.8327968076
 20
542.7685445249
 11
223.174717394
 21
542.3886044114
  0
LINE
  5
273
100
AcDbEntity
  8
0
100
AcDbLine
 62
7
  6
CONTINUOUS
 10
222.8433136119
 20
541.656236132
 11
223.4903762414
 21
542.0298156854
  0
LINE
  5
274
100
AcDbEntity
  8
0
100
AcDbLine
 62
7
  6
CONTINUOUS
 10
330.0396661348
 20
603.0282348575
 11
457.3395699484
 21
676.524429879
  0
LINE
  5
275
100
AcDbEntity
  8
0
100
AcDbLine
 62
7
  6
CONTINUOUS
 10
239.7696247765
 20
550.714768127
 11
240.4767286137
 21
551.1230122809
  0
LINE
  5
276
100
AcDbEntity
  8
0
100
AcDbLine
 62
7
  6
CONTINUOUS
 10
240.5696041413
 20
550.6355433217
 11
241.2767079781
 21
551.0437874758
  0
LINE
  5
277
100
AcDbEntity
  8
0
100
AcDbLine
 62
7
  6
CONTINUOUS
 10
235.5491316962
 20
547.4919099325
 11
234.842027859
 21
547.0836657786
  0
LINE
  5
278
100
AcDbEntity
  8
0
100
AcDbLine
 62
7
  6
CONTINUOUS
 10
234.5106240769
 20
546.3512975223
 11
235.2177279141
 21
546.7595416761
  0
LINE
  5
279
100
AcDbEntity
  8
0
100
AcDbLine
 62
7
  6
CONTINUOUS
 10
222.6626765906
 20
538.8269471287
 11
222.0433419344
 21
538.4693761408
  0
LINE
  5
27A
100
AcDbEntity
  8
0
100
AcDbLine
 62
7
  6
CONTINUOUS
 10
208.8220555232
 20
530.7043619886
 11
200.334606383
 21
525.8041601931
  0
LINE
  5
27B
100
AcDbEntity
  8
0
100
AcDbLine
 62
7
  6
CONTINUOUS
 10
360.445131135
 20
617.7413050624
 11
344.1817428791
 21
608.3516895233
  0
LINE
  5
27C
100
AcDbEntity
  8
0
100
AcDbLine
 62
7
  6
CONTINUOUS
 10
223.174717394
 20
536.5097871233
 11
223.8328242015
 21
536.8897429978
  0
LINE
  5
27D
100
AcDbEntity
  8
0
100
AcDbLine
 62
7
  6
CONTINUOUS
 10
246.0850777299
 20
548.2677367079
 11
245.377973893
 21
547.8594925539
  0
LINE
  5
27E
100
AcDbEntity
  8
0
100
AcDbLine
 62
7
  6
CONTINUOUS
 10
230.511860946
 20
538.784490273
 11
229.8047571088
 21
538.3762461191
  0
LINE
  5
27F
100
AcDbEntity
  8
0
100
AcDbLine
 62
7
  6
CONTINUOUS
 10
216.4350239247
 20
529.8935292252
 11
216.817514052
 21
530.114358685
  0
LINE
  5
280
100
AcDbEntity
  8
0
100
AcDbLine
 62
7
  6
CONTINUOUS
 10
365.3878281138
 20
614.8877021883
 11
349.1244398578
 21
605.4980866492
  0
LINE
  5
281
100
AcDbEntity
  8
0
100
AcDbLine
 62
7
  6
CONTINUOUS
 10
246.5093383239
 20
545.8999227554
 11
247.2164421611
 21
546.3081669096
  0
LINE
  5
282
100
AcDbEntity
  8
0
100
AcDbLine
 62
7
  6
CONTINUOUS
 10
223.8327968076
 20
531.3375106851
 11
223.174717394
 21
530.9575705716
  0
LINE
  5
283
100
AcDbEntity
  8
0
100
AcDbLine
 62
7
  6
CONTINUOUS
 10
222.8433136119
 20
530.2252022922
 11
223.4903762414
 21
530.5987818456
  0
LINE
  5
284
100
AcDbEntity
  8
0
100
AcDbLine
 62
7
  6
CONTINUOUS
 10
204.4732813226
 20
519.2930822953
 11
209.2196512551
 21
522.0333838965
  0
LINE
  5
285
100
AcDbEntity
  8
0
100
AcDbLine
 62
7
  6
CONTINUOUS
 10
222.6626765906
 20
527.3959132889
 11
222.0433419344
 21
527.038342301
  0
LINE
  5
286
100
AcDbEntity
  8
0
100
AcDbLine
 62
7
  6
CONTINUOUS
 10
252.0840025251
 20
544.352367351
 11
251.4369393575
 21
543.9787874869
  0
LINE
  5
287
100
AcDbEntity
  8
0
100
AcDbLine
 62
7
  6
CONTINUOUS
 10
247.2164421611
 20
540.7559374829
 11
246.5093383239
 21
540.347693329
  0
LINE
  5
288
100
AcDbEntity
  8
0
100
AcDbLine
 62
7
  6
CONTINUOUS
 10
246.1779345418
 20
539.6153250727
 11
246.885038379
 21
540.0235692265
  0
LINE
  5
289
100
AcDbEntity
  8
0
100
AcDbLine
 62
7
  6
CONTINUOUS
 10
234.5166855199
 20
531.8478892299
 11
233.8095816827
 21
531.439645076
  0
LINE
  5
28A
100
AcDbEntity
  8
0
100
AcDbLine
 62
7
  6
CONTINUOUS
 10
223.174717394
 20
525.0787532835
 11
223.8328242015
 21
525.458709158
  0
LINE
  5
28B
100
AcDbEntity
  8
0
100
AcDbLine
 62
7
  6
CONTINUOUS
 10
257.4660931972
 20
541.3664855774
 11
257.0452733292
 21
541.1235264716
  0
LINE
  5
28C
100
AcDbEntity
  8
0
100
AcDbLine
 62
7
  6
CONTINUOUS
 10
223.8327968076
 20
519.9064768453
 11
223.174717394
 21
519.5265367318
  0
LINE
  5
28D
100
AcDbEntity
  8
0
100
AcDbLine
 62
7
  6
CONTINUOUS
 10
222.8433136119
 20
518.7941684524
 11
223.4903762414
 21
519.1677480057
  0
LINE
  5
28E
100
AcDbEntity
  8
0
100
AcDbLine
 62
7
  6
CONTINUOUS
 10
258.1766487888
 20
539.1639374542
 11
258.5428166187
 21
539.3753432874
  0
LINE
  5
28F
100
AcDbEntity
  8
0
100
AcDbLine
 62
7
  6
CONTINUOUS
 10
251.4369553194
 20
532.547679556
 11
252.0840179489
 21
532.9212591094
  0
LINE
  5
290
100
AcDbEntity
  8
0
100
AcDbLine
 62
7
  6
CONTINUOUS
 10
365.3878281138
 20
598.1820627338
 11
349.1244398578
 21
588.7924471947
  0
LINE
  5
291
100
AcDbEntity
  8
0
100
AcDbLine
 62
7
  6
CONTINUOUS
 10
258.5427891012
 20
533.8231109099
 11
258.1766487888
 21
533.6117209024
  0
LINE
  5
292
100
AcDbEntity
  8
0
100
AcDbLine
 62
7
  6
CONTINUOUS
 10
257.8452450067
 20
532.8793526231
 11
258.2277351341
 21
533.1001820829
  0
LINE
  5
293
100
AcDbEntity
  8
0
100
AcDbLine
 62
7
  6
CONTINUOUS
 10
258.6772100024
 20
547.9853753188
 11
257.6007031231
 21
547.3640216855
  0
LINE
  5
294
100
AcDbEntity
  8
0
100
AcDbLine
 62
7
  6
CONTINUOUS
 10
252.2369524661
 20
543.8995490143
 11
252.8564220484
 21
544.2570350097
  0
LINE
  5
295
100
AcDbEntity
  8
0
100
AcDbLine
 62
7
  6
CONTINUOUS
 10
252.2369270983
 20
532.4685298202
 11
252.8564420082
 21
532.8259886348
  0
LINE
  5
296
100
AcDbEntity
  8
0
100
AcDbLine
 62
7
  6
CONTINUOUS
 10
217.2349957036
 20
541.2454133292
 11
217.6560877608
 21
541.4882288425
  0
LINE
  5
297
100
AcDbEntity
  8
0
100
AcDbLine
 62
7
  6
CONTINUOUS
 10
217.2349957036
 20
529.8143794894
 11
217.6560877607
 21
530.0571950027
  0
LINE
  5
298
100
AcDbEntity
  8
0
100
AcDbLine
 62
7
  6
CONTINUOUS
 10
265.3493063435
 20
491.4404399108
 11
265.3493063435
 21
583.2153116194
  0
LINE
  5
299
100
AcDbEntity
  8
0
100
AcDbLine
 62
7
  6
CONTINUOUS
 10
278.9652078193
 20
480.8795948556
 11
278.9652078193
 21
579.8750354059
  0
LINE
  5
29A
100
AcDbEntity
  8
0
100
AcDbLine
 62
7
  6
CONTINUOUS
 10
289.4657872378
 20
273.9610602173
 11
289.4657872378
 21
460.7278231115
  0
LINE
  5
29B
100
AcDbEntity
  8
0
100
AcDbLine
 62
7
  6
CONTINUOUS
 10
289.4657872378
 20
461.8137713263
 11
289.4657872378
 21
583.8155624938
  0
LINE
  5
29C
100
AcDbEntity
  8
0
100
AcDbLine
 62
7
  6
CONTINUOUS
 10
257.4660931972
 20
529.9354517376
 11
257.0452733292
 21
529.6924926318
  0
LINE
  5
29D
100
AcDbEntity
  8
0
100
AcDbLine
 62
7
  6
CONTINUOUS
 10
241.1777910859
 20
520.3104470863
 11
240.4706872487
 21
519.9022029324
  0
LINE
  5
29E
100
AcDbEntity
  8
0
100
AcDbLine
 62
7
  6
CONTINUOUS
 10
258.1766487888
 20
527.7329036144
 11
258.5428166187
 21
527.9443094476
  0
LINE
  5
29F
100
AcDbEntity
  8
0
100
AcDbLine
 62
7
  6
CONTINUOUS
 10
251.4369553194
 20
521.1166457162
 11
252.0840179489
 21
521.4902252695
  0
LINE
  5
2A0
100
AcDbEntity
  8
0
100
AcDbLine
 62
7
  6
CONTINUOUS
 10
258.5427891012
 20
522.3920770701
 11
258.1766487888
 21
522.1806870626
  0
LINE
  5
2A1
100
AcDbEntity
  8
0
100
AcDbLine
 62
7
  6
CONTINUOUS
 10
257.8452450067
 20
521.4483187833
 11
258.2277351341
 21
521.6691482431
  0
LINE
  5
2A2
100
AcDbEntity
  8
0
100
AcDbLine
 62
7
  6
CONTINUOUS
 10
245.1826156598
 20
513.3738460432
 11
244.4755118226
 21
512.9656018893
  0
LINE
  5
2A3
100
AcDbEntity
  8
0
100
AcDbLine
 62
7
  6
CONTINUOUS
 10
257.4660931972
 20
518.5044178978
 11
257.0452733292
 21
518.261458792
  0
LINE
  5
2A4
100
AcDbEntity
  8
0
100
AcDbLine
 62
7
  6
CONTINUOUS
 10
258.1766487888
 20
516.3018697746
 11
258.5428166187
 21
516.5132756078
  0
LINE
  5
2A5
100
AcDbEntity
  8
0
100
AcDbLine
 62
7
  6
CONTINUOUS
 10
251.4369553194
 20
509.6856118764
 11
252.0840179489
 21
510.0591914297
  0
LINE
  5
2A6
100
AcDbEntity
  8
0
100
AcDbLine
 62
7
  6
CONTINUOUS
 10
258.5427891012
 20
510.9610432303
 11
258.1766487888
 21
510.7496532228
  0
LINE
  5
2A7
100
AcDbEntity
  8
0
100
AcDbLine
 62
7
  6
CONTINUOUS
 10
257.8452450067
 20
510.0172849435
 11
258.2277351341
 21
510.2381144033
  0
LINE
  5
2A8
100
AcDbEntity
  8
0
100
AcDbLine
 62
7
  6
CONTINUOUS
 10
257.4660931972
 20
507.073384058
 11
257.0452733292
 21
506.8304249522
  0
LINE
  5
2A9
100
AcDbEntity
  8
0
100
AcDbLine
 62
7
  6
CONTINUOUS
 10
258.1766487888
 20
504.8708359348
 11
258.5428166187
 21
505.082241768
  0
LINE
  5
2AA
100
AcDbEntity
  8
0
100
AcDbLine
 62
7
  6
CONTINUOUS
 10
258.5427891012
 20
499.5300093905
 11
258.1766487888
 21
499.318619383
  0
LINE
  5
2AB
100
AcDbEntity
  8
0
100
AcDbLine
 62
7
  6
CONTINUOUS
 10
257.8452450067
 20
498.5862511037
 11
258.2277351341
 21
498.8070805635
  0
LINE
  5
2AC
100
AcDbEntity
  8
0
100
AcDbLine
 62
7
  6
CONTINUOUS
 10
252.2369270983
 20
521.0374959804
 11
252.8564420083
 21
521.3949547949
  0
LINE
  5
2AD
100
AcDbEntity
  8
0
100
AcDbLine
 62
7
  6
CONTINUOUS
 10
252.2369270983
 20
509.6064621406
 11
252.8564420082
 21
509.9639209552
  0
LINE
  5
2AE
100
AcDbEntity
  8
0
100
AcDbLine
 62
7
  6
CONTINUOUS
 10
298.7288475053
 20
279.309058633
 11
298.7288475053
 21
466.0758215273
  0
LINE
  5
2AF
100
AcDbEntity
  8
0
100
AcDbLine
 62
7
  6
CONTINUOUS
 10
298.7288475053
 20
467.161769742
 11
298.7288475053
 21
589.1635609095
  0
LINE
  5
2B0
100
AcDbEntity
  8
0
100
AcDbLine
 62
7
  6
CONTINUOUS
 10
384.8259273761
 20
692.7858676156
 11
377.7550964241
 21
674.5617239655
  0
LINE
  5
2B1
100
AcDbEntity
  8
0
100
AcDbLine
 62
7
  6
CONTINUOUS
 10
378.7532593386
 20
674.4725606829
 11
385.491369319
 21
691.8391594672
  0
LINE
  5
2B2
100
AcDbEntity
  8
0
100
AcDbLine
 62
7
  6
CONTINUOUS
 10
278.9652078193
 20
499.3015373687
 11
265.3493063435
 21
491.4404399108
  0
LINE
  5
2B3
100
AcDbEntity
  8
0
100
AcDbLine
 62
7
  6
CONTINUOUS
 10
264.0383181364
 20
488.3936448094
 11
277.6839394168
 21
496.2719009021
  0
LINE
  5
2B4
100
AcDbEntity
  8
0
100
AcDbLine
 62
7
  6
CONTINUOUS
 10
278.6331597339
 20
479.9750447924
 11
275.604435376
 21
478.2264204068
  0
LINE
  5
2B5
100
AcDbEntity
  8
0
100
AcDbLine
 62
7
  6
CONTINUOUS
 10
289.4657872378
 20
460.7278231115
 11
175.6635480726
 21
526.430090144
  0
LINE
  5
2B6
100
AcDbEntity
  8
0
100
AcDbLine
 62
7
  6
CONTINUOUS
 10
175.6494058781
 20
527.5242031739
 11
289.4657872378
 21
461.8137713263
  0
LINE
  5
2B7
100
AcDbEntity
  8
0
100
AcDbLine
 62
7
  6
CONTINUOUS
 10
275.604435376
 20
478.2264204068
 11
204.4732813232
 21
519.2930822949
  0
LINE
  5
2B8
100
AcDbEntity
  8
0
100
AcDbLine
 62
7
  6
CONTINUOUS
 10
298.7288475053
 20
466.0758215273
 11
297.7883753193
 21
466.6187911134
  0
LINE
  5
2B9
100
AcDbEntity
  8
0
100
AcDbLine
 62
7
  6
CONTINUOUS
 10
257.0452732618
 20
498.6654008198
 11
252.2369269969
 21
501.4414380279
  0
LINE
  5
2BA
100
AcDbEntity
  8
0
100
AcDbLine
 62
7
  6
CONTINUOUS
 10
222.043341867
 20
518.8733181686
 11
217.2349956022
 21
521.6493553766
  0
LINE
  5
2BB
100
AcDbEntity
  8
0
100
AcDbLine
 62
7
  6
CONTINUOUS
 10
278.9652078193
 20
487.7985107053
 11
270.9862922102
 21
492.4050355665
  0
LINE
  5
2BC
100
AcDbEntity
  8
0
100
AcDbLine
 62
7
  6
CONTINUOUS
 10
330.0396661348
 20
603.0282348575
 11
330.0396661348
 21
74.4245700078
  0
LINE
  5
2BD
100
AcDbEntity
  8
0
100
AcDbLine
 62
7
  6
CONTINUOUS
 10
344.1817428791
 20
608.3516895233
 11
344.1817428791
 21
604.0895469059
  0
LINE
  5
2BE
100
AcDbEntity
  8
0
100
AcDbLine
 62
7
  6
CONTINUOUS
 10
346.2960009573
 20
602.8689070499
 11
346.2960009573
 21
590.4254102128
  0
LINE
  5
2BF
100
AcDbEntity
  8
0
100
AcDbLine
 62
7
  6
CONTINUOUS
 10
349.1244398578
 20
588.7924471947
 11
349.1244398578
 21
605.4980866492
  0
LINE
  5
2C0
100
AcDbEntity
  8
0
100
AcDbLine
 62
7
  6
CONTINUOUS
 10
522.1676879455
 20
734.1441680849
 11
521.7283850727
 21
733.5318069531
  0
LINE
  5
2C1
100
AcDbEntity
  8
0
100
AcDbLine
 62
7
  6
CONTINUOUS
 10
488.445007455
 20
702.8438956697
 11
502.6719366597
 21
722.5296270063
  0
LINE
  5
2C2
100
AcDbEntity
  8
0
100
AcDbLine
 62
7
  6
CONTINUOUS
 10
504.0861561101
 20
721.7131454973
 11
489.8586643538
 21
702.0266357609
  0
LINE
  5
2C3
100
AcDbEntity
  8
0
100
AcDbLine
 62
7
  6
CONTINUOUS
 10
298.7288475053
 20
467.161769742
 11
289.4657872378
 21
461.8137713263
  0
LINE
  5
2C4
100
AcDbEntity
  8
0
100
AcDbLine
 62
7
  6
CONTINUOUS
 10
298.7288475053
 20
466.0758215273
 11
289.4657872378
 21
460.7278231115
  0
LINE
  5
2C5
100
AcDbEntity
  8
0
100
AcDbLine
 62
7
  6
CONTINUOUS
 10
277.7983719077
 20
478.2511119279
 11
275.604435376
 21
478.2264204068
  0
LINE
  5
2C6
100
AcDbEntity
  8
0
100
AcDbLine
 62
7
  6
CONTINUOUS
 10
217.2349957036
 20
529.8143794894
 11
222.0433419344
 21
527.038342301
  0
LINE
  5
2C7
100
AcDbEntity
  8
0
100
AcDbLine
 62
7
  6
CONTINUOUS
 10
252.2369270983
 20
509.6064621406
 11
257.0452733292
 21
506.8304249522
  0
LINE
  5
2C8
100
AcDbEntity
  8
0
100
AcDbLine
 62
7
  6
CONTINUOUS
 10
257.0452732618
 20
510.0964346596
 11
252.2369269969
 21
512.8724718677
  0
LINE
  5
2C9
100
AcDbEntity
  8
0
100
AcDbLine
 62
7
  6
CONTINUOUS
 10
222.043341867
 20
530.3043520084
 11
217.2349956022
 21
533.0803892164
  0
LINE
  5
2CA
100
AcDbEntity
  8
0
100
AcDbLine
 62
7
  6
CONTINUOUS
 10
217.2349957036
 20
541.2454133292
 11
222.0433419344
 21
538.4693761408
  0
LINE
  5
2CB
100
AcDbEntity
  8
0
100
AcDbLine
 62
7
  6
CONTINUOUS
 10
252.2369270983
 20
521.0374959804
 11
257.0452733292
 21
518.261458792
  0
LINE
  5
2CC
100
AcDbEntity
  8
0
100
AcDbLine
 62
7
  6
CONTINUOUS
 10
257.0452732618
 20
521.5274684995
 11
252.2369269969
 21
524.3035057075
  0
LINE
  5
2CD
100
AcDbEntity
  8
0
100
AcDbLine
 62
7
  6
CONTINUOUS
 10
222.043341867
 20
541.7353858482
 11
217.2349956022
 21
544.5114230562
  0
LINE
  5
2CE
100
AcDbEntity
  8
0
100
AcDbLine
 62
7
  6
CONTINUOUS
 10
217.2349956446
 20
552.6764472029
 11
222.0433418448
 21
549.9004100323
  0
LINE
  5
2CF
100
AcDbEntity
  8
0
100
AcDbLine
 62
7
  6
CONTINUOUS
 10
252.2369270983
 20
532.4685298202
 11
257.0452733292
 21
529.6924926318
  0
LINE
  5
2D0
100
AcDbEntity
  8
0
100
AcDbLine
 62
7
  6
CONTINUOUS
 10
257.0452732618
 20
532.9585023393
 11
252.2369269969
 21
535.7345395473
  0
LINE
  5
2D1
100
AcDbEntity
  8
0
100
AcDbLine
 62
7
  6
CONTINUOUS
 10
245.3779628139
 20
539.694474779
 11
240.5696165121
 21
542.4705120084
  0
LINE
  5
2D2
100
AcDbEntity
  8
0
100
AcDbLine
 62
7
  6
CONTINUOUS
 10
233.710652349
 20
546.4304472286
 11
228.9023060472
 21
549.206484458
  0
LINE
  5
2D3
100
AcDbEntity
  8
0
100
AcDbLine
 62
7
  6
CONTINUOUS
 10
222.043341867
 20
553.166419688
 11
217.2349956022
 21
555.9424568961
  0
LINE
  5
2D4
100
AcDbEntity
  8
0
100
AcDbLine
 62
7
  6
CONTINUOUS
 10
361.3077978164
 20
621.0798841168
 11
361.3077978164
 21
617.243255489
  0
LINE
  5
2D5
100
AcDbEntity
  8
0
100
AcDbLine
 62
7
  6
CONTINUOUS
 10
361.3077978164
 20
595.8264702043
 11
361.3077978164
 21
580.2556704852
  0
LINE
  5
2D6
100
AcDbEntity
  8
0
100
AcDbLine
 62
7
  6
CONTINUOUS
 10
361.3077978164
 20
133.3022473485
 11
361.3077978164
 21
92.477126492
  0
LINE
  5
2D7
100
AcDbEntity
  8
0
100
AcDbLine
 62
7
  6
CONTINUOUS
 10
365.3878281138
 20
598.1820627338
 11
365.3878281138
 21
614.8877021883
  0
LINE
  5
2D8
100
AcDbEntity
  8
0
100
AcDbLine
 62
7
  6
CONTINUOUS
 10
521.2051164573
 20
741.3580900838
 11
518.3767011084
 21
736.4591037998
  0
LINE
  5
2D9
100
AcDbEntity
  8
0
100
AcDbLine
 62
7
  6
CONTINUOUS
 10
519.5292803631
 20
736.5732653795
 11
522.3576957119
 21
741.4722516636
  0
LINE
  5
2DA
100
AcDbEntity
  8
0
100
AcDbLine
 62
7
  6
CONTINUOUS
 10
217.2349957035
 20
564.1074810088
 11
222.0433419344
 21
561.3314438204
  0
LINE
  5
2DB
100
AcDbEntity
  8
0
100
AcDbLine
 62
7
  6
CONTINUOUS
 10
228.9023061685
 20
557.3715085592
 11
233.7106524193
 21
554.5954713593
  0
LINE
  5
2DC
100
AcDbEntity
  8
0
100
AcDbLine
 62
7
  6
CONTINUOUS
 10
240.5696041413
 20
550.6355433217
 11
245.377973893
 21
547.8594925539
  0
LINE
  5
2DD
100
AcDbEntity
  8
0
100
AcDbLine
 62
7
  6
CONTINUOUS
 10
252.2369524661
 20
543.8995490143
 11
257.0452733292
 21
541.1235264716
  0
LINE
  5
2DE
100
AcDbEntity
  8
0
100
AcDbLine
 62
7
  6
CONTINUOUS
 10
241.2768136208
 20
551.0437198747
 11
246.0851096325
 21
548.2677182894
  0
LINE
  5
2DF
100
AcDbEntity
  8
0
100
AcDbLine
 62
7
  6
CONTINUOUS
 10
229.6095535874
 20
557.7796625455
 11
234.4179181299
 21
555.0036302614
  0
LINE
  5
2E0
100
AcDbEntity
  8
0
100
AcDbLine
 62
7
  6
CONTINUOUS
 10
218.6492021996
 20
571.1702093063
 11
258.6771923073
 21
548.0605612526
  0
LINE
  5
2E1
100
AcDbEntity
  8
0
100
AcDbLine
 62
7
  6
CONTINUOUS
 10
385.0948246571
 20
690.8171173717
 11
385.0948246571
 21
673.8594301198
  0
LINE
  5
2E2
100
AcDbEntity
  8
0
100
AcDbLine
 62
7
  6
CONTINUOUS
 10
386.2474135091
 20
673.19399769
 11
386.2474135091
 21
692.2756591783
  0
LINE
  5
2E3
100
AcDbEntity
  8
0
100
AcDbLine
 62
7
  6
CONTINUOUS
 10
274.856371678
 20
587.0081761668
 11
204.446017542
 21
627.6586934434
  0
LINE
  5
2E4
100
AcDbEntity
  8
0
100
AcDbLine
 62
7
  6
CONTINUOUS
 10
289.4657872378
 20
583.8155624938
 11
175.6494058781
 21
649.5259943414
  0
LINE
  5
2E5
100
AcDbEntity
  8
0
100
AcDbLine
 62
7
  6
CONTINUOUS
 10
424.9471431656
 20
506.7698180212
 11
424.9471431656
 21
280.2720475094
  0
LINE
  5
2E6
100
AcDbEntity
  8
0
100
AcDbLine
 62
7
  6
CONTINUOUS
 10
435.6029110146
 20
701.6892373671
 11
435.6029110146
 21
701.2964767001
  0
LINE
  5
2E7
100
AcDbEntity
  8
0
100
AcDbLine
 62
7
  6
CONTINUOUS
 10
298.7288475053
 20
589.1635609095
 11
184.9124661456
 21
654.8739927571
  0
LINE
  5
2E8
100
AcDbEntity
  8
0
100
AcDbLine
 62
7
  6
CONTINUOUS
 10
346.2960009573
 20
590.4254102128
 11
349.1244398578
 21
588.7924471947
  0
LINE
  5
2E9
100
AcDbEntity
  8
0
100
AcDbLine
 62
7
  6
CONTINUOUS
 10
361.3077978164
 20
580.2556704852
 11
424.9471431656
 21
506.7698180212
  0
LINE
  5
2EA
100
AcDbEntity
  8
0
100
AcDbLine
 62
7
  6
CONTINUOUS
 10
513.488315186
 20
181.4644878589
 11
501.3362266492
 21
227.8221417182
  0
LINE
  5
2EB
100
AcDbEntity
  8
0
100
AcDbLine
 62
7
  6
CONTINUOUS
 10
502.7504460995
 20
227.0056602091
 11
514.9025346363
 21
180.6480063499
  0
LINE
  5
2EC
100
AcDbEntity
  8
0
100
AcDbLine
 62
7
  6
CONTINUOUS
 10
446.2094685728
 20
707.8128996752
 11
446.2094685728
 21
707.4201390082
  0
LINE
  5
2ED
100
AcDbEntity
  8
0
100
AcDbLine
 62
7
  6
CONTINUOUS
 10
456.816026131
 20
713.9365619833
 11
456.816026131
 21
713.5438013162
  0
LINE
  5
2EE
100
AcDbEntity
  8
0
100
AcDbLine
 62
7
  6
CONTINUOUS
 10
457.3395699484
 20
147.9207650293
 11
457.3395699484
 21
676.5221618167
  0
LINE
  5
2EF
100
AcDbEntity
  8
0
100
AcDbLine
 62
7
  6
CONTINUOUS
 10
467.4225836892
 20
720.0602242913
 11
467.4225836892
 21
719.6674636243
  0
LINE
  5
2F0
100
AcDbEntity
  8
0
100
AcDbLine
 62
7
  6
CONTINUOUS
 10
330.0396661348
 20
603.0282348575
 11
153.7854960447
 21
704.7863253292
  0
LINE
  5
2F1
100
AcDbEntity
  8
0
100
AcDbLine
 62
7
  6
CONTINUOUS
 10
344.1817428791
 20
604.0895469059
 11
346.2960009573
 21
602.8689070499
  0
LINE
  5
2F2
100
AcDbEntity
  8
0
100
AcDbLine
 62
7
  6
CONTINUOUS
 10
349.1244398578
 20
605.4980866492
 11
344.1817428791
 21
608.3516895233
  0
LINE
  5
2F3
100
AcDbEntity
  8
0
100
AcDbLine
 62
7
  6
CONTINUOUS
 10
165.4667884225
 20
711.5304823709
 11
162.8293116706
 21
713.0531958351
  0
LINE
  5
2F4
100
AcDbEntity
  8
0
100
AcDbLine
 62
7
  6
CONTINUOUS
 10
365.3878281138
 20
614.8877021883
 11
360.445131135
 21
617.7413050624
  0
LINE
  5
2F5
100
AcDbEntity
  8
0
100
AcDbLine
 62
7
  6
CONTINUOUS
 10
181.7301766784
 20
720.9200979099
 11
179.0926999265
 21
722.4428113742
  0
LINE
  5
2F6
100
AcDbEntity
  8
0
100
AcDbLine
 62
7
  6
CONTINUOUS
 10
477.3220374102
 20
725.7756424455
 11
477.3220374102
 21
725.3828817785
  0
LINE
  5
2F7
100
AcDbEntity
  8
0
100
AcDbLine
 62
7
  6
CONTINUOUS
 10
487.2214911312
 20
731.4910605997
 11
487.2214911312
 21
731.0982999327
  0
LINE
  5
2F8
100
AcDbEntity
  8
0
100
AcDbLine
 62
7
  6
CONTINUOUS
 10
424.9471431656
 20
280.2720475094
 11
361.3077978164
 21
133.3022473485
  0
LINE
  5
2F9
100
AcDbEntity
  8
0
100
AcDbLine
 62
7
  6
CONTINUOUS
 10
298.7288475053
 20
279.309058633
 11
289.4657872378
 21
273.9610602173
  0
LINE
  5
2FA
100
AcDbEntity
  8
0
100
AcDbLine
 62
7
  6
CONTINUOUS
 10
185.0536277263
 20
722.8388818134
 11
361.3077978164
 21
621.0807913417
  0
LINE
  5
2FB
100
AcDbEntity
  8
0
100
AcDbLine
 62
7
  6
CONTINUOUS
 10
501.7171757294
 20
730.0776936231
 11
501.7171757294
 21
726.0115115858
  0
LINE
  5
2FC
100
AcDbEntity
  8
0
100
AcDbLine
 62
7
  6
CONTINUOUS
 10
502.9899685244
 20
195.9871373406
 11
502.9899685244
 21
221.513465379
  0
LINE
  5
2FD
100
AcDbEntity
  8
0
100
AcDbLine
 62
7
  6
CONTINUOUS
 10
502.9899685244
 20
725.9298661544
 11
502.9899685244
 21
731.4168510476
  0
LINE
  5
2FE
100
AcDbEntity
  8
0
100
AcDbLine
 62
7
  6
CONTINUOUS
 10
509.1842746815
 20
727.8406476249
 11
509.1842746815
 21
731.9231597106
  0
LINE
  5
2FF
100
AcDbEntity
  8
0
100
AcDbLine
 62
7
  6
CONTINUOUS
 10
510.3368539361
 20
728.5060855957
 11
510.3368539361
 21
732.5885976814
  0
LINE
  5
300
100
AcDbEntity
  8
0
100
AcDbLine
 62
7
  6
CONTINUOUS
 10
512.1823949513
 20
732.2656601986
 11
512.1823949513
 21
731.4696078751
  0
LINE
  5
301
100
AcDbEntity
  8
0
100
AcDbLine
 62
7
  6
CONTINUOUS
 10
513.4269330324
 20
728.7389899923
 11
513.4269330324
 21
729.4737151834
  0
LINE
  5
302
100
AcDbEntity
  8
0
100
AcDbLine
 62
7
  6
CONTINUOUS
 10
518.3767011084
 20
736.4591037998
 11
518.3767011084
 21
731.596722865
  0
LINE
  5
303
100
AcDbEntity
  8
0
100
AcDbLine
 62
7
  6
CONTINUOUS
 10
519.5292803631
 20
732.2621608358
 11
519.5292803631
 21
736.5732653795
  0
LINE
  5
304
100
AcDbEntity
  8
0
100
AcDbLine
 62
7
  6
CONTINUOUS
 10
521.2051164573
 20
741.3580900838
 11
521.2051164573
 21
745.8854587273
  0
LINE
  5
305
100
AcDbEntity
  8
0
100
AcDbLine
 62
7
  6
CONTINUOUS
 10
521.7283762408
 20
734.7565343157
 11
521.7283762408
 21
733.5318069531
  0
LINE
  5
306
100
AcDbEntity
  8
0
100
AcDbLine
 62
7
  6
CONTINUOUS
 10
522.3576957119
 20
741.4722516636
 11
522.3576957119
 21
745.8449704846
  0
LINE
  5
307
100
AcDbEntity
  8
0
100
AcDbLine
 62
7
  6
CONTINUOUS
 10
525.1861346125
 20
184.3073740788
 11
525.1861346125
 21
733.8951510488
  0
LINE
  5
308
100
AcDbEntity
  8
0
100
AcDbLine
 62
7
  6
CONTINUOUS
 10
186.1283609093
 20
785.1949684405
 11
377.7550964242
 21
674.5617239655
  0
LINE
  5
309
100
AcDbEntity
  8
0
100
AcDbLine
 62
7
  6
CONTINUOUS
 10
385.0948246571
 20
673.8594301198
 11
386.2474135091
 21
673.19399769
  0
LINE
  5
30A
100
AcDbEntity
  8
0
100
AcDbLine
 62
7
  6
CONTINUOUS
 10
536.1534269984
 20
759.7417583107
 11
536.1534269984
 21
778.823419799
  0
LINE
  5
30B
100
AcDbEntity
  8
0
100
AcDbLine
 62
7
  6
CONTINUOUS
 10
537.4686401356
 20
779.5827539252
 11
537.4686401356
 21
745.3141474783
  0
LINE
  5
30C
100
AcDbEntity
  8
0
100
AcDbLine
 62
7
  6
CONTINUOUS
 10
538.6212193903
 20
745.9795854491
 11
538.6212193903
 21
781.579090836
  0
LINE
  5
30D
100
AcDbEntity
  8
0
100
AcDbLine
 62
7
  6
CONTINUOUS
 10
461.6104286086
 20
169.7293577085
 11
476.2917657699
 21
213.7796908248
  0
LINE
  5
30E
100
AcDbEntity
  8
0
100
AcDbLine
 62
7
  6
CONTINUOUS
 10
377.7550964241
 20
674.5617239655
 11
378.7532593386
 21
674.4725606829
  0
LINE
  5
30F
100
AcDbEntity
  8
0
100
AcDbLine
 62
7
  6
CONTINUOUS
 10
193.1991918613
 20
803.4191120906
 11
384.8259273761
 21
692.7858676156
  0
LINE
  5
310
100
AcDbEntity
  8
0
100
AcDbLine
 62
7
  6
CONTINUOUS
 10
500.302968055
 20
730.8942101496
 11
501.3029293954
 21
730.9932283452
  0
LINE
  5
311
100
AcDbEntity
  8
0
100
AcDbLine
 62
7
  6
CONTINUOUS
 10
457.3395699484
 20
676.524429879
 11
451.5129858132
 21
679.8883336962
  0
LINE
  5
312
100
AcDbEntity
  8
0
100
AcDbLine
 62
7
  6
CONTINUOUS
 10
450.098754587
 20
682.3377850221
 11
426.0916835327
 21
696.1979603986
  0
LINE
  5
313
100
AcDbEntity
  8
0
100
AcDbLine
 62
7
  6
CONTINUOUS
 10
432.4209996825
 20
693.3357762122
 11
426.7775556044
 21
696.5939464602
  0
LINE
  5
314
100
AcDbEntity
  8
0
100
AcDbLine
 62
7
  6
CONTINUOUS
 10
435.6029110146
 20
701.2964767001
 11
435.2627654367
 21
701.4928553984
  0
LINE
  5
315
100
AcDbEntity
  8
0
100
AcDbLine
 62
7
  6
CONTINUOUS
 10
446.2094685728
 20
707.4201390082
 11
445.8693229949
 21
707.6165177065
  0
LINE
  5
316
100
AcDbEntity
  8
0
100
AcDbLine
 62
7
  6
CONTINUOUS
 10
501.3029293954
 20
730.9932283452
 11
501.7171757294
 21
730.0776936231
  0
LINE
  5
317
100
AcDbEntity
  8
0
100
AcDbLine
 62
7
  6
CONTINUOUS
 10
521.2051164573
 20
745.8854587273
 11
537.4686401356
 21
745.3141474783
  0
LINE
  5
318
100
AcDbEntity
  8
0
100
AcDbLine
 62
7
  6
CONTINUOUS
 10
456.816026131
 20
713.5438013162
 11
456.4758805531
 21
713.7401800145
  0
LINE
  5
319
100
AcDbEntity
  8
0
100
AcDbLine
 62
7
  6
CONTINUOUS
 10
467.4225836892
 20
719.6674636243
 11
467.0824381113
 21
719.8638423226
  0
LINE
  5
31A
100
AcDbEntity
  8
0
100
AcDbLine
 62
7
  6
CONTINUOUS
 10
488.445007455
 20
702.8438956697
 11
489.8586643537
 21
702.0266357608
  0
LINE
  5
31B
100
AcDbEntity
  8
0
100
AcDbLine
 62
7
  6
CONTINUOUS
 10
485.4007026245
 20
225.6777717929
 11
492.9916969042
 21
230.0604082229
  0
LINE
  5
31C
100
AcDbEntity
  8
0
100
AcDbLine
 62
7
  6
CONTINUOUS
 10
477.3220374102
 20
725.3828817785
 11
476.9818918323
 21
725.5792604768
  0
LINE
  5
31D
100
AcDbEntity
  8
0
100
AcDbLine
 62
7
  6
CONTINUOUS
 10
484.0532695587
 20
721.5124983498
 11
496.6718425937
 21
714.2273266238
  0
LINE
  5
31E
100
AcDbEntity
  8
0
100
AcDbLine
 62
7
  6
CONTINUOUS
 10
487.2214911312
 20
731.0982999327
 11
486.8813455533
 21
731.294678631
  0
LINE
  5
31F
100
AcDbEntity
  8
0
100
AcDbLine
 62
7
  6
CONTINUOUS
 10
502.6719366597
 20
722.5296270063
 11
504.08615611
 21
721.7131454972
  0
LINE
  5
320
100
AcDbEntity
  8
0
100
AcDbLine
 62
7
  6
CONTINUOUS
 10
501.7171757294
 20
726.0115115858
 11
505.2100037768
 21
723.9949719926
  0
LINE
  5
321
100
AcDbEntity
  8
0
100
AcDbLine
 62
7
  6
CONTINUOUS
 10
502.9899685244
 20
725.9298661544
 11
505.7756868466
 21
724.3215673157
  0
LINE
  5
322
100
AcDbEntity
  8
0
100
AcDbLine
 62
7
  6
CONTINUOUS
 10
500.3029499483
 20
730.8941787872
 11
501.7171757294
 21
730.0776936231
  0
LINE
  5
323
100
AcDbEntity
  8
0
100
AcDbLine
 62
7
  6
CONTINUOUS
 10
494.659523977
 20
735.7853852318
 11
500.302968055
 21
732.5272149839
  0
LINE
  5
324
100
AcDbEntity
  8
0
100
AcDbLine
 62
7
  6
CONTINUOUS
 10
495.0413959013
 20
736.0058577741
 11
509.1842746815
 21
727.8406476249
  0
LINE
  5
325
100
AcDbEntity
  8
0
100
AcDbLine
 62
7
  6
CONTINUOUS
 10
507.1014795346
 20
742.9687087436
 11
518.3767011084
 21
736.4591037998
  0
LINE
  5
326
100
AcDbEntity
  8
0
100
AcDbLine
 62
7
  6
CONTINUOUS
 10
521.7283762408
 20
734.7565343157
 11
522.1676879455
 21
734.1441680849
  0
LINE
  5
327
100
AcDbEntity
  8
0
100
AcDbLine
 62
7
  6
CONTINUOUS
 10
457.3395699484
 20
167.26359103
 11
461.6104286086
 21
169.7293577085
  0
LINE
  5
328
100
AcDbEntity
  8
0
100
AcDbLine
 62
7
  6
CONTINUOUS
 10
519.5292803631
 20
736.02615419
 11
521.7283762408
 21
734.7565343157
  0
LINE
  5
329
100
AcDbEntity
  8
0
100
AcDbLine
 62
7
  6
CONTINUOUS
 10
519.783801531
 20
737.0141189472
 11
525.1861346125
 21
733.8951510488
  0
LINE
  5
32A
100
AcDbEntity
  8
0
100
AcDbLine
 62
7
  6
CONTINUOUS
 10
512.758382661
 20
746.2347037911
 11
521.2051164573
 21
741.3580900838
  0
LINE
  5
32B
100
AcDbEntity
  8
0
100
AcDbLine
 62
7
  6
CONTINUOUS
 10
457.3395699484
 20
147.9207650293
 11
330.0396661348
 21
74.4245700078
  0
LINE
  5
32C
100
AcDbEntity
  8
0
100
AcDbLine
 62
7
  6
CONTINUOUS
 10
518.2918721997
 20
180.3269935786
 11
525.1861346125
 21
184.3073740788
  0
LINE
  5
32D
100
AcDbEntity
  8
0
100
AcDbLine
 62
7
  6
CONTINUOUS
 10
346.9944838755
 20
892.212335311
 11
538.6212193903
 21
781.579090836
  0
ARC
  5
32E
100
AcDbEntity
  8
0
100
AcDbCircle
 62
7
  6
CONTINUOUS
 10
-61.5494420405
 20
21.6183277224
 40
600.1969771341
100
AcDbArc
 50
61.73622696
 51
62.2774918009
  0
ARC
  5
32F
100
AcDbEntity
  8
0
100
AcDbCircle
 62
7
  6
CONTINUOUS
 10
-61.5489317187
 20
33.0503215906
 40
600.1958899099
100
AcDbArc
 50
61.7362264741
 51
62.2774922758
  0
ARC
  5
330
100
AcDbEntity
  8
0
100
AcDbCircle
 62
7
  6
CONTINUOUS
 10
-61.5489315981
 20
10.1882541372
 40
600.1958896535
100
AcDbArc
 50
61.736226474
 51
62.2774922757
  0
ARC
  5
331
100
AcDbEntity
  8
0
100
AcDbCircle
 62
7
  6
CONTINUOUS
 10
-61.5489315961
 20
-1.2427796988
 40
600.1958896492
100
AcDbArc
 50
61.736226474
 51
62.2774922757
  0
ARC
  5
332
100
AcDbEntity
  8
0
100
AcDbCircle
 62
7
  6
CONTINUOUS
 10
-26.5597628307
 20
93.5403361388
 40
530.3008080452
100
AcDbArc
 50
57.6158055893
 51
58.2036737922
  0
ARC
  5
333
100
AcDbEntity
  8
0
100
AcDbCircle
 62
7
  6
CONTINUOUS
 10
-26.5582959526
 20
82.1116164449
 40
530.2980681544
100
AcDbArc
 50
57.6158055137
 51
58.2036742074
  0
ARC
  5
334
100
AcDbEntity
  8
0
100
AcDbCircle
 62
7
  6
CONTINUOUS
 10
-26.5579301491
 20
70.6811659661
 40
530.297379598
100
AcDbArc
 50
57.615805132
 51
58.2036745891
  0
ARC
  5
335
100
AcDbEntity
  8
0
100
AcDbCircle
 62
7
  6
CONTINUOUS
 10
-26.5579301426
 20
59.2501321366
 40
530.2973795858
100
AcDbArc
 50
57.615805132
 51
58.2036745891
  0
ARC
  5
336
100
AcDbEntity
  8
0
100
AcDbCircle
 62
7
  6
CONTINUOUS
 10
496.1991249862
 20
227.2883522496
 40
4.9783741369
100
AcDbArc
 50
43.5413905419
 51
53.2985983862
  0
ARC
  5
337
100
AcDbEntity
  8
0
100
AcDbCircle
 62
7
  6
CONTINUOUS
 10
232.7006754036
 20
533.359395048
 40
4.460718997
100
AcDbArc
 50
114.7130737589
 51
119.9937924733
  0
ARC
  5
338
100
AcDbEntity
  8
0
100
AcDbCircle
 62
7
  6
CONTINUOUS
 10
241.5787797144
 20
517.9819761008
 40
4.4607129287
100
AcDbArc
 50
300.0059075951
 51
305.2862813715
  0
ARC
  5
339
100
AcDbEntity
  8
0
100
AcDbCircle
 62
7
  6
CONTINUOUS
 10
484.7056917401
 20
244.026340828
 40
3.7362642773
100
AcDbArc
 50
257.552284641
 51
261.3811298781
  0
ARC
  5
33A
100
AcDbEntity
  8
0
100
AcDbCircle
 62
7
  6
CONTINUOUS
 10
484.7056917401
 20
683.6394072346
 40
3.7362642771
100
AcDbArc
 50
257.552284641
 51
261.3811298782
  0
ARC
  5
33B
100
AcDbEntity
  8
0
100
AcDbCircle
 62
7
  6
CONTINUOUS
 10
512.0916732531
 20
728.4983025263
 40
2.9726900112
100
AcDbArc
 50
88.2511538005
 51
94.9330810781
  0
ARC
  5
33C
100
AcDbEntity
  8
0
100
AcDbCircle
 62
7
  6
CONTINUOUS
 10
513.1487263086
 20
729.4801009383
 40
2.6207515973
100
AcDbArc
 50
136.8156469252
 51
142.416643895
  0
ARC
  5
33D
100
AcDbEntity
  8
0
100
AcDbCircle
 62
7
  6
CONTINUOUS
 10
238.8996751347
 20
522.618614558
 40
1.8157099459
100
AcDbArc
 50
300.07365091
 51
313.1622532381
  0
SPLINE
  5
33E
100
AcDbEntity
  8
0
100
AcDbSpline
 62
7
  6
CONTINUOUS
 70
0
 71
3
 72
13
 73
9
 74
0
 42
0.0000001
 43
0.0000001
 44
0.0000000001
 40
0.0
 40
0.0
 40
0.0
 40
0.0
 40
0.1142677876
 40
0.2375516673
 40
0.5000148264
 40
0.7624681163
 40
0.8857401765
 40
1.0
 40
1.0
 40
1.0
 40
1.0
 10
234.4179181299
 20
555.0036302614
 30
0.0
 10
234.4953696017
 20
554.9589007385
 30
0.0
 10
234.6483560531
 20
554.8516339373
 30
0.0
 10
234.9347183727
 20
554.5834865454
 30
0.0
 10
235.237236961
 20
554.1702224752
 30
0.0
 10
235.4437957305
 20
553.7015751
 30
0.0
 10
235.5327499066
 20
553.319506917
 30
0.0
 10
235.5491161164
 20
553.1333978192
 30
0.0
 10
235.549125398
 20
553.043964349
 30
0.0
  0
SPLINE
  5
33F
100
AcDbEntity
  8
0
100
AcDbSpline
 62
7
  6
CONTINUOUS
 70
0
 71
3
 72
11
 73
7
 74
0
 42
0.0000001
 43
0.0000001
 44
0.0000000001
 40
0.0
 40
0.0
 40
0.0
 40
0.0
 40
0.2177737035
 40
0.4509586134
 40
0.7101975661
 40
1.0
 40
1.0
 40
1.0
 40
1.0
 10
228.8094412437
 20
557.8588972234
 30
0.0
 10
228.8622243079
 20
557.8893713713
 30
0.0
 10
228.983511293
 20
557.933423455
 30
0.0
 10
229.1849356534
 20
557.9384648697
 30
0.0
 10
229.3996484037
 20
557.8866918794
 30
0.0
 10
229.5393079967
 20
557.8202082177
 30
0.0
 10
229.6095535874
 20
557.7796625455
 30
0.0
  0
SPLINE
  5
340
100
AcDbEntity
  8
0
100
AcDbSpline
 62
7
  6
CONTINUOUS
 70
0
 71
3
 72
11
 73
7
 74
0
 42
0.0000001
 43
0.0000001
 44
0.0000000001
 40
0.0
 40
0.0
 40
0.0
 40
0.0
 40
0.2177859532
 40
0.4509734873
 40
0.7102010593
 40
1.0
 40
1.0
 40
1.0
 40
1.0
 10
228.1023373811
 20
557.4506531136
 30
0.0
 10
228.0495740892
 20
557.4201903322
 30
0.0
 10
227.9508145215
 20
557.3372206426
 30
0.0
 10
227.8457533217
 20
557.1653949794
 30
0.0
 10
227.7832061242
 20
556.9536732082
 30
0.0
 10
227.7709344209
 20
556.7995525012
 30
0.0
 10
227.7709235028
 20
556.7184810866
 30
0.0
  0
SPLINE
  5
341
100
AcDbEntity
  8
0
100
AcDbSpline
 62
7
  6
CONTINUOUS
 70
0
 71
3
 72
11
 73
7
 74
0
 42
0.0000001
 43
0.0000001
 44
0.0000000001
 40
0.0
 40
0.0
 40
0.0
 40
0.0
 40
0.2897989427
 40
0.5490265279
 40
0.7822140852
 40
1.0
 40
1.0
 40
1.0
 40
1.0
 10
235.5491388008
 20
547.4917189144
 30
0.0
 10
235.5491278827
 20
547.4106474969
 30
0.0
 10
235.5368561846
 20
547.2565267802
 30
0.0
 10
235.4743089814
 20
547.0448049942
 30
0.0
 10
235.3692477973
 20
546.8729793146
 30
0.0
 10
235.2704882025
 20
546.7900096419
 30
0.0
 10
235.2177248971
 20
546.7595469017
 30
0.0
  0
SPLINE
  5
342
100
AcDbEntity
  8
0
100
AcDbSpline
 62
7
  6
CONTINUOUS
 70
0
 71
3
 72
11
 73
7
 74
0
 42
0.0000001
 43
0.0000001
 44
0.0000000001
 40
0.0
 40
0.0
 40
0.0
 40
0.0
 40
0.2897850973
 40
0.5490186718
 40
0.7822103924
 40
1.0
 40
1.0
 40
1.0
 40
1.0
 10
233.7108348863
 20
546.4303491166
 30
0.0
 10
233.7810449368
 20
546.3898239618
 30
0.0
 10
233.9206680753
 20
546.3234350715
 30
0.0
 10
234.1352853073
 20
546.2717198832
 30
0.0
 10
234.3366237847
 20
546.2767990419
 30
0.0
 10
234.4578577395
 20
546.3208398911
 30
0.0
 10
234.5106210854
 20
546.3513027037
 30
0.0
  0
SPLINE
  5
343
100
AcDbEntity
  8
0
100
AcDbSpline
 62
7
  6
CONTINUOUS
 70
0
 71
3
 72
13
 73
9
 74
0
 42
0.0000001
 43
0.0000001
 44
0.0000000001
 40
0.0
 40
0.0
 40
0.0
 40
0.0
 40
0.1142713523
 40
0.2375491959
 40
0.5000031996
 40
0.7624569792
 40
0.8857358081
 40
1.0
 40
1.0
 40
1.0
 40
1.0
 10
227.7709369066
 20
551.1658590508
 30
0.0
 10
227.7709461876
 20
551.0764308196
 30
0.0
 10
227.7873853538
 20
550.8903423026
 30
0.0
 10
227.8763644342
 20
550.5083346209
 30
0.0
 10
228.0829474075
 20
550.0397874324
 30
0.0
 10
228.3854328518
 20
549.6266178142
 30
0.0
 10
228.6717495431
 20
549.3585338333
 30
0.0
 10
228.8247074636
 20
549.2512907075
 30
0.0
 10
228.902144148
 20
549.2065697246
 30
0.0
  0
SPLINE
  5
344
100
AcDbEntity
  8
0
100
AcDbSpline
 62
7
  6
CONTINUOUS
 70
0
 71
3
 72
11
 73
7
 74
0
 42
0.0000001
 43
0.0000001
 44
0.0000000001
 40
0.0
 40
0.0
 40
0.0
 40
0.0
 40
0.2897850999
 40
0.5490186754
 40
0.7822103949
 40
1.0
 40
1.0
 40
1.0
 40
1.0
 10
228.9021236312
 20
557.3716066712
 30
0.0
 10
228.8319135768
 20
557.412131832
 30
0.0
 10
228.6922904301
 20
557.4785207327
 30
0.0
 10
228.4776731842
 20
557.5302359323
 30
0.0
 10
228.2763346931
 20
557.5251567787
 30
0.0
 10
228.15510073
 20
557.481115928
 30
0.0
 10
228.1023373811
 20
557.4506531136
 30
0.0
  0
SPLINE
  5
345
100
AcDbEntity
  8
0
100
AcDbSpline
 62
7
  6
CONTINUOUS
 70
0
 71
3
 72
13
 73
9
 74
0
 42
0.0000001
 43
0.0000001
 44
0.0000000001
 40
0.0
 40
0.0
 40
0.0
 40
0.0
 40
0.1142713523
 40
0.2375491959
 40
0.5000031996
 40
0.7624569792
 40
0.8857358081
 40
1.0
 40
1.0
 40
1.0
 40
1.0
 10
234.8420215598
 20
552.6360967665
 30
0.0
 10
234.8420122788
 20
552.7255249977
 30
0.0
 10
234.8255731126
 20
552.9116135148
 30
0.0
 10
234.7365940322
 20
553.2936211965
 30
0.0
 10
234.5300110589
 20
553.7621683849
 30
0.0
 10
234.2275256146
 20
554.1753380031
 30
0.0
 10
233.9412089233
 20
554.443421984
 30
0.0
 10
233.7882510028
 20
554.5506651097
 30
0.0
 10
233.7108143185
 20
554.5953860927
 30
0.0
  0
SPLINE
  5
346
100
AcDbEntity
  8
0
100
AcDbSpline
 62
7
  6
CONTINUOUS
 70
0
 71
3
 72
11
 73
7
 74
0
 42
0.0000001
 43
0.0000001
 44
0.0000000001
 40
0.0
 40
0.0
 40
0.0
 40
0.0
 40
0.2177859532
 40
0.4509734873
 40
0.7102010593
 40
1.0
 40
1.0
 40
1.0
 40
1.0
 10
234.5106210854
 20
546.3513027037
 30
0.0
 10
234.5633843773
 20
546.3817654851
 30
0.0
 10
234.662143945
 20
546.4647351747
 30
0.0
 10
234.7672051447
 20
546.6365608379
 30
0.0
 10
234.8297523422
 20
546.8482826091
 30
0.0
 10
234.8420240455
 20
547.0024033162
 30
0.0
 10
234.8420349636
 20
547.0834747308
 30
0.0
  0
SPLINE
  5
347
100
AcDbEntity
  8
0
100
AcDbSpline
 62
7
  6
CONTINUOUS
 70
0
 71
3
 72
11
 73
7
 74
0
 42
0.0000001
 43
0.0000001
 44
0.0000000001
 40
0.0
 40
0.0
 40
0.0
 40
0.0
 40
0.2177680188
 40
0.4509504322
 40
0.7101913401
 40
1.0
 40
1.0
 40
1.0
 40
1.0
 10
240.4767316186
 20
551.1230070763
 30
0.0
 10
240.5295120417
 20
551.1534796919
 30
0.0
 10
240.6507956128
 20
551.1975271791
 30
0.0
 10
240.8522142557
 20
551.2025566276
 30
0.0
 10
241.0669191606
 20
551.1507670052
 30
0.0
 10
241.2065729007
 20
551.0842735767
 30
0.0
 10
241.2768136208
 20
551.0437198747
 30
0.0
  0
SPLINE
  5
348
100
AcDbEntity
  8
0
100
AcDbSpline
 62
7
  6
CONTINUOUS
 70
0
 71
3
 72
11
 73
7
 74
0
 42
0.0000001
 43
0.0000001
 44
0.0000000001
 40
0.0
 40
0.0
 40
0.0
 40
0.0
 40
0.2177668055
 40
0.4509487295
 40
0.7101902584
 40
1.0
 40
1.0
 40
1.0
 40
1.0
 10
239.7696277568
 20
550.714762965
 30
0.0
 10
239.7168456822
 20
550.6842893567
 30
0.0
 10
239.6180543102
 20
550.601275487
 30
0.0
 10
239.5129871037
 20
550.4293493558
 30
0.0
 10
239.4504864056
 20
550.2175054908
 30
0.0
 10
239.4382460856
 20
550.0633087664
 30
0.0
 10
239.4382471066
 20
549.9821983488
 30
0.0
  0
SPLINE
  5
349
100
AcDbEntity
  8
0
100
AcDbSpline
 62
7
  6
CONTINUOUS
 70
0
 71
3
 72
11
 73
7
 74
0
 42
0.0000001
 43
0.0000001
 44
0.0000000001
 40
0.0
 40
0.0
 40
0.0
 40
0.0
 40
0.2897989427
 40
0.5490265278
 40
0.7822140851
 40
1.0
 40
1.0
 40
1.0
 40
1.0
 10
247.2164492655
 20
540.7557464619
 30
0.0
 10
247.2164383475
 20
540.6746750447
 30
0.0
 10
247.2041666491
 20
540.5205543285
 30
0.0
 10
247.1416194458
 20
540.3088325434
 30
0.0
 10
247.0365582618
 20
540.1370068645
 30
0.0
 10
246.9377986673
 20
540.0540371922
 30
0.0
 10
246.8850353621
 20
540.0235744521
 30
0.0
  0
SPLINE
  5
34A
100
AcDbEntity
  8
0
100
AcDbSpline
 62
7
  6
CONTINUOUS
 70
0
 71
3
 72
13
 73
9
 74
0
 42
0.0000001
 43
0.0000001
 44
0.0000000001
 40
0.0
 40
0.0
 40
0.0
 40
0.0
 40
0.1142610242
 40
0.2375383939
 40
0.4999989056
 40
0.7624600157
 40
0.8857380879
 40
1.0
 40
1.0
 40
1.0
 40
1.0
 10
246.0851096325
 20
548.2677182894
 30
0.0
 10
246.1625594915
 20
548.2230004314
 30
0.0
 10
246.3155493354
 20
548.1157645132
 30
0.0
 10
246.601934581
 20
547.8476714375
 30
0.0
 10
246.9044854909
 20
547.4344437102
 30
0.0
 10
247.1110780322
 20
546.9658135724
 30
0.0
 10
247.2000637193
 20
546.5837490528
 30
0.0
 10
247.2164393297
 20
546.3976369176
 30
0.0
 10
247.2164421611
 20
546.3082037482
 30
0.0
  0
SPLINE
  5
34B
100
AcDbEntity
  8
0
100
AcDbSpline
 62
7
  6
CONTINUOUS
 70
0
 71
3
 72
11
 73
7
 74
0
 42
0.0000001
 43
0.0000001
 44
0.0000000001
 40
0.0
 40
0.0
 40
0.0
 40
0.0
 40
0.2897850974
 40
0.5490186718
 40
0.7822103924
 40
1.0
 40
1.0
 40
1.0
 40
1.0
 10
245.3781453512
 20
539.6943766671
 30
0.0
 10
245.4483554016
 20
539.6538515122
 30
0.0
 10
245.5879785402
 20
539.5874626219
 30
0.0
 10
245.8025957722
 20
539.5357474336
 30
0.0
 10
246.0039342496
 20
539.5408265923
 30
0.0
 10
246.1251682045
 20
539.5848674415
 30
0.0
 10
246.1779315503
 20
539.6153302541
 30
0.0
  0
SPLINE
  5
34C
100
AcDbEntity
  8
0
100
AcDbSpline
 62
7
  6
CONTINUOUS
 70
0
 71
3
 72
13
 73
9
 74
0
 42
0.0000001
 43
0.0000001
 44
0.0000000001
 40
0.0
 40
0.0
 40
0.0
 40
0.0
 40
0.1142713522
 40
0.2375491957
 40
0.5000031993
 40
0.7624569791
 40
0.8857358081
 40
1.0
 40
1.0
 40
1.0
 40
1.0
 10
239.438247371
 20
544.429886608
 30
0.0
 10
239.4382566521
 20
544.3404583766
 30
0.0
 10
239.4546958178
 20
544.1543698592
 30
0.0
 10
239.5436748972
 20
543.7723621763
 30
0.0
 10
239.7502578704
 20
543.3038149861
 30
0.0
 10
240.0527433152
 20
542.8906453663
 30
0.0
 10
240.3390600073
 20
542.6225613842
 30
0.0
 10
240.4920179283
 20
542.5153182581
 30
0.0
 10
240.5694546129
 20
542.470597275
 30
0.0
  0
SPLINE
  5
34D
100
AcDbEntity
  8
0
100
AcDbSpline
 62
7
  6
CONTINUOUS
 70
0
 71
3
 72
11
 73
7
 74
0
 42
0.0000001
 43
0.0000001
 44
0.0000000001
 40
0.0
 40
0.0
 40
0.0
 40
0.0
 40
0.2897932322
 40
0.5490293393
 40
0.7822178132
 40
1.0
 40
1.0
 40
1.0
 40
1.0
 10
240.5694192411
 20
550.6356434614
 30
0.0
 10
240.4992101757
 20
550.6761788874
 30
0.0
 10
240.359588918
 20
550.7425879354
 30
0.0
 10
240.1449690861
 20
550.7943260355
 30
0.0
 10
239.943626949
 20
550.7892629628
 30
0.0
 10
239.822390618
 20
550.7452254806
 30
0.0
 10
239.7696277568
 20
550.714762965
 30
0.0
  0
SPLINE
  5
34E
100
AcDbEntity
  8
0
100
AcDbSpline
 62
7
  6
CONTINUOUS
 70
0
 71
3
 72
13
 73
9
 74
0
 42
0.0000001
 43
0.0000001
 44
0.0000000001
 40
0.0
 40
0.0
 40
0.0
 40
0.0
 40
0.1142619265
 40
0.2375400087
 40
0.5000010747
 40
0.7624615535
 40
0.8857389468
 40
1.0
 40
1.0
 40
1.0
 40
1.0
 10
246.5093383238
 20
545.8999613048
 30
0.0
 10
246.5093354925
 20
545.9893943552
 30
0.0
 10
246.4929596636
 20
546.1755062275
 30
0.0
 10
246.403973845
 20
546.557570098
 30
0.0
 10
246.1973815341
 20
547.0261994443
 30
0.0
 10
245.8948312
 20
547.4394265939
 30
0.0
 10
245.6084465653
 20
547.7075194862
 30
0.0
 10
245.4554570413
 20
547.8147554768
 30
0.0
 10
245.3780072754
 20
547.859473281
 30
0.0
  0
SPLINE
  5
34F
100
AcDbEntity
  8
0
100
AcDbSpline
 62
7
  6
CONTINUOUS
 70
0
 71
3
 72
11
 73
7
 74
0
 42
0.0000001
 43
0.0000001
 44
0.0000000001
 40
0.0
 40
0.0
 40
0.0
 40
0.0
 40
0.2177859533
 40
0.4509734874
 40
0.7102010593
 40
1.0
 40
1.0
 40
1.0
 40
1.0
 10
246.1779315503
 20
539.6153302541
 30
0.0
 10
246.2306948421
 20
539.6457930354
 30
0.0
 10
246.3294544095
 20
539.7287627247
 30
0.0
 10
246.4345156091
 20
539.9005883872
 30
0.0
 10
246.4970628068
 20
540.1123101575
 30
0.0
 10
246.5093345103
 20
540.266430864
 30
0.0
 10
246.5093454283
 20
540.3475022783
 30
0.0
  0
SPLINE
  5
350
100
AcDbEntity
  8
0
100
AcDbSpline
 62
7
  6
CONTINUOUS
 70
0
 71
3
 72
13
 73
9
 74
0
 42
0.0000001
 43
0.0000001
 44
0.0000000001
 40
0.0
 40
0.0
 40
0.0
 40
0.0
 40
0.2894057076
 40
0.5482932721
 40
0.6677434895
 40
0.7817689034
 40
0.891903395
 40
1.0
 40
1.0
 40
1.0
 40
1.0
 10
237.1401344657
 20
520.2320908599
 30
0.0
 10
237.4325246624
 20
520.06328312
 30
0.0
 10
238.0135585258
 20
519.7865308512
 30
0.0
 10
238.7786569236
 20
519.6022564449
 30
0.0
 10
239.3544514255
 20
519.5822100452
 30
0.0
 10
239.754418525
 20
519.6268294646
 30
0.0
 10
240.1295986338
 20
519.7305719418
 30
0.0
 10
240.3614751376
 20
519.8391524779
 30
0.0
 10
240.4706860325
 20
519.9022050389
 30
0.0
  0
SPLINE
  5
351
100
AcDbEntity
  8
0
100
AcDbSpline
 62
7
  6
CONTINUOUS
 70
0
 71
3
 72
15
 73
11
 74
0
 42
0.0000001
 43
0.0000001
 44
0.0000000001
 40
0.0
 40
0.0
 40
0.0
 40
0.0
 40
0.114157402
 40
0.2373268903
 40
0.3669768499
 40
0.5000010795
 40
0.6330251591
 40
0.7626746801
 40
0.8858434774
 40
1.0
 40
1.0
 40
1.0
 40
1.0
 10
232.429980853
 20
528.3902709406
 30
0.0
 10
232.429980853
 20
528.0179335038
 30
0.0
 10
232.4981783396
 20
527.2431417139
 30
0.0
 10
232.7700444038
 20
526.0742810017
 30
0.0
 10
233.2055653225
 20
524.8903256286
 30
0.0
 10
233.7884507844
 20
523.7357740785
 30
0.0
 10
234.496883374
 20
522.6537092329
 30
0.0
 10
235.3044607811
 20
521.6845667884
 30
0.0
 10
236.1807912698
 20
520.8647035181
 30
0.0
 10
236.8176814468
 20
520.4182549855
 30
0.0
 10
237.1401344657
 20
520.2320908599
 30
0.0
  0
SPLINE
  5
352
100
AcDbEntity
  8
0
100
AcDbSpline
 62
7
  6
CONTINUOUS
 70
0
 71
3
 72
15
 73
11
 74
0
 42
0.0000001
 43
0.0000001
 44
0.0000000001
 40
0.0
 40
0.0
 40
0.0
 40
0.0
 40
0.1141574717
 40
0.237325142
 40
0.3669748285
 40
0.4999989218
 40
0.6330231651
 40
0.7626732895
 40
0.88584165
 40
1.0
 40
1.0
 40
1.0
 40
1.0
 10
237.1401344657
 20
530.0301198654
 30
0.0
 10
237.3985809684
 20
529.8809090831
 30
0.0
 10
237.9090459807
 20
529.5230845198
 30
0.0
 10
238.6114133653
 20
528.865962035
 30
0.0
 10
239.258690662
 20
528.0892095115
 30
0.0
 10
239.8264837653
 20
527.2219321251
 30
0.0
 10
240.2936763574
 20
526.2965713766
 30
0.0
 10
240.6427312532
 20
525.3476352535
 30
0.0
 10
240.8606394458
 20
524.4108023227
 30
0.0
 10
240.9152975548
 20
523.7898108104
 30
0.0
 10
240.9152975548
 20
523.4913818863
 30
0.0
  0
SPLINE
  5
353
100
AcDbEntity
  8
0
100
AcDbSpline
 62
7
  6
CONTINUOUS
 70
0
 71
3
 72
11
 73
7
 74
0
 42
0.0000001
 43
0.0000001
 44
0.0000000001
 40
0.0
 40
0.0
 40
0.0
 40
0.0
 40
0.2844799972
 40
0.5440732813
 40
0.7807968216
 40
1.0
 40
1.0
 40
1.0
 40
1.0
 10
240.9152975548
 20
523.4913818863
 30
0.0
 10
240.9152975548
 20
523.2647122788
 30
0.0
 10
240.8862499233
 20
522.8302477727
 30
0.0
 10
240.7416325865
 20
522.2216469134
 30
0.0
 10
240.4999415736
 20
521.700470152
 30
0.0
 10
240.2692256096
 20
521.413587589
 30
0.0
 10
240.1417418619
 20
521.2942004035
 30
0.0
  0
SPLINE
  5
354
100
AcDbEntity
  8
0
100
AcDbSpline
 62
7
  6
CONTINUOUS
 70
0
 71
3
 72
9
 73
5
 74
0
 42
0.0000001
 43
0.0000001
 44
0.0000000001
 40
0.0
 40
0.0
 40
0.0
 40
0.0
 40
0.2488256753
 40
1.0
 40
1.0
 40
1.0
 40
1.0
 10
234.4707182659
 20
530.2945160877
 30
0.0
 10
234.5004825215
 20
530.3117003864
 30
0.0
 10
234.6220725885
 20
530.3773032517
 30
0.0
 10
234.7513040325
 20
530.4286348969
 30
0.0
 10
234.8505894522
 20
530.458759939
 30
0.0
  0
SPLINE
  5
355
100
AcDbEntity
  8
0
100
AcDbSpline
 62
7
  6
CONTINUOUS
 70
0
 71
3
 72
11
 73
7
 74
0
 42
0.0000001
 43
0.0000001
 44
0.0000000001
 40
0.0
 40
0.0
 40
0.0
 40
0.0
 40
0.2192039287
 40
0.4559276427
 40
0.7155206108
 40
1.0
 40
1.0
 40
1.0
 40
1.0
 10
234.8505894522
 20
530.458759939
 30
0.0
 10
235.017720118
 20
530.5094704901
 30
0.0
 10
235.3815175648
 20
530.5658367346
 30
0.0
 10
235.9537032437
 20
530.514565507
 30
0.0
 10
236.5530632118
 20
530.3355176015
 30
0.0
 10
236.9438366263
 20
530.143449912
 30
0.0
 10
237.1401344657
 20
530.0301198654
 30
0.0
  0
SPLINE
  5
356
100
AcDbEntity
  8
0
100
AcDbSpline
 62
7
  6
CONTINUOUS
 70
0
 71
3
 72
11
 73
7
 74
0
 42
0.0000001
 43
0.0000001
 44
0.0000000001
 40
0.0
 40
0.0
 40
0.0
 40
0.0
 40
0.2192031787
 40
0.4559267179
 40
0.7155200014
 40
1.0
 40
1.0
 40
1.0
 40
1.0
 10
234.8456310815
 20
530.4558919235
 30
0.0
 10
234.7181473066
 20
530.3365047412
 30
0.0
 10
234.4874312878
 20
530.0496221742
 30
0.0
 10
234.24574022
 20
529.5284453741
 30
0.0
 10
234.101122851
 20
528.9198444577
 30
0.0
 10
234.0720752138
 20
528.4853799072
 30
0.0
 10
234.0720752138
 20
528.258710276
 30
0.0
  0
SPLINE
  5
357
100
AcDbEntity
  8
0
100
AcDbSpline
 62
7
  6
CONTINUOUS
 70
0
 71
3
 72
13
 73
9
 74
0
 42
0.0000001
 43
0.0000001
 44
0.0000000001
 40
0.0
 40
0.0
 40
0.0
 40
0.0
 40
0.289406682
 40
0.5482946012
 40
0.6677447126
 40
0.7817698394
 40
0.891903902
 40
1.0
 40
1.0
 40
1.0
 40
1.0
 10
242.5573919156
 20
523.3598212217
 30
0.0
 10
242.5573919156
 20
523.0221898354
 30
0.0
 10
242.5065540967
 20
522.3806043677
 30
0.0
 10
242.2835909937
 20
521.6258489352
 30
0.0
 10
242.0130500774
 20
521.1171579029
 30
0.0
 10
241.7744202165
 20
520.7930771917
 30
0.0
 10
241.4969801786
 20
520.5200264772
 30
0.0
 10
241.2870031778
 20
520.3735031452
 30
0.0
 10
241.1777898697
 20
520.3104491928
 30
0.0
  0
SPLINE
  5
358
100
AcDbEntity
  8
0
100
AcDbSpline
 62
7
  6
CONTINUOUS
 70
0
 71
3
 72
15
 73
11
 74
0
 42
0.0000001
 43
0.0000001
 44
0.0000000001
 40
0.0
 40
0.0
 40
0.0
 40
0.0
 40
0.1141565206
 40
0.2373253165
 40
0.3669748364
 40
0.4999989156
 40
0.6330231456
 40
0.7626731062
 40
0.885842596
 40
1.0
 40
1.0
 40
1.0
 40
1.0
 10
237.8472383029
 20
531.5180013024
 30
0.0
 10
238.169691316
 20
531.3318371801
 30
0.0
 10
238.8065814843
 20
530.8853886551
 30
0.0
 10
239.682911965
 20
530.0655253978
 30
0.0
 10
240.4904893695
 20
529.0963829634
 30
0.0
 10
241.1989219614
 20
528.0143181234
 30
0.0
 10
241.7818074293
 20
526.8597665724
 30
0.0
 10
242.2173283553
 20
525.675811192
 30
0.0
 10
242.4891944267
 20
524.5069504663
 30
0.0
 10
242.5573919156
 20
523.7321586652
 30
0.0
 10
242.5573919156
 20
523.3598212217
 30
0.0
  0
SPLINE
  5
359
100
AcDbEntity
  8
0
100
AcDbSpline
 62
7
  6
CONTINUOUS
 70
0
 71
3
 72
11
 73
7
 74
0
 42
0.0000001
 43
0.0000001
 44
0.0000000001
 40
0.0
 40
0.0
 40
0.0
 40
0.0
 40
0.2844793878
 40
0.5440723565
 40
0.7807960715
 40
1.0
 40
1.0
 40
1.0
 40
1.0
 10
237.8472383029
 20
521.7199722969
 30
0.0
 10
238.0435361217
 20
521.6066422622
 30
0.0
 10
238.4343094948
 20
521.41457459
 30
0.0
 10
239.0336693969
 20
521.2355266852
 30
0.0
 10
239.6058550148
 20
521.1842554293
 30
0.0
 10
239.9696524305
 20
521.2406216281
 30
0.0
 10
240.1367830855
 20
521.291332154
 30
0.0
  0
SPLINE
  5
35A
100
AcDbEntity
  8
0
100
AcDbSpline
 62
7
  6
CONTINUOUS
 70
0
 71
3
 72
15
 73
11
 74
0
 42
0.0000001
 43
0.0000001
 44
0.0000000001
 40
0.0
 40
0.0
 40
0.0
 40
0.0
 40
0.1141583531
 40
0.2373267159
 40
0.366976842
 40
0.5000010857
 40
0.6330251785
 40
0.7626748634
 40
0.8858425314
 40
1.0
 40
1.0
 40
1.0
 40
1.0
 10
234.0720752138
 20
528.258710276
 30
0.0
 10
234.0720752138
 20
527.9602813438
 30
0.0
 10
234.1267333252
 20
527.3392898174
 30
0.0
 10
234.3446415282
 20
526.4024568701
 30
0.0
 10
234.6936964313
 20
525.4535207371
 30
0.0
 10
235.1608890318
 20
524.5281599878
 30
0.0
 10
235.7286821386
 20
523.6608826091
 30
0.0
 10
236.3759594305
 20
522.8841300968
 30
0.0
 10
237.078326806
 20
522.2270076294
 30
0.0
 10
237.5887918072
 20
521.8691830752
 30
0.0
 10
237.8472383029
 20
521.7199722969
 30
0.0
  0
SPLINE
  5
35B
100
AcDbEntity
  8
0
100
AcDbSpline
 62
7
  6
CONTINUOUS
 70
0
 71
3
 72
13
 73
9
 74
0
 42
0.0000001
 43
0.0000001
 44
0.0000000001
 40
0.0
 40
0.0
 40
0.0
 40
0.0
 40
0.1080960972
 40
0.2182301592
 40
0.3322552855
 40
0.4517053967
 40
0.7105933159
 40
1.0
 40
1.0
 40
1.0
 40
1.0
 10
233.8095828989
 20
531.4396429695
 30
0.0
 10
233.7003695925
 20
531.3765890162
 30
0.0
 10
233.4903925913
 20
531.230065688
 30
0.0
 10
233.212952556
 20
530.9570149738
 30
0.0
 10
232.9743226955
 20
530.6329342645
 30
0.0
 10
232.7037817778
 20
530.1242432338
 30
0.0
 10
232.4808186726
 20
529.3694877996
 30
0.0
 10
232.429980853
 20
528.7279023294
 30
0.0
 10
232.429980853
 20
528.3902709406
 30
0.0
  0
SPLINE
  5
35C
100
AcDbEntity
  8
0
100
AcDbSpline
 62
7
  6
CONTINUOUS
 70
0
 71
3
 72
13
 73
9
 74
0
 42
0.0000001
 43
0.0000001
 44
0.0000000001
 40
0.0
 40
0.0
 40
0.0
 40
0.0
 40
0.1080966042
 40
0.2182310951
 40
0.3322565086
 40
0.4517067258
 40
0.7105942902
 40
1.0
 40
1.0
 40
1.0
 40
1.0
 10
234.5166867361
 20
531.8478871234
 30
0.0
 10
234.6258976309
 20
531.9109396825
 30
0.0
 10
234.8577741315
 20
532.0195202208
 30
0.0
 10
235.2329542389
 20
532.1232626959
 30
0.0
 10
235.6329213365
 20
532.1678821159
 30
0.0
 10
236.2087158378
 20
532.1478357183
 30
0.0
 10
236.9738142382
 20
531.963561313
 30
0.0
 10
237.554848104
 20
531.6868090435
 30
0.0
 10
237.8472383029
 20
531.5180013024
 30
0.0
  0
SPLINE
  5
35D
100
AcDbEntity
  8
0
100
AcDbSpline
 62
7
  6
CONTINUOUS
 70
0
 71
3
 72
13
 73
9
 74
0
 42
0.0000001
 43
0.0000001
 44
0.0000000001
 40
0.0
 40
0.0
 40
0.0
 40
0.0
 40
0.2894057076
 40
0.5482932721
 40
0.6677434895
 40
0.7817689034
 40
0.891903395
 40
1.0
 40
1.0
 40
1.0
 40
1.0
 10
237.1401344657
 20
531.1097571486
 30
0.0
 10
236.8477442689
 20
531.2785648884
 30
0.0
 10
236.2667104056
 20
531.5553171573
 30
0.0
 10
235.5016120078
 20
531.7395915636
 30
0.0
 10
234.9258175058
 20
531.7596379633
 30
0.0
 10
234.5258504064
 20
531.7150185438
 30
0.0
 10
234.1506702975
 20
531.6112760666
 30
0.0
 10
233.9187937937
 20
531.5026955305
 30
0.0
 10
233.8095828989
 20
531.4396429695
 30
0.0
  0
SPLINE
  5
35E
100
AcDbEntity
  8
0
100
AcDbSpline
 62
7
  6
CONTINUOUS
 70
0
 71
3
 72
12
 73
8
 74
0
 42
0.0000001
 43
0.0000001
 44
0.0000000001
 40
0.0
 40
0.0
 40
0.0
 40
0.0
 40
0.2895877407
 40
0.5486317957
 40
0.7816354237
 40
0.8918373815
 40
1.0
 40
1.0
 40
1.0
 40
1.0
 10
233.3649713766
 20
527.8504661221
 30
0.0
 10
233.3649713766
 20
528.1210780157
 30
0.0
 10
233.4059699291
 20
528.6355969667
 30
0.0
 10
233.614021019
 20
529.3421055205
 30
0.0
 10
233.9129723699
 20
529.8295722699
 30
0.0
 10
234.2148879524
 20
530.1265196092
 30
0.0
 10
234.3831845878
 20
530.2439787958
 30
0.0
 10
234.4707182659
 20
530.2945160877
 30
0.0
  0
SPLINE
  5
35F
100
AcDbEntity
  8
0
100
AcDbSpline
 62
7
  6
CONTINUOUS
 70
0
 71
3
 72
13
 73
9
 74
0
 42
0.0000001
 43
0.0000001
 44
0.0000000001
 40
0.0
 40
0.0
 40
0.0
 40
0.0
 40
0.1080960972
 40
0.2182301592
 40
0.3322552855
 40
0.4517053967
 40
0.7105933159
 40
1.0
 40
1.0
 40
1.0
 40
1.0
 10
240.4706860325
 20
519.9022050389
 30
0.0
 10
240.5798993389
 20
519.9652589923
 30
0.0
 10
240.78987634
 20
520.1117823204
 30
0.0
 10
241.0673163754
 20
520.3848330346
 30
0.0
 10
241.3059462358
 20
520.708913744
 30
0.0
 10
241.5764871536
 20
521.2176047747
 30
0.0
 10
241.7994502588
 20
521.9723602089
 30
0.0
 10
241.8502880784
 20
522.613945679
 30
0.0
 10
241.8502880784
 20
522.9515770679
 30
0.0
  0
SPLINE
  5
360
100
AcDbEntity
  8
0
100
AcDbSpline
 62
7
  6
CONTINUOUS
 70
0
 71
3
 72
15
 73
11
 74
0
 42
0.0000001
 43
0.0000001
 44
0.0000000001
 40
0.0
 40
0.0
 40
0.0
 40
0.0
 40
0.1141574717
 40
0.237325142
 40
0.3669748285
 40
0.4999989218
 40
0.6330231651
 40
0.7626732895
 40
0.88584165
 40
1.0
 40
1.0
 40
1.0
 40
1.0
 10
237.1401344657
 20
521.311728143
 30
0.0
 10
236.881687963
 20
521.4609389253
 30
0.0
 10
236.3712229507
 20
521.8187634887
 30
0.0
 10
235.6688555661
 20
522.4758859734
 30
0.0
 10
235.0215782693
 20
523.252638497
 30
0.0
 10
234.4537851661
 20
524.1199158833
 30
0.0
 10
233.986592574
 20
525.0452766319
 30
0.0
 10
233.6375376781
 20
525.994212755
 30
0.0
 10
233.4196294856
 20
526.9310456858
 30
0.0
 10
233.3649713766
 20
527.552037198
 30
0.0
 10
233.3649713766
 20
527.8504661221
 30
0.0
  0
SPLINE
  5
361
100
AcDbEntity
  8
0
100
AcDbSpline
 62
7
  6
CONTINUOUS
 70
0
 71
3
 72
15
 73
11
 74
0
 42
0.0000001
 43
0.0000001
 44
0.0000000001
 40
0.0
 40
0.0
 40
0.0
 40
0.0
 40
0.114157402
 40
0.2373268903
 40
0.3669768499
 40
0.5000010795
 40
0.6330251591
 40
0.7626746801
 40
0.8858434774
 40
1.0
 40
1.0
 40
1.0
 40
1.0
 10
241.8502880784
 20
522.9515770679
 30
0.0
 10
241.8502880784
 20
523.3239145047
 30
0.0
 10
241.7820905917
 20
524.0987062945
 30
0.0
 10
241.5102245276
 20
525.2675670067
 30
0.0
 10
241.0747036089
 20
526.4515223799
 30
0.0
 10
240.491818147
 20
527.6060739299
 30
0.0
 10
239.7833855574
 20
528.6881387756
 30
0.0
 10
238.9758081502
 20
529.6572812201
 30
0.0
 10
238.0994776615
 20
530.4771444904
 30
0.0
 10
237.4625874845
 20
530.9235930229
 30
0.0
 10
237.1401344657
 20
531.1097571486
 30
0.0
  0
SPLINE
  5
362
100
AcDbEntity
  8
0
100
AcDbSpline
 62
7
  6
CONTINUOUS
 70
0
 71
3
 72
12
 73
8
 74
0
 42
0.0000001
 43
0.0000001
 44
0.0000000001
 40
0.0
 40
0.0
 40
0.0
 40
0.0
 40
0.1081631251
 40
0.2183655108
 40
0.4513695477
 40
0.710413243
 40
1.0
 40
1.0
 40
1.0
 40
1.0
 10
239.8095506655
 20
521.0473319207
 30
0.0
 10
239.7220189198
 20
520.9967957445
 30
0.0
 10
239.5361519017
 20
520.9097787631
 30
0.0
 10
239.1280399924
 20
520.796788427
 30
0.0
 10
238.5564209406
 20
520.7816198234
 30
0.0
 10
237.8405597164
 20
520.9546858011
 30
0.0
 10
237.3744854979
 20
521.1764285724
 30
0.0
 10
237.1401344657
 20
521.311728143
 30
0.0
  0
SPLINE
  5
363
100
AcDbEntity
  8
0
100
AcDbSpline
 62
7
  6
CONTINUOUS
 70
0
 71
3
 72
13
 73
9
 74
0
 42
0.0000001
 43
0.0000001
 44
0.0000000001
 40
0.0
 40
0.0
 40
0.0
 40
0.0
 40
0.289406682
 40
0.5482946012
 40
0.6677447126
 40
0.7817698394
 40
0.891903902
 40
1.0
 40
1.0
 40
1.0
 40
1.0
 10
248.2211180789
 20
520.0899413713
 30
0.0
 10
248.2211180789
 20
519.3463249845
 30
0.0
 10
248.1091503035
 20
517.9332648054
 30
0.0
 10
247.6180851249
 20
516.2709533904
 30
0.0
 10
247.0222321717
 20
515.1505866154
 30
0.0
 10
246.4966617356
 20
514.4368149188
 30
0.0
 10
245.8856138092
 20
513.8354342597
 30
0.0
 10
245.4231498768
 20
513.5127238863
 30
0.0
 10
245.1826129812
 20
513.3738506827
 30
0.0
  0
SPLINE
  5
364
100
AcDbEntity
  8
0
100
AcDbSpline
 62
7
  6
CONTINUOUS
 70
0
 71
3
 72
15
 73
11
 74
0
 42
0.0000001
 43
0.0000001
 44
0.0000000001
 40
0.0
 40
0.0
 40
0.0
 40
0.0
 40
0.1141565206
 40
0.2373253165
 40
0.3669748364
 40
0.4999989156
 40
0.6330231456
 40
0.7626731062
 40
0.885842596
 40
1.0
 40
1.0
 40
1.0
 40
1.0
 10
237.8472383029
 20
538.0579284705
 30
0.0
 10
238.5574250753
 20
537.6479112221
 30
0.0
 10
239.9601440903
 20
536.6646304832
 30
0.0
 10
241.8902185205
 20
534.8589223125
 30
0.0
 10
243.6688677098
 20
532.7244341563
 30
0.0
 10
245.2291553653
 20
530.3412400009
 30
0.0
 10
246.5129317056
 20
527.7983974592
 30
0.0
 10
247.4721449496
 20
525.190794441
 30
0.0
 10
248.0709164912
 20
522.6164366514
 30
0.0
 10
248.2211180789
 20
520.9099961279
 30
0.0
 10
248.2211180789
 20
520.0899413713
 30
0.0
  0
SPLINE
  5
365
100
AcDbEntity
  8
0
100
AcDbSpline
 62
7
  6
CONTINUOUS
 70
0
 71
3
 72
15
 73
11
 74
0
 42
0.0000001
 43
0.0000001
 44
0.0000000001
 40
0.0
 40
0.0
 40
0.0
 40
0.0
 40
0.114157402
 40
0.2373268903
 40
0.3669768499
 40
0.5000010795
 40
0.6330251591
 40
0.7626746801
 40
0.8858434774
 40
1.0
 40
1.0
 40
1.0
 40
1.0
 10
228.4151974127
 20
531.5246363121
 30
0.0
 10
228.4151974127
 20
530.7790338928
 30
0.0
 10
228.5517622756
 20
529.2275201962
 30
0.0
 10
229.0961716611
 20
526.886886973
 30
0.0
 10
229.9682984432
 20
524.5160268248
 30
0.0
 10
231.1355214179
 20
522.2040475721
 30
0.0
 10
232.5541514039
 20
520.0372223028
 30
0.0
 10
234.1713180087
 20
518.0965231417
 30
0.0
 10
235.9261620504
 20
516.4547542047
 30
0.0
 10
237.2015289887
 20
515.5607449725
 30
0.0
 10
237.8472383029
 20
515.1879529599
 30
0.0
  0
SPLINE
  5
366
100
AcDbEntity
  8
0
100
AcDbSpline
 62
7
  6
CONTINUOUS
 70
0
 71
3
 72
13
 73
9
 74
0
 42
0.0000001
 43
0.0000001
 44
0.0000000001
 40
0.0
 40
0.0
 40
0.0
 40
0.0
 40
0.1080960972
 40
0.2182301592
 40
0.3322552855
 40
0.4517053967
 40
0.7105933159
 40
1.0
 40
1.0
 40
1.0
 40
1.0
 10
229.8047597874
 20
538.3762414796
 30
0.0
 10
229.5642228955
 20
538.237368274
 30
0.0
 10
229.1017589623
 20
537.9146579092
 30
0.0
 10
228.4907110415
 20
537.3132772506
 30
0.0
 10
227.9651406064
 20
536.599505558
 30
0.0
 10
227.36928765
 20
535.4791387866
 30
0.0
 10
226.8782224665
 20
533.8168273678
 30
0.0
 10
226.7662546897
 20
532.4037671832
 30
0.0
 10
226.7662546897
 20
531.660150791
 30
0.0
  0
SPLINE
  5
367
100
AcDbEntity
  8
0
100
AcDbSpline
 62
7
  6
CONTINUOUS
 70
0
 71
3
 72
12
 73
8
 74
0
 42
0.0000001
 43
0.0000001
 44
0.0000000001
 40
0.0
 40
0.0
 40
0.0
 40
0.0
 40
0.2877112071
 40
0.5471255901
 40
0.7815897521
 40
0.8921581993
 40
1.0
 40
1.0
 40
1.0
 40
1.0
 10
237.8472383029
 20
515.1879529599
 30
0.0
 10
238.3950799726
 20
514.8716635798
 30
0.0
 10
239.4851089115
 20
514.3463943284
 30
0.0
 10
241.1578177508
 20
513.9036863112
 30
0.0
 10
242.5039171902
 20
513.8758157887
 30
0.0
 10
243.4832008475
 20
514.0731377144
 30
0.0
 10
243.9362202346
 20
514.2393804443
 30
0.0
 10
244.1516095888
 20
514.3385228369
 30
0.0
  0
SPLINE
  5
368
100
AcDbEntity
  8
0
100
AcDbSpline
 62
7
  6
CONTINUOUS
 70
0
 71
3
 72
13
 73
9
 74
0
 42
0.0000001
 43
0.0000001
 44
0.0000000001
 40
0.0
 40
0.0
 40
0.0
 40
0.0
 40
0.2894057076
 40
0.5482932721
 40
0.6677434895
 40
0.7817689034
 40
0.891903395
 40
1.0
 40
1.0
 40
1.0
 40
1.0
 10
237.1401344657
 20
513.6921636919
 30
0.0
 10
237.7841093756
 20
513.3203730153
 30
0.0
 10
239.0638076487
 20
512.7108398661
 30
0.0
 10
240.7488989321
 20
512.3049846236
 30
0.0
 10
242.0170577714
 20
512.2608334223
 30
0.0
 10
242.8979654753
 20
512.3591054811
 30
0.0
 10
243.7242810615
 20
512.587593143
 30
0.0
 10
244.2349775634
 20
512.8267363898
 30
0.0
 10
244.475509144
 20
512.9656065289
 30
0.0
  0
SPLINE
  5
369
100
AcDbEntity
  8
0
100
AcDbSpline
 62
7
  6
CONTINUOUS
 70
0
 71
3
 72
15
 73
11
 74
0
 42
0.0000001
 43
0.0000001
 44
0.0000000001
 40
0.0
 40
0.0
 40
0.0
 40
0.0
 40
0.114157402
 40
0.2373268903
 40
0.3669768499
 40
0.5000010795
 40
0.6330251591
 40
0.7626746801
 40
0.8858434774
 40
1.0
 40
1.0
 40
1.0
 40
1.0
 10
226.7662546897
 20
531.660150791
 30
0.0
 10
226.7662546897
 20
530.840096049
 30
0.0
 10
226.9164562725
 20
529.1336555504
 30
0.0
 10
227.5152277981
 20
526.5592977905
 30
0.0
 10
228.4744410259
 20
523.9516947883
 30
0.0
 10
229.758217353
 20
521.4088522485
 30
0.0
 10
231.3185050036
 20
519.0256580808
 30
0.0
 10
233.0971541985
 20
516.8911699024
 30
0.0
 10
235.0272286465
 20
515.0854617031
 30
0.0
 10
236.4299476807
 20
514.1021809475
 30
0.0
 10
237.1401344657
 20
513.6921636919
 30
0.0
  0
SPLINE
  5
36A
100
AcDbEntity
  8
0
100
AcDbSpline
 62
7
  6
CONTINUOUS
 70
0
 71
3
 72
12
 73
8
 74
0
 42
0.0000001
 43
0.0000001
 44
0.0000000001
 40
0.0
 40
0.0
 40
0.0
 40
0.0
 40
0.2877122866
 40
0.547127002
 40
0.7815906863
 40
0.8921586911
 40
1.0
 40
1.0
 40
1.0
 40
1.0
 10
246.5721753559
 20
520.2254558502
 30
0.0
 10
246.5721753559
 20
519.5928433811
 30
0.0
 10
246.4820651535
 20
518.3861726104
 30
0.0
 10
246.0291025702
 20
516.7161505657
 30
0.0
 10
245.380170436
 20
515.5364199237
 30
0.0
 10
244.7196198927
 20
514.786977077
 30
0.0
 10
244.3491264117
 20
514.4777666342
 30
0.0
 10
244.1555649393
 20
514.3408035236
 30
0.0
  0
SPLINE
  5
36B
100
AcDbEntity
  8
0
100
AcDbSpline
 62
7
  6
CONTINUOUS
 70
0
 71
3
 72
15
 73
11
 74
0
 42
0.0000001
 43
0.0000001
 44
0.0000000001
 40
0.0
 40
0.0
 40
0.0
 40
0.0
 40
0.1141565206
 40
0.2373253165
 40
0.3669748364
 40
0.4999989156
 40
0.6330231456
 40
0.7626731062
 40
0.885842596
 40
1.0
 40
1.0
 40
1.0
 40
1.0
 10
237.1401344657
 20
536.5621392025
 30
0.0
 10
237.7858437684
 20
536.1893471964
 30
0.0
 10
239.0612106893
 20
535.2953379794
 30
0.0
 10
240.8160547149
 20
533.6535690685
 30
0.0
 10
242.4332213145
 20
531.7128699275
 30
0.0
 10
243.851851305
 20
529.5460446695
 30
0.0
 10
245.0190742916
 20
527.234065415
 30
0.0
 10
245.8912010885
 20
524.8632052523
 30
0.0
 10
246.4356104885
 20
522.522572002
 30
0.0
 10
246.5721753559
 20
520.9710582828
 30
0.0
 10
246.5721753559
 20
520.2254558502
 30
0.0
  0
SPLINE
  5
36C
100
AcDbEntity
  8
0
100
AcDbSpline
 62
7
  6
CONTINUOUS
 70
0
 71
3
 72
13
 73
9
 74
0
 42
0.0000001
 43
0.0000001
 44
0.0000000001
 40
0.0
 40
0.0
 40
0.0
 40
0.0
 40
0.1080966042
 40
0.2182310951
 40
0.3322565086
 40
0.4517067258
 40
0.7105942902
 40
1.0
 40
1.0
 40
1.0
 40
1.0
 10
230.5118636246
 20
538.7844856335
 30
0.0
 10
230.7523952051
 20
538.9233557683
 30
0.0
 10
231.2630917
 20
539.16249902
 30
0.0
 10
232.0894072829
 20
539.3909866774
 30
0.0
 10
232.9703149828
 20
539.4892587374
 30
0.0
 10
234.2384738207
 20
539.4451075407
 30
0.0
 10
235.9235651097
 20
539.0392523004
 30
0.0
 10
237.2032633882
 20
538.4297191498
 30
0.0
 10
237.8472383029
 20
538.0579284705
 30
0.0
  0
SPLINE
  5
36D
100
AcDbEntity
  8
0
100
AcDbSpline
 62
7
  6
CONTINUOUS
 70
0
 71
3
 72
12
 73
8
 74
0
 42
0.0000001
 43
0.0000001
 44
0.0000000001
 40
0.0
 40
0.0
 40
0.0
 40
0.0
 40
0.1078413081
 40
0.2184093122
 40
0.4528729959
 40
0.7122877112
 40
1.0
 40
1.0
 40
1.0
 40
1.0
 10
230.8318078706
 20
537.4092886669
 30
0.0
 10
230.6382463959
 20
537.2723255595
 30
0.0
 10
230.2677529135
 20
536.963115118
 30
0.0
 10
229.6072023566
 20
536.2136722796
 30
0.0
 10
228.9582702158
 20
535.0339416323
 30
0.0
 10
228.5053076163
 20
533.3639195758
 30
0.0
 10
228.4151974127
 20
532.1572487908
 30
0.0
 10
228.4151974127
 20
531.5246363121
 30
0.0
  0
SPLINE
  5
36E
100
AcDbEntity
  8
0
100
AcDbSpline
 62
7
  6
CONTINUOUS
 70
0
 71
3
 72
12
 73
8
 74
0
 42
0.0000001
 43
0.0000001
 44
0.0000000001
 40
0.0
 40
0.0
 40
0.0
 40
0.0
 40
0.1078417999
 40
0.2184102463
 40
0.4528744078
 40
0.7122887907
 40
1.0
 40
1.0
 40
1.0
 40
1.0
 10
230.835763135
 20
537.411569304
 30
0.0
 10
231.0511524876
 20
537.5107117
 30
0.0
 10
231.5041718743
 20
537.6769544318
 30
0.0
 10
232.483455531
 20
537.8742763734
 30
0.0
 10
233.8295549783
 20
537.8464058539
 30
0.0
 10
235.5022638359
 20
537.4036978448
 30
0.0
 10
236.5922927877
 20
536.8784285873
 30
0.0
 10
237.1401344657
 20
536.5621392025
 30
0.0
  0
SPLINE
  5
36F
100
AcDbEntity
  8
0
100
AcDbSpline
 62
7
  6
CONTINUOUS
 70
0
 71
3
 72
12
 73
8
 74
0
 42
0.0000001
 43
0.0000001
 44
0.0000000001
 40
0.0
 40
0.0
 40
0.0
 40
0.0
 40
0.1081633278
 40
0.2183658003
 40
0.4513682867
 40
0.7104156519
 40
1.0
 40
1.0
 40
1.0
 40
1.0
 10
243.8095344785
 20
514.1191153715
 30
0.0
 10
243.590840629
 20
513.9928531804
 30
0.0
 10
243.1264532707
 20
513.7754606069
 30
0.0
 10
242.1068099056
 20
513.4931718355
 30
0.0
 10
240.678645168
 20
513.4552370216
 30
0.0
 10
238.8901087812
 20
513.887667898
 30
0.0
 10
237.7256432492
 20
514.4416727996
 30
0.0
 10
237.1401344657
 20
514.779708806
 30
0.0
  0
SPLINE
  5
370
100
AcDbEntity
  8
0
100
AcDbSpline
 62
7
  6
CONTINUOUS
 70
0
 71
3
 72
13
 73
9
 74
0
 42
0.0000001
 43
0.0000001
 44
0.0000000001
 40
0.0
 40
0.0
 40
0.0
 40
0.0
 40
0.1080960972
 40
0.2182301592
 40
0.3322552855
 40
0.4517053967
 40
0.7105933159
 40
1.0
 40
1.0
 40
1.0
 40
1.0
 10
244.475509144
 20
512.9656065289
 30
0.0
 10
244.7160460359
 20
513.1044797345
 30
0.0
 10
245.1785099691
 20
513.4271900993
 30
0.0
 10
245.7895578899
 20
514.0285707579
 30
0.0
 10
246.315128325
 20
514.7423424505
 30
0.0
 10
246.9109812814
 20
515.8627092218
 30
0.0
 10
247.4020464648
 20
517.5250206406
 30
0.0
 10
247.5140142416
 20
518.9380808252
 30
0.0
 10
247.5140142416
 20
519.6816972175
 30
0.0
  0
SPLINE
  5
371
100
AcDbEntity
  8
0
100
AcDbSpline
 62
7
  6
CONTINUOUS
 70
0
 71
3
 72
15
 73
11
 74
0
 42
0.0000001
 43
0.0000001
 44
0.0000000001
 40
0.0
 40
0.0
 40
0.0
 40
0.0
 40
0.1141565206
 40
0.2373253165
 40
0.3669748364
 40
0.4999989156
 40
0.6330231456
 40
0.7626731062
 40
0.885842596
 40
1.0
 40
1.0
 40
1.0
 40
1.0
 10
237.1401344657
 20
514.779708806
 30
0.0
 10
236.494425163
 20
515.152500812
 30
0.0
 10
235.2190582421
 20
516.046510029
 30
0.0
 10
233.4642142165
 20
517.6882789399
 30
0.0
 10
231.8470476169
 20
519.6289780809
 30
0.0
 10
230.4284176264
 20
521.795803339
 30
0.0
 10
229.2611946397
 20
524.1077825935
 30
0.0
 10
228.3890678429
 20
526.4786427562
 30
0.0
 10
227.8446584429
 20
528.8192760064
 30
0.0
 10
227.7080935754
 20
530.3707897257
 30
0.0
 10
227.7080935754
 20
531.1163921583
 30
0.0
  0
SPLINE
  5
372
100
AcDbEntity
  8
0
100
AcDbSpline
 62
7
  6
CONTINUOUS
 70
0
 71
3
 72
12
 73
8
 74
0
 42
0.0000001
 43
0.0000001
 44
0.0000000001
 40
0.0
 40
0.0
 40
0.0
 40
0.0
 40
0.2895853263
 40
0.5486330513
 40
0.7816351307
 40
0.8918371766
 40
1.0
 40
1.0
 40
1.0
 40
1.0
 10
227.7080935754
 20
531.1163921583
 30
0.0
 10
227.7080935754
 20
531.792496019
 30
0.0
 10
227.8105348147
 20
533.0779937974
 30
0.0
 10
228.3303069039
 20
534.8431810347
 30
0.0
 10
229.077255331
 20
536.0610766561
 30
0.0
 10
229.8315640968
 20
536.8029873629
 30
0.0
 10
230.2520357708
 20
537.0964676558
 30
0.0
 10
230.4707344529
 20
537.222732637
 30
0.0
  0
SPLINE
  5
373
100
AcDbEntity
  8
0
100
AcDbSpline
 62
7
  6
CONTINUOUS
 70
0
 71
3
 72
13
 73
9
 74
0
 42
0.0000001
 43
0.0000001
 44
0.0000000001
 40
0.0
 40
0.0
 40
0.0
 40
0.0
 40
0.2894057076
 40
0.5482932721
 40
0.6677434895
 40
0.7817689034
 40
0.891903395
 40
1.0
 40
1.0
 40
1.0
 40
1.0
 10
237.1401344657
 20
537.6496843166
 30
0.0
 10
236.4961595557
 20
538.0214749932
 30
0.0
 10
235.2164612827
 20
538.6310081423
 30
0.0
 10
233.5313699993
 20
539.0368633849
 30
0.0
 10
232.2632111599
 20
539.0810145862
 30
0.0
 10
231.3823034561
 20
538.9827425274
 30
0.0
 10
230.5559878699
 20
538.7542548654
 30
0.0
 10
230.045291368
 20
538.5151116187
 30
0.0
 10
229.8047597874
 20
538.3762414796
 30
0.0
  0
SPLINE
  5
374
100
AcDbEntity
  8
0
100
AcDbSpline
 62
7
  6
CONTINUOUS
 70
0
 71
3
 72
15
 73
11
 74
0
 42
0.0000001
 43
0.0000001
 44
0.0000000001
 40
0.0
 40
0.0
 40
0.0
 40
0.0
 40
0.114157402
 40
0.2373268903
 40
0.3669768499
 40
0.5000010795
 40
0.6330251591
 40
0.7626746801
 40
0.8858434774
 40
1.0
 40
1.0
 40
1.0
 40
1.0
 10
247.5140142416
 20
519.6816972175
 30
0.0
 10
247.5140142416
 20
520.5017519595
 30
0.0
 10
247.3638126589
 20
522.208192458
 30
0.0
 10
246.7650411332
 20
524.7825502179
 30
0.0
 10
245.8058279055
 20
527.3901532201
 30
0.0
 10
244.5220515784
 20
529.9329957599
 30
0.0
 10
242.9617639278
 20
532.3161899276
 30
0.0
 10
241.1831147328
 20
534.450678106
 30
0.0
 10
239.2530402849
 20
536.2563863054
 30
0.0
 10
237.8503212506
 20
537.239667061
 30
0.0
 10
237.1401344657
 20
537.6496843166
 30
0.0
  0
SPLINE
  5
375
100
AcDbEntity
  8
0
100
AcDbSpline
 62
7
  6
CONTINUOUS
 70
0
 71
3
 72
11
 73
7
 74
0
 42
0.0000001
 43
0.0000001
 44
0.0000000001
 40
0.0
 40
0.0
 40
0.0
 40
0.0
 40
0.2951842652
 40
0.5553402314
 40
0.7858491963
 40
1.0
 40
1.0
 40
1.0
 40
1.0
 10
260.8541956549
 20
488.8451065068
 30
0.0
 10
261.1330320346
 20
488.6652343265
 30
0.0
 10
261.685759099
 20
488.3664474158
 30
0.0
 10
262.5410564636
 20
488.1145767444
 30
0.0
 10
263.3456108017
 20
488.1043866967
 30
0.0
 10
263.8297861001
 20
488.2733844352
 30
0.0
 10
264.038263179
 20
488.3937485501
 30
0.0
  0
SPLINE
  5
376
100
AcDbEntity
  8
0
100
AcDbSpline
 62
7
  6
CONTINUOUS
 70
0
 71
3
 72
11
 73
7
 74
0
 42
0.0000001
 43
0.0000001
 44
0.0000000001
 40
0.0
 40
0.0
 40
0.0
 40
0.0
 40
0.235396737
 40
0.4963152367
 40
0.759310173
 40
1.0
 40
1.0
 40
1.0
 40
1.0
 10
208.8220555232
 20
524.0757248467
 30
0.0
 10
208.8220555536
 20
523.2935356323
 30
0.0
 10
209.1365524902
 20
521.64283004
 30
0.0
 10
210.2362966881
 20
519.3483785284
 30
0.0
 10
211.8371448078
 20
517.3486842028
 30
0.0
 10
213.1915786908
 20
516.3194291737
 30
0.0
 10
213.9021099052
 20
515.952292607
 30
0.0
  0
SPLINE
  5
377
100
AcDbEntity
  8
0
100
AcDbSpline
 62
7
  6
CONTINUOUS
 70
0
 71
3
 72
11
 73
7
 74
0
 42
0.0000001
 43
0.0000001
 44
0.0000000001
 40
0.0
 40
0.0
 40
0.0
 40
0.0
 40
0.2342778037
 40
0.4968434672
 40
0.7611347417
 40
1.0
 40
1.0
 40
1.0
 40
1.0
 10
257.6007657714
 20
580.595633186
 30
0.0
 10
257.754988181
 20
580.4977779957
 30
0.0
 10
258.0451916229
 20
580.2320185954
 30
0.0
 10
258.3812151812
 20
579.7381319741
 30
0.0
 10
258.6108363643
 20
579.1828548379
 30
0.0
 10
258.6772198026
 20
578.7904273164
 30
0.0
 10
258.6772198038
 20
578.6042031231
 30
0.0
  0
SPLINE
  5
378
100
AcDbEntity
  8
0
100
AcDbSpline
 62
7
  6
CONTINUOUS
 70
0
 71
3
 72
9
 73
5
 74
0
 42
0.0000001
 43
0.0000001
 44
0.0000000001
 40
0.0
 40
0.0
 40
0.0
 40
0.0
 40
0.5579987523
 40
1.0
 40
1.0
 40
1.0
 40
1.0
 10
258.677216084
 20
547.9853647823
 30
0.0
 10
258.6772160835
 20
547.8336391143
 30
0.0
 10
258.6441563525
 20
547.5561015805
 30
0.0
 10
258.4662484137
 20
547.3226476365
 30
0.0
 10
258.3621984345
 20
547.2624980448
 30
0.0
  0
SPLINE
  5
379
100
AcDbEntity
  8
0
100
AcDbSpline
 62
7
  6
CONTINUOUS
 70
0
 71
3
 72
9
 73
5
 74
0
 42
0.0000001
 43
0.0000001
 44
0.0000000001
 40
0.0
 40
0.0
 40
0.0
 40
0.0
 40
0.4491828058
 40
1.0
 40
1.0
 40
1.0
 40
1.0
 10
251.4369994591
 20
521.1165692651
 30
0.0
 10
251.3291045546
 20
521.0542751453
 30
0.0
 10
251.1426454867
 20
520.8210603283
 30
0.0
 10
251.1055649956
 20
520.5371610305
 30
0.0
 10
251.1055444329
 20
520.3843846027
 30
0.0
  0
SPLINE
  5
37A
100
AcDbEntity
  8
0
100
AcDbSpline
 62
7
  6
CONTINUOUS
 70
0
 71
3
 72
9
 73
5
 74
0
 42
0.0000001
 43
0.0000001
 44
0.0000000001
 40
0.0
 40
0.0
 40
0.0
 40
0.0
 40
0.4491828147
 40
1.0
 40
1.0
 40
1.0
 40
1.0
 10
251.436999459
 20
532.5476031051
 30
0.0
 10
251.3291045697
 20
532.4853089943
 30
0.0
 10
251.1426455266
 20
532.2520942277
 30
0.0
 10
251.1055650026
 20
531.9681949808
 30
0.0
 10
251.1055444329
 20
531.8154185803
 30
0.0
  0
SPLINE
  5
37B
100
AcDbEntity
  8
0
100
AcDbSpline
 62
7
  6
CONTINUOUS
 70
0
 71
3
 72
9
 73
5
 74
0
 42
0.0000001
 43
0.0000001
 44
0.0000000001
 40
0.0
 40
0.0
 40
0.0
 40
0.0
 40
0.2448231973
 40
1.0
 40
1.0
 40
1.0
 40
1.0
 10
260.8541956549
 20
488.8451065068
 30
0.0
 10
257.1354499917
 20
491.244000408
 30
0.0
 10
241.8210631994
 20
500.848115516
 30
0.0
 10
226.029243712
 20
509.6861156303
 30
0.0
 10
213.9021099052
 20
515.952292607
 30
0.0
  0
SPLINE
  5
37C
100
AcDbEntity
  8
0
100
AcDbSpline
 62
7
  6
CONTINUOUS
 70
0
 71
3
 72
9
 73
5
 74
0
 42
0.0000001
 43
0.0000001
 44
0.0000000001
 40
0.0
 40
0.0
 40
0.0
 40
0.0
 40
0.4491828147
 40
1.0
 40
1.0
 40
1.0
 40
1.0
 10
216.4350680642
 20
529.8934527743
 30
0.0
 10
216.3271731749
 20
529.8311586635
 30
0.0
 10
216.1407141321
 20
529.5979438968
 30
0.0
 10
216.1036336074
 20
529.3140446499
 30
0.0
 10
216.1036130381
 20
529.1612682494
 30
0.0
  0
SPLINE
  5
37D
100
AcDbEntity
  8
0
100
AcDbSpline
 62
7
  6
CONTINUOUS
 70
0
 71
3
 72
9
 73
5
 74
0
 42
0.0000001
 43
0.0000001
 44
0.0000000001
 40
0.0
 40
0.0
 40
0.0
 40
0.0
 40
0.2455780762
 40
1.0
 40
1.0
 40
1.0
 40
1.0
 10
257.6007033608
 20
580.5956699165
 30
0.0
 10
254.4005377434
 20
582.6267133483
 30
0.0
 10
241.2802418915
 20
590.7561882542
 30
0.0
 10
227.8165149612
 20
598.3288069622
 30
0.0
 10
217.5078832703
 20
603.7427467392
 30
0.0
  0
SPLINE
  5
37E
100
AcDbEntity
  8
0
100
AcDbSpline
 62
7
  6
CONTINUOUS
 70
0
 71
3
 72
9
 73
5
 74
0
 42
0.0000001
 43
0.0000001
 44
0.0000000001
 40
0.0
 40
0.0
 40
0.0
 40
0.0
 40
0.4491828147
 40
1.0
 40
1.0
 40
1.0
 40
1.0
 10
216.4350680642
 20
541.3244866141
 30
0.0
 10
216.3271731749
 20
541.2621925033
 30
0.0
 10
216.1407141321
 20
541.0289777366
 30
0.0
 10
216.1036336074
 20
540.7450784898
 30
0.0
 10
216.1036130381
 20
540.5923020893
 30
0.0
  0
SPLINE
  5
37F
100
AcDbEntity
  8
0
100
AcDbSpline
 62
7
  6
CONTINUOUS
 70
0
 71
3
 72
9
 73
5
 74
0
 42
0.0000001
 43
0.0000001
 44
0.0000000001
 40
0.0
 40
0.0
 40
0.0
 40
0.0
 40
0.5508006773
 40
1.0
 40
1.0
 40
1.0
 40
1.0
 10
222.0435888743
 20
553.166284356
 30
0.0
 10
222.1758751723
 20
553.0899288641
 30
0.0
 10
222.4402649071
 20
552.980216447
 30
0.0
 10
222.735392359
 20
553.0250625731
 30
0.0
 10
222.8432694732
 20
553.0873464213
 30
0.0
  0
SPLINE
  5
380
100
AcDbEntity
  8
0
100
AcDbSpline
 62
7
  6
CONTINUOUS
 70
0
 71
3
 72
11
 73
7
 74
0
 42
0.0000001
 43
0.0000001
 44
0.0000000001
 40
0.0
 40
0.0
 40
0.0
 40
0.0
 40
0.2372725839
 40
0.5000103086
 40
0.7627469835
 40
1.0
 40
1.0
 40
1.0
 40
1.0
 10
216.1036264424
 20
557.9017570461
 30
0.0
 10
216.1036456891
 20
557.7162940092
 30
0.0
 10
216.1733183699
 20
557.3252225941
 30
0.0
 10
216.4158383139
 20
556.7757719663
 30
0.0
 10
216.7704233386
 20
556.2910220794
 30
0.0
 10
217.0743153511
 20
556.0352442039
 30
0.0
 10
217.2349062338
 20
555.9425002888
 30
0.0
  0
SPLINE
  5
381
100
AcDbEntity
  8
0
100
AcDbSpline
 62
7
  6
CONTINUOUS
 70
0
 71
3
 72
9
 73
5
 74
0
 42
0.0000001
 43
0.0000001
 44
0.0000000001
 40
0.0
 40
0.0
 40
0.0
 40
0.0
 40
0.4491828145
 40
1.0
 40
1.0
 40
1.0
 40
1.0
 10
216.4350680643
 20
552.7555204537
 30
0.0
 10
216.327173175
 20
552.6932263431
 30
0.0
 10
216.140714132
 20
552.4600115765
 30
0.0
 10
216.1036336074
 20
552.1761123296
 30
0.0
 10
216.1036130381
 20
552.0233359291
 30
0.0
  0
SPLINE
  5
382
100
AcDbEntity
  8
0
100
AcDbSpline
 62
7
  6
CONTINUOUS
 70
0
 71
3
 72
9
 73
5
 74
0
 42
0.0000001
 43
0.0000001
 44
0.0000000001
 40
0.0
 40
0.0
 40
0.0
 40
0.0
 40
0.4491702478
 40
1.0
 40
1.0
 40
1.0
 40
1.0
 10
251.4369843527
 20
543.9787095537
 30
0.0
 10
251.3290749646
 20
543.9164083943
 30
0.0
 10
251.1426048549
 20
543.6831324873
 30
0.0
 10
251.1055563755
 20
543.3991854335
 30
0.0
 10
251.1055515373
 20
543.2463815515
 30
0.0
  0
SPLINE
  5
383
100
AcDbEntity
  8
0
100
AcDbSpline
 62
7
  6
CONTINUOUS
 70
0
 71
3
 72
9
 73
5
 74
0
 42
0.0000001
 43
0.0000001
 44
0.0000000001
 40
0.0
 40
0.0
 40
0.0
 40
0.0
 40
0.449182814
 40
1.0
 40
1.0
 40
1.0
 40
1.0
 10
216.4350680634
 20
564.1865542952
 30
0.0
 10
216.3271731731
 20
564.1242601838
 30
0.0
 10
216.1407141297
 20
563.8910454128
 30
0.0
 10
216.1036336071
 20
563.6071461627
 30
0.0
 10
216.1036130387
 20
563.4543697603
 30
0.0
  0
SPLINE
  5
384
100
AcDbEntity
  8
0
100
AcDbSpline
 62
7
  6
CONTINUOUS
 70
0
 71
3
 72
9
 73
5
 74
0
 42
0.0000001
 43
0.0000001
 44
0.0000000001
 40
0.0
 40
0.0
 40
0.0
 40
0.0
 40
0.5508006766
 40
1.0
 40
1.0
 40
1.0
 40
1.0
 10
257.0455202758
 20
532.9583670027
 30
0.0
 10
257.1778065726
 20
532.8820115125
 30
0.0
 10
257.4421963059
 20
532.7722990986
 30
0.0
 10
257.7373237539
 20
532.8171452264
 30
0.0
 10
257.8452008672
 20
532.879429074
 30
0.0
  0
SPLINE
  5
385
100
AcDbEntity
  8
0
100
AcDbSpline
 62
7
  6
CONTINUOUS
 70
0
 71
3
 72
11
 73
7
 74
0
 42
0.0000001
 43
0.0000001
 44
0.0000000001
 40
0.0
 40
0.0
 40
0.0
 40
0.0
 40
0.2372725841
 40
0.5000103085
 40
0.7627469833
 40
1.0
 40
1.0
 40
1.0
 40
1.0
 10
251.1055578363
 20
537.6938396931
 30
0.0
 10
251.105577084
 20
537.508376657
 30
0.0
 10
251.1752497659
 20
537.1173052444
 30
0.0
 10
251.4177697091
 20
536.5678546198
 30
0.0
 10
251.7723547307
 20
536.0831047348
 30
0.0
 10
252.0762467402
 20
535.8273268589
 30
0.0
 10
252.2368376219
 20
535.7345829433
 30
0.0
  0
SPLINE
  5
386
100
AcDbEntity
  8
0
100
AcDbSpline
 62
7
  6
CONTINUOUS
 70
0
 71
3
 72
9
 73
5
 74
0
 42
0.0000001
 43
0.0000001
 44
0.0000000001
 40
0.0
 40
0.0
 40
0.0
 40
0.0
 40
0.4533505321
 40
1.0
 40
1.0
 40
1.0
 40
1.0
 10
216.6691861184
 20
603.7996981283
 30
0.0
 10
216.7827521283
 20
603.865340937
 30
0.0
 10
217.0876057781
 20
603.9183044083
 30
0.0
 10
217.3678430099
 20
603.8163169927
 30
0.0
 10
217.5078651239
 20
603.7427588925
 30
0.0
  0
SPLINE
  5
387
100
AcDbEntity
  8
0
100
AcDbSpline
 62
7
  6
CONTINUOUS
 70
0
 71
3
 72
9
 73
5
 74
0
 42
0.0000001
 43
0.0000001
 44
0.0000000001
 40
0.0
 40
0.0
 40
0.0
 40
0.0
 40
0.5508006766
 40
1.0
 40
1.0
 40
1.0
 40
1.0
 10
222.0435888811
 20
541.7352505116
 30
0.0
 10
222.1758751779
 20
541.6588950214
 30
0.0
 10
222.4402649112
 20
541.5491826076
 30
0.0
 10
222.7353923591
 20
541.5940287353
 30
0.0
 10
222.8432694724
 20
541.656312583
 30
0.0
  0
SPLINE
  5
388
100
AcDbEntity
  8
0
100
AcDbSpline
 62
7
  6
CONTINUOUS
 70
0
 71
3
 72
11
 73
7
 74
0
 42
0.0000001
 43
0.0000001
 44
0.0000000001
 40
0.0
 40
0.0
 40
0.0
 40
0.0
 40
0.2372725841
 40
0.5000103086
 40
0.7627469833
 40
1.0
 40
1.0
 40
1.0
 40
1.0
 10
216.1036264419
 20
546.4707231991
 30
0.0
 10
216.1036456896
 20
546.2852601632
 30
0.0
 10
216.1733183719
 20
545.894188751
 30
0.0
 10
216.4158383152
 20
545.3447381274
 30
0.0
 10
216.7704233365
 20
544.8599882432
 30
0.0
 10
217.0743153457
 20
544.6042103677
 30
0.0
 10
217.2349062271
 20
544.5114664523
 30
0.0
  0
SPLINE
  5
389
100
AcDbEntity
  8
0
100
AcDbSpline
 62
7
  6
CONTINUOUS
 70
0
 71
3
 72
11
 73
7
 74
0
 42
0.0000001
 43
0.0000001
 44
0.0000000001
 40
0.0
 40
0.0
 40
0.0
 40
0.0
 40
0.2240654812
 40
0.4594053055
 40
0.7163700249
 40
1.0
 40
1.0
 40
1.0
 40
1.0
 10
210.3156888754
 20
619.0027059904
 30
0.0
 10
210.0799105901
 20
618.8665796129
 30
0.0
 10
209.6394637706
 20
618.505488751
 30
0.0
 10
209.1629790801
 20
617.7629143408
 30
0.0
 10
208.8784632667
 20
616.8545787234
 30
0.0
 10
208.8220555232
 20
616.1952244175
 30
0.0
 10
208.8220555232
 20
615.850596765
 30
0.0
  0
SPLINE
  5
38A
100
AcDbEntity
  8
0
100
AcDbSpline
 62
7
  6
CONTINUOUS
 70
0
 71
3
 72
9
 73
5
 74
0
 42
0.0000001
 43
0.0000001
 44
0.0000000001
 40
0.0
 40
0.0
 40
0.0
 40
0.0
 40
0.4491828147
 40
1.0
 40
1.0
 40
1.0
 40
1.0
 10
251.436999459
 20
509.6855354255
 30
0.0
 10
251.3291045697
 20
509.6232413147
 30
0.0
 10
251.1426455266
 20
509.3900265481
 30
0.0
 10
251.1055650026
 20
509.1061273012
 30
0.0
 10
251.1055444329
 20
508.9533509007
 30
0.0
  0
SPLINE
  5
38B
100
AcDbEntity
  8
0
100
AcDbSpline
 62
7
  6
CONTINUOUS
 70
0
 71
3
 72
9
 73
5
 74
0
 42
0.0000001
 43
0.0000001
 44
0.0000000001
 40
0.0
 40
0.0
 40
0.0
 40
0.0
 40
0.5508006766
 40
1.0
 40
1.0
 40
1.0
 40
1.0
 10
222.0435888811
 20
530.3042166718
 30
0.0
 10
222.1758751779
 20
530.2278611816
 30
0.0
 10
222.4402649112
 20
530.1181487678
 30
0.0
 10
222.7353923592
 20
530.1629948955
 30
0.0
 10
222.8432694724
 20
530.2252787432
 30
0.0
  0
SPLINE
  5
38C
100
AcDbEntity
  8
0
100
AcDbSpline
 62
7
  6
CONTINUOUS
 70
0
 71
3
 72
11
 73
7
 74
0
 42
0.0000001
 43
0.0000001
 44
0.0000000001
 40
0.0
 40
0.0
 40
0.0
 40
0.0
 40
0.2372725841
 40
0.5000103086
 40
0.7627469833
 40
1.0
 40
1.0
 40
1.0
 40
1.0
 10
216.1036264419
 20
535.0396893593
 30
0.0
 10
216.1036456896
 20
534.8542263234
 30
0.0
 10
216.1733183719
 20
534.4631549112
 30
0.0
 10
216.4158383152
 20
533.9137042876
 30
0.0
 10
216.7704233365
 20
533.4289544033
 30
0.0
 10
217.0743153457
 20
533.1731765279
 30
0.0
 10
217.2349062271
 20
533.0804326124
 30
0.0
  0
SPLINE
  5
38D
100
AcDbEntity
  8
0
100
AcDbSpline
 62
7
  6
CONTINUOUS
 70
0
 71
3
 72
11
 73
7
 74
0
 42
0.0000001
 43
0.0000001
 44
0.0000000001
 40
0.0
 40
0.0
 40
0.0
 40
0.0
 40
0.2372725841
 40
0.5000103086
 40
0.7627469833
 40
1.0
 40
1.0
 40
1.0
 40
1.0
 10
251.1055578366
 20
503.4007381707
 30
0.0
 10
251.1055770843
 20
503.2152751348
 30
0.0
 10
251.1752497667
 20
502.8242037226
 30
0.0
 10
251.41776971
 20
502.274753099
 30
0.0
 10
251.7723547313
 20
501.7900032148
 30
0.0
 10
252.0762467404
 20
501.5342253393
 30
0.0
 10
252.2368376219
 20
501.4414814239
 30
0.0
  0
SPLINE
  5
38E
100
AcDbEntity
  8
0
100
AcDbSpline
 62
7
  6
CONTINUOUS
 70
0
 71
3
 72
9
 73
5
 74
0
 42
0.0000001
 43
0.0000001
 44
0.0000000001
 40
0.0
 40
0.0
 40
0.0
 40
0.0
 40
0.5508006766
 40
1.0
 40
1.0
 40
1.0
 40
1.0
 10
257.0455202759
 20
498.6652654832
 30
0.0
 10
257.1778065727
 20
498.588909993
 30
0.0
 10
257.4421963059
 20
498.4791975792
 30
0.0
 10
257.7373237539
 20
498.5240437069
 30
0.0
 10
257.8452008672
 20
498.5863275546
 30
0.0
  0
SPLINE
  5
38F
100
AcDbEntity
  8
0
100
AcDbSpline
 62
7
  6
CONTINUOUS
 70
0
 71
3
 72
9
 73
5
 74
0
 42
0.0000001
 43
0.0000001
 44
0.0000000001
 40
0.0
 40
0.0
 40
0.0
 40
0.0
 40
0.5508006766
 40
1.0
 40
1.0
 40
1.0
 40
1.0
 10
222.0435888811
 20
518.873182832
 30
0.0
 10
222.1758751779
 20
518.7968273417
 30
0.0
 10
222.4402649112
 20
518.687114928
 30
0.0
 10
222.7353923592
 20
518.7319610557
 30
0.0
 10
222.8432694724
 20
518.7942449033
 30
0.0
  0
SPLINE
  5
390
100
AcDbEntity
  8
0
100
AcDbSpline
 62
7
  6
CONTINUOUS
 70
0
 71
3
 72
11
 73
7
 74
0
 42
0.0000001
 43
0.0000001
 44
0.0000000001
 40
0.0
 40
0.0
 40
0.0
 40
0.0
 40
0.2372725841
 40
0.5000103086
 40
0.7627469833
 40
1.0
 40
1.0
 40
1.0
 40
1.0
 10
216.1036264419
 20
523.6086555195
 30
0.0
 10
216.1036456896
 20
523.4231924836
 30
0.0
 10
216.1733183719
 20
523.0321210714
 30
0.0
 10
216.4158383152
 20
522.4826704478
 30
0.0
 10
216.7704233365
 20
521.9979205635
 30
0.0
 10
217.0743153457
 20
521.7421426881
 30
0.0
 10
217.2349062271
 20
521.6493987726
 30
0.0
  0
SPLINE
  5
391
100
AcDbEntity
  8
0
100
AcDbSpline
 62
7
  6
CONTINUOUS
 70
0
 71
3
 72
9
 73
5
 74
0
 42
0.0000001
 43
0.0000001
 44
0.0000000001
 40
0.0
 40
0.0
 40
0.0
 40
0.0
 40
0.5508006766
 40
1.0
 40
1.0
 40
1.0
 40
1.0
 10
257.0455202758
 20
521.5273331629
 30
0.0
 10
257.1778065726
 20
521.4509776726
 30
0.0
 10
257.4421963059
 20
521.3412652588
 30
0.0
 10
257.7373237539
 20
521.3861113866
 30
0.0
 10
257.8452008672
 20
521.4483952342
 30
0.0
  0
SPLINE
  5
392
100
AcDbEntity
  8
0
100
AcDbSpline
 62
7
  6
CONTINUOUS
 70
0
 71
3
 72
11
 73
7
 74
0
 42
0.0000001
 43
0.0000001
 44
0.0000000001
 40
0.0
 40
0.0
 40
0.0
 40
0.0
 40
0.2372725841
 40
0.5000103086
 40
0.7627469833
 40
1.0
 40
1.0
 40
1.0
 40
1.0
 10
251.1055578366
 20
526.2628058504
 30
0.0
 10
251.1055770843
 20
526.0773428145
 30
0.0
 10
251.1752497667
 20
525.6862714023
 30
0.0
 10
251.41776971
 20
525.1368207786
 30
0.0
 10
251.7723547313
 20
524.6520708944
 30
0.0
 10
252.0762467404
 20
524.3962930189
 30
0.0
 10
252.2368376219
 20
524.3035491035
 30
0.0
  0
SPLINE
  5
393
100
AcDbEntity
  8
0
100
AcDbSpline
 62
7
  6
CONTINUOUS
 70
0
 71
3
 72
11
 73
7
 74
0
 42
0.0000001
 43
0.0000001
 44
0.0000000001
 40
0.0
 40
0.0
 40
0.0
 40
0.0
 40
0.2372725841
 40
0.5000103086
 40
0.7627469833
 40
1.0
 40
1.0
 40
1.0
 40
1.0
 10
251.1055578366
 20
514.8317720105
 30
0.0
 10
251.1055770844
 20
514.6463089746
 30
0.0
 10
251.1752497666
 20
514.2552375624
 30
0.0
 10
251.41776971
 20
513.7057869388
 30
0.0
 10
251.7723547313
 20
513.2210370546
 30
0.0
 10
252.0762467404
 20
512.9652591791
 30
0.0
 10
252.2368376219
 20
512.8725152637
 30
0.0
  0
SPLINE
  5
394
100
AcDbEntity
  8
0
100
AcDbSpline
 62
7
  6
CONTINUOUS
 70
0
 71
3
 72
9
 73
5
 74
0
 42
0.0000001
 43
0.0000001
 44
0.0000000001
 40
0.0
 40
0.0
 40
0.0
 40
0.0
 40
0.5508006766
 40
1.0
 40
1.0
 40
1.0
 40
1.0
 10
257.0455202758
 20
510.0962993231
 30
0.0
 10
257.1778065726
 20
510.0199438328
 30
0.0
 10
257.4421963059
 20
509.910231419
 30
0.0
 10
257.7373237539
 20
509.9550775467
 30
0.0
 10
257.8452008672
 20
510.0173613944
 30
0.0
  0
SPLINE
  5
395
100
AcDbEntity
  8
0
100
AcDbSpline
 62
7
  6
CONTINUOUS
 70
0
 71
3
 72
11
 73
7
 74
0
 42
0.0000001
 43
0.0000001
 44
0.0000000001
 40
0.0
 40
0.0
 40
0.0
 40
0.0
 40
0.2362232882
 40
0.4978819193
 40
0.7606859426
 40
1.0
 40
1.0
 40
1.0
 40
1.0
 10
223.8327406374
 20
559.7517842507
 30
0.0
 10
223.8327207892
 20
559.9369440671
 30
0.0
 10
223.7611162788
 20
560.3275619888
 30
0.0
 10
223.5094527953
 20
560.8734133621
 30
0.0
 10
223.1415652059
 20
561.3517002567
 30
0.0
 10
222.8278824298
 20
561.6001899512
 30
0.0
 10
222.6626766175
 20
561.6890393832
 30
0.0
  0
SPLINE
  5
396
100
AcDbEntity
  8
0
100
AcDbSpline
 62
7
  6
CONTINUOUS
 70
0
 71
3
 72
11
 73
7
 74
0
 42
0.0000001
 43
0.0000001
 44
0.0000000001
 40
0.0
 40
0.0
 40
0.0
 40
0.0
 40
0.2372725839
 40
0.5000103086
 40
0.7627469835
 40
1.0
 40
1.0
 40
1.0
 40
1.0
 10
223.1747110942
 20
559.3721436702
 30
0.0
 10
223.1746918475
 20
559.5576067071
 30
0.0
 10
223.1050191667
 20
559.9486781222
 30
0.0
 10
222.8624992227
 20
560.4981287501
 30
0.0
 10
222.507914198
 20
560.982878637
 30
0.0
 10
222.2040221856
 20
561.2386565125
 30
0.0
 10
222.0434313028
 20
561.3314004276
 30
0.0
  0
SPLINE
  5
397
100
AcDbEntity
  8
0
100
AcDbSpline
 62
7
  6
CONTINUOUS
 70
0
 71
3
 72
9
 73
5
 74
0
 42
0.0000001
 43
0.0000001
 44
0.0000000001
 40
0.0
 40
0.0
 40
0.0
 40
0.0
 40
0.5508006792
 40
1.0
 40
1.0
 40
1.0
 40
1.0
 10
217.2347486879
 20
564.1076163457
 30
0.0
 10
217.1024623869
 20
564.1839718439
 30
0.0
 10
216.8380726443
 20
564.2936842689
 30
0.0
 10
216.5429451808
 20
564.2488381453
 30
0.0
 10
216.4350680634
 20
564.1865542952
 30
0.0
  0
SPLINE
  5
398
100
AcDbEntity
  8
0
100
AcDbSpline
 62
7
  6
CONTINUOUS
 70
0
 71
3
 72
9
 73
5
 74
0
 42
0.0000001
 43
0.0000001
 44
0.0000000001
 40
0.0
 40
0.0
 40
0.0
 40
0.0
 40
0.5467829402
 40
1.0
 40
1.0
 40
1.0
 40
1.0
 10
217.6561101075
 20
564.350287592
 30
0.0
 10
217.5160988164
 20
564.423885875
 30
0.0
 10
217.2358406762
 20
564.5255240579
 30
0.0
 10
216.9310456537
 20
564.4729221933
 30
0.0
 10
216.817501578
 20
564.4073675146
 30
0.0
  0
SPLINE
  5
399
100
AcDbEntity
  8
0
100
AcDbSpline
 62
7
  6
CONTINUOUS
 70
0
 71
3
 72
9
 73
5
 74
0
 42
0.0000001
 43
0.0000001
 44
0.0000000001
 40
0.0
 40
0.0
 40
0.0
 40
0.0
 40
0.4421612584
 40
1.0
 40
1.0
 40
1.0
 40
1.0
 10
258.2276461554
 20
498.8071146818
 30
0.0
 10
258.3317905156
 20
498.8672424685
 30
0.0
 10
258.5100637162
 20
499.100578893
 30
0.0
 10
258.5427881425
 20
499.3782787932
 30
0.0
 10
258.5428075551
 20
499.5299954025
 30
0.0
  0
SPLINE
  5
39A
100
AcDbEntity
  8
0
100
AcDbSpline
 62
7
  6
CONTINUOUS
 70
0
 71
3
 72
9
 73
5
 74
0
 42
0.0000001
 43
0.0000001
 44
0.0000000001
 40
0.0
 40
0.0
 40
0.0
 40
0.0
 40
0.4421612584
 40
1.0
 40
1.0
 40
1.0
 40
1.0
 10
258.2276461554
 20
533.1002162013
 30
0.0
 10
258.3317905156
 20
533.160343988
 30
0.0
 10
258.5100637162
 20
533.3936804125
 30
0.0
 10
258.5427881425
 20
533.6713803126
 30
0.0
 10
258.5428075551
 20
533.823096922
 30
0.0
  0
SPLINE
  5
39B
100
AcDbEntity
  8
0
100
AcDbSpline
 62
7
  6
CONTINUOUS
 70
0
 71
3
 72
9
 73
5
 74
0
 42
0.0000001
 43
0.0000001
 44
0.0000000001
 40
0.0
 40
0.0
 40
0.0
 40
0.0
 40
0.4491828147
 40
1.0
 40
1.0
 40
1.0
 40
1.0
 10
257.8452008672
 20
532.879429074
 30
0.0
 10
257.9530957564
 20
532.9417231848
 30
0.0
 10
258.1395547993
 20
533.1749379515
 30
0.0
 10
258.176635324
 20
533.4588371983
 30
0.0
 10
258.1766558933
 20
533.6116135989
 30
0.0
  0
SPLINE
  5
39C
100
AcDbEntity
  8
0
100
AcDbSpline
 62
7
  6
CONTINUOUS
 70
0
 71
3
 72
9
 73
5
 74
0
 42
0.0000001
 43
0.0000001
 44
0.0000000001
 40
0.0
 40
0.0
 40
0.0
 40
0.0
 40
0.4421612584
 40
1.0
 40
1.0
 40
1.0
 40
1.0
 10
258.2276461554
 20
521.6691823615
 30
0.0
 10
258.3317905156
 20
521.7293101482
 30
0.0
 10
258.5100637162
 20
521.9626465726
 30
0.0
 10
258.5427881425
 20
522.2403464728
 30
0.0
 10
258.5428075551
 20
522.3920630821
 30
0.0
  0
SPLINE
  5
39D
100
AcDbEntity
  8
0
100
AcDbSpline
 62
7
  6
CONTINUOUS
 70
0
 71
3
 72
9
 73
5
 74
0
 42
0.0000001
 43
0.0000001
 44
0.0000000001
 40
0.0
 40
0.0
 40
0.0
 40
0.0
 40
0.4491828147
 40
1.0
 40
1.0
 40
1.0
 40
1.0
 10
257.8452008672
 20
521.4483952342
 30
0.0
 10
257.9530957564
 20
521.510689345
 30
0.0
 10
258.1395547993
 20
521.7439041116
 30
0.0
 10
258.176635324
 20
522.0278033585
 30
0.0
 10
258.1766558933
 20
522.1805797591
 30
0.0
  0
SPLINE
  5
39E
100
AcDbEntity
  8
0
100
AcDbSpline
 62
7
  6
CONTINUOUS
 70
0
 71
3
 72
9
 73
5
 74
0
 42
0.0000001
 43
0.0000001
 44
0.0000000001
 40
0.0
 40
0.0
 40
0.0
 40
0.0
 40
0.4539956726
 40
1.0
 40
1.0
 40
1.0
 40
1.0
 10
223.4902826604
 20
553.460881289
 30
0.0
 10
223.6008135706
 20
553.5246968598
 30
0.0
 10
223.7929512308
 20
553.7578483988
 30
0.0
 10
223.8327979612
 20
554.0460702565
 30
0.0
 10
223.8328193075
 20
554.1995667174
 30
0.0
  0
SPLINE
  5
39F
100
AcDbEntity
  8
0
100
AcDbSpline
 62
7
  6
CONTINUOUS
 70
0
 71
3
 72
9
 73
5
 74
0
 42
0.0000001
 43
0.0000001
 44
0.0000000001
 40
0.0
 40
0.0
 40
0.0
 40
0.0
 40
0.5539653686
 40
1.0
 40
1.0
 40
1.0
 40
1.0
 10
252.8564866669
 20
544.2570737756
 30
0.0
 10
252.7297693837
 20
544.3356521148
 30
0.0
 10
252.4767709736
 20
544.4513657469
 30
0.0
 10
252.1880532299
 20
544.4123539418
 30
0.0
 10
252.0840839478
 20
544.3523277403
 30
0.0
  0
SPLINE
  5
3A0
100
AcDbEntity
  8
0
100
AcDbSpline
 62
7
  6
CONTINUOUS
 70
0
 71
3
 72
9
 73
5
 74
0
 42
0.0000001
 43
0.0000001
 44
0.0000000001
 40
0.0
 40
0.0
 40
0.0
 40
0.0
 40
0.5539864307
 40
1.0
 40
1.0
 40
1.0
 40
1.0
 10
252.8564375915
 20
509.9638965963
 30
0.0
 10
252.7297070589
 20
510.0424725233
 30
0.0
 10
252.4766790081
 20
510.1581393633
 30
0.0
 10
252.1879636186
 20
510.1191192449
 30
0.0
 10
252.0839966845
 20
510.0590933583
 30
0.0
  0
SPLINE
  5
3A1
100
AcDbEntity
  8
0
100
AcDbSpline
 62
7
  6
CONTINUOUS
 70
0
 71
3
 72
9
 73
5
 74
0
 42
0.0000001
 43
0.0000001
 44
0.0000000001
 40
0.0
 40
0.0
 40
0.0
 40
0.0
 40
0.4491828139
 40
1.0
 40
1.0
 40
1.0
 40
1.0
 10
222.8432694732
 20
553.0873464213
 30
0.0
 10
222.9511643635
 20
553.1496405326
 30
0.0
 10
223.1376234072
 20
553.3828553036
 30
0.0
 10
223.1747039291
 20
553.6667545537
 30
0.0
 10
223.1747244979
 20
553.8195309561
 30
0.0
  0
SPLINE
  5
3A2
100
AcDbEntity
  8
0
100
AcDbSpline
 62
7
  6
CONTINUOUS
 70
0
 71
3
 72
9
 73
5
 74
0
 42
0.0000001
 43
0.0000001
 44
0.0000000001
 40
0.0
 40
0.0
 40
0.0
 40
0.0
 40
0.5508309067
 40
1.0
 40
1.0
 40
1.0
 40
1.0
 10
252.2369284881
 20
543.8995628589
 30
0.0
 10
252.1045922629
 20
543.9759637927
 30
0.0
 10
251.840159894
 20
544.0858593769
 30
0.0
 10
251.5448954389
 20
544.0410116935
 30
0.0
 10
251.4369843527
 20
543.9787095537
 30
0.0
  0
SPLINE
  5
3A3
100
AcDbEntity
  8
0
100
AcDbSpline
 62
7
  6
CONTINUOUS
 70
0
 71
3
 72
11
 73
7
 74
0
 42
0.0000001
 43
0.0000001
 44
0.0000000001
 40
0.0
 40
0.0
 40
0.0
 40
0.0
 40
0.2372725841
 40
0.5000103086
 40
0.7627469833
 40
1.0
 40
1.0
 40
1.0
 40
1.0
 10
258.1766424895
 20
539.1642263288
 30
0.0
 10
258.1766232418
 20
539.3496893646
 30
0.0
 10
258.1069505596
 20
539.7407607766
 30
0.0
 10
257.8644306164
 20
540.2902114
 30
0.0
 10
257.5098455954
 20
540.7749612841
 30
0.0
 10
257.2059535864
 20
541.0307391597
 30
0.0
 10
257.045362705
 20
541.1234830751
 30
0.0
  0
SPLINE
  5
3A4
100
AcDbEntity
  8
0
100
AcDbSpline
 62
7
  6
CONTINUOUS
 70
0
 71
3
 72
9
 73
5
 74
0
 42
0.0000001
 43
0.0000001
 44
0.0000000001
 40
0.0
 40
0.0
 40
0.0
 40
0.0
 40
0.4539956731
 40
1.0
 40
1.0
 40
1.0
 40
1.0
 10
223.4902826596
 20
519.1677797711
 30
0.0
 10
223.6008135696
 20
519.2315953418
 30
0.0
 10
223.7929512301
 20
519.4647468795
 30
0.0
 10
223.832797962
 20
519.7529687365
 30
0.0
 10
223.8328193092
 20
519.906465197
 30
0.0
  0
SPLINE
  5
3A5
100
AcDbEntity
  8
0
100
AcDbSpline
 62
7
  6
CONTINUOUS
 70
0
 71
3
 72
9
 73
5
 74
0
 42
0.0000001
 43
0.0000001
 44
0.0000000001
 40
0.0
 40
0.0
 40
0.0
 40
0.0
 40
0.5439716775
 40
1.0
 40
1.0
 40
1.0
 40
1.0
 10
216.3212973852
 20
603.0578533534
 30
0.0
 10
216.3212973857
 20
603.2117462853
 30
0.0
 10
216.3630465456
 20
603.5018589925
 30
0.0
 10
216.5574895394
 20
603.735135878
 30
0.0
 10
216.6691861184
 20
603.7996981283
 30
0.0
  0
SPLINE
  5
3A6
100
AcDbEntity
  8
0
100
AcDbSpline
 62
7
  6
CONTINUOUS
 70
0
 71
3
 72
11
 73
7
 74
0
 42
0.0000001
 43
0.0000001
 44
0.0000000001
 40
0.0
 40
0.0
 40
0.0
 40
0.0
 40
0.2388452052
 40
0.5031290846
 40
0.7656967477
 40
1.0
 40
1.0
 40
1.0
 40
1.0
 10
258.5427291815
 20
539.3753146228
 30
0.0
 10
258.5427108166
 20
539.5615152823
 30
0.0
 10
258.476772029
 20
539.9539721303
 30
0.0
 10
258.2466806531
 20
540.5091042046
 30
0.0
 10
257.9103084731
 20
541.0026406047
 30
0.0
 10
257.6203311464
 20
541.2686568655
 30
0.0
 10
257.4660932027
 20
541.3665101417
 30
0.0
  0
SPLINE
  5
3A7
100
AcDbEntity
  8
0
100
AcDbSpline
 62
7
  6
CONTINUOUS
 70
0
 71
3
 72
9
 73
5
 74
0
 42
0.0000001
 43
0.0000001
 44
0.0000000001
 40
0.0
 40
0.0
 40
0.0
 40
0.0
 40
0.4443201851
 40
1.0
 40
1.0
 40
1.0
 40
1.0
 10
258.3621984345
 20
547.2624980448
 30
0.0
 10
258.2599126414
 20
547.2033683003
 30
0.0
 10
257.9737043287
 20
547.166705351
 30
0.0
 10
257.7254685434
 20
547.2848197863
 30
0.0
 10
257.6007241473
 20
547.3640112263
 30
0.0
  0
SPLINE
  5
3A8
100
AcDbEntity
  8
0
100
AcDbSpline
 62
7
  6
CONTINUOUS
 70
0
 71
3
 72
9
 73
5
 74
0
 42
0.0000001
 43
0.0000001
 44
0.0000000001
 40
0.0
 40
0.0
 40
0.0
 40
0.0
 40
0.4491828147
 40
1.0
 40
1.0
 40
1.0
 40
1.0
 10
222.8432694724
 20
518.7942449033
 30
0.0
 10
222.9511643616
 20
518.8565390142
 30
0.0
 10
223.1376234048
 20
519.0897537807
 30
0.0
 10
223.1747039288
 20
519.3736530276
 30
0.0
 10
223.1747244985
 20
519.5264294281
 30
0.0
  0
SPLINE
  5
3A9
100
AcDbEntity
  8
0
100
AcDbSpline
 62
7
  6
CONTINUOUS
 70
0
 71
3
 72
9
 73
5
 74
0
 42
0.0000001
 43
0.0000001
 44
0.0000000001
 40
0.0
 40
0.0
 40
0.0
 40
0.0
 40
0.5467907022
 40
1.0
 40
1.0
 40
1.0
 40
1.0
 10
217.6561222393
 20
552.9192609179
 30
0.0
 10
217.5161075996
 20
552.992861032
 30
0.0
 10
217.2358420026
 20
553.0944841243
 30
0.0
 10
216.931045024
 20
553.0418885464
 30
0.0
 10
216.8175019238
 20
552.9763340653
 30
0.0
  0
SPLINE
  5
3AA
100
AcDbEntity
  8
0
100
AcDbSpline
 62
7
  6
CONTINUOUS
 70
0
 71
3
 72
9
 73
5
 74
0
 42
0.0000001
 43
0.0000001
 44
0.0000000001
 40
0.0
 40
0.0
 40
0.0
 40
0.0
 40
0.5508006785
 40
1.0
 40
1.0
 40
1.0
 40
1.0
 10
217.2347486804
 20
552.6765825107
 30
0.0
 10
217.1024623772
 20
552.7529380013
 30
0.0
 10
216.8380726413
 20
552.862650433
 30
0.0
 10
216.5429451808
 20
552.8178043031
 30
0.0
 10
216.4350680643
 20
552.7555204537
 30
0.0
  0
SPLINE
  5
3AB
100
AcDbEntity
  8
0
100
AcDbSpline
 62
7
  6
CONTINUOUS
 70
0
 71
3
 72
11
 73
7
 74
0
 42
0.0000001
 43
0.0000001
 44
0.0000000001
 40
0.0
 40
0.0
 40
0.0
 40
0.0
 40
0.2372725873
 40
0.5000103151
 40
0.7627469902
 40
1.0
 40
1.0
 40
1.0
 40
1.0
 10
223.1747110947
 20
547.9411098377
 30
0.0
 10
223.174691847
 20
548.1265728868
 30
0.0
 10
223.1050191556
 20
548.5176443271
 30
0.0
 10
222.8624991812
 20
549.0670949798
 30
0.0
 10
222.5079141293
 20
549.5518448865
 30
0.0
 10
222.2040220791
 20
549.8076227386
 30
0.0
 10
222.0434311908
 20
549.900366653
 30
0.0
  0
SPLINE
  5
3AC
100
AcDbEntity
  8
0
100
AcDbSpline
 62
7
  6
CONTINUOUS
 70
0
 71
3
 72
11
 73
7
 74
0
 42
0.0000001
 43
0.0000001
 44
0.0000000001
 40
0.0
 40
0.0
 40
0.0
 40
0.0
 40
0.2400680134
 40
0.5029468399
 40
0.7641868488
 40
1.0
 40
1.0
 40
1.0
 40
1.0
 10
217.5080229567
 20
570.5110276239
 30
0.0
 10
217.341224157
 20
570.5986033957
 30
0.0
 10
217.0236371813
 20
570.8438550944
 30
0.0
 10
216.6503093752
 20
571.3194536465
 30
0.0
 10
216.3946083446
 20
571.8635879339
 30
0.0
 10
216.3212967943
 20
572.2539604262
 30
0.0
 10
216.321296793
 20
572.4390129514
 30
0.0
  0
SPLINE
  5
3AD
100
AcDbEntity
  8
0
100
AcDbSpline
 62
7
  6
CONTINUOUS
 70
0
 71
3
 72
9
 73
5
 74
0
 42
0.0000001
 43
0.0000001
 44
0.0000000001
 40
0.0
 40
0.0
 40
0.0
 40
0.0
 40
0.2551980765
 40
1.0
 40
1.0
 40
1.0
 40
1.0
 10
213.9021099052
 20
618.7836455519
 30
0.0
 10
218.0002267127
 20
616.6661192183
 30
0.0
 10
233.9643548279
 20
608.1877400827
 30
0.0
 10
249.5410830858
 20
598.9743386841
 30
0.0
 10
260.8541956549
 20
591.6764594518
 30
0.0
  0
SPLINE
  5
3AE
100
AcDbEntity
  8
0
100
AcDbSpline
 62
7
  6
CONTINUOUS
 70
0
 71
3
 72
11
 73
7
 74
0
 42
0.0000001
 43
0.0000001
 44
0.0000000001
 40
0.0
 40
0.0
 40
0.0
 40
0.0
 40
0.2109170053
 40
0.4417346112
 40
0.7035810275
 40
1.0
 40
1.0
 40
1.0
 40
1.0
 10
264.038263179
 20
488.3937485501
 30
0.0
 10
264.2489543044
 20
488.5153909433
 30
0.0
 10
264.6439936519
 20
488.8567813133
 30
0.0
 10
265.056944459
 20
489.5682539676
 30
0.0
 10
265.3017015906
 20
490.4526160605
 30
0.0
 10
265.3493063435
 20
491.0985314504
 30
0.0
 10
265.3493063435
 20
491.4404399108
 30
0.0
  0
SPLINE
  5
3AF
100
AcDbEntity
  8
0
100
AcDbSpline
 62
7
  6
CONTINUOUS
 70
0
 71
3
 72
11
 73
7
 74
0
 42
0.0000001
 43
0.0000001
 44
0.0000000001
 40
0.0
 40
0.0
 40
0.0
 40
0.0
 40
0.2850719738
 40
0.5436711616
 40
0.7791270806
 40
1.0
 40
1.0
 40
1.0
 40
1.0
 10
213.9021099052
 20
618.7836455519
 30
0.0
 10
213.5865713638
 20
618.9466865783
 30
0.0
 10
212.9575453265
 20
619.2097810508
 30
0.0
 10
211.9966569474
 20
619.3964716649
 30
0.0
 10
211.0966823008
 20
619.34397234
 30
0.0
 10
210.5540070566
 20
619.1402987745
 30
0.0
 10
210.3156888754
 20
619.0027059904
 30
0.0
  0
SPLINE
  5
3B0
100
AcDbEntity
  8
0
100
AcDbSpline
 62
7
  6
CONTINUOUS
 70
0
 71
3
 72
11
 73
7
 74
0
 42
0.0000001
 43
0.0000001
 44
0.0000000001
 40
0.0
 40
0.0
 40
0.0
 40
0.0
 40
0.236223289
 40
0.4978819208
 40
0.7606859437
 40
1.0
 40
1.0
 40
1.0
 40
1.0
 10
223.8327406389
 20
548.32075041
 30
0.0
 10
223.8327207898
 20
548.50591023
 30
0.0
 10
223.7611162758
 20
548.8965281586
 30
0.0
 10
223.5094527842
 20
549.4423795398
 30
0.0
 10
223.1415651853
 20
549.9206664382
 30
0.0
 10
222.8278824017
 20
550.1691561322
 30
0.0
 10
222.6626765861
 20
550.2580055622
 30
0.0
  0
SPLINE
  5
3B1
100
AcDbEntity
  8
0
100
AcDbSpline
 62
7
  6
CONTINUOUS
 70
0
 71
3
 72
11
 73
7
 74
0
 42
0.0000001
 43
0.0000001
 44
0.0000000001
 40
0.0
 40
0.0
 40
0.0
 40
0.0
 40
0.2362232884
 40
0.4978819194
 40
0.7606859424
 40
1.0
 40
1.0
 40
1.0
 40
1.0
 10
223.8327406389
 20
536.8897165701
 30
0.0
 10
223.8327207898
 20
537.0748763868
 30
0.0
 10
223.7611162783
 20
537.4654943085
 30
0.0
 10
223.5094527942
 20
538.0113456819
 30
0.0
 10
223.1415652051
 20
538.4896325769
 30
0.0
 10
222.8278824295
 20
538.7381222724
 30
0.0
 10
222.6626766175
 20
538.8269717054
 30
0.0
  0
SPLINE
  5
3B2
100
AcDbEntity
  8
0
100
AcDbSpline
 62
7
  6
CONTINUOUS
 70
0
 71
3
 72
11
 73
7
 74
0
 42
0.0000001
 43
0.0000001
 44
0.0000000001
 40
0.0
 40
0.0
 40
0.0
 40
0.0
 40
0.2372725841
 40
0.5000103086
 40
0.7627469833
 40
1.0
 40
1.0
 40
1.0
 40
1.0
 10
223.1747110947
 20
536.5100759979
 30
0.0
 10
223.174691847
 20
536.6955390338
 30
0.0
 10
223.1050191647
 20
537.086610446
 30
0.0
 10
222.8624992214
 20
537.6360610696
 30
0.0
 10
222.5079142001
 20
538.1208109538
 30
0.0
 10
222.2040221909
 20
538.3765888293
 30
0.0
 10
222.0434313095
 20
538.4693327448
 30
0.0
  0
SPLINE
  5
3B3
100
AcDbEntity
  8
0
100
AcDbSpline
 62
7
  6
CONTINUOUS
 70
0
 71
3
 72
9
 73
5
 74
0
 42
0.0000001
 43
0.0000001
 44
0.0000000001
 40
0.0
 40
0.0
 40
0.0
 40
0.0
 40
0.4491828147
 40
1.0
 40
1.0
 40
1.0
 40
1.0
 10
257.8452008672
 20
498.5863275546
 30
0.0
 10
257.9530957564
 20
498.6486216654
 30
0.0
 10
258.1395547993
 20
498.881836432
 30
0.0
 10
258.176635324
 20
499.1657356789
 30
0.0
 10
258.1766558932
 20
499.3185120794
 30
0.0
  0
SPLINE
  5
3B4
100
AcDbEntity
  8
0
100
AcDbSpline
 62
7
  6
CONTINUOUS
 70
0
 71
3
 72
11
 73
7
 74
0
 42
0.0000001
 43
0.0000001
 44
0.0000000001
 40
0.0
 40
0.0
 40
0.0
 40
0.0
 40
0.2392151229
 40
0.5038959822
 40
0.7663359475
 40
1.0
 40
1.0
 40
1.0
 40
1.0
 10
265.3493063435
 20
583.2153116193
 30
0.0
 10
265.3493063435
 20
584.0042076259
 30
0.0
 10
265.0740182732
 20
585.6666629449
 30
0.0
 10
264.1190623178
 20
588.0241012055
 30
0.0
 10
262.7171314297
 20
590.1245881147
 30
0.0
 10
261.5017428925
 20
591.2587387342
 30
0.0
 10
260.8541956549
 20
591.6764594518
 30
0.0
  0
SPLINE
  5
3B5
100
AcDbEntity
  8
0
100
AcDbSpline
 62
7
  6
CONTINUOUS
 70
0
 71
3
 72
9
 73
5
 74
0
 42
0.0000001
 43
0.0000001
 44
0.0000000001
 40
0.0
 40
0.0
 40
0.0
 40
0.0
 40
0.5508006785
 40
1.0
 40
1.0
 40
1.0
 40
1.0
 10
217.2347486811
 20
541.2455486706
 30
0.0
 10
217.1024623813
 20
541.3219041672
 30
0.0
 10
216.8380726403
 20
541.4316165889
 30
0.0
 10
216.5429451807
 20
541.3867704636
 30
0.0
 10
216.4350680642
 20
541.3244866141
 30
0.0
  0
SPLINE
  5
3B6
100
AcDbEntity
  8
0
100
AcDbSpline
 62
7
  6
CONTINUOUS
 70
0
 71
3
 72
9
 73
5
 74
0
 42
0.0000001
 43
0.0000001
 44
0.0000000001
 40
0.0
 40
0.0
 40
0.0
 40
0.0
 40
0.5467829399
 40
1.0
 40
1.0
 40
1.0
 40
1.0
 10
217.6561101092
 20
541.4882199133
 30
0.0
 10
217.5160988178
 20
541.5618181958
 30
0.0
 10
217.235840677
 20
541.6634563776
 30
0.0
 10
216.9310456547
 20
541.6108545123
 30
0.0
 10
216.8175015788
 20
541.5452998335
 30
0.0
  0
SPLINE
  5
3B7
100
AcDbEntity
  8
0
100
AcDbSpline
 62
7
  6
CONTINUOUS
 70
0
 71
3
 72
9
 73
5
 74
0
 42
0.0000001
 43
0.0000001
 44
0.0000000001
 40
0.0
 40
0.0
 40
0.0
 40
0.0
 40
0.4539956731
 40
1.0
 40
1.0
 40
1.0
 40
1.0
 10
223.4902826596
 20
530.5988136109
 30
0.0
 10
223.6008135696
 20
530.6626291816
 30
0.0
 10
223.7929512301
 20
530.8957807193
 30
0.0
 10
223.832797962
 20
531.1840025763
 30
0.0
 10
223.8328193092
 20
531.3374990368
 30
0.0
  0
SPLINE
  5
3B8
100
AcDbEntity
  8
0
100
AcDbSpline
 62
7
  6
CONTINUOUS
 70
0
 71
3
 72
9
 73
5
 74
0
 42
0.0000001
 43
0.0000001
 44
0.0000000001
 40
0.0
 40
0.0
 40
0.0
 40
0.0
 40
0.4491828147
 40
1.0
 40
1.0
 40
1.0
 40
1.0
 10
222.8432694724
 20
530.2252787432
 30
0.0
 10
222.9511643616
 20
530.287572854
 30
0.0
 10
223.1376234048
 20
530.5207876205
 30
0.0
 10
223.1747039288
 20
530.8046868674
 30
0.0
 10
223.1747244985
 20
530.957463268
 30
0.0
  0
SPLINE
  5
3B9
100
AcDbEntity
  8
0
100
AcDbSpline
 62
7
  6
CONTINUOUS
 70
0
 71
3
 72
9
 73
5
 74
0
 42
0.0000001
 43
0.0000001
 44
0.0000000001
 40
0.0
 40
0.0
 40
0.0
 40
0.0
 40
0.4421612584
 40
1.0
 40
1.0
 40
1.0
 40
1.0
 10
258.2276461554
 20
510.2381485217
 30
0.0
 10
258.3317905156
 20
510.2982763083
 30
0.0
 10
258.5100637162
 20
510.5316127328
 30
0.0
 10
258.5427881425
 20
510.809312633
 30
0.0
 10
258.5428075551
 20
510.9610292423
 30
0.0
  0
SPLINE
  5
3BA
100
AcDbEntity
  8
0
100
AcDbSpline
 62
7
  6
CONTINUOUS
 70
0
 71
3
 72
9
 73
5
 74
0
 42
0.0000001
 43
0.0000001
 44
0.0000000001
 40
0.0
 40
0.0
 40
0.0
 40
0.0
 40
0.5508006785
 40
1.0
 40
1.0
 40
1.0
 40
1.0
 10
252.2366800758
 20
509.6065974821
 30
0.0
 10
252.104393776
 20
509.6829529787
 30
0.0
 10
251.840004035
 20
509.7926654003
 30
0.0
 10
251.5448765755
 20
509.747819275
 30
0.0
 10
251.436999459
 20
509.6855354255
 30
0.0
  0
SPLINE
  5
3BB
100
AcDbEntity
  8
0
100
AcDbSpline
 62
7
  6
CONTINUOUS
 70
0
 71
3
 72
11
 73
7
 74
0
 42
0.0000001
 43
0.0000001
 44
0.0000000001
 40
0.0
 40
0.0
 40
0.0
 40
0.0
 40
0.2362232884
 40
0.4978819194
 40
0.7606859424
 40
1.0
 40
1.0
 40
1.0
 40
1.0
 10
223.8327406389
 20
525.4586827303
 30
0.0
 10
223.8327207898
 20
525.643842547
 30
0.0
 10
223.7611162783
 20
526.0344604687
 30
0.0
 10
223.5094527942
 20
526.5803118421
 30
0.0
 10
223.1415652051
 20
527.0585987371
 30
0.0
 10
222.8278824295
 20
527.3070884326
 30
0.0
 10
222.6626766175
 20
527.3959378656
 30
0.0
  0
SPLINE
  5
3BC
100
AcDbEntity
  8
0
100
AcDbSpline
 62
7
  6
CONTINUOUS
 70
0
 71
3
 72
11
 73
7
 74
0
 42
0.0000001
 43
0.0000001
 44
0.0000000001
 40
0.0
 40
0.0
 40
0.0
 40
0.0
 40
0.2372725841
 40
0.5000103086
 40
0.7627469833
 40
1.0
 40
1.0
 40
1.0
 40
1.0
 10
223.1747110947
 20
525.0790421582
 30
0.0
 10
223.174691847
 20
525.2645051941
 30
0.0
 10
223.1050191647
 20
525.6555766063
 30
0.0
 10
222.8624992214
 20
526.2050272299
 30
0.0
 10
222.5079142001
 20
526.689777114
 30
0.0
 10
222.2040221909
 20
526.9455549895
 30
0.0
 10
222.0434313095
 20
527.0382989049
 30
0.0
  0
SPLINE
  5
3BD
100
AcDbEntity
  8
0
100
AcDbSpline
 62
7
  6
CONTINUOUS
 70
0
 71
3
 72
9
 73
5
 74
0
 42
0.0000001
 43
0.0000001
 44
0.0000000001
 40
0.0
 40
0.0
 40
0.0
 40
0.0
 40
0.4491828147
 40
1.0
 40
1.0
 40
1.0
 40
1.0
 10
257.8452008672
 20
510.0173613944
 30
0.0
 10
257.9530957564
 20
510.0796555052
 30
0.0
 10
258.1395547993
 20
510.3128702718
 30
0.0
 10
258.176635324
 20
510.5967695187
 30
0.0
 10
258.1766558933
 20
510.7495459192
 30
0.0
  0
SPLINE
  5
3BE
100
AcDbEntity
  8
0
100
AcDbSpline
 62
7
  6
CONTINUOUS
 70
0
 71
3
 72
9
 73
5
 74
0
 42
0.0000001
 43
0.0000001
 44
0.0000000001
 40
0.0
 40
0.0
 40
0.0
 40
0.0
 40
0.4539956731
 40
1.0
 40
1.0
 40
1.0
 40
1.0
 10
223.4902826596
 20
542.0298474507
 30
0.0
 10
223.6008135696
 20
542.0936630214
 30
0.0
 10
223.7929512301
 20
542.3268145592
 30
0.0
 10
223.832797962
 20
542.6150364161
 30
0.0
 10
223.8328193092
 20
542.7685328766
 30
0.0
  0
SPLINE
  5
3BF
100
AcDbEntity
  8
0
100
AcDbSpline
 62
7
  6
CONTINUOUS
 70
0
 71
3
 72
9
 73
5
 74
0
 42
0.0000001
 43
0.0000001
 44
0.0000000001
 40
0.0
 40
0.0
 40
0.0
 40
0.0
 40
0.5508006785
 40
1.0
 40
1.0
 40
1.0
 40
1.0
 10
217.234748681
 20
529.8145148308
 30
0.0
 10
217.1024623812
 20
529.8908703274
 30
0.0
 10
216.8380726402
 20
530.0005827491
 30
0.0
 10
216.5429451807
 20
529.9557366238
 30
0.0
 10
216.4350680642
 20
529.8934527743
 30
0.0
  0
SPLINE
  5
3C0
100
AcDbEntity
  8
0
100
AcDbSpline
 62
7
  6
CONTINUOUS
 70
0
 71
3
 72
11
 73
7
 74
0
 42
0.0000001
 43
0.0000001
 44
0.0000000001
 40
0.0
 40
0.0
 40
0.0
 40
0.0
 40
0.2372725841
 40
0.5000103086
 40
0.7627469833
 40
1.0
 40
1.0
 40
1.0
 40
1.0
 10
258.1766424895
 20
504.8711248093
 30
0.0
 10
258.1766232418
 20
505.0565878452
 30
0.0
 10
258.1069505595
 20
505.4476592574
 30
0.0
 10
257.8644306162
 20
505.9971098811
 30
0.0
 10
257.5098455949
 20
506.4818597653
 30
0.0
 10
257.2059535857
 20
506.7376376408
 30
0.0
 10
257.0453627043
 20
506.8303815562
 30
0.0
  0
SPLINE
  5
3C1
100
AcDbEntity
  8
0
100
AcDbSpline
 62
7
  6
CONTINUOUS
 70
0
 71
3
 72
9
 73
5
 74
0
 42
0.0000001
 43
0.0000001
 44
0.0000000001
 40
0.0
 40
0.0
 40
0.0
 40
0.0
 40
0.5467829399
 40
1.0
 40
1.0
 40
1.0
 40
1.0
 10
217.6561101091
 20
530.0571860735
 30
0.0
 10
217.5160988177
 20
530.130784356
 30
0.0
 10
217.235840677
 20
530.2324225377
 30
0.0
 10
216.9310456547
 20
530.1798206724
 30
0.0
 10
216.8175015788
 20
530.1142659937
 30
0.0
  0
SPLINE
  5
3C2
100
AcDbEntity
  8
0
100
AcDbSpline
 62
7
  6
CONTINUOUS
 70
0
 71
3
 72
9
 73
5
 74
0
 42
0.0000001
 43
0.0000001
 44
0.0000000001
 40
0.0
 40
0.0
 40
0.0
 40
0.0
 40
0.4491828147
 40
1.0
 40
1.0
 40
1.0
 40
1.0
 10
222.8432694724
 20
541.656312583
 30
0.0
 10
222.9511643616
 20
541.7186066938
 30
0.0
 10
223.1376234048
 20
541.9518214603
 30
0.0
 10
223.1747039288
 20
542.2357207072
 30
0.0
 10
223.1747244985
 20
542.3884971078
 30
0.0
  0
SPLINE
  5
3C3
100
AcDbEntity
  8
0
100
AcDbSpline
 62
7
  6
CONTINUOUS
 70
0
 71
3
 72
11
 73
7
 74
0
 42
0.0000001
 43
0.0000001
 44
0.0000000001
 40
0.0
 40
0.0
 40
0.0
 40
0.0
 40
0.2388452052
 40
0.5031290846
 40
0.7656967477
 40
1.0
 40
1.0
 40
1.0
 40
1.0
 10
258.5427291815
 20
505.0822131034
 30
0.0
 10
258.5427108166
 20
505.2684137629
 30
0.0
 10
258.476772029
 20
505.6608706109
 30
0.0
 10
258.2466806531
 20
506.2160026852
 30
0.0
 10
257.9103084731
 20
506.7095390852
 30
0.0
 10
257.6203311464
 20
506.975555346
 30
0.0
 10
257.4660932027
 20
507.0734086223
 30
0.0
  0
SPLINE
  5
3C4
100
AcDbEntity
  8
0
100
AcDbSpline
 62
7
  6
CONTINUOUS
 70
0
 71
3
 72
11
 73
7
 74
0
 42
0.0000001
 43
0.0000001
 44
0.0000000001
 40
0.0
 40
0.0
 40
0.0
 40
0.0
 40
0.2372539654
 40
0.5000012591
 40
0.7627478695
 40
1.0
 40
1.0
 40
1.0
 40
1.0
 10
217.5178266394
 20
573.1297983809
 30
0.0
 10
217.5178266406
 20
572.9443169679
 30
0.0
 10
217.5873694636
 20
572.5531601286
 30
0.0
 10
217.829938673
 20
572.0035980512
 30
0.0
 10
218.1845902538
 20
571.5187487721
 30
0.0
 10
218.4885709179
 20
571.262947722
 30
0.0
 10
218.6492021996
 20
571.1702093063
 30
0.0
  0
SPLINE
  5
3C5
100
AcDbEntity
  8
0
100
AcDbSpline
 62
7
  6
CONTINUOUS
 70
0
 71
3
 72
9
 73
5
 74
0
 42
0.0000001
 43
0.0000001
 44
0.0000000001
 40
0.0
 40
0.0
 40
0.0
 40
0.0
 40
0.5539833702
 40
1.0
 40
1.0
 40
1.0
 40
1.0
 10
252.8564309409
 20
532.8259604386
 30
0.0
 10
252.7297018181
 20
532.9045355607
 30
0.0
 10
252.476678301
 20
533.0202101675
 30
0.0
 10
252.1879634259
 20
532.9811872038
 30
0.0
 10
252.0839964471
 20
532.9211610329
 30
0.0
  0
SPLINE
  5
3C6
100
AcDbEntity
  8
0
100
AcDbSpline
 62
7
  6
CONTINUOUS
 70
0
 71
3
 72
9
 73
5
 74
0
 42
0.0000001
 43
0.0000001
 44
0.0000000001
 40
0.0
 40
0.0
 40
0.0
 40
0.0
 40
0.5508006785
 40
1.0
 40
1.0
 40
1.0
 40
1.0
 10
252.2366800758
 20
532.4686651617
 30
0.0
 10
252.104393776
 20
532.5450206583
 30
0.0
 10
251.840004035
 20
532.65473308
 30
0.0
 10
251.5448765755
 20
532.6098869547
 30
0.0
 10
251.436999459
 20
532.5476031051
 30
0.0
  0
SPLINE
  5
3C7
100
AcDbEntity
  8
0
100
AcDbSpline
 62
7
  6
CONTINUOUS
 70
0
 71
3
 72
11
 73
7
 74
0
 42
0.0000001
 43
0.0000001
 44
0.0000000001
 40
0.0
 40
0.0
 40
0.0
 40
0.0
 40
0.2372725841
 40
0.5000103086
 40
0.7627469833
 40
1.0
 40
1.0
 40
1.0
 40
1.0
 10
258.1766424895
 20
527.7331924889
 30
0.0
 10
258.1766232418
 20
527.9186555248
 30
0.0
 10
258.1069505595
 20
528.309726937
 30
0.0
 10
257.8644306162
 20
528.8591775607
 30
0.0
 10
257.5098455949
 20
529.3439274449
 30
0.0
 10
257.2059535857
 20
529.5997053204
 30
0.0
 10
257.0453627043
 20
529.6924492358
 30
0.0
  0
SPLINE
  5
3C8
100
AcDbEntity
  8
0
100
AcDbSpline
 62
7
  6
CONTINUOUS
 70
0
 71
3
 72
9
 73
5
 74
0
 42
0.0000001
 43
0.0000001
 44
0.0000000001
 40
0.0
 40
0.0
 40
0.0
 40
0.0
 40
0.5539864307
 40
1.0
 40
1.0
 40
1.0
 40
1.0
 10
252.8564375916
 20
521.3949304361
 30
0.0
 10
252.729707059
 20
521.4735063631
 30
0.0
 10
252.4766790082
 20
521.5891732031
 30
0.0
 10
252.1879636186
 20
521.5501530847
 30
0.0
 10
252.0839966845
 20
521.4901271981
 30
0.0
  0
SPLINE
  5
3C9
100
AcDbEntity
  8
0
100
AcDbSpline
 62
7
  6
CONTINUOUS
 70
0
 71
3
 72
9
 73
5
 74
0
 42
0.0000001
 43
0.0000001
 44
0.0000000001
 40
0.0
 40
0.0
 40
0.0
 40
0.0
 40
0.2544373846
 40
1.0
 40
1.0
 40
1.0
 40
1.0
 10
217.5078846514
 20
570.5110989466
 30
0.0
 10
220.9845745332
 20
568.685191915
 30
0.0
 10
234.5785884546
 20
561.3764129335
 30
0.0
 10
247.8851979743
 20
553.5301428152
 30
0.0
 10
257.6007031231
 20
547.3640216855
 30
0.0
  0
SPLINE
  5
3CA
100
AcDbEntity
  8
0
100
AcDbSpline
 62
7
  6
CONTINUOUS
 70
0
 71
3
 72
9
 73
5
 74
0
 42
0.0000001
 43
0.0000001
 44
0.0000000001
 40
0.0
 40
0.0
 40
0.0
 40
0.0
 40
0.5508006787
 40
1.0
 40
1.0
 40
1.0
 40
1.0
 10
252.2366800758
 20
521.0376313219
 30
0.0
 10
252.1043937759
 20
521.1139868185
 30
0.0
 10
251.840004035
 20
521.2236992402
 30
0.0
 10
251.5448765754
 20
521.1788531148
 30
0.0
 10
251.4369994591
 20
521.1165692651
 30
0.0
  0
SPLINE
  5
3CB
100
AcDbEntity
  8
0
100
AcDbSpline
 62
7
  6
CONTINUOUS
 70
0
 71
3
 72
11
 73
7
 74
0
 42
0.0000001
 43
0.0000001
 44
0.0000000001
 40
0.0
 40
0.0
 40
0.0
 40
0.0
 40
0.2388452052
 40
0.5031290846
 40
0.7656967477
 40
1.0
 40
1.0
 40
1.0
 40
1.0
 10
258.5427291815
 20
527.944280783
 30
0.0
 10
258.5427108166
 20
528.1304814425
 30
0.0
 10
258.476772029
 20
528.5229382905
 30
0.0
 10
258.2466806531
 20
529.0780703648
 30
0.0
 10
257.9103084731
 20
529.5716067648
 30
0.0
 10
257.6203311464
 20
529.8376230257
 30
0.0
 10
257.4660932027
 20
529.9354763019
 30
0.0
  0
SPLINE
  5
3CC
100
AcDbEntity
  8
0
100
AcDbSpline
 62
7
  6
CONTINUOUS
 70
0
 71
3
 72
11
 73
7
 74
0
 42
0.0000001
 43
0.0000001
 44
0.0000000001
 40
0.0
 40
0.0
 40
0.0
 40
0.0
 40
0.2388452052
 40
0.5031290846
 40
0.7656967477
 40
1.0
 40
1.0
 40
1.0
 40
1.0
 10
258.5427291815
 20
516.5132469432
 30
0.0
 10
258.5427108166
 20
516.6994476027
 30
0.0
 10
258.476772029
 20
517.0919044507
 30
0.0
 10
258.2466806531
 20
517.647036525
 30
0.0
 10
257.9103084731
 20
518.140572925
 30
0.0
 10
257.6203311464
 20
518.4065891859
 30
0.0
 10
257.4660932027
 20
518.5044424621
 30
0.0
  0
SPLINE
  5
3CD
100
AcDbEntity
  8
0
100
AcDbSpline
 62
7
  6
CONTINUOUS
 70
0
 71
3
 72
11
 73
7
 74
0
 42
0.0000001
 43
0.0000001
 44
0.0000000001
 40
0.0
 40
0.0
 40
0.0
 40
0.0
 40
0.2372725841
 40
0.5000103086
 40
0.7627469833
 40
1.0
 40
1.0
 40
1.0
 40
1.0
 10
258.1766424895
 20
516.3021586492
 30
0.0
 10
258.1766232418
 20
516.4876216851
 30
0.0
 10
258.1069505595
 20
516.8786930973
 30
0.0
 10
257.8644306162
 20
517.4281437209
 30
0.0
 10
257.5098455949
 20
517.9128936051
 30
0.0
 10
257.2059535857
 20
518.1686714806
 30
0.0
 10
257.0453627043
 20
518.261415396
 30
0.0
  0
SPLINE
  5
3CE
100
AcDbEntity
  8
0
100
AcDbSpline
 62
7
  6
CONTINUOUS
 70
0
 71
3
 72
13
 73
9
 74
0
 42
0.0000001
 43
0.0000001
 44
0.0000000001
 40
0.0
 40
0.0
 40
0.0
 40
0.0
 40
0.0871378966
 40
0.1868510357
 40
0.304531221
 40
0.4386675773
 40
0.7300816192
 40
1.0
 40
1.0
 40
1.0
 40
1.0
 10
509.8056744213
 20
733.2964067701
 30
0.0
 10
509.9555735235
 20
733.3828093477
 30
0.0
 10
510.3319152455
 20
733.4798342624
 30
0.0
 10
510.9379321325
 20
733.3583490893
 30
0.0
 10
511.5571118436
 20
733.0202744209
 30
0.0
 10
512.3692704666
 20
732.2998101541
 30
0.0
 10
513.132260922
 20
731.1205973093
 30
0.0
 10
513.4269330324
 20
730.0096550697
 30
0.0
 10
513.4269330324
 20
729.4737151834
 30
0.0
  0
SPLINE
  5
3CF
100
AcDbEntity
  8
0
100
AcDbSpline
 62
7
  6
CONTINUOUS
 70
0
 71
3
 72
9
 73
5
 74
0
 42
0.0000001
 43
0.0000001
 44
0.0000000001
 40
0.0
 40
0.0
 40
0.0
 40
0.0
 40
0.2301262323
 40
1.0
 40
1.0
 40
1.0
 40
1.0
 10
510.5033799286
 20
733.4438305382
 30
0.0
 10
510.4751972193
 20
733.3828905466
 30
0.0
 10
510.3713821918
 20
733.1094389995
 30
0.0
 10
510.3368539361
 20
732.8132147878
 30
0.0
 10
510.3368539361
 20
732.5885976814
 30
0.0
  0
SPLINE
  5
3D0
100
AcDbEntity
  8
0
100
AcDbSpline
 62
7
  6
CONTINUOUS
 70
0
 71
3
 72
9
 73
5
 74
0
 42
0.0000001
 43
0.0000001
 44
0.0000000001
 40
0.0
 40
0.0
 40
0.0
 40
0.0
 40
0.5508447784
 40
1.0
 40
1.0
 40
1.0
 40
1.0
 10
509.1842746815
 20
731.9231597106
 30
0.0
 10
509.1842746815
 20
732.2096944107
 30
0.0
 10
509.2537690772
 20
732.7420396704
 30
0.0
 10
509.6032547202
 20
733.1797310617
 30
0.0
 10
509.8056744213
 20
733.2964067701
 30
0.0
  0
SPLINE
  5
3D1
100
AcDbEntity
  8
0
100
AcDbSpline
 62
7
  6
CONTINUOUS
 70
0
 71
3
 72
9
 73
5
 74
0
 42
0.0000001
 43
0.0000001
 44
0.0000000001
 40
0.0
 40
0.0
 40
0.0
 40
0.0
 40
0.5508524848
 40
1.0
 40
1.0
 40
1.0
 40
1.0
 10
278.9652078194
 20
480.8265172098
 30
0.0
 10
278.9704113286
 20
480.2889373543
 30
0.0
 10
278.8317636642
 20
479.2903032123
 30
0.0
 10
278.1787444562
 20
478.4689792121
 30
0.0
 10
277.7991100046
 20
478.2498334311
 30
0.0
  0
SPLINE
  5
3D2
100
AcDbEntity
  8
0
100
AcDbSpline
 62
7
  6
CONTINUOUS
 70
0
 71
3
 72
8
 73
4
 74
0
 42
0.0000001
 43
0.0000001
 44
0.0000000001
 40
0.0
 40
0.0
 40
0.0
 40
0.0
 40
1.0
 40
1.0
 40
1.0
 40
1.0
 10
278.967782837
 20
580.038880856
 30
0.0
 10
278.967782837
 20
579.9845371745
 30
0.0
 10
278.9678878895
 20
579.9300944997
 30
0.0
 10
278.9639258283
 20
579.8758954425
 30
0.0
  0
SPLINE
  5
3D3
100
AcDbEntity
  8
0
100
AcDbSpline
 62
7
  6
CONTINUOUS
 70
0
 71
3
 72
11
 73
7
 74
0
 42
0.0000001
 43
0.0000001
 44
0.0000000001
 40
0.0
 40
0.0
 40
0.0
 40
0.0
 40
0.2352086027
 40
0.4979075835
 40
0.7617490307
 40
1.0
 40
1.0
 40
1.0
 40
1.0
 10
274.8563716783
 20
587.0081761666
 30
0.0
 10
275.4359997036
 20
586.6952951615
 30
0.0
 10
276.5387838755
 20
585.8018543534
 30
0.0
 10
277.8270236359
 20
584.0811054553
 30
0.0
 10
278.7124847859
 20
582.1130028038
 30
0.0
 10
278.967782837
 20
580.7060836671
 30
0.0
 10
278.967782837
 20
580.038880856
 30
0.0
  0
SPLINE
  5
3D4
100
AcDbEntity
  8
0
100
AcDbSpline
 62
7
  6
CONTINUOUS
 70
0
 71
3
 72
9
 73
5
 74
0
 42
0.0000001
 43
0.0000001
 44
0.0000000001
 40
0.0
 40
0.0
 40
0.0
 40
0.0
 40
0.4464622107
 40
1.0
 40
1.0
 40
1.0
 40
1.0
 10
201.5011050328
 20
628.0144239829
 30
0.0
 10
201.8976156633
 20
628.2432542805
 30
0.0
 10
202.9969195595
 20
628.391017062
 30
0.0
 10
203.9625078825
 20
627.9559930006
 30
0.0
 10
204.4460175418
 20
627.6586934435
 30
0.0
  0
SPLINE
  5
3D5
100
AcDbEntity
  8
0
100
AcDbSpline
 62
7
  6
CONTINUOUS
 70
0
 71
3
 72
9
 73
5
 74
0
 42
0.0000001
 43
0.0000001
 44
0.0000000001
 40
0.0
 40
0.0
 40
0.0
 40
0.0
 40
0.55083838
 40
1.0
 40
1.0
 40
1.0
 40
1.0
 10
200.334606383
 20
625.4367394122
 30
0.0
 10
200.334606383
 20
625.9745896227
 30
0.0
 10
200.4649655848
 20
626.9740056673
 30
0.0
 10
201.1212520174
 20
627.7952069635
 30
0.0
 10
201.5011050328
 20
628.0144239829
 30
0.0
  0
SPLINE
  5
3D6
100
AcDbEntity
  8
0
100
AcDbSpline
 62
7
  6
CONTINUOUS
 70
0
 71
3
 72
9
 73
5
 74
0
 42
0.0000001
 43
0.0000001
 44
0.0000000001
 40
0.0
 40
0.0
 40
0.0
 40
0.0
 40
0.49073058
 40
1.0
 40
1.0
 40
1.0
 40
1.0
 10
204.4732813232
 20
519.2930822949
 30
0.0
 10
203.3270336789
 20
519.8957378071
 30
0.0
 10
201.448842362
 20
521.9217935577
 30
0.0
 10
200.4483682328
 20
524.4650401632
 30
0.0
 10
200.334606383
 20
525.804160193
 30
0.0
  0
SPLINE
  5
3D7
100
AcDbEntity
  8
0
100
AcDbSpline
 62
7
  6
CONTINUOUS
 70
0
 71
3
 72
9
 73
5
 74
0
 42
0.0000001
 43
0.0000001
 44
0.0000000001
 40
0.0
 40
0.0
 40
0.0
 40
0.0
 40
0.4999994563
 40
1.0
 40
1.0
 40
1.0
 40
1.0
 10
452.9271817118
 20
682.3377918208
 30
0.0
 10
452.5074235059
 20
682.0954457542
 30
0.0
 10
451.5129695337
 20
681.9037850899
 30
0.0
 10
450.5185154534
 20
682.0954414554
 30
0.0
 10
450.098754587
 20
682.3377850221
 30
0.0
  0
SPLINE
  5
3D8
100
AcDbEntity
  8
0
100
AcDbSpline
 62
7
  6
CONTINUOUS
 70
0
 71
3
 72
9
 73
5
 74
0
 42
0.0000001
 43
0.0000001
 44
0.0000000001
 40
0.0
 40
0.0
 40
0.0
 40
0.0
 40
0.2235163814
 40
1.0
 40
1.0
 40
1.0
 40
1.0
 10
511.0718675418
 20
731.0785366104
 30
0.0
 10
510.9489031827
 20
730.9189271877
 30
0.0
 10
510.4785319895
 20
730.1422946342
 30
0.0
 10
510.3368303844
 20
729.2059564423
 30
0.0
 10
510.3368303844
 20
728.5060155608
 30
0.0
  0
SPLINE
  5
3D9
100
AcDbEntity
  8
0
100
AcDbSpline
 62
7
  6
CONTINUOUS
 70
0
 71
3
 72
8
 73
4
 74
0
 42
0.0000001
 43
0.0000001
 44
0.0000000001
 40
0.0
 40
0.0
 40
0.0
 40
0.0
 40
1.0
 40
1.0
 40
1.0
 40
1.0
 10
510.8037494466
 20
731.1430411824
 30
0.0
 10
511.1154438332
 20
731.3230735566
 30
0.0
 10
511.4774587581
 20
731.4286630306
 30
0.0
 10
511.8360451809
 20
731.4599811367
 30
0.0
  0
SPLINE
  5
3DA
100
AcDbEntity
  8
0
100
AcDbSpline
 62
7
  6
CONTINUOUS
 70
0
 71
3
 72
9
 73
5
 74
0
 42
0.0000001
 43
0.0000001
 44
0.0000000001
 40
0.0
 40
0.0
 40
0.0
 40
0.0
 40
0.2231798623
 40
1.0
 40
1.0
 40
1.0
 40
1.0
 10
484.1457715213
 20
240.3322698896
 30
0.0
 10
484.4348462703
 20
240.2883764917
 30
0.0
 10
485.7542803721
 20
240.2413054592
 30
0.0
 10
487.0403841057
 20
240.7417352601
 30
0.0
 10
487.9217506155
 20
241.2505894143
 30
0.0
  0
SPLINE
  5
3DB
100
AcDbEntity
  8
0
100
AcDbSpline
 62
7
  6
CONTINUOUS
 70
0
 71
3
 72
9
 73
5
 74
0
 42
0.0000001
 43
0.0000001
 44
0.0000000001
 40
0.0
 40
0.0
 40
0.0
 40
0.0
 40
0.7427969543
 40
1.0
 40
1.0
 40
1.0
 40
1.0
 10
484.3362462392
 20
239.9391603375
 30
0.0
 10
484.0199966376
 20
240.1217040603
 30
0.0
 10
483.632215361
 20
240.4420488955
 30
0.0
 10
483.3247389616
 20
240.8258374352
 30
0.0
 10
483.2503809653
 20
240.9280999033
 30
0.0
  0
SPLINE
  5
3DC
100
AcDbEntity
  8
0
100
AcDbSpline
 62
7
  6
CONTINUOUS
 70
0
 71
3
 72
12
 73
8
 74
0
 42
0.0000001
 43
0.0000001
 44
0.0000000001
 40
0.0
 40
0.0
 40
0.0
 40
0.0
 40
0.1991625458
 40
0.3227065871
 40
0.4581642203
 40
0.7413279429
 40
1.0
 40
1.0
 40
1.0
 40
1.0
 10
483.2503809653
 20
240.9280999033
 30
0.0
 10
482.5331912244
 20
241.9144308527
 30
0.0
 10
482.1180960779
 20
244.0145836575
 30
0.0
 10
482.4397079829
 20
246.7905101586
 30
0.0
 10
483.395790156
 20
249.9932642072
 30
0.0
 10
485.4897131931
 20
253.6328072807
 30
0.0
 10
487.9642696928
 20
255.9722093956
 30
0.0
 10
489.3359700658
 20
256.7641562479
 30
0.0
  0
SPLINE
  5
3DD
100
AcDbEntity
  8
0
100
AcDbSpline
 62
7
  6
CONTINUOUS
 70
0
 71
3
 72
9
 73
5
 74
0
 42
0.0000001
 43
0.0000001
 44
0.0000000001
 40
0.0
 40
0.0
 40
0.0
 40
0.0
 40
0.2231798623
 40
1.0
 40
1.0
 40
1.0
 40
1.0
 10
484.1457715213
 20
679.9453362963
 30
0.0
 10
484.4348462703
 20
679.9014428985
 30
0.0
 10
485.7542803721
 20
679.8543718659
 30
0.0
 10
487.0403841057
 20
680.3548016668
 30
0.0
 10
487.9217506155
 20
680.8636558211
 30
0.0
  0
SPLINE
  5
3DE
100
AcDbEntity
  8
0
100
AcDbSpline
 62
7
  6
CONTINUOUS
 70
0
 71
3
 72
9
 73
5
 74
0
 42
0.0000001
 43
0.0000001
 44
0.0000000001
 40
0.0
 40
0.0
 40
0.0
 40
0.0
 40
0.7427969543
 40
1.0
 40
1.0
 40
1.0
 40
1.0
 10
484.3362462392
 20
679.5522267442
 30
0.0
 10
484.0199966376
 20
679.7347704671
 30
0.0
 10
483.632215361
 20
680.0551153022
 30
0.0
 10
483.3247389616
 20
680.4389038419
 30
0.0
 10
483.2503809653
 20
680.54116631
 30
0.0
  0
SPLINE
  5
3DF
100
AcDbEntity
  8
0
100
AcDbSpline
 62
7
  6
CONTINUOUS
 70
0
 71
3
 72
12
 73
8
 74
0
 42
0.0000001
 43
0.0000001
 44
0.0000000001
 40
0.0
 40
0.0
 40
0.0
 40
0.0
 40
0.1991625458
 40
0.3227065871
 40
0.4581642203
 40
0.7413279429
 40
1.0
 40
1.0
 40
1.0
 40
1.0
 10
483.2503809653
 20
680.54116631
 30
0.0
 10
482.5331912244
 20
681.5274972595
 30
0.0
 10
482.1180960779
 20
683.6276500642
 30
0.0
 10
482.4397079829
 20
686.4035765653
 30
0.0
 10
483.395790156
 20
689.6063306139
 30
0.0
 10
485.4897131931
 20
693.2458736874
 30
0.0
 10
487.9642696928
 20
695.5852758023
 30
0.0
 10
489.3359700658
 20
696.3772226546
 30
0.0
  0
SPLINE
  5
3E0
100
AcDbEntity
  8
0
100
AcDbSpline
 62
7
  6
CONTINUOUS
 70
0
 71
3
 72
8
 73
4
 74
0
 42
0.0000001
 43
0.0000001
 44
0.0000000001
 40
0.0
 40
0.0
 40
0.0
 40
0.0
 40
1.0
 40
1.0
 40
1.0
 40
1.0
 10
488.0884447618
 20
730.3491959379
 30
0.0
 10
488.0185137767
 20
730.4464863375
 30
0.0
 10
487.939377782
 20
730.5375261974
 30
0.0
 10
487.8544872326
 20
730.6220800805
 30
0.0
  0
SPLINE
  5
3E1
100
AcDbEntity
  8
0
100
AcDbSpline
 62
7
  6
CONTINUOUS
 70
0
 71
3
 72
9
 73
5
 74
0
 42
0.0000001
 43
0.0000001
 44
0.0000000001
 40
0.0
 40
0.0
 40
0.0
 40
0.0
 40
0.2375382316
 40
1.0
 40
1.0
 40
1.0
 40
1.0
 10
487.8544872326
 20
730.6220800805
 30
0.0
 10
487.8099773135
 20
730.6664134782
 30
0.0
 10
487.6155268133
 20
730.8459215532
 30
0.0
 10
487.3961249151
 20
730.9974773515
 30
0.0
 10
487.2214911312
 20
731.0982999327
 30
0.0
  0
SPLINE
  5
3E2
100
AcDbEntity
  8
0
100
AcDbSpline
 62
7
  6
CONTINUOUS
 70
0
 71
3
 72
8
 73
4
 74
0
 42
0.0000001
 43
0.0000001
 44
0.0000000001
 40
0.0
 40
0.0
 40
0.0
 40
0.0
 40
1.0
 40
1.0
 40
1.0
 40
1.0
 10
488.3929890106
 20
731.0983281515
 30
0.0
 10
488.3929889988
 20
730.8948365072
 30
0.0
 10
488.3430480787
 20
730.6877807336
 30
0.0
 10
488.2577834903
 20
730.5030138554
 30
0.0
  0
SPLINE
  5
3E3
100
AcDbEntity
  8
0
100
AcDbSpline
 62
7
  6
CONTINUOUS
 70
0
 71
3
 72
9
 73
5
 74
0
 42
0.0000001
 43
0.0000001
 44
0.0000000001
 40
0.0
 40
0.0
 40
0.0
 40
0.0
 40
0.2371725017
 40
1.0
 40
1.0
 40
1.0
 40
1.0
 10
488.2577834903
 20
730.5030138554
 30
0.0
 10
488.2348135043
 20
730.4532382958
 30
0.0
 10
488.1272730309
 20
730.2482955496
 30
0.0
 10
487.9794057498
 20
730.0659936715
 30
0.0
 10
487.8544810639
 20
729.9415652671
 30
0.0
  0
SPLINE
  5
3E4
100
AcDbEntity
  8
0
100
AcDbSpline
 62
7
  6
CONTINUOUS
 70
0
 71
3
 72
9
 73
5
 74
0
 42
0.0000001
 43
0.0000001
 44
0.0000000001
 40
0.0
 40
0.0
 40
0.0
 40
0.0
 40
0.2375387715
 40
1.0
 40
1.0
 40
1.0
 40
1.0
 10
487.8544810639
 20
729.9415652671
 30
0.0
 10
487.8099728997
 20
729.8972339182
 30
0.0
 10
487.6155309037
 20
729.7177342464
 30
0.0
 10
487.3961397436
 20
729.5661843573
 30
0.0
 10
487.2215146829
 20
729.4653651334
 30
0.0
  0
SPLINE
  5
3E5
100
AcDbEntity
  8
0
100
AcDbSpline
 62
7
  6
CONTINUOUS
 70
0
 71
3
 72
8
 73
4
 74
0
 42
0.0000001
 43
0.0000001
 44
0.0000000001
 40
0.0
 40
0.0
 40
0.0
 40
0.0
 40
1.0
 40
1.0
 40
1.0
 40
1.0
 10
478.1889910408
 20
724.6337777837
 30
0.0
 10
478.1190600557
 20
724.7310681833
 30
0.0
 10
478.0399240611
 20
724.8221080432
 30
0.0
 10
477.9550335116
 20
724.9066619263
 30
0.0
  0
SPLINE
  5
3E6
100
AcDbEntity
  8
0
100
AcDbSpline
 62
7
  6
CONTINUOUS
 70
0
 71
3
 72
9
 73
5
 74
0
 42
0.0000001
 43
0.0000001
 44
0.0000000001
 40
0.0
 40
0.0
 40
0.0
 40
0.0
 40
0.2375382316
 40
1.0
 40
1.0
 40
1.0
 40
1.0
 10
477.9550335116
 20
724.9066619263
 30
0.0
 10
477.9105235925
 20
724.950995324
 30
0.0
 10
477.7160730923
 20
725.130503399
 30
0.0
 10
477.4966711941
 20
725.2820591973
 30
0.0
 10
477.3220374102
 20
725.3828817785
 30
0.0
  0
SPLINE
  5
3E7
100
AcDbEntity
  8
0
100
AcDbSpline
 62
7
  6
CONTINUOUS
 70
0
 71
3
 72
8
 73
4
 74
0
 42
0.0000001
 43
0.0000001
 44
0.0000000001
 40
0.0
 40
0.0
 40
0.0
 40
0.0
 40
1.0
 40
1.0
 40
1.0
 40
1.0
 10
478.4935352896
 20
725.3829099973
 30
0.0
 10
478.4935352778
 20
725.179418353
 30
0.0
 10
478.4435943577
 20
724.9723625794
 30
0.0
 10
478.3583297693
 20
724.7875957012
 30
0.0
  0
SPLINE
  5
3E8
100
AcDbEntity
  8
0
100
AcDbSpline
 62
7
  6
CONTINUOUS
 70
0
 71
3
 72
9
 73
5
 74
0
 42
0.0000001
 43
0.0000001
 44
0.0000000001
 40
0.0
 40
0.0
 40
0.0
 40
0.0
 40
0.2371725017
 40
1.0
 40
1.0
 40
1.0
 40
1.0
 10
478.3583297693
 20
724.7875957012
 30
0.0
 10
478.3353597833
 20
724.7378201416
 30
0.0
 10
478.2278193099
 20
724.5328773954
 30
0.0
 10
478.0799520288
 20
724.3505755173
 30
0.0
 10
477.9550273429
 20
724.2261471129
 30
0.0
  0
SPLINE
  5
3E9
100
AcDbEntity
  8
0
100
AcDbSpline
 62
7
  6
CONTINUOUS
 70
0
 71
3
 72
9
 73
5
 74
0
 42
0.0000001
 43
0.0000001
 44
0.0000000001
 40
0.0
 40
0.0
 40
0.0
 40
0.0
 40
0.2375387715
 40
1.0
 40
1.0
 40
1.0
 40
1.0
 10
477.9550273429
 20
724.2261471129
 30
0.0
 10
477.9105191788
 20
724.181815764
 30
0.0
 10
477.7160771828
 20
724.0023160922
 30
0.0
 10
477.4966860226
 20
723.8507662031
 30
0.0
 10
477.3220609619
 20
723.7499469792
 30
0.0
  0
SPLINE
  5
3EA
100
AcDbEntity
  8
0
100
AcDbSpline
 62
7
  6
CONTINUOUS
 70
0
 71
3
 72
8
 73
4
 74
0
 42
0.0000001
 43
0.0000001
 44
0.0000000001
 40
0.0
 40
0.0
 40
0.0
 40
0.0
 40
1.0
 40
1.0
 40
1.0
 40
1.0
 10
468.2895373198
 20
718.9183596295
 30
0.0
 10
468.2196063347
 20
719.0156500291
 30
0.0
 10
468.1404703401
 20
719.106689889
 30
0.0
 10
468.0555797906
 20
719.1912437721
 30
0.0
  0
SPLINE
  5
3EB
100
AcDbEntity
  8
0
100
AcDbSpline
 62
7
  6
CONTINUOUS
 70
0
 71
3
 72
9
 73
5
 74
0
 42
0.0000001
 43
0.0000001
 44
0.0000000001
 40
0.0
 40
0.0
 40
0.0
 40
0.0
 40
0.2375382316
 40
1.0
 40
1.0
 40
1.0
 40
1.0
 10
468.0555797906
 20
719.1912437721
 30
0.0
 10
468.0110698715
 20
719.2355771698
 30
0.0
 10
467.8166193713
 20
719.4150852448
 30
0.0
 10
467.5972174731
 20
719.5666410431
 30
0.0
 10
467.4225836892
 20
719.6674636243
 30
0.0
  0
SPLINE
  5
3EC
100
AcDbEntity
  8
0
100
AcDbSpline
 62
7
  6
CONTINUOUS
 70
0
 71
3
 72
8
 73
4
 74
0
 42
0.0000001
 43
0.0000001
 44
0.0000000001
 40
0.0
 40
0.0
 40
0.0
 40
0.0
 40
1.0
 40
1.0
 40
1.0
 40
1.0
 10
468.5940815686
 20
719.6674918431
 30
0.0
 10
468.5940815568
 20
719.4640001988
 30
0.0
 10
468.5441406367
 20
719.2569444252
 30
0.0
 10
468.4588760483
 20
719.072177547
 30
0.0
  0
SPLINE
  5
3ED
100
AcDbEntity
  8
0
100
AcDbSpline
 62
7
  6
CONTINUOUS
 70
0
 71
3
 72
9
 73
5
 74
0
 42
0.0000001
 43
0.0000001
 44
0.0000000001
 40
0.0
 40
0.0
 40
0.0
 40
0.0
 40
0.2371725017
 40
1.0
 40
1.0
 40
1.0
 40
1.0
 10
468.4588760483
 20
719.072177547
 30
0.0
 10
468.4359060623
 20
719.0224019874
 30
0.0
 10
468.3283655889
 20
718.8174592412
 30
0.0
 10
468.1804983078
 20
718.6351573631
 30
0.0
 10
468.0555736219
 20
718.5107289587
 30
0.0
  0
SPLINE
  5
3EE
100
AcDbEntity
  8
0
100
AcDbSpline
 62
7
  6
CONTINUOUS
 70
0
 71
3
 72
9
 73
5
 74
0
 42
0.0000001
 43
0.0000001
 44
0.0000000001
 40
0.0
 40
0.0
 40
0.0
 40
0.0
 40
0.2375387715
 40
1.0
 40
1.0
 40
1.0
 40
1.0
 10
468.0555736219
 20
718.5107289587
 30
0.0
 10
468.0110654578
 20
718.4663976098
 30
0.0
 10
467.8166234618
 20
718.286897938
 30
0.0
 10
467.5972323016
 20
718.1353480489
 30
0.0
 10
467.4226072409
 20
718.034528825
 30
0.0
  0
SPLINE
  5
3EF
100
AcDbEntity
  8
0
100
AcDbSpline
 62
7
  6
CONTINUOUS
 70
0
 71
3
 72
8
 73
4
 74
0
 42
0.0000001
 43
0.0000001
 44
0.0000000001
 40
0.0
 40
0.0
 40
0.0
 40
0.0
 40
1.0
 40
1.0
 40
1.0
 40
1.0
 10
457.6829797616
 20
712.7946973214
 30
0.0
 10
457.6130487765
 20
712.891987721
 30
0.0
 10
457.5339127819
 20
712.983027581
 30
0.0
 10
457.4490222324
 20
713.067581464
 30
0.0
  0
SPLINE
  5
3F0
100
AcDbEntity
  8
0
100
AcDbSpline
 62
7
  6
CONTINUOUS
 70
0
 71
3
 72
9
 73
5
 74
0
 42
0.0000001
 43
0.0000001
 44
0.0000000001
 40
0.0
 40
0.0
 40
0.0
 40
0.0
 40
0.2375382316
 40
1.0
 40
1.0
 40
1.0
 40
1.0
 10
457.4490222324
 20
713.067581464
 30
0.0
 10
457.4045123133
 20
713.1119148617
 30
0.0
 10
457.2100618131
 20
713.2914229367
 30
0.0
 10
456.9906599149
 20
713.442978735
 30
0.0
 10
456.816026131
 20
713.5438013162
 30
0.0
  0
SPLINE
  5
3F1
100
AcDbEntity
  8
0
100
AcDbSpline
 62
7
  6
CONTINUOUS
 70
0
 71
3
 72
8
 73
4
 74
0
 42
0.0000001
 43
0.0000001
 44
0.0000000001
 40
0.0
 40
0.0
 40
0.0
 40
0.0
 40
1.0
 40
1.0
 40
1.0
 40
1.0
 10
457.9875240104
 20
713.543829535
 30
0.0
 10
457.9875239986
 20
713.3403378907
 30
0.0
 10
457.9375830785
 20
713.1332821172
 30
0.0
 10
457.8523184901
 20
712.948515239
 30
0.0
  0
SPLINE
  5
3F2
100
AcDbEntity
  8
0
100
AcDbSpline
 62
7
  6
CONTINUOUS
 70
0
 71
3
 72
9
 73
5
 74
0
 42
0.0000001
 43
0.0000001
 44
0.0000000001
 40
0.0
 40
0.0
 40
0.0
 40
0.0
 40
0.2371725017
 40
1.0
 40
1.0
 40
1.0
 40
1.0
 10
457.8523184901
 20
712.948515239
 30
0.0
 10
457.8293485041
 20
712.8987396793
 30
0.0
 10
457.7218080307
 20
712.6937969332
 30
0.0
 10
457.5739407496
 20
712.511495055
 30
0.0
 10
457.4490160637
 20
712.3870666506
 30
0.0
  0
SPLINE
  5
3F3
100
AcDbEntity
  8
0
100
AcDbSpline
 62
7
  6
CONTINUOUS
 70
0
 71
3
 72
9
 73
5
 74
0
 42
0.0000001
 43
0.0000001
 44
0.0000000001
 40
0.0
 40
0.0
 40
0.0
 40
0.0
 40
0.2375387715
 40
1.0
 40
1.0
 40
1.0
 40
1.0
 10
457.4490160637
 20
712.3870666506
 30
0.0
 10
457.4045078996
 20
712.3427353017
 30
0.0
 10
457.2100659036
 20
712.1632356299
 30
0.0
 10
456.9906747434
 20
712.0116857409
 30
0.0
 10
456.8160496827
 20
711.9108665169
 30
0.0
  0
SPLINE
  5
3F4
100
AcDbEntity
  8
0
100
AcDbSpline
 62
7
  6
CONTINUOUS
 70
0
 71
3
 72
8
 73
4
 74
0
 42
0.0000001
 43
0.0000001
 44
0.0000000001
 40
0.0
 40
0.0
 40
0.0
 40
0.0
 40
1.0
 40
1.0
 40
1.0
 40
1.0
 10
447.0764222034
 20
706.6710350134
 30
0.0
 10
447.0064912183
 20
706.7683254129
 30
0.0
 10
446.9273552236
 20
706.8593652729
 30
0.0
 10
446.8424646742
 20
706.9439191559
 30
0.0
  0
SPLINE
  5
3F5
100
AcDbEntity
  8
0
100
AcDbSpline
 62
7
  6
CONTINUOUS
 70
0
 71
3
 72
9
 73
5
 74
0
 42
0.0000001
 43
0.0000001
 44
0.0000000001
 40
0.0
 40
0.0
 40
0.0
 40
0.0
 40
0.2375382316
 40
1.0
 40
1.0
 40
1.0
 40
1.0
 10
446.8424646742
 20
706.9439191559
 30
0.0
 10
446.797954755
 20
706.9882525536
 30
0.0
 10
446.6035042549
 20
707.1677606287
 30
0.0
 10
446.3841023567
 20
707.3193164269
 30
0.0
 10
446.2094685728
 20
707.4201390082
 30
0.0
  0
SPLINE
  5
3F6
100
AcDbEntity
  8
0
100
AcDbSpline
 62
7
  6
CONTINUOUS
 70
0
 71
3
 72
8
 73
4
 74
0
 42
0.0000001
 43
0.0000001
 44
0.0000000001
 40
0.0
 40
0.0
 40
0.0
 40
0.0
 40
1.0
 40
1.0
 40
1.0
 40
1.0
 10
447.3809664522
 20
707.4201672269
 30
0.0
 10
447.3809664404
 20
707.2166755826
 30
0.0
 10
447.3310255203
 20
707.0096198091
 30
0.0
 10
447.2457609319
 20
706.8248529309
 30
0.0
  0
SPLINE
  5
3F7
100
AcDbEntity
  8
0
100
AcDbSpline
 62
7
  6
CONTINUOUS
 70
0
 71
3
 72
9
 73
5
 74
0
 42
0.0000001
 43
0.0000001
 44
0.0000000001
 40
0.0
 40
0.0
 40
0.0
 40
0.0
 40
0.2371725017
 40
1.0
 40
1.0
 40
1.0
 40
1.0
 10
447.2457609319
 20
706.8248529309
 30
0.0
 10
447.2227909459
 20
706.7750773712
 30
0.0
 10
447.1152504725
 20
706.5701346251
 30
0.0
 10
446.9673831914
 20
706.3878327469
 30
0.0
 10
446.8424585055
 20
706.2634043426
 30
0.0
  0
SPLINE
  5
3F8
100
AcDbEntity
  8
0
100
AcDbSpline
 62
7
  6
CONTINUOUS
 70
0
 71
3
 72
9
 73
5
 74
0
 42
0.0000001
 43
0.0000001
 44
0.0000000001
 40
0.0
 40
0.0
 40
0.0
 40
0.0
 40
0.2375387715
 40
1.0
 40
1.0
 40
1.0
 40
1.0
 10
446.8424585055
 20
706.2634043426
 30
0.0
 10
446.7979503413
 20
706.2190729937
 30
0.0
 10
446.6035083453
 20
706.0395733218
 30
0.0
 10
446.3841171852
 20
705.8880234328
 30
0.0
 10
446.2094921245
 20
705.7872042088
 30
0.0
  0
SPLINE
  5
3F9
100
AcDbEntity
  8
0
100
AcDbSpline
 62
7
  6
CONTINUOUS
 70
0
 71
3
 72
8
 73
4
 74
0
 42
0.0000001
 43
0.0000001
 44
0.0000000001
 40
0.0
 40
0.0
 40
0.0
 40
0.0
 40
1.0
 40
1.0
 40
1.0
 40
1.0
 10
436.4698646452
 20
700.5473727053
 30
0.0
 10
436.3999336601
 20
700.6446631049
 30
0.0
 10
436.3207976654
 20
700.7357029648
 30
0.0
 10
436.235907116
 20
700.8202568478
 30
0.0
  0
SPLINE
  5
3FA
100
AcDbEntity
  8
0
100
AcDbSpline
 62
7
  6
CONTINUOUS
 70
0
 71
3
 72
9
 73
5
 74
0
 42
0.0000001
 43
0.0000001
 44
0.0000000001
 40
0.0
 40
0.0
 40
0.0
 40
0.0
 40
0.2375382316
 40
1.0
 40
1.0
 40
1.0
 40
1.0
 10
436.235907116
 20
700.8202568478
 30
0.0
 10
436.1913971968
 20
700.8645902456
 30
0.0
 10
435.9969466966
 20
701.0440983206
 30
0.0
 10
435.7775447985
 20
701.1956541189
 30
0.0
 10
435.6029110146
 20
701.2964767001
 30
0.0
  0
SPLINE
  5
3FB
100
AcDbEntity
  8
0
100
AcDbSpline
 62
7
  6
CONTINUOUS
 70
0
 71
3
 72
8
 73
4
 74
0
 42
0.0000001
 43
0.0000001
 44
0.0000000001
 40
0.0
 40
0.0
 40
0.0
 40
0.0
 40
1.0
 40
1.0
 40
1.0
 40
1.0
 10
436.774408894
 20
701.2965049189
 30
0.0
 10
436.7744088821
 20
701.0930132745
 30
0.0
 10
436.7244679621
 20
700.885957501
 30
0.0
 10
436.6392033737
 20
700.7011906228
 30
0.0
  0
SPLINE
  5
3FC
100
AcDbEntity
  8
0
100
AcDbSpline
 62
7
  6
CONTINUOUS
 70
0
 71
3
 72
9
 73
5
 74
0
 42
0.0000001
 43
0.0000001
 44
0.0000000001
 40
0.0
 40
0.0
 40
0.0
 40
0.0
 40
0.2371725017
 40
1.0
 40
1.0
 40
1.0
 40
1.0
 10
436.6392033737
 20
700.7011906228
 30
0.0
 10
436.6162333877
 20
700.6514150632
 30
0.0
 10
436.5086929143
 20
700.446472317
 30
0.0
 10
436.3608256332
 20
700.2641704388
 30
0.0
 10
436.2359009472
 20
700.1397420345
 30
0.0
  0
SPLINE
  5
3FD
100
AcDbEntity
  8
0
100
AcDbSpline
 62
7
  6
CONTINUOUS
 70
0
 71
3
 72
9
 73
5
 74
0
 42
0.0000001
 43
0.0000001
 44
0.0000000001
 40
0.0
 40
0.0
 40
0.0
 40
0.0
 40
0.2375387715
 40
1.0
 40
1.0
 40
1.0
 40
1.0
 10
436.2359009472
 20
700.1397420345
 30
0.0
 10
436.1913927831
 20
700.0954106856
 30
0.0
 10
435.9969507871
 20
699.9159110137
 30
0.0
 10
435.7775596269
 20
699.7643611247
 30
0.0
 10
435.6029345663
 20
699.6635419008
 30
0.0
  0
SPLINE
  5
3FE
100
AcDbEntity
  8
0
100
AcDbSpline
 62
7
  6
CONTINUOUS
 70
0
 71
3
 72
9
 73
5
 74
0
 42
0.0000001
 43
0.0000001
 44
0.0000000001
 40
0.0
 40
0.0
 40
0.0
 40
0.0
 40
0.4799672962
 40
1.0
 40
1.0
 40
1.0
 40
1.0
 10
435.6029345663
 20
699.6635419008
 30
0.0
 10
435.0011799379
 20
699.3161207779
 30
0.0
 10
433.564786345
 20
698.9173625717
 30
0.0
 10
432.0932986361
 20
698.9759533377
 30
0.0
 10
431.3578411361
 20
699.1368322776
 30
0.0
  0
SPLINE
  5
3FF
100
AcDbEntity
  8
0
100
AcDbSpline
 62
7
  6
CONTINUOUS
 70
0
 71
3
 72
9
 73
5
 74
0
 42
0.0000001
 43
0.0000001
 44
0.0000000001
 40
0.0
 40
0.0
 40
0.0
 40
0.0
 40
0.4799672962
 40
1.0
 40
1.0
 40
1.0
 40
1.0
 10
446.2094921245
 20
705.7872042088
 30
0.0
 10
445.6077374961
 20
705.439783086
 30
0.0
 10
444.1713439033
 20
705.0410248798
 30
0.0
 10
442.6998561943
 20
705.0996156458
 30
0.0
 10
441.9643986943
 20
705.2604945857
 30
0.0
  0
SPLINE
  5
400
100
AcDbEntity
  8
0
100
AcDbSpline
 62
7
  6
CONTINUOUS
 70
0
 71
3
 72
9
 73
5
 74
0
 42
0.0000001
 43
0.0000001
 44
0.0000000001
 40
0.0
 40
0.0
 40
0.0
 40
0.0
 40
0.4799672962
 40
1.0
 40
1.0
 40
1.0
 40
1.0
 10
456.8160496827
 20
711.9108665169
 30
0.0
 10
456.2142950543
 20
711.563445394
 30
0.0
 10
454.7779014615
 20
711.1646871879
 30
0.0
 10
453.3064137525
 20
711.2232779539
 30
0.0
 10
452.5709562525
 20
711.3841568937
 30
0.0
  0
SPLINE
  5
401
100
AcDbEntity
  8
0
100
AcDbSpline
 62
7
  6
CONTINUOUS
 70
0
 71
3
 72
9
 73
5
 74
0
 42
0.0000001
 43
0.0000001
 44
0.0000000001
 40
0.0
 40
0.0
 40
0.0
 40
0.0
 40
0.4799672962
 40
1.0
 40
1.0
 40
1.0
 40
1.0
 10
467.4226072409
 20
718.034528825
 30
0.0
 10
466.8208526125
 20
717.6871077021
 30
0.0
 10
465.3844590197
 20
717.2883494959
 30
0.0
 10
463.9129713107
 20
717.3469402619
 30
0.0
 10
463.1775138107
 20
717.5078192018
 30
0.0
  0
SPLINE
  5
402
100
AcDbEntity
  8
0
100
AcDbSpline
 62
7
  6
CONTINUOUS
 70
0
 71
3
 72
9
 73
5
 74
0
 42
0.0000001
 43
0.0000001
 44
0.0000000001
 40
0.0
 40
0.0
 40
0.0
 40
0.0
 40
0.4799672962
 40
1.0
 40
1.0
 40
1.0
 40
1.0
 10
477.3220609619
 20
723.7499469792
 30
0.0
 10
476.7203063335
 20
723.4025258563
 30
0.0
 10
475.2839127407
 20
723.0037676501
 30
0.0
 10
473.8124250317
 20
723.0623584161
 30
0.0
 10
473.0769675317
 20
723.223237356
 30
0.0
  0
SPLINE
  5
403
100
AcDbEntity
  8
0
100
AcDbSpline
 62
7
  6
CONTINUOUS
 70
0
 71
3
 72
9
 73
5
 74
0
 42
0.0000001
 43
0.0000001
 44
0.0000000001
 40
0.0
 40
0.0
 40
0.0
 40
0.0
 40
0.4799672962
 40
1.0
 40
1.0
 40
1.0
 40
1.0
 10
487.2215146829
 20
729.4653651334
 30
0.0
 10
486.6197600545
 20
729.1179440105
 30
0.0
 10
485.1833664617
 20
728.7191858043
 30
0.0
 10
483.7118787527
 20
728.7777765703
 30
0.0
 10
482.9764212527
 20
728.9386555102
 30
0.0
  0
SPLINE
  5
404
100
AcDbEntity
  8
0
100
AcDbSpline
 62
7
  6
CONTINUOUS
 70
0
 71
3
 72
9
 73
5
 74
0
 42
0.0000001
 43
0.0000001
 44
0.0000000001
 40
0.0
 40
0.0
 40
0.0
 40
0.0
 40
0.2404900333
 40
1.0
 40
1.0
 40
1.0
 40
1.0
 10
510.3368303844
 20
728.5060155608
 30
0.0
 10
510.3368303844
 20
728.4021207538
 30
0.0
 10
510.3472145246
 20
727.9701299652
 30
0.0
 10
510.3966161888
 20
727.5394135307
 30
0.0
 10
510.4518581587
 20
727.2159790926
 30
0.0
  0
SPLINE
  5
405
100
AcDbEntity
  8
0
100
AcDbSpline
 62
7
  6
CONTINUOUS
 70
0
 71
3
 72
9
 73
5
 74
0
 42
0.0000001
 43
0.0000001
 44
0.0000000001
 40
0.0
 40
0.0
 40
0.0
 40
0.0
 40
0.2688043472
 40
1.0
 40
1.0
 40
1.0
 40
1.0
 10
501.3362266492
 20
227.8221417182
 30
0.0
 10
501.2614091837
 20
228.1075545633
 30
0.0
 10
500.931119115
 20
229.1532614611
 30
0.0
 10
500.3612150353
 20
230.1365171081
 30
0.0
 10
499.8078334652
 20
230.7178466963
 30
0.0
  0
SPLINE
  5
406
100
AcDbEntity
  8
0
100
AcDbSpline
 62
7
  6
CONTINUOUS
 70
0
 71
3
 72
12
 73
8
 74
0
 42
0.0000001
 43
0.0000001
 44
0.0000000001
 40
0.0
 40
0.0
 40
0.0
 40
0.0
 40
0.2587184349
 40
0.5419183288
 40
0.6773802268
 40
0.8009099034
 40
1.0
 40
1.0
 40
1.0
 40
1.0
 10
487.9217506155
 20
680.8636558211
 30
0.0
 10
489.2941901937
 20
681.6560294512
 30
0.0
 10
491.7698110873
 20
683.9969470728
 30
0.0
 10
493.8640150061
 20
687.6387508946
 30
0.0
 10
494.8192949231
 20
690.8432118965
 30
0.0
 10
495.139529985
 20
693.6197640068
 30
0.0
 10
494.722160597
 20
695.7201776041
 30
0.0
 10
494.0033024481
 20
696.7052866652
 30
0.0
  0
SPLINE
  5
407
100
AcDbEntity
  8
0
100
AcDbSpline
 62
7
  6
CONTINUOUS
 70
0
 71
3
 72
8
 73
4
 74
0
 42
0.0000001
 43
0.0000001
 44
0.0000000001
 40
0.0
 40
0.0
 40
0.0
 40
0.0
 40
1.0
 40
1.0
 40
1.0
 40
1.0
 10
494.0033024481
 20
696.7052866652
 30
0.0
 10
493.8332548809
 20
696.938316505
 30
0.0
 10
493.6358412229
 20
697.1542258376
 30
0.0
 10
493.4156952576
 20
697.3406523253
 30
0.0
  0
SPLINE
  5
408
100
AcDbEntity
  8
0
100
AcDbSpline
 62
7
  6
CONTINUOUS
 70
0
 71
3
 72
12
 73
8
 74
0
 42
0.0000001
 43
0.0000001
 44
0.0000000001
 40
0.0
 40
0.0
 40
0.0
 40
0.0
 40
0.2587184349
 40
0.5419183288
 40
0.6773802268
 40
0.8009099034
 40
1.0
 40
1.0
 40
1.0
 40
1.0
 10
487.9217506155
 20
241.2505894143
 30
0.0
 10
489.2941901937
 20
242.0429630445
 30
0.0
 10
491.7698110873
 20
244.3838806661
 30
0.0
 10
493.8640150061
 20
248.0256844879
 30
0.0
 10
494.8192949231
 20
251.2301454898
 30
0.0
 10
495.139529985
 20
254.0066976
 30
0.0
 10
494.722160597
 20
256.1071111974
 30
0.0
 10
494.0033024481
 20
257.0922202584
 30
0.0
  0
SPLINE
  5
409
100
AcDbEntity
  8
0
100
AcDbSpline
 62
7
  6
CONTINUOUS
 70
0
 71
3
 72
8
 73
4
 74
0
 42
0.0000001
 43
0.0000001
 44
0.0000000001
 40
0.0
 40
0.0
 40
0.0
 40
0.0
 40
1.0
 40
1.0
 40
1.0
 40
1.0
 10
494.0033024481
 20
257.0922202584
 30
0.0
 10
493.8332548809
 20
257.3252500983
 30
0.0
 10
493.6358412229
 20
257.5411594309
 30
0.0
 10
493.4156952576
 20
257.7275859186
 30
0.0
  0
SPLINE
  5
40A
100
AcDbEntity
  8
0
100
AcDbSpline
 62
7
  6
CONTINUOUS
 70
0
 71
3
 72
9
 73
5
 74
0
 42
0.0000001
 43
0.0000001
 44
0.0000000001
 40
0.0
 40
0.0
 40
0.0
 40
0.0
 40
0.2797275478
 40
1.0
 40
1.0
 40
1.0
 40
1.0
 10
492.9916969042
 20
230.0604082229
 30
0.0
 10
493.4183544331
 20
230.3067375917
 30
0.0
 10
494.983348309
 20
231.1016435985
 30
0.0
 10
496.79291763
 20
231.5278170708
 30
0.0
 10
498.0560303487
 20
231.4104245348
 30
0.0
  0
SPLINE
  5
40B
100
AcDbEntity
  8
0
100
AcDbSpline
 62
7
  6
CONTINUOUS
 70
0
 71
3
 72
9
 73
5
 74
0
 42
0.0000001
 43
0.0000001
 44
0.0000000001
 40
0.0
 40
0.0
 40
0.0
 40
0.0
 40
0.2576035969
 40
1.0
 40
1.0
 40
1.0
 40
1.0
 10
498.0560303487
 20
231.4104245348
 30
0.0
 10
498.2422102609
 20
231.3931211447
 30
0.0
 10
498.9610802714
 20
231.29102042
 30
0.0
 10
499.6597886477
 20
231.0364128012
 30
0.0
 10
500.1265415882
 20
230.7671117996
 30
0.0
  0
SPLINE
  5
40C
100
AcDbEntity
  8
0
100
AcDbSpline
 62
7
  6
CONTINUOUS
 70
0
 71
3
 72
9
 73
5
 74
0
 42
0.0000001
 43
0.0000001
 44
0.0000000001
 40
0.0
 40
0.0
 40
0.0
 40
0.0
 40
0.5208100302
 40
1.0
 40
1.0
 40
1.0
 40
1.0
 10
476.2917657699
 20
213.7796908248
 30
0.0
 10
477.1264627871
 20
216.2841412882
 30
0.0
 10
479.5599677719
 20
220.8259145217
 30
0.0
 10
483.2971924442
 20
224.4633168734
 30
0.0
 10
485.4007026245
 20
225.6777717929
 30
0.0
  0
SPLINE
  5
40D
100
AcDbEntity
  8
0
100
AcDbSpline
 62
7
  6
CONTINUOUS
 70
0
 71
3
 72
9
 73
5
 74
0
 42
0.0000001
 43
0.0000001
 44
0.0000000001
 40
0.0
 40
0.0
 40
0.0
 40
0.0
 40
0.2818274321
 40
1.0
 40
1.0
 40
1.0
 40
1.0
 10
489.3359700658
 20
696.3772226546
 30
0.0
 10
489.6547694339
 20
696.5612804569
 30
0.0
 10
490.8162349848
 20
697.1465812611
 30
0.0
 10
492.1791674316
 20
697.4359046343
 30
0.0
 10
493.1067875405
 20
697.2963268128
 30
0.0
  0
SPLINE
  5
40E
100
AcDbEntity
  8
0
100
AcDbSpline
 62
7
  6
CONTINUOUS
 70
0
 71
3
 72
8
 73
4
 74
0
 42
0.0000001
 43
0.0000001
 44
0.0000000001
 40
0.0
 40
0.0
 40
0.0
 40
0.0
 40
1.0
 40
1.0
 40
1.0
 40
1.0
 10
493.1067875405
 20
697.2963268128
 30
0.0
 10
493.5353122831
 20
697.2318472381
 30
0.0
 10
493.9603808038
 20
697.0888062214
 30
0.0
 10
494.3356938923
 20
696.8721702224
 30
0.0
  0
SPLINE
  5
40F
100
AcDbEntity
  8
0
100
AcDbSpline
 62
7
  6
CONTINUOUS
 70
0
 71
3
 72
9
 73
5
 74
0
 42
0.0000001
 43
0.0000001
 44
0.0000000001
 40
0.0
 40
0.0
 40
0.0
 40
0.0
 40
0.2818274321
 40
1.0
 40
1.0
 40
1.0
 40
1.0
 10
489.3359700658
 20
256.7641562479
 30
0.0
 10
489.6547694339
 20
256.9482140502
 30
0.0
 10
490.8162349848
 20
257.5335148543
 30
0.0
 10
492.1791674316
 20
257.8228382276
 30
0.0
 10
493.1067875405
 20
257.683260406
 30
0.0
  0
SPLINE
  5
410
100
AcDbEntity
  8
0
100
AcDbSpline
 62
7
  6
CONTINUOUS
 70
0
 71
3
 72
8
 73
4
 74
0
 42
0.0000001
 43
0.0000001
 44
0.0000000001
 40
0.0
 40
0.0
 40
0.0
 40
0.0
 40
1.0
 40
1.0
 40
1.0
 40
1.0
 10
493.1067875405
 20
257.683260406
 30
0.0
 10
493.5353122831
 20
257.6187808314
 30
0.0
 10
493.9603808038
 20
257.4757398147
 30
0.0
 10
494.3356938923
 20
257.2591038157
 30
0.0
  0
SPLINE
  5
411
100
AcDbEntity
  8
0
100
AcDbSpline
 62
7
  6
CONTINUOUS
 70
0
 71
3
 72
8
 73
4
 74
0
 42
0.0000001
 43
0.0000001
 44
0.0000000001
 40
0.0
 40
0.0
 40
0.0
 40
0.0
 40
1.0
 40
1.0
 40
1.0
 40
1.0
 10
457.7283157888
 20
714.36174081
 30
0.0
 10
457.774925038
 20
714.2907198639
 30
0.0
 10
457.8167437711
 20
714.2162389299
 30
0.0
 10
457.8523361963
 20
714.1391054342
 30
0.0
  0
SPLINE
  5
412
100
AcDbEntity
  8
0
100
AcDbSpline
 62
7
  6
CONTINUOUS
 70
0
 71
3
 72
8
 73
4
 74
0
 42
0.0000001
 43
0.0000001
 44
0.0000000001
 40
0.0
 40
0.0
 40
0.0
 40
0.0
 40
1.0
 40
1.0
 40
1.0
 40
1.0
 10
457.8523361963
 20
714.1391054342
 30
0.0
 10
457.9375901502
 20
713.9543488341
 30
0.0
 10
457.9875240223
 20
713.7473073911
 30
0.0
 10
457.9875240104
 20
713.543829535
 30
0.0
  0
SPLINE
  5
413
100
AcDbEntity
  8
0
100
AcDbSpline
 62
7
  6
CONTINUOUS
 70
0
 71
3
 72
8
 73
4
 74
0
 42
0.0000001
 43
0.0000001
 44
0.0000000001
 40
0.0
 40
0.0
 40
0.0
 40
0.0
 40
1.0
 40
1.0
 40
1.0
 40
1.0
 10
468.334873347
 20
720.485403118
 30
0.0
 10
468.3814825962
 20
720.414382172
 30
0.0
 10
468.4233013293
 20
720.339901238
 30
0.0
 10
468.4588937545
 20
720.2627677423
 30
0.0
  0
SPLINE
  5
414
100
AcDbEntity
  8
0
100
AcDbSpline
 62
7
  6
CONTINUOUS
 70
0
 71
3
 72
8
 73
4
 74
0
 42
0.0000001
 43
0.0000001
 44
0.0000000001
 40
0.0
 40
0.0
 40
0.0
 40
0.0
 40
1.0
 40
1.0
 40
1.0
 40
1.0
 10
468.4588937545
 20
720.2627677423
 30
0.0
 10
468.5441477084
 20
720.0780111422
 30
0.0
 10
468.5940815805
 20
719.8709696992
 30
0.0
 10
468.5940815686
 20
719.6674918431
 30
0.0
  0
SPLINE
  5
415
100
AcDbEntity
  8
0
100
AcDbSpline
 62
7
  6
CONTINUOUS
 70
0
 71
3
 72
8
 73
4
 74
0
 42
0.0000001
 43
0.0000001
 44
0.0000000001
 40
0.0
 40
0.0
 40
0.0
 40
0.0
 40
1.0
 40
1.0
 40
1.0
 40
1.0
 10
478.234327068
 20
726.2008212722
 30
0.0
 10
478.2809363172
 20
726.1298003262
 30
0.0
 10
478.3227550503
 20
726.0553193922
 30
0.0
 10
478.3583474755
 20
725.9781858965
 30
0.0
  0
SPLINE
  5
416
100
AcDbEntity
  8
0
100
AcDbSpline
 62
7
  6
CONTINUOUS
 70
0
 71
3
 72
8
 73
4
 74
0
 42
0.0000001
 43
0.0000001
 44
0.0000000001
 40
0.0
 40
0.0
 40
0.0
 40
0.0
 40
1.0
 40
1.0
 40
1.0
 40
1.0
 10
478.3583474755
 20
725.9781858965
 30
0.0
 10
478.4436014294
 20
725.7934292964
 30
0.0
 10
478.4935353015
 20
725.5863878534
 30
0.0
 10
478.4935352896
 20
725.3829099973
 30
0.0
  0
SPLINE
  5
417
100
AcDbEntity
  8
0
100
AcDbSpline
 62
7
  6
CONTINUOUS
 70
0
 71
3
 72
8
 73
4
 74
0
 42
0.0000001
 43
0.0000001
 44
0.0000000001
 40
0.0
 40
0.0
 40
0.0
 40
0.0
 40
1.0
 40
1.0
 40
1.0
 40
1.0
 10
488.133780789
 20
731.9162394264
 30
0.0
 10
488.1803900382
 20
731.8452184804
 30
0.0
 10
488.2222087713
 20
731.7707375464
 30
0.0
 10
488.2578011965
 20
731.6936040507
 30
0.0
  0
SPLINE
  5
418
100
AcDbEntity
  8
0
100
AcDbSpline
 62
7
  6
CONTINUOUS
 70
0
 71
3
 72
8
 73
4
 74
0
 42
0.0000001
 43
0.0000001
 44
0.0000000001
 40
0.0
 40
0.0
 40
0.0
 40
0.0
 40
1.0
 40
1.0
 40
1.0
 40
1.0
 10
488.2578011965
 20
731.6936040507
 30
0.0
 10
488.3430551504
 20
731.5088474506
 30
0.0
 10
488.3929890225
 20
731.3018060076
 30
0.0
 10
488.3929890106
 20
731.0983281515
 30
0.0
  0
SPLINE
  5
419
100
AcDbEntity
  8
0
100
AcDbSpline
 62
7
  6
CONTINUOUS
 70
0
 71
3
 72
9
 73
5
 74
0
 42
0.0000001
 43
0.0000001
 44
0.0000000001
 40
0.0
 40
0.0
 40
0.0
 40
0.0
 40
0.2381162813
 40
1.0
 40
1.0
 40
1.0
 40
1.0
 10
501.0012086222
 20
732.8287886186
 30
0.0
 10
500.9430469536
 20
732.8122867579
 30
0.0
 10
500.7012904933
 20
732.7342443215
 30
0.0
 10
500.4704931928
 20
732.6239350899
 30
0.0
 10
500.302968055
 20
732.5272149839
 30
0.0
  0
SPLINE
  5
41A
100
AcDbEntity
  8
0
100
AcDbSpline
 62
7
  6
CONTINUOUS
 70
0
 71
3
 72
8
 73
4
 74
0
 42
0.0000001
 43
0.0000001
 44
0.0000000001
 40
0.0
 40
0.0
 40
0.0
 40
0.0
 40
1.0
 40
1.0
 40
1.0
 40
1.0
 10
432.4209996825
 20
693.3357762122
 30
0.0
 10
432.2047465252
 20
693.2109231389
 30
0.0
 10
432.0002307341
 20
693.0644639394
 30
0.0
 10
431.8084157669
 20
692.9045866856
 30
0.0
  0
SPLINE
  5
41B
100
AcDbEntity
  8
0
100
AcDbSpline
 62
7
  6
CONTINUOUS
 70
0
 71
3
 72
13
 73
9
 74
0
 42
0.0000001
 43
0.0000001
 44
0.0000000001
 40
0.0
 40
0.0
 40
0.0
 40
0.0
 40
0.0871413171
 40
0.1868523083
 40
0.3045267355
 40
0.4386623984
 40
0.7301051156
 40
1.0
 40
1.0
 40
1.0
 40
1.0
 10
494.3356938923
 20
257.2591038157
 30
0.0
 10
494.8352064829
 20
256.9707781153
 30
0.0
 10
495.7421089325
 20
256.045348067
 30
0.0
 10
496.401513833
 20
254.0937628505
 30
0.0
 10
496.4576995685
 20
251.7428450956
 30
0.0
 10
495.7316851031
 20
248.1973703073
 30
0.0
 10
493.5989130609
 20
244.0294626725
 30
0.0
 10
490.8829761127
 20
241.3272669315
 30
0.0
 10
489.3359700658
 20
240.4341079053
 30
0.0
  0
SPLINE
  5
41C
100
AcDbEntity
  8
0
100
AcDbSpline
 62
7
  6
CONTINUOUS
 70
0
 71
3
 72
13
 73
9
 74
0
 42
0.0000001
 43
0.0000001
 44
0.0000000001
 40
0.0
 40
0.0
 40
0.0
 40
0.0
 40
0.0871413171
 40
0.1868523083
 40
0.3045267355
 40
0.4386623984
 40
0.7301051156
 40
1.0
 40
1.0
 40
1.0
 40
1.0
 10
494.3356938923
 20
696.8721702224
 30
0.0
 10
494.8352064829
 20
696.5838445221
 30
0.0
 10
495.7421089325
 20
695.6584144737
 30
0.0
 10
496.401513833
 20
693.7068292572
 30
0.0
 10
496.4576995685
 20
691.3559115024
 30
0.0
 10
495.7316851031
 20
687.810436714
 30
0.0
 10
493.5989130609
 20
683.6425290792
 30
0.0
 10
490.8829761127
 20
680.9403333382
 30
0.0
 10
489.3359700658
 20
680.047174312
 30
0.0
  0
SPLINE
  5
41D
100
AcDbEntity
  8
0
100
AcDbSpline
 62
7
  6
CONTINUOUS
 70
0
 71
3
 72
9
 73
5
 74
0
 42
0.0000001
 43
0.0000001
 44
0.0000000001
 40
0.0
 40
0.0
 40
0.0
 40
0.0
 40
0.2419451143
 40
1.0
 40
1.0
 40
1.0
 40
1.0
 10
500.1265415882
 20
230.7671117996
 30
0.0
 10
500.340981259
 20
230.6433872055
 30
0.0
 10
501.1879057013
 20
230.0632029494
 30
0.0
 10
501.8325104318
 20
229.2141135237
 30
0.0
 10
502.1831360809
 20
228.5221950693
 30
0.0
  0
SPLINE
  5
41E
100
AcDbEntity
  8
0
100
AcDbSpline
 62
7
  6
CONTINUOUS
 70
0
 71
3
 72
9
 73
5
 74
0
 42
0.0000001
 43
0.0000001
 44
0.0000000001
 40
0.0
 40
0.0
 40
0.0
 40
0.0
 40
0.2417369417
 40
1.0
 40
1.0
 40
1.0
 40
1.0
 10
502.1831360809
 20
228.5221950693
 30
0.0
 10
502.2421754368
 20
228.4056878486
 30
0.0
 10
502.472241631
 20
227.9165992788
 30
0.0
 10
502.6465595545
 20
227.4019654597
 30
0.0
 10
502.7504460995
 20
227.0056602091
 30
0.0
  0
SPLINE
  5
41F
100
AcDbEntity
  8
0
100
AcDbSpline
 62
7
  6
CONTINUOUS
 70
0
 71
3
 72
8
 73
4
 74
0
 42
0.0000001
 43
0.0000001
 44
0.0000000001
 40
0.0
 40
0.0
 40
0.0
 40
0.0
 40
1.0
 40
1.0
 40
1.0
 40
1.0
 10
510.3157293766
 20
730.7686738661
 30
0.0
 10
510.4612061437
 20
730.9131434201
 30
0.0
 10
510.6262118735
 20
731.0404967922
 30
0.0
 10
510.8037494466
 20
731.1430411824
 30
0.0
  0
SPLINE
  5
420
100
AcDbEntity
  8
0
100
AcDbSpline
 62
7
  6
CONTINUOUS
 70
0
 71
3
 72
9
 73
5
 74
0
 42
0.0000001
 43
0.0000001
 44
0.0000000001
 40
0.0
 40
0.0
 40
0.0
 40
0.0
 40
0.2592658539
 40
1.0
 40
1.0
 40
1.0
 40
1.0
 10
509.4661706894
 20
726.6656441412
 30
0.0
 10
509.4477775326
 20
726.7746066969
 30
0.0
 10
509.3847621632
 20
727.1961321208
 30
0.0
 10
509.3539560507
 20
727.6228411495
 30
0.0
 10
509.3539560507
 20
727.9385561869
 30
0.0
  0
SPLINE
  5
421
100
AcDbEntity
  8
0
100
AcDbSpline
 62
7
  6
CONTINUOUS
 70
0
 71
3
 72
8
 73
4
 74
0
 42
0.0000001
 43
0.0000001
 44
0.0000000001
 40
0.0
 40
0.0
 40
0.0
 40
0.0
 40
1.0
 40
1.0
 40
1.0
 40
1.0
 10
436.5152006723
 20
702.1144161938
 30
0.0
 10
436.5618099216
 20
702.0433952478
 30
0.0
 10
436.6036286546
 20
701.9689143137
 30
0.0
 10
436.6392210799
 20
701.8917808181
 30
0.0
  0
SPLINE
  5
422
100
AcDbEntity
  8
0
100
AcDbSpline
 62
7
  6
CONTINUOUS
 70
0
 71
3
 72
8
 73
4
 74
0
 42
0.0000001
 43
0.0000001
 44
0.0000000001
 40
0.0
 40
0.0
 40
0.0
 40
0.0
 40
1.0
 40
1.0
 40
1.0
 40
1.0
 10
436.6392210799
 20
701.8917808181
 30
0.0
 10
436.7244750338
 20
701.707024218
 30
0.0
 10
436.7744089059
 20
701.499982775
 30
0.0
 10
436.774408894
 20
701.2965049189
 30
0.0
  0
SPLINE
  5
423
100
AcDbEntity
  8
0
100
AcDbSpline
 62
7
  6
CONTINUOUS
 70
0
 71
3
 72
9
 73
5
 74
0
 42
0.0000001
 43
0.0000001
 44
0.0000000001
 40
0.0
 40
0.0
 40
0.0
 40
0.0
 40
0.5508368929
 40
1.0
 40
1.0
 40
1.0
 40
1.0
 10
489.3359700658
 20
680.047174312
 30
0.0
 10
488.508861534
 20
679.569645829
 30
0.0
 10
486.8561529492
 20
678.8828771517
 30
0.0
 10
485.0107253746
 20
679.1629078907
 30
0.0
 10
484.3362462392
 20
679.5522267442
 30
0.0
  0
SPLINE
  5
424
100
AcDbEntity
  8
0
100
AcDbSpline
 62
7
  6
CONTINUOUS
 70
0
 71
3
 72
9
 73
5
 74
0
 42
0.0000001
 43
0.0000001
 44
0.0000000001
 40
0.0
 40
0.0
 40
0.0
 40
0.0
 40
0.5508368929
 40
1.0
 40
1.0
 40
1.0
 40
1.0
 10
489.3359700658
 20
240.4341079053
 30
0.0
 10
488.508861534
 20
239.9565794223
 30
0.0
 10
486.8561529492
 20
239.269810745
 30
0.0
 10
485.0107253746
 20
239.549841484
 30
0.0
 10
484.3362462392
 20
239.9391603375
 30
0.0
  0
SPLINE
  5
425
100
AcDbEntity
  8
0
100
AcDbSpline
 62
7
  6
CONTINUOUS
 70
0
 71
3
 72
8
 73
4
 74
0
 42
0.0000001
 43
0.0000001
 44
0.0000000001
 40
0.0
 40
0.0
 40
0.0
 40
0.0
 40
1.0
 40
1.0
 40
1.0
 40
1.0
 10
447.1217582306
 20
708.2380785019
 30
0.0
 10
447.1683674798
 20
708.1670575559
 30
0.0
 10
447.2101862128
 20
708.0925766218
 30
0.0
 10
447.2457786381
 20
708.0154431261
 30
0.0
  0
SPLINE
  5
426
100
AcDbEntity
  8
0
100
AcDbSpline
 62
7
  6
CONTINUOUS
 70
0
 71
3
 72
8
 73
4
 74
0
 42
0.0000001
 43
0.0000001
 44
0.0000000001
 40
0.0
 40
0.0
 40
0.0
 40
0.0
 40
1.0
 40
1.0
 40
1.0
 40
1.0
 10
447.2457786381
 20
708.0154431261
 30
0.0
 10
447.331032592
 20
707.8306865261
 30
0.0
 10
447.3809664641
 20
707.623645083
 30
0.0
 10
447.3809664522
 20
707.4201672269
 30
0.0
  0
ENDSEC
  0
SECTION
  2
OBJECTS
  0
DICTIONARY
  5
C
100
AcDbDictionary
280
0
281
1
  3
ACAD_GROUP
350
D
  3
ACAD_MLINESTYLE
350
17
  3
ACAD_LAYOUT
350
1A
  3
ACAD_PLOTSETTINGS
350
19
  3
ACAD_PLOTSTYLENAME
350
E
  0
DICTIONARY
  5
D
102
{ACAD_REACTORS
330
C
102
}
100
AcDbDictionary
280
0
281
1
  0
ACDBDICTIONARYWDFLT
  5
E
102
{ACAD_REACTORS
330
C
102
}
100
AcDbDictionary
281
1
  3
Normal
350
F
100
AcDbDictionaryWithDefault
340
F
  0
DICTIONARY
  5
17
102
{ACAD_REACTORS
330
C
102
}
100
AcDbDictionary
280
0
281
1
  3
Standard
350
18
  0
DICTIONARY
  5
19
102
{ACAD_REACTORS
330
C
102
}
100
AcDbDictionary
281
1
  0
DICTIONARY
  5
1A
102
{ACAD_REACTORS
330
C
102
}
100
AcDbDictionary
281
1
  3
Model
350
427
  3
Layout1
350
428
  0
ACDBPLACEHOLDER
  5
F
102
{ACAD_REACTORS
330
E
102
}
  0
MLINESTYLE
  5
18
102
{ACAD_REACTORS
330
17
102
}
100
AcDbMlineStyle
  2
STANDARD
 70
0
  3

 62
256
 51
90.0
 52
90.0
 71
2
 49
0.5
 62
256
  6
BYLAYER
 49
-0.5
 62
256
  6
BYLAYER
  0
LAYOUT
  5
427
102
{ACAD_REACTORS
330
1A
102
}
100
AcDbPlotSettings
  1

  2
none_device
  4

  6

 40
0.0
 41
0.0
 42
0.0
 43
0.0
 44
210.0
 45
297.0
 46
0.0
 47
0.0
 48
0.0
 49
0.0
140
0.0
141
0.0
142
1.0
143
1.0
 70
1024
 72
1
 73
0
 74
0
  7

 75
0
147
1.0
148
0.0
149
0.0
100
AcDbLayout
  1
Model
 70
0
 71
0
 10
0.0
 20
0.0
 11
210.0
 21
297.0
 12
0.0
 22
0.0
 32
0.0
 14
0.0
 24
0.0
 34
0.0
 15
0.0
 25
0.0
 35
0.0
146
0.0
 13
0.0
 23
0.0
 33
0.0
 16
1.0
 26
0.0
 36
0.0
 17
0.0
 27
1.0
 37
0.0
 76
0
330
210
345
0
346
0
  0
LAYOUT
  5
428
102
{ACAD_REACTORS
330
1A
102
}
100
AcDbPlotSettings
  1

  2
none_device
  4

  6

 40
0.0
 41
0.0
 42
0.0
 43
0.0
 44
210.0
 45
297.0
 46
0.0
 47
0.0
 48
0.0
 49
0.0
140
0.0
141
0.0
142
1.0
143
1.0
 70
0
 72
1
 73
0
 74
0
  7

 75
0
147
1.0
148
0.0
149
0.0
100
AcDbLayout
  1
Layout1
 70
0
 71
1
 10
0.0
 20
0.0
 11
210.0
 21
297.0
 12
0.0
 22
0.0
 32
0.0
 14
0.0
 24
0.0
 34
0.0
 15
0.0
 25
0.0
 35
0.0
146
0.0
 13
0.0
 23
0.0
 33
0.0
 16
1.0
 26
0.0
 36
0.0
 17
0.0
 27
1.0
 37
0.0
 76
0
330
211
345
0
346
0
  0
ENDSEC
  0
EOF
