999
DXF file: C:\Users\sesa63760\Dev\_Creo\CAD\MCADID0000206_3D-CAD\drw0001_4.dxf
999
Pro/ENGINEER 2019471 by Parametric Technology Corporation
  0
SECTION
  2
HEADER
  9
$ACADVER
  1
AC1024
  9
$DWGCODEPAGE
  3
ANSI_1252
  9
$EXTMAX
 10
116.8652568854
 20
165.2808633094
 30
0.0
  9
$EXTMIN
 10
0.0
 20
0.0
 30
0.0
  9
$LIMMIN
 10
0.0
 20
0.0
  9
$LIMMAX
 10
116.8652568854
 20
165.2808633094
  9
$VIEWCTR
 10
58.4326284427
 20
82.6404316547
  9
$VIEWSIZE
 40
165.2808633094
  9
$CLAYER
  8
0
  9
$LTSCALE
 40
10.7738636824
  9
$CELTYPE
  6
BYLAYER
  9
$DIMSCALE
 40
1.0
  9
$DIMASZ
 40
1.3912530582
  9
$DIMEXO
 40
1.0
  9
$DIMDLI
 40
7.4437603624
  9
$DIMEXE
 40
1.0
  9
$DIMCEN
 40
1.7629958753
  9
$DIMLFAC
 40
1.0
  9
$DIMBLK
  1
_FILLED
  9
$DIMALT
 70
0
  9
$DIMALTF
 40
0.0393700787
  9
$DIMTXT
 40
1.9477542814
  9
$DIMTOL
 70
1
  9
$DIMLIM
 70
0
  9
$DIMTFAC
 40
1.0
  9
$DIMTP
 40
0.01
  9
$DIMTM
 40
0.01
  9
$DIMGAP
 40
0.625
  9
$DIMDSEP
 70
46
  9
$AUNITS
 70
0
  9
$PDMODE
 70
3
  9
$PDSIZE
 40
0.3125
  9
$HANDSEED
  5
4B7
  9
$TILEMODE
 70
1
  9
$MEASUREMENT
 70
1
  9
$INSUNITS
 70
4
  0
ENDSEC
  0
SECTION
  2
CLASSES
  0
CLASS
  1
ACDBDICTIONARYWDFLT
  2
AcDbDictionaryWithDefault
  3
AutoCAD 2000
 90
0
 91
1
280
0
281
0
  0
CLASS
  1
ACDBPLACEHOLDER
  2
AcDbPlaceHolder
  3
AutoCAD 2000
 90
0
 91
1
280
0
281
0
  0
CLASS
  1
LAYOUT
  2
AcDbLayout
  3
AutoCAD 2000
 90
0
 91
0
280
0
281
0
  0
ENDSEC
  0
SECTION
  2
TABLES
  0
TABLE
  2
VPORT
  5
8
100
AcDbSymbolTable
 70
2
  0
VPORT
  5
1F4
100
AcDbSymbolTableRecord
100
AcDbViewportTableRecord
  2
*ACTIVE
 70
0
 10
0.0
 20
0.0
 11
1.0
 21
1.0
 12
58.4326284427
 22
82.6404316547
 13
0.0
 23
0.0
 14
1.0
 24
1.0
 15
0.0
 25
0.0
 16
0.0
 26
0.0
 36
1.0
 17
0.0
 27
0.0
 37
0.0
 40
165.2808633094
 41
0.7070707071
 42
50.0
 43
0.0
 44
0.0
 50
0.0
 51
0.0
 71
0
 72
100
 73
1
 74
1
 75
0
 76
0
 77
0
 78
0
  0
ENDTAB
  0
TABLE
  2
LTYPE
  5
5
100
AcDbSymbolTable
 70
6
  0
LTYPE
  5
14
100
AcDbSymbolTableRecord
100
AcDbLinetypeTableRecord
  2
BYBLOCK
 70
0
  3

 72
65
 73
0
 40
0.0
  0
LTYPE
  5
15
100
AcDbSymbolTableRecord
100
AcDbLinetypeTableRecord
  2
BYLAYER
 70
0
  3

 72
65
 73
0
 40
0.0
  0
LTYPE
  5
16
100
AcDbSymbolTableRecord
100
AcDbLinetypeTableRecord
  2
CONTINUOUS
 70
64
  3
Solid line
 72
65
 73
0
 40
0.0
  0
LTYPE
  5
1F5
100
AcDbSymbolTableRecord
100
AcDbLinetypeTableRecord
  2
CENTER
 70
64
  3
____ _ ____ _ ____ _ ____ _ ____ _ ____ _ ____
 72
65
 73
4
 40
0.6
 49
0.375
 74
0
 49
-0.075
 74
0
 49
0.075
 74
0
 49
-0.075
 74
0
  0
LTYPE
  5
1F6
100
AcDbSymbolTableRecord
100
AcDbLinetypeTableRecord
  2
HIDDEN
 70
64
  3
- - - - - - - - - - - - - - - - - - - -
 72
65
 73
2
 40
0.2
 49
0.1
 74
0
 49
-0.1
 74
0
  0
LTYPE
  5
1F7
100
AcDbSymbolTableRecord
100
AcDbLinetypeTableRecord
  2
PHANTOM
 70
64
  3
_____ _ _ _____ _ _ _____ _ _ _____
 72
65
 73
6
 40
0.8
 49
0.45
 74
0
 49
-0.05
 74
0
 49
0.1
 74
0
 49
-0.05
 74
0
 49
0.1
 74
0
 49
-0.05
 74
0
  0
LTYPE
  5
1F8
100
AcDbSymbolTableRecord
100
AcDbLinetypeTableRecord
  2
DOT
 70
64
  3
. . . . . . . . . . . . . . . . . . . .
 72
65
 73
2
 40
0.2
 49
0.1
 74
0
 49
-0.1
 74
0
  0
LTYPE
  5
1F9
100
AcDbSymbolTableRecord
100
AcDbLinetypeTableRecord
  2
DASHED
 70
64
  3
- - - - - - - - - - - - - - - - - - - -
 72
65
 73
2
 40
0.2
 49
0.1
 74
0
 49
-0.1
 74
0
  0
ENDTAB
  0
TABLE
  2
LAYER
  5
2
100
AcDbSymbolTable
 70
36
  0
LAYER
  5
10
100
AcDbSymbolTableRecord
100
AcDbLayerTableRecord
  2
0
 70
0
 62
7
  6
CONTINUOUS
370
-3
390
F
  0
LAYER
  5
1FA
100
AcDbSymbolTableRecord
100
AcDbLayerTableRecord
  2
DEFAULT_1
 70
0
 62
7
  6
CENTER
370
-3
390
F
  0
LAYER
  5
1FB
100
AcDbSymbolTableRecord
100
AcDbLayerTableRecord
  2
DEFAULT_2
 70
0
 62
8
  6
HIDDEN
370
-3
390
F
  0
LAYER
  5
1FC
100
AcDbSymbolTableRecord
100
AcDbLayerTableRecord
  2
DEFAULT_3
 70
0
 62
7
  6
PHANTOM
370
-3
390
F
  0
LAYER
  5
1FD
100
AcDbSymbolTableRecord
100
AcDbLayerTableRecord
  2
00_COMPONENTS
 70
0
 62
7
  6
CONTINUOUS
370
-3
390
F
  0
LAYER
  5
1FE
100
AcDbSymbolTableRecord
100
AcDbLayerTableRecord
  2
01_1_DEFAULT_DATUMS
 70
0
 62
7
  6
CONTINUOUS
370
-3
390
F
  0
LAYER
  5
1FF
100
AcDbSymbolTableRecord
100
AcDbLayerTableRecord
  2
01_PLANES
 70
0
 62
7
  6
CONTINUOUS
370
-3
390
F
  0
LAYER
  5
200
100
AcDbSymbolTableRecord
100
AcDbLayerTableRecord
  2
02_COORD_SYS
 70
0
 62
7
  6
CONTINUOUS
370
-3
390
F
  0
LAYER
  5
201
100
AcDbSymbolTableRecord
100
AcDbLayerTableRecord
  2
03_AXES
 70
0
 62
7
  6
CONTINUOUS
370
-3
390
F
  0
LAYER
  5
202
100
AcDbSymbolTableRecord
100
AcDbLayerTableRecord
  2
04_POINTS
 70
0
 62
7
  6
CONTINUOUS
370
-3
390
F
  0
LAYER
  5
203
100
AcDbSymbolTableRecord
100
AcDbLayerTableRecord
  2
05_CURVES
 70
0
 62
7
  6
CONTINUOUS
370
-3
390
F
  0
LAYER
  5
204
100
AcDbSymbolTableRecord
100
AcDbLayerTableRecord
  2
06_SURFS
 70
0
 62
7
  6
CONTINUOUS
370
-3
390
F
  0
LAYER
  5
205
100
AcDbSymbolTableRecord
100
AcDbLayerTableRecord
  2
07_COSMETICS
 70
0
 62
7
  6
CONTINUOUS
370
-3
390
F
  0
LAYER
  5
206
100
AcDbSymbolTableRecord
100
AcDbLayerTableRecord
  2
10_NOTES
 70
0
 62
7
  6
CONTINUOUS
370
-3
390
F
  0
LAYER
  5
207
100
AcDbSymbolTableRecord
100
AcDbLayerTableRecord
  2
11_NOTES_PUB
 70
0
 62
7
  6
CONTINUOUS
370
-3
390
F
  0
LAYER
  5
208
100
AcDbSymbolTableRecord
100
AcDbLayerTableRecord
  2
13_REF_GTOL
 70
0
 62
7
  6
CONTINUOUS
370
-3
390
F
  0
LAYER
  5
209
100
AcDbSymbolTableRecord
100
AcDbLayerTableRecord
  2
16_MISC
 70
0
 62
7
  6
CONTINUOUS
370
-3
390
F
  0
LAYER
  5
20A
100
AcDbSymbolTableRecord
100
AcDbLayerTableRecord
  2
17_NO_PRINT
 70
0
 62
7
  6
CONTINUOUS
370
-3
390
F
  0
LAYER
  5
20B
100
AcDbSymbolTableRecord
100
AcDbLayerTableRecord
  2
18_DATUM_CAMS_JOINTS
 70
0
 62
7
  6
CONTINUOUS
370
-3
390
F
  0
LAYER
  5
20C
100
AcDbSymbolTableRecord
100
AcDbLayerTableRecord
  2
19_DATUM_FUNCTIONAL
 70
0
 62
7
  6
CONTINUOUS
370
-3
390
F
  0
LAYER
  5
20D
100
AcDbSymbolTableRecord
100
AcDbLayerTableRecord
  2
20_DATUM_KINEMATIC_SCHEME
 70
0
 62
7
  6
CONTINUOUS
370
-3
390
F
  0
ENDTAB
  0
TABLE
  2
STYLE
  5
3
100
AcDbSymbolTable
 70
1
  0
STYLE
  5
11
100
AcDbSymbolTableRecord
100
AcDbTextStyleTableRecord
  2
STANDARD
 70
0
 40
0.0
 41
0.8
 50
0.0
 71
0
 42
0.2
  3
txt
  4

  0
STYLE
  5
20E
100
AcDbSymbolTableRecord
100
AcDbTextStyleTableRecord
  2
TEXTSTYLE_1
 70
0
 40
0.0
 41
0.8
 50
0.0
 71
0
 42
0.2
  3
gdt
  4

  0
ENDTAB
  0
TABLE
  2
VIEW
  5
6
100
AcDbSymbolTable
 70
0
  0
ENDTAB
  0
TABLE
  2
UCS
  5
7
100
AcDbSymbolTable
 70
0
  0
ENDTAB
  0
TABLE
  2
APPID
  5
9
100
AcDbSymbolTable
 70
1
  0
APPID
  5
20F
100
AcDbSymbolTableRecord
100
AcDbRegAppTableRecord
  2
ACAD
 70
0
  0
ENDTAB
  0
TABLE
  2
BLOCK_RECORD
  5
1
100
AcDbSymbolTable
 70
0
  0
BLOCK_RECORD
  5
210
100
AcDbSymbolTableRecord
100
AcDbBlockTableRecord
  2
*Model_Space
  0
BLOCK_RECORD
  5
211
100
AcDbSymbolTableRecord
100
AcDbBlockTableRecord
  2
*Paper_Space
  0
BLOCK_RECORD
  5
212
100
AcDbSymbolTableRecord
100
AcDbBlockTableRecord
  2
_FILLED
  0
ENDTAB
  0
TABLE
  2
DIMSTYLE
  5
A
100
AcDbSymbolTable
 70
1
100
AcDbDimStyleTable
 71
0
  0
DIMSTYLE
105
213
100
AcDbSymbolTableRecord
100
AcDbDimStyleTableRecord
  2
STANDARD
 70
0
  3

  4

 40
1.0
 41
1.3912530582
 42
1.0
 43
0.38
 44
1.0
 45
0.0
 46
0.0
 47
0.01
 48
0.01
140
1.9477542814
141
0.09
142
0.0
143
25.4
144
1.0
145
0.0
146
1.0
147
0.625
 71
1
 72
0
 73
0
 74
0
 75
0
 76
0
 77
1
 78
8
 79
2
170
0
171
1
172
0
173
0
174
0
175
0
176
0
177
0
178
0
270
2
179
2
271
2
272
2
273
2
274
2
275
0
280
0
281
0
282
0
283
1
284
8
285
0
286
0
287
3
288
0
340
11
278
46
341
212
342
212
343
212
344
212
  0
ENDTAB
  0
ENDSEC
  0
SECTION
  2
BLOCKS
  0
BLOCK
  5
20
100
AcDbEntity
  8
0
100
AcDbBlockBegin
  2
*Model_Space
 70
0
 10
0.0
 20
0.0
 30
0.0
  3
*Model_Space
  1

  0
ENDBLK
  5
21
100
AcDbEntity
  8
0
100
AcDbBlockEnd
  0
BLOCK
  5
1C
100
AcDbEntity
  8
0
100
AcDbBlockBegin
  2
*Paper_Space
 70
0
 10
0.0
 20
0.0
 30
0.0
  3
*Paper_Space
  1

  0
ENDBLK
  5
1D
100
AcDbEntity
  8
0
100
AcDbBlockEnd
  0
BLOCK
  5
214
100
AcDbEntity
  8
0
100
AcDbBlockBegin
  2
_FILLED
 70
64
 10
0.0
 20
0.0
  3
_FILLED
  1

  0
SOLID
  5
215
100
AcDbEntity
  8
0
  6
BYBLOCK
 62
0
100
AcDbTrace
 10
0.0
 20
0.0
 11
-1.0
 21
0.25
 12
-1.0
 22
-0.25
 13
-1.0
 23
-0.25
  0
ENDBLK
  5
216
100
AcDbEntity
  8
0
  6
BYBLOCK
 62
0
100
AcDbBlockEnd
  0
ENDSEC
  0
SECTION
  2
ENTITIES
  0
LINE
  5
217
100
AcDbEntity
  8
0
100
AcDbLine
 62
7
  6
CONTINUOUS
 10
76.8498911913
 20
11.834676259
 11
75.6498980682
 21
11.834676259
  0
LINE
  5
218
100
AcDbEntity
  8
0
100
AcDbLine
 62
7
  6
CONTINUOUS
 10
44.2498911913
 20
11.834676259
 11
43.0498980682
 21
11.834676259
  0
LINE
  5
219
100
AcDbEntity
  8
0
100
AcDbLine
 62
7
  6
CONTINUOUS
 10
77.9998946298
 20
14.234676259
 11
74.4998946298
 21
14.234676259
  0
LINE
  5
21A
100
AcDbEntity
  8
0
100
AcDbLine
 62
7
  6
CONTINUOUS
 10
45.3998946298
 20
14.234676259
 11
41.8998946298
 21
14.234676259
  0
LINE
  5
21B
100
AcDbEntity
  8
0
100
AcDbLine
 62
7
  6
CONTINUOUS
 10
32.9135143963
 20
139.1384662029
 11
35.2330953751
 21
142.0342519766
  0
LINE
  5
21C
100
AcDbEntity
  8
0
100
AcDbLine
 62
7
  6
CONTINUOUS
 10
41.8998946298
 20
21.434676259
 11
45.3998946298
 21
21.434676259
  0
LINE
  5
21D
100
AcDbEntity
  8
0
100
AcDbLine
 62
7
  6
CONTINUOUS
 10
74.4998946298
 20
21.434676259
 11
77.9998946298
 21
21.434676259
  0
LINE
  5
21E
100
AcDbEntity
  8
0
100
AcDbLine
 62
7
  6
CONTINUOUS
 10
77.7398946298
 20
21.694676259
 11
74.7598946298
 21
21.694676259
  0
LINE
  5
21F
100
AcDbEntity
  8
0
100
AcDbLine
 62
7
  6
CONTINUOUS
 10
45.1398946298
 20
21.694676259
 11
42.1598946298
 21
21.694676259
  0
LINE
  5
220
100
AcDbEntity
  8
0
100
AcDbLine
 62
7
  6
CONTINUOUS
 10
92.2498946298
 20
24.1346762426
 11
87.2498946298
 21
24.1346762426
  0
LINE
  5
221
100
AcDbEntity
  8
0
100
AcDbLine
 62
7
  6
CONTINUOUS
 10
32.6498946298
 20
24.1346762426
 11
27.6498946298
 21
24.1346762426
  0
LINE
  5
222
100
AcDbEntity
  8
0
100
AcDbLine
 62
7
  6
CONTINUOUS
 10
34.0349417477
 20
139.1384662029
 11
35.2330953751
 21
140.6342519766
  0
LINE
  5
223
100
AcDbEntity
  8
0
100
AcDbLine
 62
7
  6
CONTINUOUS
 10
40.8051706151
 20
143.0086319838
 11
38.4855896363
 21
140.1128462101
  0
LINE
  5
224
100
AcDbEntity
  8
0
100
AcDbLine
 62
7
  6
CONTINUOUS
 10
37.5479304469
 20
138.1336319838
 11
35.2283494681
 21
135.2378462101
  0
LINE
  5
225
100
AcDbEntity
  8
0
100
AcDbLine
 62
7
  6
CONTINUOUS
 10
39.4350943041
 20
139.1384662029
 11
41.7546752829
 21
142.0342519766
  0
LINE
  5
226
100
AcDbEntity
  8
0
100
AcDbLine
 62
7
  6
CONTINUOUS
 10
36.1736773464
 20
134.2634662029
 11
38.4932583252
 21
137.1592519766
  0
LINE
  5
227
100
AcDbEntity
  8
0
100
AcDbLine
 62
7
  6
CONTINUOUS
 10
92.2498946298
 20
27.1339417436
 11
87.2498946298
 21
27.1339417436
  0
LINE
  5
228
100
AcDbEntity
  8
0
100
AcDbLine
 62
7
  6
CONTINUOUS
 10
32.6498946298
 20
27.1339417436
 11
27.6498946298
 21
27.1339417436
  0
LINE
  5
229
100
AcDbEntity
  8
0
100
AcDbLine
 62
7
  6
CONTINUOUS
 10
92.2498946298
 20
27.934676259
 11
87.2498946298
 21
27.934676259
  0
LINE
  5
22A
100
AcDbEntity
  8
0
100
AcDbLine
 62
7
  6
CONTINUOUS
 10
32.6498946298
 20
27.934676259
 11
27.6498946298
 21
27.934676259
  0
LINE
  5
22B
100
AcDbEntity
  8
0
100
AcDbLine
 62
7
  6
CONTINUOUS
 10
75.2298946296
 20
28.934676259
 11
68.2298946297
 21
28.934676259
  0
LINE
  5
22C
100
AcDbEntity
  8
0
100
AcDbLine
 62
7
  6
CONTINUOUS
 10
51.6698946297
 20
28.934676259
 11
44.6698946298
 21
28.934676259
  0
LINE
  5
22D
100
AcDbEntity
  8
0
100
AcDbLine
 62
7
  6
CONTINUOUS
 10
32.6498946298
 20
30.334676259
 11
87.2498946298
 21
30.334676259
  0
LINE
  5
22E
100
AcDbEntity
  8
0
100
AcDbLine
 62
7
  6
CONTINUOUS
 10
45.1398946298
 20
21.694676259
 11
45.3998946298
 21
21.434676259
  0
LINE
  5
22F
100
AcDbEntity
  8
0
100
AcDbLine
 62
7
  6
CONTINUOUS
 10
40.5565216555
 20
139.1384662029
 11
41.7546752829
 21
140.6342519766
  0
LINE
  5
230
100
AcDbEntity
  8
0
100
AcDbLine
 62
7
  6
CONTINUOUS
 10
37.2951046978
 20
134.2634662029
 11
38.4932583252
 21
135.7592519766
  0
LINE
  5
231
100
AcDbEntity
  8
0
100
AcDbLine
 62
7
  6
CONTINUOUS
 10
47.3235907073
 20
143.0086319838
 11
45.0040097285
 21
140.1128462101
  0
LINE
  5
232
100
AcDbEntity
  8
0
100
AcDbLine
 62
7
  6
CONTINUOUS
 10
44.0663505392
 20
138.1336319838
 11
41.7467695603
 21
135.2378462101
  0
LINE
  5
233
100
AcDbEntity
  8
0
100
AcDbLine
 62
7
  6
CONTINUOUS
 10
45.9535143963
 20
139.1384662029
 11
48.2730953751
 21
142.0342519766
  0
LINE
  5
234
100
AcDbEntity
  8
0
100
AcDbLine
 62
7
  6
CONTINUOUS
 10
42.6920974386
 20
134.2634662029
 11
45.0116784175
 21
137.1592519766
  0
LINE
  5
235
100
AcDbEntity
  8
0
100
AcDbLine
 62
7
  6
CONTINUOUS
 10
92.2498946298
 20
31.6346762592
 11
27.6498946298
 21
31.6346762592
  0
LINE
  5
236
100
AcDbEntity
  8
0
100
AcDbLine
 62
7
  6
CONTINUOUS
 10
31.1803235018
 20
119.244135377
 11
33.9095907859
 21
123.6081195461
  0
LINE
  5
237
100
AcDbEntity
  8
0
100
AcDbLine
 62
7
  6
CONTINUOUS
 10
47.0749417477
 20
139.1384662029
 11
48.2730953751
 21
140.6342519766
  0
LINE
  5
238
100
AcDbEntity
  8
0
100
AcDbLine
 62
7
  6
CONTINUOUS
 10
43.81352479
 20
134.2634662029
 11
45.0116784175
 21
135.7592519766
  0
LINE
  5
239
100
AcDbEntity
  8
0
100
AcDbLine
 62
7
  6
CONTINUOUS
 10
50.5879304469
 20
138.1336319838
 11
48.2683494681
 21
135.2378462101
  0
LINE
  5
23A
100
AcDbEntity
  8
0
100
AcDbLine
 62
7
  6
CONTINUOUS
 10
82.4979009442
 20
39.2870119021
 11
77.6126737779
 21
39.2870119021
  0
LINE
  5
23B
100
AcDbEntity
  8
0
100
AcDbLine
 62
7
  6
CONTINUOUS
 10
75.7952101875
 20
39.2870119021
 11
70.9099830212
 21
39.2870119021
  0
LINE
  5
23C
100
AcDbEntity
  8
0
100
AcDbLine
 62
7
  6
CONTINUOUS
 10
69.0952101875
 20
39.2870119021
 11
64.2099830212
 21
39.2870119021
  0
LINE
  5
23D
100
AcDbEntity
  8
0
100
AcDbLine
 62
7
  6
CONTINUOUS
 10
62.3979009442
 20
39.2870119021
 11
57.5126737779
 21
39.2870119021
  0
LINE
  5
23E
100
AcDbEntity
  8
0
100
AcDbLine
 62
7
  6
CONTINUOUS
 10
55.6952101875
 20
39.2870119021
 11
50.8099830212
 21
39.2870119021
  0
LINE
  5
23F
100
AcDbEntity
  8
0
100
AcDbLine
 62
7
  6
CONTINUOUS
 10
48.9952101875
 20
39.2870119021
 11
44.1099830212
 21
39.2870119021
  0
LINE
  5
240
100
AcDbEntity
  8
0
100
AcDbLine
 62
7
  6
CONTINUOUS
 10
42.2925194308
 20
39.2870119021
 11
37.4072922645
 21
39.2870119021
  0
LINE
  5
241
100
AcDbEntity
  8
0
100
AcDbLine
 62
7
  6
CONTINUOUS
 10
80.7032199079
 20
40.8392808602
 11
79.4073606177
 21
40.8392808602
  0
LINE
  5
242
100
AcDbEntity
  8
0
100
AcDbLine
 62
7
  6
CONTINUOUS
 10
74.0005291512
 20
40.8392808602
 11
72.704669861
 21
40.8392808602
  0
LINE
  5
243
100
AcDbEntity
  8
0
100
AcDbLine
 62
7
  6
CONTINUOUS
 10
67.3005291512
 20
40.8392808602
 11
66.004669861
 21
40.8392808602
  0
LINE
  5
244
100
AcDbEntity
  8
0
100
AcDbLine
 62
7
  6
CONTINUOUS
 10
60.6032199079
 20
40.8392808602
 11
59.3073606177
 21
40.8392808602
  0
LINE
  5
245
100
AcDbEntity
  8
0
100
AcDbLine
 62
7
  6
CONTINUOUS
 10
53.9005291512
 20
40.8392808602
 11
52.604669861
 21
40.8392808602
  0
LINE
  5
246
100
AcDbEntity
  8
0
100
AcDbLine
 62
7
  6
CONTINUOUS
 10
47.2005291512
 20
40.8392808602
 11
45.904669861
 21
40.8392808602
  0
LINE
  5
247
100
AcDbEntity
  8
0
100
AcDbLine
 62
7
  6
CONTINUOUS
 10
40.4978383945
 20
40.8392808602
 11
39.2019791042
 21
40.8392808602
  0
LINE
  5
248
100
AcDbEntity
  8
0
100
AcDbLine
 62
7
  6
CONTINUOUS
 10
39.849909797
 20
41.3996921135
 11
42.2925194308
 21
39.2870119021
  0
LINE
  5
249
100
AcDbEntity
  8
0
100
AcDbLine
 62
7
  6
CONTINUOUS
 10
43.2012907032
 20
39.9333370586
 11
40.7586810694
 21
42.04601727
  0
LINE
  5
24A
100
AcDbEntity
  8
0
100
AcDbLine
 62
7
  6
CONTINUOUS
 10
39.8498750764
 20
43.3170228872
 11
37.4072654426
 21
45.4297030986
  0
LINE
  5
24B
100
AcDbEntity
  8
0
100
AcDbLine
 62
7
  6
CONTINUOUS
 10
43.2012907032
 20
41.4856060167
 11
42.5533621057
 21
42.04601727
  0
LINE
  5
24C
100
AcDbEntity
  8
0
100
AcDbLine
 62
7
  6
CONTINUOUS
 10
39.8498750764
 20
44.8692918452
 11
39.2019464789
 21
45.4297030986
  0
LINE
  5
24D
100
AcDbEntity
  8
0
100
AcDbLine
 62
7
  6
CONTINUOUS
 10
43.0498946298
 20
11.834676259
 11
41.8998946298
 21
14.234676259
  0
LINE
  5
24E
100
AcDbEntity
  8
0
100
AcDbLine
 62
7
  6
CONTINUOUS
 10
39.8964390623
 20
124.8752170937
 11
37.1671717645
 21
120.5112330464
  0
LINE
  5
24F
100
AcDbEntity
  8
0
100
AcDbLine
 62
7
  6
CONTINUOUS
 10
36.634808092
 20
118.3752170937
 11
33.9055408079
 21
114.0112329246
  0
LINE
  5
250
100
AcDbEntity
  8
0
100
AcDbLine
 62
7
  6
CONTINUOUS
 10
37.7003235018
 20
119.244135377
 11
40.4295907859
 21
123.6081195461
  0
LINE
  5
251
100
AcDbEntity
  8
0
100
AcDbLine
 62
7
  6
CONTINUOUS
 10
34.4419545574
 20
112.7941354243
 11
37.1712218414
 21
117.1581195934
  0
LINE
  5
252
100
AcDbEntity
  8
0
100
AcDbLine
 62
7
  6
CONTINUOUS
 10
31.1803235018
 20
106.244135377
 11
33.9095907859
 21
110.6081195461
  0
LINE
  5
253
100
AcDbEntity
  8
0
100
AcDbLine
 62
7
  6
CONTINUOUS
 10
40.7586810694
 20
42.04601727
 11
45.6439082357
 21
42.04601727
  0
LINE
  5
254
100
AcDbEntity
  8
0
100
AcDbLine
 62
7
  6
CONTINUOUS
 10
47.4586810694
 20
42.04601727
 11
52.3439082357
 21
42.04601727
  0
LINE
  5
255
100
AcDbEntity
  8
0
100
AcDbLine
 62
7
  6
CONTINUOUS
 10
54.1559903127
 20
42.04601727
 11
59.041217479
 21
42.04601727
  0
LINE
  5
256
100
AcDbEntity
  8
0
100
AcDbLine
 62
7
  6
CONTINUOUS
 10
60.8586810694
 20
42.04601727
 11
65.7439082357
 21
42.04601727
  0
LINE
  5
257
100
AcDbEntity
  8
0
100
AcDbLine
 62
7
  6
CONTINUOUS
 10
67.5586810694
 20
42.04601727
 11
72.4439082357
 21
42.04601727
  0
LINE
  5
258
100
AcDbEntity
  8
0
100
AcDbLine
 62
7
  6
CONTINUOUS
 10
74.2613718261
 20
42.04601727
 11
79.1465989924
 21
42.04601727
  0
LINE
  5
259
100
AcDbEntity
  8
0
100
AcDbLine
 62
7
  6
CONTINUOUS
 10
79.1464853175
 20
42.6706977307
 11
74.2612581511
 21
42.6706977307
  0
LINE
  5
25A
100
AcDbEntity
  8
0
100
AcDbLine
 62
7
  6
CONTINUOUS
 10
72.4464853175
 20
42.6706977307
 11
67.5612581511
 21
42.6706977307
  0
LINE
  5
25B
100
AcDbEntity
  8
0
100
AcDbLine
 62
7
  6
CONTINUOUS
 10
65.7491760742
 20
42.6706977307
 11
60.8639489078
 21
42.6706977307
  0
LINE
  5
25C
100
AcDbEntity
  8
0
100
AcDbLine
 62
7
  6
CONTINUOUS
 10
59.0464853175
 20
42.6706977307
 11
54.1612581511
 21
42.6706977307
  0
LINE
  5
25D
100
AcDbEntity
  8
0
100
AcDbLine
 62
7
  6
CONTINUOUS
 10
52.3464853175
 20
42.6706977307
 11
47.4612581511
 21
42.6706977307
  0
LINE
  5
25E
100
AcDbEntity
  8
0
100
AcDbLine
 62
7
  6
CONTINUOUS
 10
45.6437945607
 20
42.6706977307
 11
40.7585673944
 21
42.6706977307
  0
LINE
  5
25F
100
AcDbEntity
  8
0
100
AcDbLine
 62
7
  6
CONTINUOUS
 10
77.3518042811
 20
44.2229666888
 11
76.0559449909
 21
44.2229666888
  0
LINE
  5
260
100
AcDbEntity
  8
0
100
AcDbLine
 62
7
  6
CONTINUOUS
 10
70.6518042811
 20
44.2229666888
 11
69.3559449909
 21
44.2229666888
  0
LINE
  5
261
100
AcDbEntity
  8
0
100
AcDbLine
 62
7
  6
CONTINUOUS
 10
63.9544950379
 20
44.2229666888
 11
62.6586357476
 21
44.2229666888
  0
LINE
  5
262
100
AcDbEntity
  8
0
100
AcDbLine
 62
7
  6
CONTINUOUS
 10
57.2518042811
 20
44.2229666888
 11
55.9559449909
 21
44.2229666888
  0
LINE
  5
263
100
AcDbEntity
  8
0
100
AcDbLine
 62
7
  6
CONTINUOUS
 10
50.5518042811
 20
44.2229666888
 11
49.2559449909
 21
44.2229666888
  0
LINE
  5
264
100
AcDbEntity
  8
0
100
AcDbLine
 62
7
  6
CONTINUOUS
 10
43.8491135244
 20
44.2229666888
 11
42.5532542342
 21
44.2229666888
  0
LINE
  5
265
100
AcDbEntity
  8
0
100
AcDbLine
 62
7
  6
CONTINUOUS
 10
37.4072654426
 20
45.4297030986
 11
42.2924926089
 21
45.4297030986
  0
LINE
  5
266
100
AcDbEntity
  8
0
100
AcDbLine
 62
7
  6
CONTINUOUS
 10
44.1099561993
 20
45.4297030986
 11
48.9951833656
 21
45.4297030986
  0
LINE
  5
267
100
AcDbEntity
  8
0
100
AcDbLine
 62
7
  6
CONTINUOUS
 10
50.8099561993
 20
45.4297030986
 11
55.6951833656
 21
45.4297030986
  0
LINE
  5
268
100
AcDbEntity
  8
0
100
AcDbLine
 62
7
  6
CONTINUOUS
 10
57.5072654426
 20
45.4297030986
 11
62.3924926089
 21
45.4297030986
  0
LINE
  5
269
100
AcDbEntity
  8
0
100
AcDbLine
 62
7
  6
CONTINUOUS
 10
64.2099561993
 20
45.4297030986
 11
69.0951833656
 21
45.4297030986
  0
LINE
  5
26A
100
AcDbEntity
  8
0
100
AcDbLine
 62
7
  6
CONTINUOUS
 10
70.9099561993
 20
45.4297030986
 11
75.7951833656
 21
45.4297030986
  0
LINE
  5
26B
100
AcDbEntity
  8
0
100
AcDbLine
 62
7
  6
CONTINUOUS
 10
77.612646956
 20
45.4297030986
 11
82.4978741224
 21
45.4297030986
  0
LINE
  5
26C
100
AcDbEntity
  8
0
100
AcDbLine
 62
7
  6
CONTINUOUS
 10
46.5526005537
 20
41.3996921135
 11
48.9952101875
 21
39.2870119021
  0
LINE
  5
26D
100
AcDbEntity
  8
0
100
AcDbLine
 62
7
  6
CONTINUOUS
 10
43.2011849269
 20
44.7833779421
 11
45.6437945607
 21
42.6706977307
  0
LINE
  5
26E
100
AcDbEntity
  8
0
100
AcDbLine
 62
7
  6
CONTINUOUS
 10
49.9012907032
 20
39.9333370586
 11
47.4586810694
 21
42.04601727
  0
LINE
  5
26F
100
AcDbEntity
  8
0
100
AcDbLine
 62
7
  6
CONTINUOUS
 10
46.5525658331
 20
43.3170228872
 11
44.1099561993
 21
45.4297030986
  0
LINE
  5
270
100
AcDbEntity
  8
0
100
AcDbLine
 62
7
  6
CONTINUOUS
 10
49.9012907032
 20
41.4856060167
 11
49.2533621057
 21
42.04601727
  0
LINE
  5
271
100
AcDbEntity
  8
0
100
AcDbLine
 62
7
  6
CONTINUOUS
 10
46.5525658331
 20
44.8692918452
 11
45.9046372356
 21
45.4297030986
  0
LINE
  5
272
100
AcDbEntity
  8
0
100
AcDbLine
 62
7
  6
CONTINUOUS
 10
33.8671270063
 20
56.5612329249
 11
31.1419097855
 21
60.925217094
  0
LINE
  5
273
100
AcDbEntity
  8
0
100
AcDbLine
 62
7
  6
CONTINUOUS
 10
27.6498946298
 20
24.1346762426
 11
27.6498946298
 21
152.434676259
  0
LINE
  5
274
100
AcDbEntity
  8
0
100
AcDbLine
 62
7
  6
CONTINUOUS
 10
46.4164391181
 20
124.8752170937
 11
43.6871716681
 21
120.5112330464
  0
LINE
  5
275
100
AcDbEntity
  8
0
100
AcDbLine
 62
7
  6
CONTINUOUS
 10
43.1548080879
 20
118.3752170937
 11
40.4255407804
 21
114.0112330129
  0
LINE
  5
276
100
AcDbEntity
  8
0
100
AcDbLine
 62
7
  6
CONTINUOUS
 10
44.2203235018
 20
119.244135377
 11
46.9495907859
 21
123.6081195461
  0
LINE
  5
277
100
AcDbEntity
  8
0
100
AcDbLine
 62
7
  6
CONTINUOUS
 10
39.8964390623
 20
111.8752170937
 11
37.1671717645
 21
107.5112330464
  0
LINE
  5
278
100
AcDbEntity
  8
0
100
AcDbLine
 62
7
  6
CONTINUOUS
 10
40.9619545574
 20
112.7941354243
 11
43.6912218414
 21
117.1581195934
  0
LINE
  5
279
100
AcDbEntity
  8
0
100
AcDbLine
 62
7
  6
CONTINUOUS
 10
36.6348080919
 20
105.3752170937
 11
33.9055408079
 21
101.0112329246
  0
LINE
  5
27A
100
AcDbEntity
  8
0
100
AcDbLine
 62
7
  6
CONTINUOUS
 10
37.7003235018
 20
106.244135377
 11
40.4295907859
 21
110.6081195461
  0
LINE
  5
27B
100
AcDbEntity
  8
0
100
AcDbLine
 62
7
  6
CONTINUOUS
 10
34.4419545574
 20
99.7941354243
 11
37.1712218414
 21
104.1581195934
  0
LINE
  5
27C
100
AcDbEntity
  8
0
100
AcDbLine
 62
7
  6
CONTINUOUS
 10
92.2498946298
 20
50.1668632586
 11
27.6498946298
 21
50.1668632586
  0
LINE
  5
27D
100
AcDbEntity
  8
0
100
AcDbLine
 62
7
  6
CONTINUOUS
 10
53.2526005537
 20
41.3996921135
 11
55.6952101875
 21
39.2870119021
  0
LINE
  5
27E
100
AcDbEntity
  8
0
100
AcDbLine
 62
7
  6
CONTINUOUS
 10
49.9038756836
 20
44.7833779421
 11
52.3464853175
 21
42.6706977307
  0
LINE
  5
27F
100
AcDbEntity
  8
0
100
AcDbLine
 62
7
  6
CONTINUOUS
 10
56.5985999465
 20
39.9333370586
 11
54.1559903127
 21
42.04601727
  0
LINE
  5
280
100
AcDbEntity
  8
0
100
AcDbLine
 62
7
  6
CONTINUOUS
 10
53.2525658331
 20
43.3170228872
 11
50.8099561993
 21
45.4297030986
  0
LINE
  5
281
100
AcDbEntity
  8
0
100
AcDbLine
 62
7
  6
CONTINUOUS
 10
56.5985999465
 20
41.4856060167
 11
55.950671349
 21
42.04601727
  0
LINE
  5
282
100
AcDbEntity
  8
0
100
AcDbLine
 62
7
  6
CONTINUOUS
 10
53.2525658331
 20
44.8692918452
 11
52.6046372356
 21
45.4297030986
  0
LINE
  5
283
100
AcDbEntity
  8
0
100
AcDbLine
 62
7
  6
CONTINUOUS
 10
59.9552913104
 20
41.3996921135
 11
62.3979009442
 21
39.2870119021
  0
LINE
  5
284
100
AcDbEntity
  8
0
100
AcDbLine
 62
7
  6
CONTINUOUS
 10
56.6038756836
 20
44.7833779421
 11
59.0464853175
 21
42.6706977307
  0
LINE
  5
285
100
AcDbEntity
  8
0
100
AcDbLine
 62
7
  6
CONTINUOUS
 10
37.132358637
 20
59.7081195932
 11
39.8575758578
 21
55.3441354241
  0
LINE
  5
286
100
AcDbEntity
  8
0
100
AcDbLine
 62
7
  6
CONTINUOUS
 10
33.8711771918
 20
66.1581195931
 11
36.5963944126
 21
61.794135424
  0
LINE
  5
287
100
AcDbEntity
  8
0
100
AcDbLine
 62
7
  6
CONTINUOUS
 10
32.6498946298
 20
30.334676259
 11
32.6498946298
 21
24.1346762426
  0
LINE
  5
288
100
AcDbEntity
  8
0
100
AcDbLine
 62
7
  6
CONTINUOUS
 10
49.6748081437
 20
118.3752170937
 11
46.945540684
 21
114.0112330129
  0
LINE
  5
289
100
AcDbEntity
  8
0
100
AcDbLine
 62
7
  6
CONTINUOUS
 10
31.1419098437
 20
87.5941354238
 11
33.8711771278
 21
91.9581195929
  0
LINE
  5
28A
100
AcDbEntity
  8
0
100
AcDbLine
 62
7
  6
CONTINUOUS
 10
46.4164391181
 20
111.8752170937
 11
43.6871716681
 21
107.5112330464
  0
LINE
  5
28B
100
AcDbEntity
  8
0
100
AcDbLine
 62
7
  6
CONTINUOUS
 10
43.1548080879
 20
105.3752170937
 11
40.4255407804
 21
101.0112330129
  0
LINE
  5
28C
100
AcDbEntity
  8
0
100
AcDbLine
 62
7
  6
CONTINUOUS
 10
44.2203235018
 20
106.244135377
 11
46.9495907859
 21
110.6081195461
  0
LINE
  5
28D
100
AcDbEntity
  8
0
100
AcDbLine
 62
7
  6
CONTINUOUS
 10
40.9619545574
 20
99.7941354243
 11
43.6912218414
 21
104.1581195934
  0
LINE
  5
28E
100
AcDbEntity
  8
0
100
AcDbLine
 62
7
  6
CONTINUOUS
 10
85.4975758528
 20
55.3441354687
 11
80.0430913479
 21
55.3441354687
  0
LINE
  5
28F
100
AcDbEntity
  8
0
100
AcDbLine
 62
7
  6
CONTINUOUS
 10
78.977575797
 20
55.3441354687
 11
73.5230912921
 21
55.3441354687
  0
LINE
  5
290
100
AcDbEntity
  8
0
100
AcDbLine
 62
7
  6
CONTINUOUS
 10
72.4575758578
 20
55.3441354241
 11
67.0030913529
 21
55.3441354241
  0
LINE
  5
291
100
AcDbEntity
  8
0
100
AcDbLine
 62
7
  6
CONTINUOUS
 10
65.9375758578
 20
55.3441354241
 11
60.4830913529
 21
55.3441354241
  0
LINE
  5
292
100
AcDbEntity
  8
0
100
AcDbLine
 62
7
  6
CONTINUOUS
 10
59.4175758578
 20
55.3441354241
 11
53.9630913529
 21
55.3441354241
  0
LINE
  5
293
100
AcDbEntity
  8
0
100
AcDbLine
 62
7
  6
CONTINUOUS
 10
52.8975758578
 20
55.3441354241
 11
47.4430913529
 21
55.3441354241
  0
LINE
  5
294
100
AcDbEntity
  8
0
100
AcDbLine
 62
7
  6
CONTINUOUS
 10
46.3775758578
 20
55.3441354241
 11
40.9230913529
 21
55.3441354241
  0
LINE
  5
295
100
AcDbEntity
  8
0
100
AcDbLine
 62
7
  6
CONTINUOUS
 10
39.8575758578
 20
55.3441354241
 11
34.4030913529
 21
55.3441354241
  0
LINE
  5
296
100
AcDbEntity
  8
0
100
AcDbLine
 62
7
  6
CONTINUOUS
 10
63.3012907032
 20
39.9333370586
 11
60.8586810694
 21
42.04601727
  0
LINE
  5
297
100
AcDbEntity
  8
0
100
AcDbLine
 62
7
  6
CONTINUOUS
 10
59.9498750764
 20
43.3170228872
 11
57.5072654426
 21
45.4297030986
  0
LINE
  5
298
100
AcDbEntity
  8
0
100
AcDbLine
 62
7
  6
CONTINUOUS
 10
63.3012907032
 20
41.4856060167
 11
62.6533621057
 21
42.04601727
  0
LINE
  5
299
100
AcDbEntity
  8
0
100
AcDbLine
 62
7
  6
CONTINUOUS
 10
59.9498750764
 20
44.8692918452
 11
59.3019464789
 21
45.4297030986
  0
LINE
  5
29A
100
AcDbEntity
  8
0
100
AcDbLine
 62
7
  6
CONTINUOUS
 10
66.6526005537
 20
41.3996921135
 11
69.0952101875
 21
39.2870119021
  0
LINE
  5
29B
100
AcDbEntity
  8
0
100
AcDbLine
 62
7
  6
CONTINUOUS
 10
63.3065664403
 20
44.7833779421
 11
65.7491760742
 21
42.6706977307
  0
LINE
  5
29C
100
AcDbEntity
  8
0
100
AcDbLine
 62
7
  6
CONTINUOUS
 10
70.0012907032
 20
39.9333370586
 11
67.5586810694
 21
42.04601727
  0
LINE
  5
29D
100
AcDbEntity
  8
0
100
AcDbLine
 62
7
  6
CONTINUOUS
 10
77.7398946298
 20
21.694676259
 11
77.9998946298
 21
21.434676259
  0
LINE
  5
29E
100
AcDbEntity
  8
0
100
AcDbLine
 62
7
  6
CONTINUOUS
 10
40.3871269917
 20
56.5612330021
 11
37.6619097661
 21
60.925217094
  0
LINE
  5
29F
100
AcDbEntity
  8
0
100
AcDbLine
 62
7
  6
CONTINUOUS
 10
37.1283083804
 20
63.0112329249
 11
34.4030911596
 21
67.375217094
  0
LINE
  5
2A0
100
AcDbEntity
  8
0
100
AcDbLine
 62
7
  6
CONTINUOUS
 10
33.8669745026
 20
69.4612329634
 11
31.1417572818
 21
73.8252171325
  0
LINE
  5
2A1
100
AcDbEntity
  8
0
100
AcDbLine
 62
7
  6
CONTINUOUS
 10
43.652358637
 20
59.7081195932
 11
46.3775758578
 21
55.3441354241
  0
LINE
  5
2A2
100
AcDbEntity
  8
0
100
AcDbLine
 62
7
  6
CONTINUOUS
 10
35.2330953751
 20
140.6342519766
 11
35.2330953751
 21
142.0342519766
  0
LINE
  5
2A3
100
AcDbEntity
  8
0
100
AcDbLine
 62
7
  6
CONTINUOUS
 10
38.4932583252
 20
135.7592519766
 11
38.4932583252
 21
137.1592519766
  0
LINE
  5
2A4
100
AcDbEntity
  8
0
100
AcDbLine
 62
7
  6
CONTINUOUS
 10
39.8498750764
 20
43.3170228872
 11
39.8498750764
 21
44.8692918452
  0
LINE
  5
2A5
100
AcDbEntity
  8
0
100
AcDbLine
 62
7
  6
CONTINUOUS
 10
39.8575756053
 20
93.1752170941
 11
37.1283083076
 21
88.8112330468
  0
LINE
  5
2A6
100
AcDbEntity
  8
0
100
AcDbLine
 62
7
  6
CONTINUOUS
 10
36.5962417226
 20
86.7252170938
 11
33.8669744385
 21
82.3612329247
  0
LINE
  5
2A7
100
AcDbEntity
  8
0
100
AcDbLine
 62
7
  6
CONTINUOUS
 10
37.6619098437
 20
87.5941354238
 11
40.3911771278
 21
91.9581195929
  0
LINE
  5
2A8
100
AcDbEntity
  8
0
100
AcDbLine
 62
7
  6
CONTINUOUS
 10
52.9364390573
 20
111.8752171384
 11
50.2071717732
 21
107.5112329692
  0
LINE
  5
2A9
100
AcDbEntity
  8
0
100
AcDbLine
 62
7
  6
CONTINUOUS
 10
34.4030908623
 20
81.1441353614
 11
37.1323581463
 21
85.5081195305
  0
LINE
  5
2AA
100
AcDbEntity
  8
0
100
AcDbLine
 62
7
  6
CONTINUOUS
 10
49.6748081437
 20
105.3752170937
 11
46.945540684
 21
101.0112330129
  0
LINE
  5
2AB
100
AcDbEntity
  8
0
100
AcDbLine
 62
7
  6
CONTINUOUS
 10
50.7403235018
 20
106.244135377
 11
53.4695907859
 21
110.6081195461
  0
LINE
  5
2AC
100
AcDbEntity
  8
0
100
AcDbLine
 62
7
  6
CONTINUOUS
 10
31.1419098437
 20
74.6941353853
 11
33.8711771278
 21
79.0581195544
  0
LINE
  5
2AD
100
AcDbEntity
  8
0
100
AcDbLine
 62
7
  6
CONTINUOUS
 10
37.6619097661
 20
60.925217094
 11
43.116394271
 21
60.9252170047
  0
LINE
  5
2AE
100
AcDbEntity
  8
0
100
AcDbLine
 62
7
  6
CONTINUOUS
 10
44.1819098219
 20
60.925217094
 11
49.6363943268
 21
60.9252170047
  0
LINE
  5
2AF
100
AcDbEntity
  8
0
100
AcDbLine
 62
7
  6
CONTINUOUS
 10
31.1419097855
 20
60.925217094
 11
36.5963942904
 21
60.925217094
  0
LINE
  5
2B0
100
AcDbEntity
  8
0
100
AcDbLine
 62
7
  6
CONTINUOUS
 10
50.7019097855
 20
60.925217094
 11
56.1563942904
 21
60.925217094
  0
LINE
  5
2B1
100
AcDbEntity
  8
0
100
AcDbLine
 62
7
  6
CONTINUOUS
 10
57.2219097855
 20
60.925217094
 11
62.6763942904
 21
60.925217094
  0
LINE
  5
2B2
100
AcDbEntity
  8
0
100
AcDbLine
 62
7
  6
CONTINUOUS
 10
63.7419097855
 20
60.925217094
 11
69.1963942904
 21
60.925217094
  0
LINE
  5
2B3
100
AcDbEntity
  8
0
100
AcDbLine
 62
7
  6
CONTINUOUS
 10
70.2619097855
 20
60.925217094
 11
75.7163942904
 21
60.925217094
  0
LINE
  5
2B4
100
AcDbEntity
  8
0
100
AcDbLine
 62
7
  6
CONTINUOUS
 10
76.7819097855
 20
60.925217094
 11
82.2363942904
 21
60.925217094
  0
LINE
  5
2B5
100
AcDbEntity
  8
0
100
AcDbLine
 62
7
  6
CONTINUOUS
 10
83.3019097855
 20
60.925217094
 11
88.7563942904
 21
60.925217094
  0
LINE
  5
2B6
100
AcDbEntity
  8
0
100
AcDbLine
 62
7
  6
CONTINUOUS
 10
88.7563944126
 20
61.794135424
 11
83.3019099078
 21
61.794135424
  0
LINE
  5
2B7
100
AcDbEntity
  8
0
100
AcDbLine
 62
7
  6
CONTINUOUS
 10
82.2363944076
 20
61.7941354686
 11
76.7819099028
 21
61.7941354686
  0
LINE
  5
2B8
100
AcDbEntity
  8
0
100
AcDbLine
 62
7
  6
CONTINUOUS
 10
75.7163943518
 20
61.7941354686
 11
70.261909847
 21
61.7941354686
  0
LINE
  5
2B9
100
AcDbEntity
  8
0
100
AcDbLine
 62
7
  6
CONTINUOUS
 10
69.1963944127
 20
61.794135424
 11
63.7419099078
 21
61.794135424
  0
LINE
  5
2BA
100
AcDbEntity
  8
0
100
AcDbLine
 62
7
  6
CONTINUOUS
 10
62.6763944127
 20
61.794135424
 11
57.2219099078
 21
61.794135424
  0
LINE
  5
2BB
100
AcDbEntity
  8
0
100
AcDbLine
 62
7
  6
CONTINUOUS
 10
56.1563944127
 20
61.794135424
 11
50.7019099078
 21
61.794135424
  0
LINE
  5
2BC
100
AcDbEntity
  8
0
100
AcDbLine
 62
7
  6
CONTINUOUS
 10
49.6363944126
 20
61.794135424
 11
44.1819099078
 21
61.794135424
  0
LINE
  5
2BD
100
AcDbEntity
  8
0
100
AcDbLine
 62
7
  6
CONTINUOUS
 10
43.1163944126
 20
61.794135424
 11
37.6619099078
 21
61.794135424
  0
LINE
  5
2BE
100
AcDbEntity
  8
0
100
AcDbLine
 62
7
  6
CONTINUOUS
 10
36.5963944126
 20
61.794135424
 11
31.1419099078
 21
61.794135424
  0
LINE
  5
2BF
100
AcDbEntity
  8
0
100
AcDbLine
 62
7
  6
CONTINUOUS
 10
66.6525658331
 20
43.3170228872
 11
64.2099561993
 21
45.4297030986
  0
LINE
  5
2C0
100
AcDbEntity
  8
0
100
AcDbLine
 62
7
  6
CONTINUOUS
 10
70.0012907032
 20
41.4856060167
 11
69.3533621057
 21
42.04601727
  0
LINE
  5
2C1
100
AcDbEntity
  8
0
100
AcDbLine
 62
7
  6
CONTINUOUS
 10
66.6525658331
 20
44.8692918452
 11
66.0046372356
 21
45.4297030986
  0
LINE
  5
2C2
100
AcDbEntity
  8
0
100
AcDbLine
 62
7
  6
CONTINUOUS
 10
73.3526005537
 20
41.3996921135
 11
75.7952101875
 21
39.2870119021
  0
LINE
  5
2C3
100
AcDbEntity
  8
0
100
AcDbLine
 62
7
  6
CONTINUOUS
 10
70.0038756836
 20
44.7833779421
 11
72.4464853175
 21
42.6706977307
  0
LINE
  5
2C4
100
AcDbEntity
  8
0
100
AcDbLine
 62
7
  6
CONTINUOUS
 10
76.7039814599
 20
39.9333370586
 11
74.2613718261
 21
42.04601727
  0
LINE
  5
2C5
100
AcDbEntity
  8
0
100
AcDbLine
 62
7
  6
CONTINUOUS
 10
73.3525658331
 20
43.3170228872
 11
70.9099561993
 21
45.4297030986
  0
LINE
  5
2C6
100
AcDbEntity
  8
0
100
AcDbLine
 62
7
  6
CONTINUOUS
 10
40.3911771918
 20
66.1581195931
 11
43.1163944126
 21
61.794135424
  0
LINE
  5
2C7
100
AcDbEntity
  8
0
100
AcDbLine
 62
7
  6
CONTINUOUS
 10
46.9071268953
 20
56.5612330021
 11
44.1819098219
 21
60.925217094
  0
LINE
  5
2C8
100
AcDbEntity
  8
0
100
AcDbLine
 62
7
  6
CONTINUOUS
 10
37.1323583584
 20
72.6081195464
 11
39.8575755792
 21
68.2441353772
  0
LINE
  5
2C9
100
AcDbEntity
  8
0
100
AcDbLine
 62
7
  6
CONTINUOUS
 10
43.6483083658
 20
63.011233002
 11
40.9230911402
 21
67.375217094
  0
LINE
  5
2CA
100
AcDbEntity
  8
0
100
AcDbLine
 62
7
  6
CONTINUOUS
 10
33.8711771278
 20
79.0581195544
 11
36.5963943486
 21
74.6941353853
  0
LINE
  5
2CB
100
AcDbEntity
  8
0
100
AcDbLine
 62
7
  6
CONTINUOUS
 10
40.3869744751
 20
69.4612330406
 11
37.6617572688
 21
73.8252170879
  0
LINE
  5
2CC
100
AcDbEntity
  8
0
100
AcDbLine
 62
7
  6
CONTINUOUS
 10
37.1283084571
 20
75.9112329249
 11
34.4030912363
 21
80.275217094
  0
LINE
  5
2CD
100
AcDbEntity
  8
0
100
AcDbLine
 62
7
  6
CONTINUOUS
 10
33.8669744385
 20
82.3612329247
 11
31.1417572177
 21
86.7252170938
  0
LINE
  5
2CE
100
AcDbEntity
  8
0
100
AcDbLine
 62
7
  6
CONTINUOUS
 10
50.172358637
 20
59.7081195932
 11
52.8975758578
 21
55.3441354241
  0
LINE
  5
2CF
100
AcDbEntity
  8
0
100
AcDbLine
 62
7
  6
CONTINUOUS
 10
41.7546752829
 20
140.6342519766
 11
41.7546752829
 21
142.0342519766
  0
LINE
  5
2D0
100
AcDbEntity
  8
0
100
AcDbLine
 62
7
  6
CONTINUOUS
 10
41.8998946298
 20
21.434676259
 11
41.8998946298
 21
14.234676259
  0
LINE
  5
2D1
100
AcDbEntity
  8
0
100
AcDbLine
 62
7
  6
CONTINUOUS
 10
42.1598946298
 20
21.694676259
 11
42.1598946298
 21
30.334676259
  0
LINE
  5
2D2
100
AcDbEntity
  8
0
100
AcDbLine
 62
7
  6
CONTINUOUS
 10
43.2012907032
 20
39.9333370586
 11
43.2012907032
 21
41.4856060167
  0
LINE
  5
2D3
100
AcDbEntity
  8
0
100
AcDbLine
 62
7
  6
CONTINUOUS
 10
44.6698946298
 20
30.334676259
 11
44.6698946298
 21
28.934676259
  0
LINE
  5
2D4
100
AcDbEntity
  8
0
100
AcDbLine
 62
7
  6
CONTINUOUS
 10
45.0116784175
 20
135.7592519766
 11
45.0116784175
 21
137.1592519766
  0
LINE
  5
2D5
100
AcDbEntity
  8
0
100
AcDbLine
 62
7
  6
CONTINUOUS
 10
45.1398946298
 20
21.694676259
 11
45.1398946298
 21
28.934676259
  0
LINE
  5
2D6
100
AcDbEntity
  8
0
100
AcDbLine
 62
7
  6
CONTINUOUS
 10
47.4819545574
 20
99.7941354243
 11
50.2112218414
 21
104.1581195934
  0
LINE
  5
2D7
100
AcDbEntity
  8
0
100
AcDbLine
 62
7
  6
CONTINUOUS
 10
46.3775756611
 20
93.1752170941
 11
43.6483082112
 21
88.8112330468
  0
LINE
  5
2D8
100
AcDbEntity
  8
0
100
AcDbLine
 62
7
  6
CONTINUOUS
 10
43.1162417276
 20
86.7252170492
 11
40.3869744299
 21
82.3612330019
  0
LINE
  5
2D9
100
AcDbEntity
  8
0
100
AcDbLine
 62
7
  6
CONTINUOUS
 10
44.1819098437
 20
87.5941354238
 11
46.9111771278
 21
91.9581195929
  0
LINE
  5
2DA
100
AcDbEntity
  8
0
100
AcDbLine
 62
7
  6
CONTINUOUS
 10
59.4564390573
 20
111.8752171384
 11
56.7271717732
 21
107.5112329692
  0
LINE
  5
2DB
100
AcDbEntity
  8
0
100
AcDbLine
 62
7
  6
CONTINUOUS
 10
39.8575757412
 20
80.275217094
 11
37.1283084571
 21
75.9112329249
  0
LINE
  5
2DC
100
AcDbEntity
  8
0
100
AcDbLine
 62
7
  6
CONTINUOUS
 10
40.9230908623
 20
81.1441353614
 11
43.6523581463
 21
85.5081195305
  0
LINE
  5
2DD
100
AcDbEntity
  8
0
100
AcDbLine
 62
7
  6
CONTINUOUS
 10
56.1948080919
 20
105.3752170937
 11
53.4655408079
 21
101.0112329246
  0
LINE
  5
2DE
100
AcDbEntity
  8
0
100
AcDbLine
 62
7
  6
CONTINUOUS
 10
36.5962417866
 20
73.8252171325
 11
33.8669745026
 21
69.4612329634
  0
LINE
  5
2DF
100
AcDbEntity
  8
0
100
AcDbLine
 62
7
  6
CONTINUOUS
 10
57.2603235018
 20
106.244135377
 11
59.9895907859
 21
110.6081195461
  0
LINE
  5
2E0
100
AcDbEntity
  8
0
100
AcDbLine
 62
7
  6
CONTINUOUS
 10
37.6619098437
 20
74.6941353853
 11
40.3911771278
 21
79.0581195544
  0
LINE
  5
2E1
100
AcDbEntity
  8
0
100
AcDbLine
 62
7
  6
CONTINUOUS
 10
76.7039814599
 20
41.4856060167
 11
76.0560528624
 21
42.04601727
  0
LINE
  5
2E2
100
AcDbEntity
  8
0
100
AcDbLine
 62
7
  6
CONTINUOUS
 10
73.3525658331
 20
44.8692918452
 11
72.7046372356
 21
45.4297030986
  0
LINE
  5
2E3
100
AcDbEntity
  8
0
100
AcDbLine
 62
7
  6
CONTINUOUS
 10
80.0552913104
 20
41.3996921135
 11
82.4979009442
 21
39.2870119021
  0
LINE
  5
2E4
100
AcDbEntity
  8
0
100
AcDbLine
 62
7
  6
CONTINUOUS
 10
76.7038756836
 20
44.7833779421
 11
79.1464853175
 21
42.6706977307
  0
LINE
  5
2E5
100
AcDbEntity
  8
0
100
AcDbLine
 62
7
  6
CONTINUOUS
 10
80.0552565899
 20
43.3170228872
 11
77.612646956
 21
45.4297030986
  0
LINE
  5
2E6
100
AcDbEntity
  8
0
100
AcDbLine
 62
7
  6
CONTINUOUS
 10
80.0552565899
 20
44.8692918452
 11
79.4073279924
 21
45.4297030986
  0
LINE
  5
2E7
100
AcDbEntity
  8
0
100
AcDbLine
 62
7
  6
CONTINUOUS
 10
46.9111771918
 20
66.1581195931
 11
49.6363944126
 21
61.794135424
  0
LINE
  5
2E8
100
AcDbEntity
  8
0
100
AcDbLine
 62
7
  6
CONTINUOUS
 10
53.4271270063
 20
56.5612329249
 11
50.7019097855
 21
60.925217094
  0
LINE
  5
2E9
100
AcDbEntity
  8
0
100
AcDbLine
 62
7
  6
CONTINUOUS
 10
43.6523583584
 20
72.6081195464
 11
46.3775755792
 21
68.2441353772
  0
LINE
  5
2EA
100
AcDbEntity
  8
0
100
AcDbLine
 62
7
  6
CONTINUOUS
 10
50.1683082694
 20
63.011233002
 11
47.443091196
 21
67.375217094
  0
LINE
  5
2EB
100
AcDbEntity
  8
0
100
AcDbLine
 62
7
  6
CONTINUOUS
 10
40.3911771278
 20
79.0581195544
 11
43.1163943486
 21
74.6941353853
  0
LINE
  5
2EC
100
AcDbEntity
  8
0
100
AcDbLine
 62
7
  6
CONTINUOUS
 10
46.8879375499
 20
69.4612330406
 11
44.1627204958
 21
73.8252170879
  0
LINE
  5
2ED
100
AcDbEntity
  8
0
100
AcDbLine
 62
7
  6
CONTINUOUS
 10
37.1323581463
 20
85.5081195305
 11
39.8575753671
 21
81.1441353614
  0
LINE
  5
2EE
100
AcDbEntity
  8
0
100
AcDbLine
 62
7
  6
CONTINUOUS
 10
43.6483084424
 20
75.9112330021
 11
40.9230912169
 21
80.275217094
  0
LINE
  5
2EF
100
AcDbEntity
  8
0
100
AcDbLine
 62
7
  6
CONTINUOUS
 10
33.8711771278
 20
91.9581195929
 11
36.5963943486
 21
87.5941354238
  0
LINE
  5
2F0
100
AcDbEntity
  8
0
100
AcDbLine
 62
7
  6
CONTINUOUS
 10
40.3869744299
 20
82.3612330019
 11
37.6617572227
 21
86.7252170492
  0
LINE
  5
2F1
100
AcDbEntity
  8
0
100
AcDbLine
 62
7
  6
CONTINUOUS
 10
37.1283083076
 20
88.8112330468
 11
34.4030911004
 21
93.1752170941
  0
LINE
  5
2F2
100
AcDbEntity
  8
0
100
AcDbLine
 62
7
  6
CONTINUOUS
 10
75.6498946298
 20
11.834676259
 11
74.4998946298
 21
14.234676259
  0
LINE
  5
2F3
100
AcDbEntity
  8
0
100
AcDbLine
 62
7
  6
CONTINUOUS
 10
45.3998946298
 20
21.434676259
 11
45.3998946298
 21
14.234676259
  0
LINE
  5
2F4
100
AcDbEntity
  8
0
100
AcDbLine
 62
7
  6
CONTINUOUS
 10
46.5525658331
 20
43.3170228872
 11
46.5525658331
 21
44.8692918452
  0
LINE
  5
2F5
100
AcDbEntity
  8
0
100
AcDbLine
 62
7
  6
CONTINUOUS
 10
46.935768911
 20
28.934676259
 11
46.935768911
 21
30.334676259
  0
LINE
  5
2F6
100
AcDbEntity
  8
0
100
AcDbLine
 62
7
  6
CONTINUOUS
 10
48.2730953751
 20
140.6342519766
 11
48.2730953751
 21
142.0342519766
  0
LINE
  5
2F7
100
AcDbEntity
  8
0
100
AcDbLine
 62
7
  6
CONTINUOUS
 10
49.9012907032
 20
39.9333370586
 11
49.9012907032
 21
41.4856060167
  0
LINE
  5
2F8
100
AcDbEntity
  8
0
100
AcDbLine
 62
7
  6
CONTINUOUS
 10
54.0019545574
 20
99.7941354243
 11
56.7312218414
 21
104.1581195934
  0
LINE
  5
2F9
100
AcDbEntity
  8
0
100
AcDbLine
 62
7
  6
CONTINUOUS
 10
34.4030910744
 20
68.2441353772
 11
37.1323583584
 21
72.6081195464
  0
LINE
  5
2FA
100
AcDbEntity
  8
0
100
AcDbLine
 62
7
  6
CONTINUOUS
 10
31.1419099078
 20
61.794135424
 11
33.8711771918
 21
66.1581195931
  0
LINE
  5
2FB
100
AcDbEntity
  8
0
100
AcDbLine
 62
7
  6
CONTINUOUS
 10
52.8975756003
 20
93.1752171388
 11
50.1683083162
 21
88.8112329697
  0
LINE
  5
2FC
100
AcDbEntity
  8
0
100
AcDbLine
 62
7
  6
CONTINUOUS
 10
49.6362417834
 20
86.7252170492
 11
46.9069743335
 21
82.3612330019
  0
LINE
  5
2FD
100
AcDbEntity
  8
0
100
AcDbLine
 62
7
  6
CONTINUOUS
 10
50.7019098437
 20
87.5941354238
 11
53.4311771278
 21
91.9581195929
  0
LINE
  5
2FE
100
AcDbEntity
  8
0
100
AcDbLine
 62
7
  6
CONTINUOUS
 10
65.9764390573
 20
111.8752171384
 11
63.2471717732
 21
107.5112329692
  0
LINE
  5
2FF
100
AcDbEntity
  8
0
100
AcDbLine
 62
7
  6
CONTINUOUS
 10
46.3775757218
 20
80.2752170047
 11
43.6483084424
 21
75.9112330021
  0
LINE
  5
300
100
AcDbEntity
  8
0
100
AcDbLine
 62
7
  6
CONTINUOUS
 10
47.4430908623
 20
81.1441353614
 11
50.1723581463
 21
85.5081195305
  0
LINE
  5
301
100
AcDbEntity
  8
0
100
AcDbLine
 62
7
  6
CONTINUOUS
 10
62.7148080919
 20
105.3752170937
 11
59.9855408079
 21
101.0112329246
  0
LINE
  5
302
100
AcDbEntity
  8
0
100
AcDbLine
 62
7
  6
CONTINUOUS
 10
43.1162417736
 20
73.8252170879
 11
40.3869744751
 21
69.4612330406
  0
LINE
  5
303
100
AcDbEntity
  8
0
100
AcDbLine
 62
7
  6
CONTINUOUS
 10
34.4030911596
 20
67.375217094
 11
39.8575756645
 21
67.375217094
  0
LINE
  5
304
100
AcDbEntity
  8
0
100
AcDbLine
 62
7
  6
CONTINUOUS
 10
40.9230911402
 20
67.375217094
 11
46.3775756451
 21
67.3752170047
  0
LINE
  5
305
100
AcDbEntity
  8
0
100
AcDbLine
 62
7
  6
CONTINUOUS
 10
47.443091196
 20
67.375217094
 11
52.8975757009
 21
67.3752170047
  0
LINE
  5
306
100
AcDbEntity
  8
0
100
AcDbLine
 62
7
  6
CONTINUOUS
 10
53.9630911596
 20
67.375217094
 11
59.4175756645
 21
67.375217094
  0
LINE
  5
307
100
AcDbEntity
  8
0
100
AcDbLine
 62
7
  6
CONTINUOUS
 10
60.4830911596
 20
67.375217094
 11
65.9375756645
 21
67.375217094
  0
LINE
  5
308
100
AcDbEntity
  8
0
100
AcDbLine
 62
7
  6
CONTINUOUS
 10
67.0030911596
 20
67.375217094
 11
72.4575756645
 21
67.375217094
  0
LINE
  5
309
100
AcDbEntity
  8
0
100
AcDbLine
 62
7
  6
CONTINUOUS
 10
73.5230911596
 20
67.375217094
 11
78.9775756645
 21
67.375217094
  0
LINE
  5
30A
100
AcDbEntity
  8
0
100
AcDbLine
 62
7
  6
CONTINUOUS
 10
80.0430911596
 20
67.375217094
 11
85.4975756645
 21
67.375217094
  0
LINE
  5
30B
100
AcDbEntity
  8
0
100
AcDbLine
 62
7
  6
CONTINUOUS
 10
85.4975755792
 20
68.2441353772
 11
80.0430910744
 21
68.2441353772
  0
LINE
  5
30C
100
AcDbEntity
  8
0
100
AcDbLine
 62
7
  6
CONTINUOUS
 10
78.9775755986
 20
68.2441353772
 11
73.5230910938
 21
68.2441354665
  0
LINE
  5
30D
100
AcDbEntity
  8
0
100
AcDbLine
 62
7
  6
CONTINUOUS
 10
72.4575755428
 20
68.2441353772
 11
67.003091038
 21
68.2441354665
  0
LINE
  5
30E
100
AcDbEntity
  8
0
100
AcDbLine
 62
7
  6
CONTINUOUS
 10
65.9375755792
 20
68.2441353772
 11
60.4830910744
 21
68.2441353772
  0
LINE
  5
30F
100
AcDbEntity
  8
0
100
AcDbLine
 62
7
  6
CONTINUOUS
 10
59.4175755792
 20
68.2441353772
 11
53.9630910744
 21
68.2441353772
  0
LINE
  5
310
100
AcDbEntity
  8
0
100
AcDbLine
 62
7
  6
CONTINUOUS
 10
52.8975755792
 20
68.2441353772
 11
47.4430910744
 21
68.2441353772
  0
LINE
  5
311
100
AcDbEntity
  8
0
100
AcDbLine
 62
7
  6
CONTINUOUS
 10
46.3775755792
 20
68.2441353772
 11
40.9230910744
 21
68.2441353772
  0
LINE
  5
312
100
AcDbEntity
  8
0
100
AcDbLine
 62
7
  6
CONTINUOUS
 10
39.8575755792
 20
68.2441353772
 11
34.4030910744
 21
68.2441353772
  0
LINE
  5
313
100
AcDbEntity
  8
0
100
AcDbLine
 62
7
  6
CONTINUOUS
 10
56.692358637
 20
59.7081195932
 11
59.4175758578
 21
55.3441354241
  0
LINE
  5
314
100
AcDbEntity
  8
0
100
AcDbLine
 62
7
  6
CONTINUOUS
 10
53.4311771918
 20
66.1581195931
 11
56.1563944127
 21
61.794135424
  0
LINE
  5
315
100
AcDbEntity
  8
0
100
AcDbLine
 62
7
  6
CONTINUOUS
 10
59.9471270063
 20
56.5612329249
 11
57.2219097855
 21
60.925217094
  0
LINE
  5
316
100
AcDbEntity
  8
0
100
AcDbLine
 62
7
  6
CONTINUOUS
 10
50.1723583584
 20
72.6081195464
 11
52.8975755792
 21
68.2441353772
  0
LINE
  5
317
100
AcDbEntity
  8
0
100
AcDbLine
 62
7
  6
CONTINUOUS
 10
56.6883083805
 20
63.0112329249
 11
53.9630911596
 21
67.375217094
  0
LINE
  5
318
100
AcDbEntity
  8
0
100
AcDbLine
 62
7
  6
CONTINUOUS
 10
46.9111771278
 20
79.0581195544
 11
49.6363943486
 21
74.6941353853
  0
LINE
  5
319
100
AcDbEntity
  8
0
100
AcDbLine
 62
7
  6
CONTINUOUS
 10
53.4079376738
 20
69.4612329634
 11
50.682720453
 21
73.8252171325
  0
LINE
  5
31A
100
AcDbEntity
  8
0
100
AcDbLine
 62
7
  6
CONTINUOUS
 10
33.9055408079
 20
101.0112329246
 11
31.1803235871
 21
105.3752170937
  0
LINE
  5
31B
100
AcDbEntity
  8
0
100
AcDbLine
 62
7
  6
CONTINUOUS
 10
43.6523581463
 20
85.5081195305
 11
46.3775753671
 21
81.1441353614
  0
LINE
  5
31C
100
AcDbEntity
  8
0
100
AcDbLine
 62
7
  6
CONTINUOUS
 10
50.168308346
 20
75.9112330021
 11
47.4430912727
 21
80.275217094
  0
LINE
  5
31D
100
AcDbEntity
  8
0
100
AcDbLine
 62
7
  6
CONTINUOUS
 10
40.3911771278
 20
91.9581195929
 11
43.1163943486
 21
87.5941354238
  0
LINE
  5
31E
100
AcDbEntity
  8
0
100
AcDbLine
 62
7
  6
CONTINUOUS
 10
46.9069743335
 20
82.3612330019
 11
44.1817572785
 21
86.7252170492
  0
LINE
  5
31F
100
AcDbEntity
  8
0
100
AcDbLine
 62
7
  6
CONTINUOUS
 10
43.6483082112
 20
88.8112330468
 11
40.9230911562
 21
93.1752170941
  0
LINE
  5
320
100
AcDbEntity
  8
0
100
AcDbLine
 62
7
  6
CONTINUOUS
 10
50.3357689108
 20
30.334676259
 11
50.3357689108
 21
28.934676259
  0
LINE
  5
321
100
AcDbEntity
  8
0
100
AcDbLine
 62
7
  6
CONTINUOUS
 10
51.6698946298
 20
28.934676259
 11
51.6698946298
 21
30.334676259
  0
LINE
  5
322
100
AcDbEntity
  8
0
100
AcDbLine
 62
7
  6
CONTINUOUS
 10
53.2525658331
 20
43.3170228872
 11
53.2525658331
 21
44.8692918452
  0
LINE
  5
323
100
AcDbEntity
  8
0
100
AcDbLine
 62
7
  6
CONTINUOUS
 10
63.7803234654
 20
106.2441354662
 11
66.509590897
 21
110.6081194689
  0
LINE
  5
324
100
AcDbEntity
  8
0
100
AcDbLine
 62
7
  6
CONTINUOUS
 10
44.1819098437
 20
74.6941353853
 11
46.9111771278
 21
79.0581195544
  0
LINE
  5
325
100
AcDbEntity
  8
0
100
AcDbLine
 62
7
  6
CONTINUOUS
 10
39.8575756645
 20
67.375217094
 11
37.1283083804
 21
63.0112329249
  0
LINE
  5
326
100
AcDbEntity
  8
0
100
AcDbLine
 62
7
  6
CONTINUOUS
 10
60.5219545574
 20
99.7941354243
 11
63.2512218414
 21
104.1581195934
  0
LINE
  5
327
100
AcDbEntity
  8
0
100
AcDbLine
 62
7
  6
CONTINUOUS
 10
40.9230910744
 20
68.2441353772
 11
43.6523583584
 21
72.6081195464
  0
LINE
  5
328
100
AcDbEntity
  8
0
100
AcDbLine
 62
7
  6
CONTINUOUS
 10
36.5963942904
 20
60.925217094
 11
33.8671270063
 21
56.5612329249
  0
LINE
  5
329
100
AcDbEntity
  8
0
100
AcDbLine
 62
7
  6
CONTINUOUS
 10
37.6619099078
 20
61.794135424
 11
40.3911771918
 21
66.1581195931
  0
LINE
  5
32A
100
AcDbEntity
  8
0
100
AcDbLine
 62
7
  6
CONTINUOUS
 10
34.4030913529
 20
55.3441354241
 11
37.132358637
 21
59.7081195932
  0
LINE
  5
32B
100
AcDbEntity
  8
0
100
AcDbLine
 62
7
  6
CONTINUOUS
 10
59.4175756003
 20
93.1752171388
 11
56.6883083162
 21
88.8112329697
  0
LINE
  5
32C
100
AcDbEntity
  8
0
100
AcDbLine
 62
7
  6
CONTINUOUS
 10
56.1562417226
 20
86.7252170938
 11
53.4269744385
 21
82.3612329247
  0
LINE
  5
32D
100
AcDbEntity
  8
0
100
AcDbLine
 62
7
  6
CONTINUOUS
 10
57.2219098437
 20
87.5941354238
 11
59.9511771278
 21
91.9581195929
  0
LINE
  5
32E
100
AcDbEntity
  8
0
100
AcDbLine
 62
7
  6
CONTINUOUS
 10
72.4964390573
 20
111.8752171384
 11
69.7671717732
 21
107.5112329692
  0
LINE
  5
32F
100
AcDbEntity
  8
0
100
AcDbLine
 62
7
  6
CONTINUOUS
 10
52.8975757776
 20
80.2752170047
 11
50.168308346
 21
75.9112330021
  0
LINE
  5
330
100
AcDbEntity
  8
0
100
AcDbLine
 62
7
  6
CONTINUOUS
 10
53.9630908623
 20
81.1441353614
 11
56.6923581463
 21
85.5081195305
  0
LINE
  5
331
100
AcDbEntity
  8
0
100
AcDbLine
 62
7
  6
CONTINUOUS
 10
31.1417572818
 20
73.8252171325
 11
36.5962417866
 21
73.8252171325
  0
LINE
  5
332
100
AcDbEntity
  8
0
100
AcDbLine
 62
7
  6
CONTINUOUS
 10
37.6617572688
 20
73.8252170879
 11
43.1162417736
 21
73.8252170879
  0
LINE
  5
333
100
AcDbEntity
  8
0
100
AcDbLine
 62
7
  6
CONTINUOUS
 10
44.1627204958
 20
73.8252170879
 11
49.6172050007
 21
73.8252170879
  0
LINE
  5
334
100
AcDbEntity
  8
0
100
AcDbLine
 62
7
  6
CONTINUOUS
 10
50.682720453
 20
73.8252171325
 11
56.1372049579
 21
73.8252171325
  0
LINE
  5
335
100
AcDbEntity
  8
0
100
AcDbLine
 62
7
  6
CONTINUOUS
 10
57.2219097855
 20
73.8252171325
 11
62.6763942904
 21
73.8252171325
  0
LINE
  5
336
100
AcDbEntity
  8
0
100
AcDbLine
 62
7
  6
CONTINUOUS
 10
63.7419097855
 20
73.8252171325
 11
69.1963942904
 21
73.8252171325
  0
LINE
  5
337
100
AcDbEntity
  8
0
100
AcDbLine
 62
7
  6
CONTINUOUS
 10
70.2619097855
 20
73.8252171325
 11
75.7163942904
 21
73.8252171325
  0
LINE
  5
338
100
AcDbEntity
  8
0
100
AcDbLine
 62
7
  6
CONTINUOUS
 10
76.7819097855
 20
73.8252171325
 11
82.2363942904
 21
73.8252171325
  0
LINE
  5
339
100
AcDbEntity
  8
0
100
AcDbLine
 62
7
  6
CONTINUOUS
 10
83.3019097855
 20
73.8252171325
 11
88.7563942904
 21
73.8252171325
  0
LINE
  5
33A
100
AcDbEntity
  8
0
100
AcDbLine
 62
7
  6
CONTINUOUS
 10
88.7563943486
 20
74.6941353853
 11
83.3019098437
 21
74.6941353853
  0
LINE
  5
33B
100
AcDbEntity
  8
0
100
AcDbLine
 62
7
  6
CONTINUOUS
 10
82.2363943616
 20
74.6941354299
 11
76.7819098567
 21
74.6941354299
  0
LINE
  5
33C
100
AcDbEntity
  8
0
100
AcDbLine
 62
7
  6
CONTINUOUS
 10
75.7354311345
 20
74.6941354299
 11
70.2809466297
 21
74.6941354299
  0
LINE
  5
33D
100
AcDbEntity
  8
0
100
AcDbLine
 62
7
  6
CONTINUOUS
 10
69.2154311774
 20
74.6941353853
 11
63.7609466725
 21
74.6941353853
  0
LINE
  5
33E
100
AcDbEntity
  8
0
100
AcDbLine
 62
7
  6
CONTINUOUS
 10
62.6763943486
 20
74.6941353853
 11
57.2219098437
 21
74.6941353853
  0
LINE
  5
33F
100
AcDbEntity
  8
0
100
AcDbLine
 62
7
  6
CONTINUOUS
 10
56.1563943486
 20
74.6941353853
 11
50.7019098437
 21
74.6941353853
  0
LINE
  5
340
100
AcDbEntity
  8
0
100
AcDbLine
 62
7
  6
CONTINUOUS
 10
49.6363943486
 20
74.6941353853
 11
44.1819098437
 21
74.6941353853
  0
LINE
  5
341
100
AcDbEntity
  8
0
100
AcDbLine
 62
7
  6
CONTINUOUS
 10
43.1163943486
 20
74.6941353853
 11
37.6619098437
 21
74.6941353853
  0
LINE
  5
342
100
AcDbEntity
  8
0
100
AcDbLine
 62
7
  6
CONTINUOUS
 10
36.5963943486
 20
74.6941353853
 11
31.1419098437
 21
74.6941353853
  0
LINE
  5
343
100
AcDbEntity
  8
0
100
AcDbLine
 62
7
  6
CONTINUOUS
 10
63.212358637
 20
59.7081195932
 11
65.9375758578
 21
55.3441354241
  0
LINE
  5
344
100
AcDbEntity
  8
0
100
AcDbLine
 62
7
  6
CONTINUOUS
 10
59.9511771918
 20
66.1581195931
 11
62.6763944127
 21
61.794135424
  0
LINE
  5
345
100
AcDbEntity
  8
0
100
AcDbLine
 62
7
  6
CONTINUOUS
 10
66.4671270063
 20
56.5612329249
 11
63.7419097855
 21
60.925217094
  0
LINE
  5
346
100
AcDbEntity
  8
0
100
AcDbLine
 62
7
  6
CONTINUOUS
 10
56.6923583584
 20
72.6081195464
 11
59.4175755792
 21
68.2441353772
  0
LINE
  5
347
100
AcDbEntity
  8
0
100
AcDbLine
 62
7
  6
CONTINUOUS
 10
37.1712218414
 20
104.1581195934
 11
39.8964390623
 21
99.7941354243
  0
LINE
  5
348
100
AcDbEntity
  8
0
100
AcDbLine
 62
7
  6
CONTINUOUS
 10
63.2083083805
 20
63.0112329249
 11
60.4830911596
 21
67.375217094
  0
LINE
  5
349
100
AcDbEntity
  8
0
100
AcDbLine
 62
7
  6
CONTINUOUS
 10
53.4311771278
 20
79.0581195544
 11
56.1563943486
 21
74.6941353853
  0
LINE
  5
34A
100
AcDbEntity
  8
0
100
AcDbLine
 62
7
  6
CONTINUOUS
 10
33.9095907859
 20
110.6081195461
 11
36.6348080067
 21
106.244135377
  0
LINE
  5
34B
100
AcDbEntity
  8
0
100
AcDbLine
 62
7
  6
CONTINUOUS
 10
59.9329798706
 20
69.483887259
 11
57.2219097855
 21
73.8252171325
  0
LINE
  5
34C
100
AcDbEntity
  8
0
100
AcDbLine
 62
7
  6
CONTINUOUS
 10
40.4255407804
 20
101.0112330129
 11
37.7003235652
 21
105.3752170937
  0
LINE
  5
34D
100
AcDbEntity
  8
0
100
AcDbLine
 62
7
  6
CONTINUOUS
 10
50.1723581463
 20
85.5081195305
 11
52.8975753671
 21
81.1441353614
  0
LINE
  5
34E
100
AcDbEntity
  8
0
100
AcDbLine
 62
7
  6
CONTINUOUS
 10
56.6883084571
 20
75.9112329249
 11
53.9630912363
 21
80.275217094
  0
LINE
  5
34F
100
AcDbEntity
  8
0
100
AcDbLine
 62
7
  6
CONTINUOUS
 10
37.1671717645
 20
107.5112330464
 11
34.4419545574
 21
111.8752170937
  0
LINE
  5
350
100
AcDbEntity
  8
0
100
AcDbLine
 62
7
  6
CONTINUOUS
 10
46.9111771278
 20
91.9581195929
 11
49.6363943486
 21
87.5941354238
  0
LINE
  5
351
100
AcDbEntity
  8
0
100
AcDbLine
 62
7
  6
CONTINUOUS
 10
53.4269744385
 20
82.3612329247
 11
50.7017572177
 21
86.7252170938
  0
LINE
  5
352
100
AcDbEntity
  8
0
100
AcDbLine
 62
7
  6
CONTINUOUS
 10
33.9055408079
 20
114.0112329246
 11
31.1803235871
 21
118.3752170937
  0
LINE
  5
353
100
AcDbEntity
  8
0
100
AcDbLine
 62
7
  6
CONTINUOUS
 10
50.1683083162
 20
88.8112329697
 11
47.4430910954
 21
93.1752171388
  0
LINE
  5
354
100
AcDbEntity
  8
0
100
AcDbLine
 62
7
  6
CONTINUOUS
 10
56.5985999465
 20
39.9333370586
 11
56.5985999465
 21
41.4856060167
  0
LINE
  5
355
100
AcDbEntity
  8
0
100
AcDbLine
 62
7
  6
CONTINUOUS
 10
57.6498946298
 20
152.434676259
 11
57.6498946298
 21
116.134676259
  0
LINE
  5
356
100
AcDbEntity
  8
0
100
AcDbLine
 62
7
  6
CONTINUOUS
 10
59.9498750764
 20
43.3170228872
 11
59.9498750764
 21
44.8692918452
  0
LINE
  5
357
100
AcDbEntity
  8
0
100
AcDbLine
 62
7
  6
CONTINUOUS
 10
69.2348080919
 20
105.3752170937
 11
66.5055408079
 21
101.0112329246
  0
LINE
  5
358
100
AcDbEntity
  8
0
100
AcDbLine
 62
7
  6
CONTINUOUS
 10
49.6172050007
 20
73.8252170879
 11
46.8879375499
 21
69.4612330406
  0
LINE
  5
359
100
AcDbEntity
  8
0
100
AcDbLine
 62
7
  6
CONTINUOUS
 10
70.3003235212
 20
106.2441354662
 11
73.0295908006
 21
110.6081194689
  0
LINE
  5
35A
100
AcDbEntity
  8
0
100
AcDbLine
 62
7
  6
CONTINUOUS
 10
50.7019098437
 20
74.6941353853
 11
53.4311771278
 21
79.0581195544
  0
LINE
  5
35B
100
AcDbEntity
  8
0
100
AcDbLine
 62
7
  6
CONTINUOUS
 10
46.3775756451
 20
67.3752170047
 11
43.6483083658
 21
63.011233002
  0
LINE
  5
35C
100
AcDbEntity
  8
0
100
AcDbLine
 62
7
  6
CONTINUOUS
 10
67.0419545574
 20
99.7941354243
 11
69.7712218414
 21
104.1581195934
  0
LINE
  5
35D
100
AcDbEntity
  8
0
100
AcDbLine
 62
7
  6
CONTINUOUS
 10
47.4430910744
 20
68.2441353772
 11
50.1723583584
 21
72.6081195464
  0
LINE
  5
35E
100
AcDbEntity
  8
0
100
AcDbLine
 62
7
  6
CONTINUOUS
 10
43.116394271
 20
60.9252170047
 11
40.3871269917
 21
56.5612330021
  0
LINE
  5
35F
100
AcDbEntity
  8
0
100
AcDbLine
 62
7
  6
CONTINUOUS
 10
44.1819099078
 20
61.794135424
 11
46.9111771918
 21
66.1581195931
  0
LINE
  5
360
100
AcDbEntity
  8
0
100
AcDbLine
 62
7
  6
CONTINUOUS
 10
40.9230913529
 20
55.3441354241
 11
43.652358637
 21
59.7081195932
  0
LINE
  5
361
100
AcDbEntity
  8
0
100
AcDbLine
 62
7
  6
CONTINUOUS
 10
65.9375756003
 20
93.1752171388
 11
63.2083083162
 21
88.8112329697
  0
LINE
  5
362
100
AcDbEntity
  8
0
100
AcDbLine
 62
7
  6
CONTINUOUS
 10
62.6762417226
 20
86.7252170938
 11
59.9469744385
 21
82.3612329247
  0
LINE
  5
363
100
AcDbEntity
  8
0
100
AcDbLine
 62
7
  6
CONTINUOUS
 10
63.7419098437
 20
87.5941354238
 11
66.4711771278
 21
91.9581195929
  0
LINE
  5
364
100
AcDbEntity
  8
0
100
AcDbLine
 62
7
  6
CONTINUOUS
 10
79.0164390573
 20
111.8752171384
 11
76.2871717732
 21
107.5112329692
  0
LINE
  5
365
100
AcDbEntity
  8
0
100
AcDbLine
 62
7
  6
CONTINUOUS
 10
59.4175757412
 20
80.275217094
 11
56.6883084571
 21
75.9112329249
  0
LINE
  5
366
100
AcDbEntity
  8
0
100
AcDbLine
 62
7
  6
CONTINUOUS
 10
40.9230912169
 20
80.275217094
 11
46.3775757218
 21
80.2752170047
  0
LINE
  5
367
100
AcDbEntity
  8
0
100
AcDbLine
 62
7
  6
CONTINUOUS
 10
47.4430912727
 20
80.275217094
 11
52.8975757776
 21
80.2752170047
  0
LINE
  5
368
100
AcDbEntity
  8
0
100
AcDbLine
 62
7
  6
CONTINUOUS
 10
34.4030912363
 20
80.275217094
 11
39.8575757412
 21
80.275217094
  0
LINE
  5
369
100
AcDbEntity
  8
0
100
AcDbLine
 62
7
  6
CONTINUOUS
 10
53.9630912363
 20
80.275217094
 11
59.4175757412
 21
80.275217094
  0
LINE
  5
36A
100
AcDbEntity
  8
0
100
AcDbLine
 62
7
  6
CONTINUOUS
 10
60.4830912363
 20
80.275217094
 11
65.9375757412
 21
80.275217094
  0
LINE
  5
36B
100
AcDbEntity
  8
0
100
AcDbLine
 62
7
  6
CONTINUOUS
 10
67.0030912363
 20
80.275217094
 11
72.4575757412
 21
80.275217094
  0
LINE
  5
36C
100
AcDbEntity
  8
0
100
AcDbLine
 62
7
  6
CONTINUOUS
 10
73.5230912363
 20
80.275217094
 11
78.9775757412
 21
80.275217094
  0
LINE
  5
36D
100
AcDbEntity
  8
0
100
AcDbLine
 62
7
  6
CONTINUOUS
 10
80.0430912363
 20
80.275217094
 11
85.4975757412
 21
80.275217094
  0
LINE
  5
36E
100
AcDbEntity
  8
0
100
AcDbLine
 62
7
  6
CONTINUOUS
 10
85.4975753671
 20
81.1441353614
 11
80.0430908623
 21
81.1441353614
  0
LINE
  5
36F
100
AcDbEntity
  8
0
100
AcDbLine
 62
7
  6
CONTINUOUS
 10
65.9375753671
 20
81.1441353614
 11
60.4830908623
 21
81.1441353614
  0
LINE
  5
370
100
AcDbEntity
  8
0
100
AcDbLine
 62
7
  6
CONTINUOUS
 10
59.4175753671
 20
81.1441353614
 11
53.9630908623
 21
81.1441353614
  0
LINE
  5
371
100
AcDbEntity
  8
0
100
AcDbLine
 62
7
  6
CONTINUOUS
 10
52.8975753671
 20
81.1441353614
 11
47.4430908623
 21
81.1441353614
  0
LINE
  5
372
100
AcDbEntity
  8
0
100
AcDbLine
 62
7
  6
CONTINUOUS
 10
46.3775753671
 20
81.1441353614
 11
40.9230908623
 21
81.1441353614
  0
LINE
  5
373
100
AcDbEntity
  8
0
100
AcDbLine
 62
7
  6
CONTINUOUS
 10
39.8575753671
 20
81.1441353614
 11
34.4030908623
 21
81.1441353614
  0
LINE
  5
374
100
AcDbEntity
  8
0
100
AcDbLine
 62
7
  6
CONTINUOUS
 10
72.4575753307
 20
81.1441353614
 11
67.0030908259
 21
81.1441354507
  0
LINE
  5
375
100
AcDbEntity
  8
0
100
AcDbLine
 62
7
  6
CONTINUOUS
 10
78.9775753865
 20
81.1441353614
 11
73.5230908817
 21
81.1441354507
  0
LINE
  5
376
100
AcDbEntity
  8
0
100
AcDbLine
 62
7
  6
CONTINUOUS
 10
69.732358637
 20
59.7081195932
 11
72.4575758578
 21
55.3441354241
  0
LINE
  5
377
100
AcDbEntity
  8
0
100
AcDbLine
 62
7
  6
CONTINUOUS
 10
66.4711771918
 20
66.1581195931
 11
69.1963944127
 21
61.794135424
  0
LINE
  5
378
100
AcDbEntity
  8
0
100
AcDbLine
 62
7
  6
CONTINUOUS
 10
72.9871270063
 20
56.5612329249
 11
70.2619097855
 21
60.925217094
  0
LINE
  5
379
100
AcDbEntity
  8
0
100
AcDbLine
 62
7
  6
CONTINUOUS
 10
63.2123583584
 20
72.6081195464
 11
65.9375755792
 21
68.2441353772
  0
LINE
  5
37A
100
AcDbEntity
  8
0
100
AcDbLine
 62
7
  6
CONTINUOUS
 10
43.6912218414
 20
104.1581195934
 11
46.4164390623
 21
99.7941354243
  0
LINE
  5
37B
100
AcDbEntity
  8
0
100
AcDbLine
 62
7
  6
CONTINUOUS
 10
69.7283083805
 20
63.0112329249
 11
67.0030911596
 21
67.375217094
  0
LINE
  5
37C
100
AcDbEntity
  8
0
100
AcDbLine
 62
7
  6
CONTINUOUS
 10
59.9652128212
 20
79.0356437152
 11
62.6763943486
 21
74.6941353853
  0
LINE
  5
37D
100
AcDbEntity
  8
0
100
AcDbLine
 62
7
  6
CONTINUOUS
 10
40.4295907859
 20
110.6081195461
 11
43.1548080067
 21
106.244135377
  0
LINE
  5
37E
100
AcDbEntity
  8
0
100
AcDbLine
 62
7
  6
CONTINUOUS
 10
66.4671270063
 20
69.4612329634
 11
63.7419097855
 21
73.8252171325
  0
LINE
  5
37F
100
AcDbEntity
  8
0
100
AcDbLine
 62
7
  6
CONTINUOUS
 10
46.945540684
 20
101.0112330129
 11
44.220323621
 21
105.3752170937
  0
LINE
  5
380
100
AcDbEntity
  8
0
100
AcDbLine
 62
7
  6
CONTINUOUS
 10
56.6923581463
 20
85.5081195305
 11
59.4175753671
 21
81.1441353614
  0
LINE
  5
381
100
AcDbEntity
  8
0
100
AcDbLine
 62
7
  6
CONTINUOUS
 10
37.1712218414
 20
117.1581195934
 11
39.8964390623
 21
112.7941354243
  0
LINE
  5
382
100
AcDbEntity
  8
0
100
AcDbLine
 62
7
  6
CONTINUOUS
 10
63.2083084571
 20
75.9112329249
 11
60.4830912363
 21
80.275217094
  0
LINE
  5
383
100
AcDbEntity
  8
0
100
AcDbLine
 62
7
  6
CONTINUOUS
 10
43.6871716681
 20
107.5112330464
 11
40.9619546132
 21
111.8752170937
  0
LINE
  5
384
100
AcDbEntity
  8
0
100
AcDbLine
 62
7
  6
CONTINUOUS
 10
53.4311771278
 20
91.9581195929
 11
56.1563943486
 21
87.5941354238
  0
LINE
  5
385
100
AcDbEntity
  8
0
100
AcDbLine
 62
7
  6
CONTINUOUS
 10
33.9095907859
 20
123.6081195461
 11
36.6348080067
 21
119.244135377
  0
LINE
  5
386
100
AcDbEntity
  8
0
100
AcDbLine
 62
7
  6
CONTINUOUS
 10
59.9469744385
 20
82.3612329247
 11
57.2217572177
 21
86.7252170938
  0
LINE
  5
387
100
AcDbEntity
  8
0
100
AcDbLine
 62
7
  6
CONTINUOUS
 10
40.4255407804
 20
114.0112330129
 11
37.7003235652
 21
118.3752170937
  0
LINE
  5
388
100
AcDbEntity
  8
0
100
AcDbLine
 62
7
  6
CONTINUOUS
 10
63.3012907032
 20
39.9333370586
 11
63.3012907032
 21
41.4856060167
  0
LINE
  5
389
100
AcDbEntity
  8
0
100
AcDbLine
 62
7
  6
CONTINUOUS
 10
60.4830908623
 20
81.1441353614
 11
63.2123581463
 21
85.5081195305
  0
LINE
  5
38A
100
AcDbEntity
  8
0
100
AcDbLine
 62
7
  6
CONTINUOUS
 10
75.7548080919
 20
105.3752170937
 11
73.0255408079
 21
101.0112329246
  0
LINE
  5
38B
100
AcDbEntity
  8
0
100
AcDbLine
 62
7
  6
CONTINUOUS
 10
56.1372049579
 20
73.8252171325
 11
53.4079376738
 21
69.4612329634
  0
LINE
  5
38C
100
AcDbEntity
  8
0
100
AcDbLine
 62
7
  6
CONTINUOUS
 10
76.8203235018
 20
106.244135377
 11
79.5495907859
 21
110.6081195461
  0
LINE
  5
38D
100
AcDbEntity
  8
0
100
AcDbLine
 62
7
  6
CONTINUOUS
 10
52.8975757009
 20
67.3752170047
 11
50.1683082694
 21
63.011233002
  0
LINE
  5
38E
100
AcDbEntity
  8
0
100
AcDbLine
 62
7
  6
CONTINUOUS
 10
73.5619544966
 20
99.7941354689
 11
76.2912219465
 21
104.1581195162
  0
LINE
  5
38F
100
AcDbEntity
  8
0
100
AcDbLine
 62
7
  6
CONTINUOUS
 10
53.9630910744
 20
68.2441353772
 11
56.6923583584
 21
72.6081195464
  0
LINE
  5
390
100
AcDbEntity
  8
0
100
AcDbLine
 62
7
  6
CONTINUOUS
 10
49.6363943268
 20
60.9252170047
 11
46.9071268953
 21
56.5612330021
  0
LINE
  5
391
100
AcDbEntity
  8
0
100
AcDbLine
 62
7
  6
CONTINUOUS
 10
50.7019099078
 20
61.794135424
 11
53.4311771918
 21
66.1581195931
  0
LINE
  5
392
100
AcDbEntity
  8
0
100
AcDbLine
 62
7
  6
CONTINUOUS
 10
47.4430913529
 20
55.3441354241
 11
50.172358637
 21
59.7081195932
  0
LINE
  5
393
100
AcDbEntity
  8
0
100
AcDbLine
 62
7
  6
CONTINUOUS
 10
72.4575756003
 20
93.1752171388
 11
69.7283083162
 21
88.8112329696
  0
LINE
  5
394
100
AcDbEntity
  8
0
100
AcDbLine
 62
7
  6
CONTINUOUS
 10
69.1962417226
 20
86.7252170938
 11
66.4669744385
 21
82.3612329247
  0
LINE
  5
395
100
AcDbEntity
  8
0
100
AcDbLine
 62
7
  6
CONTINUOUS
 10
70.2619098073
 20
87.5941355131
 11
72.9911772389
 21
91.9581195157
  0
LINE
  5
396
100
AcDbEntity
  8
0
100
AcDbLine
 62
7
  6
CONTINUOUS
 10
57.2219098437
 20
74.6941353853
 11
59.9652128212
 21
79.0356437152
  0
LINE
  5
397
100
AcDbEntity
  8
0
100
AcDbLine
 62
7
  6
CONTINUOUS
 10
31.1417572177
 20
86.7252170938
 11
36.5962417226
 21
86.7252170938
  0
LINE
  5
398
100
AcDbEntity
  8
0
100
AcDbLine
 62
7
  6
CONTINUOUS
 10
37.6617572227
 20
86.7252170492
 11
43.1162417276
 21
86.7252170492
  0
LINE
  5
399
100
AcDbEntity
  8
0
100
AcDbLine
 62
7
  6
CONTINUOUS
 10
44.1817572785
 20
86.7252170492
 11
49.6362417834
 21
86.7252170492
  0
LINE
  5
39A
100
AcDbEntity
  8
0
100
AcDbLine
 62
7
  6
CONTINUOUS
 10
50.7017572177
 20
86.7252170938
 11
56.1562417226
 21
86.7252170938
  0
LINE
  5
39B
100
AcDbEntity
  8
0
100
AcDbLine
 62
7
  6
CONTINUOUS
 10
57.2217572177
 20
86.7252170938
 11
62.6762417226
 21
86.7252170938
  0
LINE
  5
39C
100
AcDbEntity
  8
0
100
AcDbLine
 62
7
  6
CONTINUOUS
 10
63.7417572177
 20
86.7252170938
 11
69.1962417226
 21
86.7252170938
  0
LINE
  5
39D
100
AcDbEntity
  8
0
100
AcDbLine
 62
7
  6
CONTINUOUS
 10
70.2617572177
 20
86.7252170938
 11
75.7162417226
 21
86.7252170938
  0
LINE
  5
39E
100
AcDbEntity
  8
0
100
AcDbLine
 62
7
  6
CONTINUOUS
 10
76.7817572177
 20
86.7252170938
 11
82.2362417226
 21
86.7252170938
  0
LINE
  5
39F
100
AcDbEntity
  8
0
100
AcDbLine
 62
7
  6
CONTINUOUS
 10
83.3017572177
 20
86.7252170938
 11
88.7562417226
 21
86.7252170938
  0
LINE
  5
3A0
100
AcDbEntity
  8
0
100
AcDbLine
 62
7
  6
CONTINUOUS
 10
88.7563943486
 20
87.5941354238
 11
83.3019098437
 21
87.5941354238
  0
LINE
  5
3A1
100
AcDbEntity
  8
0
100
AcDbLine
 62
7
  6
CONTINUOUS
 10
75.7163943122
 20
87.5941354238
 11
70.2619098073
 21
87.5941355131
  0
LINE
  5
3A2
100
AcDbEntity
  8
0
100
AcDbLine
 62
7
  6
CONTINUOUS
 10
69.1963943486
 20
87.5941354238
 11
63.7419098437
 21
87.5941354238
  0
LINE
  5
3A3
100
AcDbEntity
  8
0
100
AcDbLine
 62
7
  6
CONTINUOUS
 10
62.6763943486
 20
87.5941354238
 11
57.2219098437
 21
87.5941354238
  0
LINE
  5
3A4
100
AcDbEntity
  8
0
100
AcDbLine
 62
7
  6
CONTINUOUS
 10
56.1563943486
 20
87.5941354238
 11
50.7019098437
 21
87.5941354238
  0
LINE
  5
3A5
100
AcDbEntity
  8
0
100
AcDbLine
 62
7
  6
CONTINUOUS
 10
49.6363943486
 20
87.5941354238
 11
44.1819098437
 21
87.5941354238
  0
LINE
  5
3A6
100
AcDbEntity
  8
0
100
AcDbLine
 62
7
  6
CONTINUOUS
 10
43.1163943486
 20
87.5941354238
 11
37.6619098437
 21
87.5941354238
  0
LINE
  5
3A7
100
AcDbEntity
  8
0
100
AcDbLine
 62
7
  6
CONTINUOUS
 10
36.5963943486
 20
87.5941354238
 11
31.1419098437
 21
87.5941354238
  0
LINE
  5
3A8
100
AcDbEntity
  8
0
100
AcDbLine
 62
7
  6
CONTINUOUS
 10
82.236394368
 20
87.5941354238
 11
76.7819098631
 21
87.5941355131
  0
LINE
  5
3A9
100
AcDbEntity
  8
0
100
AcDbLine
 62
7
  6
CONTINUOUS
 10
56.6883083162
 20
88.8112329697
 11
53.9630910954
 21
93.1752171388
  0
LINE
  5
3AA
100
AcDbEntity
  8
0
100
AcDbLine
 62
7
  6
CONTINUOUS
 10
37.1671717645
 20
120.5112330464
 11
34.4419545574
 21
124.8752170937
  0
LINE
  5
3AB
100
AcDbEntity
  8
0
100
AcDbLine
 62
7
  6
CONTINUOUS
 10
76.252358742
 20
59.708119516
 11
78.977575797
 21
55.3441354687
  0
LINE
  5
3AC
100
AcDbEntity
  8
0
100
AcDbLine
 62
7
  6
CONTINUOUS
 10
72.9911772969
 20
66.1581195159
 11
75.7163943518
 21
61.7941354686
  0
LINE
  5
3AD
100
AcDbEntity
  8
0
100
AcDbLine
 62
7
  6
CONTINUOUS
 10
79.5071270063
 20
56.5612329249
 11
76.7819097855
 21
60.925217094
  0
LINE
  5
3AE
100
AcDbEntity
  8
0
100
AcDbLine
 62
7
  6
CONTINUOUS
 10
69.7323584695
 20
72.6081194692
 11
72.4575755428
 21
68.2441353772
  0
LINE
  5
3AF
100
AcDbEntity
  8
0
100
AcDbLine
 62
7
  6
CONTINUOUS
 10
50.2112218414
 20
104.1581195934
 11
52.9364390623
 21
99.7941354243
  0
LINE
  5
3B0
100
AcDbEntity
  8
0
100
AcDbLine
 62
7
  6
CONTINUOUS
 10
76.2483083804
 20
63.0112329249
 11
73.5230911596
 21
67.375217094
  0
LINE
  5
3B1
100
AcDbEntity
  8
0
100
AcDbLine
 62
7
  6
CONTINUOUS
 10
66.4902139565
 20
79.0581195544
 11
69.2154311774
 21
74.6941353853
  0
LINE
  5
3B2
100
AcDbEntity
  8
0
100
AcDbLine
 62
7
  6
CONTINUOUS
 10
46.9495907859
 20
110.6081195461
 11
49.6748080067
 21
106.244135377
  0
LINE
  5
3B3
100
AcDbEntity
  8
0
100
AcDbLine
 62
7
  6
CONTINUOUS
 10
72.9871270063
 20
69.4612329634
 11
70.2619097855
 21
73.8252171325
  0
LINE
  5
3B4
100
AcDbEntity
  8
0
100
AcDbLine
 62
7
  6
CONTINUOUS
 10
53.4655408079
 20
101.0112329246
 11
50.7403235871
 21
105.3752170937
  0
LINE
  5
3B5
100
AcDbEntity
  8
0
100
AcDbLine
 62
7
  6
CONTINUOUS
 10
63.2123581463
 20
85.5081195305
 11
65.9375753671
 21
81.1441353614
  0
LINE
  5
3B6
100
AcDbEntity
  8
0
100
AcDbLine
 62
7
  6
CONTINUOUS
 10
43.6912218414
 20
117.1581195934
 11
46.4164390623
 21
112.7941354243
  0
LINE
  5
3B7
100
AcDbEntity
  8
0
100
AcDbLine
 62
7
  6
CONTINUOUS
 10
69.7283084571
 20
75.9112329249
 11
67.0030912363
 21
80.275217094
  0
LINE
  5
3B8
100
AcDbEntity
  8
0
100
AcDbLine
 62
7
  6
CONTINUOUS
 10
50.2071717732
 20
107.5112329692
 11
47.4819545524
 21
111.8752171384
  0
LINE
  5
3B9
100
AcDbEntity
  8
0
100
AcDbLine
 62
7
  6
CONTINUOUS
 10
59.9511771278
 20
91.9581195929
 11
62.6763943486
 21
87.5941354238
  0
LINE
  5
3BA
100
AcDbEntity
  8
0
100
AcDbLine
 62
7
  6
CONTINUOUS
 10
40.4295907859
 20
123.6081195461
 11
43.1548080067
 21
119.244135377
  0
LINE
  5
3BB
100
AcDbEntity
  8
0
100
AcDbLine
 62
7
  6
CONTINUOUS
 10
66.4669744385
 20
82.3612329247
 11
63.7417572177
 21
86.7252170938
  0
LINE
  5
3BC
100
AcDbEntity
  8
0
100
AcDbLine
 62
7
  6
CONTINUOUS
 10
66.6525658331
 20
43.3170228872
 11
66.6525658331
 21
44.8692918452
  0
LINE
  5
3BD
100
AcDbEntity
  8
0
100
AcDbLine
 62
7
  6
CONTINUOUS
 10
68.2298946298
 20
30.334676259
 11
68.2298946298
 21
28.934676259
  0
LINE
  5
3BE
100
AcDbEntity
  8
0
100
AcDbLine
 62
7
  6
CONTINUOUS
 10
69.5640203484
 20
28.934676259
 11
69.5640203484
 21
30.334676259
  0
LINE
  5
3BF
100
AcDbEntity
  8
0
100
AcDbLine
 62
7
  6
CONTINUOUS
 10
70.0012907032
 20
39.9333370586
 11
70.0012907032
 21
41.4856060167
  0
LINE
  5
3C0
100
AcDbEntity
  8
0
100
AcDbLine
 62
7
  6
CONTINUOUS
 10
85.5364390573
 20
111.8752171384
 11
82.8071717732
 21
107.5112329692
  0
LINE
  5
3C1
100
AcDbEntity
  8
0
100
AcDbLine
 62
7
  6
CONTINUOUS
 10
65.9375757412
 20
80.275217094
 11
63.2083084571
 21
75.9112329249
  0
LINE
  5
3C2
100
AcDbEntity
  8
0
100
AcDbLine
 62
7
  6
CONTINUOUS
 10
67.0030908259
 20
81.1441354507
 11
69.7323582574
 21
85.5081194534
  0
LINE
  5
3C3
100
AcDbEntity
  8
0
100
AcDbLine
 62
7
  6
CONTINUOUS
 10
82.2748080919
 20
105.3752170937
 11
79.5455408079
 21
101.0112329246
  0
LINE
  5
3C4
100
AcDbEntity
  8
0
100
AcDbLine
 62
7
  6
CONTINUOUS
 10
83.3403235018
 20
106.244135377
 11
86.0695907859
 21
110.6081195461
  0
LINE
  5
3C5
100
AcDbEntity
  8
0
100
AcDbLine
 62
7
  6
CONTINUOUS
 10
63.7609466725
 20
74.6941353853
 11
66.4902139565
 21
79.0581195544
  0
LINE
  5
3C6
100
AcDbEntity
  8
0
100
AcDbLine
 62
7
  6
CONTINUOUS
 10
59.4175756645
 20
67.375217094
 11
56.6883083805
 21
63.0112329249
  0
LINE
  5
3C7
100
AcDbEntity
  8
0
100
AcDbLine
 62
7
  6
CONTINUOUS
 10
80.0819545524
 20
99.7941354689
 11
82.8112218501
 21
104.1581195162
  0
LINE
  5
3C8
100
AcDbEntity
  8
0
100
AcDbLine
 62
7
  6
CONTINUOUS
 10
60.4830910744
 20
68.2441353772
 11
63.2123583584
 21
72.6081195464
  0
LINE
  5
3C9
100
AcDbEntity
  8
0
100
AcDbLine
 62
7
  6
CONTINUOUS
 10
56.1563942904
 20
60.925217094
 11
53.4271270063
 21
56.5612329249
  0
LINE
  5
3CA
100
AcDbEntity
  8
0
100
AcDbLine
 62
7
  6
CONTINUOUS
 10
57.2219099078
 20
61.794135424
 11
59.9511771918
 21
66.1581195931
  0
LINE
  5
3CB
100
AcDbEntity
  8
0
100
AcDbLine
 62
7
  6
CONTINUOUS
 10
53.9630913529
 20
55.3441354241
 11
56.692358637
 21
59.7081195932
  0
LINE
  5
3CC
100
AcDbEntity
  8
0
100
AcDbLine
 62
7
  6
CONTINUOUS
 10
78.9775756003
 20
93.1752171388
 11
76.2483083162
 21
88.8112329696
  0
LINE
  5
3CD
100
AcDbEntity
  8
0
100
AcDbLine
 62
7
  6
CONTINUOUS
 10
75.7162417226
 20
86.7252170938
 11
72.9869744385
 21
82.3612329247
  0
LINE
  5
3CE
100
AcDbEntity
  8
0
100
AcDbLine
 62
7
  6
CONTINUOUS
 10
62.6763942904
 20
73.8252171325
 11
59.9329798706
 21
69.483887259
  0
LINE
  5
3CF
100
AcDbEntity
  8
0
100
AcDbLine
 62
7
  6
CONTINUOUS
 10
46.945540684
 20
114.0112330129
 11
44.220323621
 21
118.3752170937
  0
LINE
  5
3D0
100
AcDbEntity
  8
0
100
AcDbLine
 62
7
  6
CONTINUOUS
 10
63.2083083162
 20
88.8112329697
 11
60.4830910954
 21
93.1752171388
  0
LINE
  5
3D1
100
AcDbEntity
  8
0
100
AcDbLine
 62
7
  6
CONTINUOUS
 10
43.6871716681
 20
120.5112330464
 11
40.9619546132
 21
124.8752170937
  0
LINE
  5
3D2
100
AcDbEntity
  8
0
100
AcDbLine
 62
7
  6
CONTINUOUS
 10
82.7723586456
 20
59.708119516
 11
85.4975758528
 21
55.3441354687
  0
LINE
  5
3D3
100
AcDbEntity
  8
0
100
AcDbLine
 62
7
  6
CONTINUOUS
 10
79.5111772005
 20
66.1581195159
 11
82.2363944076
 21
61.7941354686
  0
LINE
  5
3D4
100
AcDbEntity
  8
0
100
AcDbLine
 62
7
  6
CONTINUOUS
 10
86.0271270063
 20
56.5612329249
 11
83.3019097855
 21
60.925217094
  0
LINE
  5
3D5
100
AcDbEntity
  8
0
100
AcDbLine
 62
7
  6
CONTINUOUS
 10
76.2523583731
 20
72.6081194692
 11
78.9775755986
 21
68.2441353772
  0
LINE
  5
3D6
100
AcDbEntity
  8
0
100
AcDbLine
 62
7
  6
CONTINUOUS
 10
56.7312218414
 20
104.1581195934
 11
59.4564390623
 21
99.7941354243
  0
LINE
  5
3D7
100
AcDbEntity
  8
0
100
AcDbLine
 62
7
  6
CONTINUOUS
 10
82.7683083804
 20
63.0112329249
 11
80.0430911596
 21
67.375217094
  0
LINE
  5
3D8
100
AcDbEntity
  8
0
100
AcDbLine
 62
7
  6
CONTINUOUS
 10
73.0102140805
 20
79.0581194772
 11
75.7354311345
 21
74.6941354299
  0
LINE
  5
3D9
100
AcDbEntity
  8
0
100
AcDbLine
 62
7
  6
CONTINUOUS
 10
53.4695907859
 20
110.6081195461
 11
56.1948080067
 21
106.244135377
  0
LINE
  5
3DA
100
AcDbEntity
  8
0
100
AcDbLine
 62
7
  6
CONTINUOUS
 10
79.5071270063
 20
69.4612329634
 11
76.7819097855
 21
73.8252171325
  0
LINE
  5
3DB
100
AcDbEntity
  8
0
100
AcDbLine
 62
7
  6
CONTINUOUS
 10
59.9855408079
 20
101.0112329246
 11
57.2603235871
 21
105.3752170937
  0
LINE
  5
3DC
100
AcDbEntity
  8
0
100
AcDbLine
 62
7
  6
CONTINUOUS
 10
69.7323582574
 20
85.5081194534
 11
72.4575753307
 21
81.1441353614
  0
LINE
  5
3DD
100
AcDbEntity
  8
0
100
AcDbLine
 62
7
  6
CONTINUOUS
 10
76.2483084571
 20
75.9112329249
 11
73.5230912363
 21
80.275217094
  0
LINE
  5
3DE
100
AcDbEntity
  8
0
100
AcDbLine
 62
7
  6
CONTINUOUS
 10
56.7271717732
 20
107.5112329692
 11
54.0019545524
 21
111.8752171384
  0
LINE
  5
3DF
100
AcDbEntity
  8
0
100
AcDbLine
 62
7
  6
CONTINUOUS
 10
66.4711771278
 20
91.9581195929
 11
69.1963943486
 21
87.5941354238
  0
LINE
  5
3E0
100
AcDbEntity
  8
0
100
AcDbLine
 62
7
  6
CONTINUOUS
 10
46.9495907859
 20
123.6081195461
 11
49.6748080067
 21
119.244135377
  0
LINE
  5
3E1
100
AcDbEntity
  8
0
100
AcDbLine
 62
7
  6
CONTINUOUS
 10
72.9640203483
 20
30.334676259
 11
72.9640203483
 21
28.934676259
  0
LINE
  5
3E2
100
AcDbEntity
  8
0
100
AcDbLine
 62
7
  6
CONTINUOUS
 10
73.3525658331
 20
43.3170228872
 11
73.3525658331
 21
44.8692918452
  0
LINE
  5
3E3
100
AcDbEntity
  8
0
100
AcDbLine
 62
7
  6
CONTINUOUS
 10
74.4998946298
 20
21.434676259
 11
74.4998946298
 21
14.234676259
  0
LINE
  5
3E4
100
AcDbEntity
  8
0
100
AcDbLine
 62
7
  6
CONTINUOUS
 10
74.7598946298
 20
21.694676259
 11
74.7598946298
 21
28.934676259
  0
LINE
  5
3E5
100
AcDbEntity
  8
0
100
AcDbLine
 62
7
  6
CONTINUOUS
 10
75.2298946298
 20
28.934676259
 11
75.2298946298
 21
30.334676259
  0
LINE
  5
3E6
100
AcDbEntity
  8
0
100
AcDbLine
 62
7
  6
CONTINUOUS
 10
76.7819098631
 20
87.5941355131
 11
79.5111771425
 21
91.9581195157
  0
LINE
  5
3E7
100
AcDbEntity
  8
0
100
AcDbLine
 62
7
  6
CONTINUOUS
 10
72.4575757412
 20
80.275217094
 11
69.7283084571
 21
75.9112329249
  0
LINE
  5
3E8
100
AcDbEntity
  8
0
100
AcDbLine
 62
7
  6
CONTINUOUS
 10
73.5230908817
 20
81.1441354507
 11
76.252358161
 21
85.5081194534
  0
LINE
  5
3E9
100
AcDbEntity
  8
0
100
AcDbLine
 62
7
  6
CONTINUOUS
 10
88.7948080919
 20
105.3752170937
 11
86.0655408079
 21
101.0112329246
  0
LINE
  5
3EA
100
AcDbEntity
  8
0
100
AcDbLine
 62
7
  6
CONTINUOUS
 10
69.1963942904
 20
73.8252171325
 11
66.4671270063
 21
69.4612329634
  0
LINE
  5
3EB
100
AcDbEntity
  8
0
100
AcDbLine
 62
7
  6
CONTINUOUS
 10
70.2809466297
 20
74.6941354299
 11
73.0102140805
 21
79.0581194772
  0
LINE
  5
3EC
100
AcDbEntity
  8
0
100
AcDbLine
 62
7
  6
CONTINUOUS
 10
65.9375756645
 20
67.375217094
 11
63.2083083805
 21
63.0112329249
  0
LINE
  5
3ED
100
AcDbEntity
  8
0
100
AcDbLine
 62
7
  6
CONTINUOUS
 10
67.003091038
 20
68.2441354665
 11
69.7323584695
 21
72.6081194692
  0
LINE
  5
3EE
100
AcDbEntity
  8
0
100
AcDbLine
 62
7
  6
CONTINUOUS
 10
62.6763942904
 20
60.925217094
 11
59.9471270063
 21
56.5612329249
  0
LINE
  5
3EF
100
AcDbEntity
  8
0
100
AcDbLine
 62
7
  6
CONTINUOUS
 10
63.7419099078
 20
61.794135424
 11
66.4711771918
 21
66.1581195931
  0
LINE
  5
3F0
100
AcDbEntity
  8
0
100
AcDbLine
 62
7
  6
CONTINUOUS
 10
60.4830913529
 20
55.3441354241
 11
63.212358637
 21
59.7081195932
  0
LINE
  5
3F1
100
AcDbEntity
  8
0
100
AcDbLine
 62
7
  6
CONTINUOUS
 10
85.4975756003
 20
93.1752171388
 11
82.7683083162
 21
88.8112329696
  0
LINE
  5
3F2
100
AcDbEntity
  8
0
100
AcDbLine
 62
7
  6
CONTINUOUS
 10
39.8498750764
 20
44.8692918452
 11
40.4978057691
 21
45.4297030986
  0
LINE
  5
3F3
100
AcDbEntity
  8
0
100
AcDbLine
 62
7
  6
CONTINUOUS
 10
34.4030911004
 20
93.1752170941
 11
39.8575756053
 21
93.1752170941
  0
LINE
  5
3F4
100
AcDbEntity
  8
0
100
AcDbLine
 62
7
  6
CONTINUOUS
 10
40.9230911562
 20
93.1752170941
 11
46.3775756611
 21
93.1752170941
  0
LINE
  5
3F5
100
AcDbEntity
  8
0
100
AcDbLine
 62
7
  6
CONTINUOUS
 10
47.4430910954
 20
93.1752171388
 11
52.8975756003
 21
93.1752171388
  0
LINE
  5
3F6
100
AcDbEntity
  8
0
100
AcDbLine
 62
7
  6
CONTINUOUS
 10
53.9630910954
 20
93.1752171388
 11
59.4175756003
 21
93.1752171388
  0
LINE
  5
3F7
100
AcDbEntity
  8
0
100
AcDbLine
 62
7
  6
CONTINUOUS
 10
60.4830910954
 20
93.1752171388
 11
65.9375756003
 21
93.1752171388
  0
LINE
  5
3F8
100
AcDbEntity
  8
0
100
AcDbLine
 62
7
  6
CONTINUOUS
 10
67.0030910954
 20
93.1752171388
 11
72.4575756003
 21
93.1752171388
  0
LINE
  5
3F9
100
AcDbEntity
  8
0
100
AcDbLine
 62
7
  6
CONTINUOUS
 10
73.5230910954
 20
93.1752171388
 11
78.9775756003
 21
93.1752171388
  0
LINE
  5
3FA
100
AcDbEntity
  8
0
100
AcDbLine
 62
7
  6
CONTINUOUS
 10
80.0430910954
 20
93.1752171388
 11
85.4975756003
 21
93.1752171388
  0
LINE
  5
3FB
100
AcDbEntity
  8
0
100
AcDbLine
 62
7
  6
CONTINUOUS
 10
35.2283494681
 20
135.2378462101
 11
32.9134391444
 21
138.1336319838
  0
LINE
  5
3FC
100
AcDbEntity
  8
0
100
AcDbLine
 62
7
  6
CONTINUOUS
 10
72.9869744385
 20
82.3612329247
 11
70.2617572177
 21
86.7252170938
  0
LINE
  5
3FD
100
AcDbEntity
  8
0
100
AcDbLine
 62
7
  6
CONTINUOUS
 10
69.7283083162
 20
88.8112329696
 11
67.0030910954
 21
93.1752171388
  0
LINE
  5
3FE
100
AcDbEntity
  8
0
100
AcDbLine
 62
7
  6
CONTINUOUS
 10
86.0311771918
 20
66.1581195931
 11
88.7563944126
 21
61.794135424
  0
LINE
  5
3FF
100
AcDbEntity
  8
0
100
AcDbLine
 62
7
  6
CONTINUOUS
 10
82.7723583584
 20
72.6081195464
 11
85.4975755792
 21
68.2441353772
  0
LINE
  5
400
100
AcDbEntity
  8
0
100
AcDbLine
 62
7
  6
CONTINUOUS
 10
63.2512218414
 20
104.1581195934
 11
65.9764390623
 21
99.7941354243
  0
LINE
  5
401
100
AcDbEntity
  8
0
100
AcDbLine
 62
7
  6
CONTINUOUS
 10
79.5111771553
 20
79.0581194772
 11
82.2363943616
 21
74.6941354299
  0
LINE
  5
402
100
AcDbEntity
  8
0
100
AcDbLine
 62
7
  6
CONTINUOUS
 10
59.9895907859
 20
110.6081195461
 11
62.7148080067
 21
106.244135377
  0
LINE
  5
403
100
AcDbEntity
  8
0
100
AcDbLine
 62
7
  6
CONTINUOUS
 10
86.0271270063
 20
69.4612329634
 11
83.3019097855
 21
73.8252171325
  0
LINE
  5
404
100
AcDbEntity
  8
0
100
AcDbLine
 62
7
  6
CONTINUOUS
 10
66.5055408079
 20
101.0112329246
 11
63.7803235871
 21
105.3752170937
  0
LINE
  5
405
100
AcDbEntity
  8
0
100
AcDbLine
 62
7
  6
CONTINUOUS
 10
76.252358161
 20
85.5081194534
 11
78.9775753865
 21
81.1441353614
  0
LINE
  5
406
100
AcDbEntity
  8
0
100
AcDbLine
 62
7
  6
CONTINUOUS
 10
82.7683084571
 20
75.9112329249
 11
80.0430912363
 21
80.275217094
  0
LINE
  5
407
100
AcDbEntity
  8
0
100
AcDbLine
 62
7
  6
CONTINUOUS
 10
76.7039814599
 20
39.9333370586
 11
76.7039814599
 21
41.4856060167
  0
LINE
  5
408
100
AcDbEntity
  8
0
100
AcDbLine
 62
7
  6
CONTINUOUS
 10
77.7398946298
 20
21.694676259
 11
77.7398946298
 21
30.334676259
  0
LINE
  5
409
100
AcDbEntity
  8
0
100
AcDbLine
 62
7
  6
CONTINUOUS
 10
77.9998946298
 20
21.434676259
 11
77.9998946298
 21
14.234676259
  0
LINE
  5
40A
100
AcDbEntity
  8
0
100
AcDbLine
 62
7
  6
CONTINUOUS
 10
80.0552565899
 20
43.3170228872
 11
80.0552565899
 21
44.8692918452
  0
LINE
  5
40B
100
AcDbEntity
  8
0
100
AcDbLine
 62
7
  6
CONTINUOUS
 10
44.2498946298
 20
11.834676259
 11
45.3998946298
 21
14.234676259
  0
LINE
  5
40C
100
AcDbEntity
  8
0
100
AcDbLine
 62
7
  6
CONTINUOUS
 10
82.2362417226
 20
86.7252170938
 11
79.5069744385
 21
82.3612329247
  0
LINE
  5
40D
100
AcDbEntity
  8
0
100
AcDbLine
 62
7
  6
CONTINUOUS
 10
83.3019098437
 20
87.5941354238
 11
86.0311771278
 21
91.9581195929
  0
LINE
  5
40E
100
AcDbEntity
  8
0
100
AcDbLine
 62
7
  6
CONTINUOUS
 10
78.9775757412
 20
80.275217094
 11
76.2483084571
 21
75.9112329249
  0
LINE
  5
40F
100
AcDbEntity
  8
0
100
AcDbLine
 62
7
  6
CONTINUOUS
 10
80.0430908623
 20
81.1441353614
 11
82.7723581463
 21
85.5081195305
  0
LINE
  5
410
100
AcDbEntity
  8
0
100
AcDbLine
 62
7
  6
CONTINUOUS
 10
75.7163942904
 20
73.8252171325
 11
72.9871270063
 21
69.4612329634
  0
LINE
  5
411
100
AcDbEntity
  8
0
100
AcDbLine
 62
7
  6
CONTINUOUS
 10
76.7819098567
 20
74.6941354299
 11
79.5111771553
 21
79.0581194772
  0
LINE
  5
412
100
AcDbEntity
  8
0
100
AcDbLine
 62
7
  6
CONTINUOUS
 10
72.4575756645
 20
67.375217094
 11
69.7283083805
 21
63.0112329249
  0
LINE
  5
413
100
AcDbEntity
  8
0
100
AcDbLine
 62
7
  6
CONTINUOUS
 10
73.5230910938
 20
68.2441354665
 11
76.2523583731
 21
72.6081194692
  0
LINE
  5
414
100
AcDbEntity
  8
0
100
AcDbLine
 62
7
  6
CONTINUOUS
 10
69.1963942904
 20
60.925217094
 11
66.4671270063
 21
56.5612329249
  0
LINE
  5
415
100
AcDbEntity
  8
0
100
AcDbLine
 62
7
  6
CONTINUOUS
 10
70.261909847
 20
61.7941354686
 11
72.9911772969
 21
66.1581195159
  0
LINE
  5
416
100
AcDbEntity
  8
0
100
AcDbLine
 62
7
  6
CONTINUOUS
 10
67.0030913529
 20
55.3441354241
 11
69.732358637
 21
59.7081195932
  0
LINE
  5
417
100
AcDbEntity
  8
0
100
AcDbLine
 62
7
  6
CONTINUOUS
 10
42.2924926089
 20
45.4297030986
 11
39.8498750764
 21
43.3170228872
  0
LINE
  5
418
100
AcDbEntity
  8
0
100
AcDbLine
 62
7
  6
CONTINUOUS
 10
40.7585673944
 20
42.6706977307
 11
43.2011849269
 21
44.7833779421
  0
LINE
  5
419
100
AcDbEntity
  8
0
100
AcDbLine
 62
7
  6
CONTINUOUS
 10
37.4072922645
 20
39.2870119021
 11
39.849909797
 21
41.3996921135
  0
LINE
  5
41A
100
AcDbEntity
  8
0
100
AcDbLine
 62
7
  6
CONTINUOUS
 10
46.5525658331
 20
44.8692918452
 11
47.2004965259
 21
45.4297030986
  0
LINE
  5
41B
100
AcDbEntity
  8
0
100
AcDbLine
 62
7
  6
CONTINUOUS
 10
43.2012907032
 20
41.4856060167
 11
43.8492213959
 21
42.04601727
  0
LINE
  5
41C
100
AcDbEntity
  8
0
100
AcDbLine
 62
7
  6
CONTINUOUS
 10
48.9951833656
 20
45.4297030986
 11
46.5525658331
 21
43.3170228872
  0
LINE
  5
41D
100
AcDbEntity
  8
0
100
AcDbLine
 62
7
  6
CONTINUOUS
 10
45.6439082357
 20
42.04601727
 11
43.2012907032
 21
39.9333370586
  0
LINE
  5
41E
100
AcDbEntity
  8
0
100
AcDbLine
 62
7
  6
CONTINUOUS
 10
85.5364390573
 20
99.7941354689
 11
80.0819545524
 21
99.7941354689
  0
LINE
  5
41F
100
AcDbEntity
  8
0
100
AcDbLine
 62
7
  6
CONTINUOUS
 10
79.0164390014
 20
99.7941354689
 11
73.5619544966
 21
99.7941354689
  0
LINE
  5
420
100
AcDbEntity
  8
0
100
AcDbLine
 62
7
  6
CONTINUOUS
 10
72.4964390623
 20
99.7941354243
 11
67.0419545574
 21
99.7941354243
  0
LINE
  5
421
100
AcDbEntity
  8
0
100
AcDbLine
 62
7
  6
CONTINUOUS
 10
65.9764390623
 20
99.7941354243
 11
60.5219545574
 21
99.7941354243
  0
LINE
  5
422
100
AcDbEntity
  8
0
100
AcDbLine
 62
7
  6
CONTINUOUS
 10
59.4564390623
 20
99.7941354243
 11
54.0019545574
 21
99.7941354243
  0
LINE
  5
423
100
AcDbEntity
  8
0
100
AcDbLine
 62
7
  6
CONTINUOUS
 10
52.9364390623
 20
99.7941354243
 11
47.4819545574
 21
99.7941354243
  0
LINE
  5
424
100
AcDbEntity
  8
0
100
AcDbLine
 62
7
  6
CONTINUOUS
 10
46.4164390623
 20
99.7941354243
 11
40.9619545574
 21
99.7941354243
  0
LINE
  5
425
100
AcDbEntity
  8
0
100
AcDbLine
 62
7
  6
CONTINUOUS
 10
39.8964390623
 20
99.7941354243
 11
34.4419545574
 21
99.7941354243
  0
LINE
  5
426
100
AcDbEntity
  8
0
100
AcDbLine
 62
7
  6
CONTINUOUS
 10
39.688999378
 20
134.2634662029
 11
38.4932583252
 21
135.7592519766
  0
LINE
  5
427
100
AcDbEntity
  8
0
100
AcDbLine
 62
7
  6
CONTINUOUS
 10
36.4288364279
 20
139.1384662029
 11
35.2330953751
 21
140.6342519766
  0
LINE
  5
428
100
AcDbEntity
  8
0
100
AcDbLine
 62
7
  6
CONTINUOUS
 10
38.4932583252
 20
137.1592519766
 11
40.808168649
 21
134.2634662029
  0
LINE
  5
429
100
AcDbEntity
  8
0
100
AcDbLine
 62
7
  6
CONTINUOUS
 10
35.2330953751
 20
142.0342519766
 11
37.5480056989
 21
139.1384662029
  0
LINE
  5
42A
100
AcDbEntity
  8
0
100
AcDbLine
 62
7
  6
CONTINUOUS
 10
41.7467695603
 20
135.2378462101
 11
39.4318592366
 21
138.1336319838
  0
LINE
  5
42B
100
AcDbEntity
  8
0
100
AcDbLine
 62
7
  6
CONTINUOUS
 10
38.4855896363
 20
140.1128462101
 11
36.1706793125
 21
143.0086319838
  0
LINE
  5
42C
100
AcDbEntity
  8
0
100
AcDbLine
 62
7
  6
CONTINUOUS
 10
63.2471717732
 20
107.5112329692
 11
60.5219545524
 21
111.8752171384
  0
LINE
  5
42D
100
AcDbEntity
  8
0
100
AcDbLine
 62
7
  6
CONTINUOUS
 10
72.9911772389
 20
91.9581195157
 11
75.7163943122
 21
87.5941354238
  0
LINE
  5
42E
100
AcDbEntity
  8
0
100
AcDbLine
 62
7
  6
CONTINUOUS
 10
79.5069744385
 20
82.3612329247
 11
76.7817572177
 21
86.7252170938
  0
LINE
  5
42F
100
AcDbEntity
  8
0
100
AcDbLine
 62
7
  6
CONTINUOUS
 10
76.2483083162
 20
88.8112329696
 11
73.5230910954
 21
93.1752171388
  0
LINE
  5
430
100
AcDbEntity
  8
0
100
AcDbLine
 62
7
  6
CONTINUOUS
 10
69.7712218414
 20
104.1581195934
 11
72.4964390623
 21
99.7941354243
  0
LINE
  5
431
100
AcDbEntity
  8
0
100
AcDbLine
 62
7
  6
CONTINUOUS
 10
86.0311771278
 20
79.0581195544
 11
88.7563943486
 21
74.6941353853
  0
LINE
  5
432
100
AcDbEntity
  8
0
100
AcDbLine
 62
7
  6
CONTINUOUS
 10
66.509590897
 20
110.6081194689
 11
69.2348079703
 21
106.244135377
  0
LINE
  5
433
100
AcDbEntity
  8
0
100
AcDbLine
 62
7
  6
CONTINUOUS
 10
73.0255408079
 20
101.0112329246
 11
70.3003235871
 21
105.3752170937
  0
LINE
  5
434
100
AcDbEntity
  8
0
100
AcDbLine
 62
7
  6
CONTINUOUS
 10
82.7723581463
 20
85.5081195305
 11
85.4975753671
 21
81.1441353614
  0
LINE
  5
435
100
AcDbEntity
  8
0
100
AcDbLine
 62
7
  6
CONTINUOUS
 10
88.7562417226
 20
86.7252170938
 11
86.0269744385
 21
82.3612329247
  0
LINE
  5
436
100
AcDbEntity
  8
0
100
AcDbLine
 62
7
  6
CONTINUOUS
 10
85.4975757412
 20
80.275217094
 11
82.7683084571
 21
75.9112329249
  0
LINE
  5
437
100
AcDbEntity
  8
0
100
AcDbLine
 62
7
  6
CONTINUOUS
 10
82.2363942904
 20
73.8252171325
 11
79.5071270063
 21
69.4612329634
  0
LINE
  5
438
100
AcDbEntity
  8
0
100
AcDbLine
 62
7
  6
CONTINUOUS
 10
83.3019098437
 20
74.6941353853
 11
86.0311771278
 21
79.0581195544
  0
LINE
  5
439
100
AcDbEntity
  8
0
100
AcDbLine
 62
7
  6
CONTINUOUS
 10
78.9775756645
 20
67.375217094
 11
76.2483083804
 21
63.0112329249
  0
LINE
  5
43A
100
AcDbEntity
  8
0
100
AcDbLine
 62
7
  6
CONTINUOUS
 10
80.0430910744
 20
68.2441353772
 11
82.7723583584
 21
72.6081195464
  0
LINE
  5
43B
100
AcDbEntity
  8
0
100
AcDbLine
 62
7
  6
CONTINUOUS
 10
75.7163942904
 20
60.925217094
 11
72.9871270063
 21
56.5612329249
  0
LINE
  5
43C
100
AcDbEntity
  8
0
100
AcDbLine
 62
7
  6
CONTINUOUS
 10
76.7819099028
 20
61.7941354686
 11
79.5111772005
 21
66.1581195159
  0
LINE
  5
43D
100
AcDbEntity
  8
0
100
AcDbLine
 62
7
  6
CONTINUOUS
 10
73.5230912921
 20
55.3441354687
 11
76.252358742
 21
59.708119516
  0
LINE
  5
43E
100
AcDbEntity
  8
0
100
AcDbLine
 62
7
  6
CONTINUOUS
 10
47.4612581511
 20
42.6706977307
 11
49.9038756836
 21
44.7833779421
  0
LINE
  5
43F
100
AcDbEntity
  8
0
100
AcDbLine
 62
7
  6
CONTINUOUS
 10
44.1099830212
 20
39.2870119021
 11
46.5526005537
 21
41.3996921135
  0
LINE
  5
440
100
AcDbEntity
  8
0
100
AcDbLine
 62
7
  6
CONTINUOUS
 10
53.2525658331
 20
44.8692918452
 11
53.9004965259
 21
45.4297030986
  0
LINE
  5
441
100
AcDbEntity
  8
0
100
AcDbLine
 62
7
  6
CONTINUOUS
 10
49.9012907032
 20
41.4856060167
 11
50.5492213959
 21
42.04601727
  0
LINE
  5
442
100
AcDbEntity
  8
0
100
AcDbLine
 62
7
  6
CONTINUOUS
 10
55.6951833656
 20
45.4297030986
 11
53.2525658331
 21
43.3170228872
  0
LINE
  5
443
100
AcDbEntity
  8
0
100
AcDbLine
 62
7
  6
CONTINUOUS
 10
52.3439082357
 20
42.04601727
 11
49.9012907032
 21
39.9333370586
  0
LINE
  5
444
100
AcDbEntity
  8
0
100
AcDbLine
 62
7
  6
CONTINUOUS
 10
54.1612581511
 20
42.6706977307
 11
56.6038756836
 21
44.7833779421
  0
LINE
  5
445
100
AcDbEntity
  8
0
100
AcDbLine
 62
7
  6
CONTINUOUS
 10
50.8099830212
 20
39.2870119021
 11
53.2526005537
 21
41.3996921135
  0
LINE
  5
446
100
AcDbEntity
  8
0
100
AcDbLine
 62
7
  6
CONTINUOUS
 10
31.1803235871
 20
105.3752170937
 11
36.6348080919
 21
105.3752170937
  0
LINE
  5
447
100
AcDbEntity
  8
0
100
AcDbLine
 62
7
  6
CONTINUOUS
 10
37.7003235652
 20
105.3752170937
 11
43.1548080879
 21
105.3752170937
  0
LINE
  5
448
100
AcDbEntity
  8
0
100
AcDbLine
 62
7
  6
CONTINUOUS
 10
44.220323621
 20
105.3752170937
 11
49.6748081437
 21
105.3752170937
  0
LINE
  5
449
100
AcDbEntity
  8
0
100
AcDbLine
 62
7
  6
CONTINUOUS
 10
50.7403235871
 20
105.3752170937
 11
56.1948080919
 21
105.3752170937
  0
LINE
  5
44A
100
AcDbEntity
  8
0
100
AcDbLine
 62
7
  6
CONTINUOUS
 10
57.2603235871
 20
105.3752170937
 11
62.7148080919
 21
105.3752170937
  0
LINE
  5
44B
100
AcDbEntity
  8
0
100
AcDbLine
 62
7
  6
CONTINUOUS
 10
63.7803235871
 20
105.3752170937
 11
69.2348080919
 21
105.3752170937
  0
LINE
  5
44C
100
AcDbEntity
  8
0
100
AcDbLine
 62
7
  6
CONTINUOUS
 10
70.3003235871
 20
105.3752170937
 11
75.7548080919
 21
105.3752170937
  0
LINE
  5
44D
100
AcDbEntity
  8
0
100
AcDbLine
 62
7
  6
CONTINUOUS
 10
76.8203235871
 20
105.3752170937
 11
82.2748080919
 21
105.3752170937
  0
LINE
  5
44E
100
AcDbEntity
  8
0
100
AcDbLine
 62
7
  6
CONTINUOUS
 10
83.3403235871
 20
105.3752170937
 11
88.7948080919
 21
105.3752170937
  0
LINE
  5
44F
100
AcDbEntity
  8
0
100
AcDbLine
 62
7
  6
CONTINUOUS
 10
88.7948080067
 20
106.244135377
 11
83.3403235018
 21
106.244135377
  0
LINE
  5
450
100
AcDbEntity
  8
0
100
AcDbLine
 62
7
  6
CONTINUOUS
 10
82.2748080067
 20
106.244135377
 11
76.8203235018
 21
106.244135377
  0
LINE
  5
451
100
AcDbEntity
  8
0
100
AcDbLine
 62
7
  6
CONTINUOUS
 10
75.7548080261
 20
106.244135377
 11
70.3003235212
 21
106.2441354662
  0
LINE
  5
452
100
AcDbEntity
  8
0
100
AcDbLine
 62
7
  6
CONTINUOUS
 10
69.2348079703
 20
106.244135377
 11
63.7803234654
 21
106.2441354662
  0
LINE
  5
453
100
AcDbEntity
  8
0
100
AcDbLine
 62
7
  6
CONTINUOUS
 10
62.7148080067
 20
106.244135377
 11
57.2603235018
 21
106.244135377
  0
LINE
  5
454
100
AcDbEntity
  8
0
100
AcDbLine
 62
7
  6
CONTINUOUS
 10
56.1948080067
 20
106.244135377
 11
50.7403235018
 21
106.244135377
  0
LINE
  5
455
100
AcDbEntity
  8
0
100
AcDbLine
 62
7
  6
CONTINUOUS
 10
49.6748080067
 20
106.244135377
 11
44.2203235018
 21
106.244135377
  0
LINE
  5
456
100
AcDbEntity
  8
0
100
AcDbLine
 62
7
  6
CONTINUOUS
 10
43.1548080067
 20
106.244135377
 11
37.7003235018
 21
106.244135377
  0
LINE
  5
457
100
AcDbEntity
  8
0
100
AcDbLine
 62
7
  6
CONTINUOUS
 10
36.6348080067
 20
106.244135377
 11
31.1803235018
 21
106.244135377
  0
LINE
  5
458
100
AcDbEntity
  8
0
100
AcDbLine
 62
7
  6
CONTINUOUS
 10
46.2074194702
 20
134.2634662029
 11
45.0116784175
 21
135.7592519766
  0
LINE
  5
459
100
AcDbEntity
  8
0
100
AcDbLine
 62
7
  6
CONTINUOUS
 10
42.9504163357
 20
139.1384662029
 11
41.7546752829
 21
140.6342519766
  0
LINE
  5
45A
100
AcDbEntity
  8
0
100
AcDbLine
 62
7
  6
CONTINUOUS
 10
45.0116784175
 20
137.1592519766
 11
47.3265887412
 21
134.2634662029
  0
LINE
  5
45B
100
AcDbEntity
  8
0
100
AcDbLine
 62
7
  6
CONTINUOUS
 10
41.7546752829
 20
142.0342519766
 11
44.0695856067
 21
139.1384662029
  0
LINE
  5
45C
100
AcDbEntity
  8
0
100
AcDbLine
 62
7
  6
CONTINUOUS
 10
48.2683494681
 20
135.2378462101
 11
45.9534391444
 21
138.1336319838
  0
LINE
  5
45D
100
AcDbEntity
  8
0
100
AcDbLine
 62
7
  6
CONTINUOUS
 10
45.0040097285
 20
140.1128462101
 11
42.6890994048
 21
143.0086319838
  0
LINE
  5
45E
100
AcDbEntity
  8
0
100
AcDbLine
 62
7
  6
CONTINUOUS
 10
69.7671717732
 20
107.5112329692
 11
67.0419545524
 21
111.8752171384
  0
LINE
  5
45F
100
AcDbEntity
  8
0
100
AcDbLine
 62
7
  6
CONTINUOUS
 10
79.5111771425
 20
91.9581195157
 11
82.236394368
 21
87.5941354238
  0
LINE
  5
460
100
AcDbEntity
  8
0
100
AcDbLine
 62
7
  6
CONTINUOUS
 10
86.0269744385
 20
82.3612329247
 11
83.3017572177
 21
86.7252170938
  0
LINE
  5
461
100
AcDbEntity
  8
0
100
AcDbLine
 62
7
  6
CONTINUOUS
 10
82.7683083162
 20
88.8112329696
 11
80.0430910954
 21
93.1752171388
  0
LINE
  5
462
100
AcDbEntity
  8
0
100
AcDbLine
 62
7
  6
CONTINUOUS
 10
76.2912219465
 20
104.1581195162
 11
79.0164390014
 21
99.7941354689
  0
LINE
  5
463
100
AcDbEntity
  8
0
100
AcDbLine
 62
7
  6
CONTINUOUS
 10
73.0295908006
 20
110.6081194689
 11
75.7548080261
 21
106.244135377
  0
LINE
  5
464
100
AcDbEntity
  8
0
100
AcDbLine
 62
7
  6
CONTINUOUS
 10
87.2498946298
 20
24.1346762426
 11
87.2498946298
 21
30.334676259
  0
LINE
  5
465
100
AcDbEntity
  8
0
100
AcDbLine
 62
7
  6
CONTINUOUS
 10
88.7563942904
 20
73.8252171325
 11
86.0271270063
 21
69.4612329634
  0
LINE
  5
466
100
AcDbEntity
  8
0
100
AcDbLine
 62
7
  6
CONTINUOUS
 10
85.4975756645
 20
67.375217094
 11
82.7683083804
 21
63.0112329249
  0
LINE
  5
467
100
AcDbEntity
  8
0
100
AcDbLine
 62
7
  6
CONTINUOUS
 10
82.2363942904
 20
60.925217094
 11
79.5071270063
 21
56.5612329249
  0
LINE
  5
468
100
AcDbEntity
  8
0
100
AcDbLine
 62
7
  6
CONTINUOUS
 10
83.3019099078
 20
61.794135424
 11
86.0311771918
 21
66.1581195931
  0
LINE
  5
469
100
AcDbEntity
  8
0
100
AcDbLine
 62
7
  6
CONTINUOUS
 10
80.0430913479
 20
55.3441354687
 11
82.7723586456
 21
59.708119516
  0
LINE
  5
46A
100
AcDbEntity
  8
0
100
AcDbLine
 62
7
  6
CONTINUOUS
 10
42.1598946298
 20
21.694676259
 11
41.8998946298
 21
21.434676259
  0
LINE
  5
46B
100
AcDbEntity
  8
0
100
AcDbLine
 62
7
  6
CONTINUOUS
 10
59.9498750764
 20
44.8692918452
 11
60.5978057691
 21
45.4297030986
  0
LINE
  5
46C
100
AcDbEntity
  8
0
100
AcDbLine
 62
7
  6
CONTINUOUS
 10
56.5985999465
 20
41.4856060167
 11
57.2465306392
 21
42.04601727
  0
LINE
  5
46D
100
AcDbEntity
  8
0
100
AcDbLine
 62
7
  6
CONTINUOUS
 10
62.3924926089
 20
45.4297030986
 11
59.9498750764
 21
43.3170228872
  0
LINE
  5
46E
100
AcDbEntity
  8
0
100
AcDbLine
 62
7
  6
CONTINUOUS
 10
59.041217479
 20
42.04601727
 11
56.5985999465
 21
39.9333370586
  0
LINE
  5
46F
100
AcDbEntity
  8
0
100
AcDbLine
 62
7
  6
CONTINUOUS
 10
60.8639489078
 20
42.6706977307
 11
63.3065664403
 21
44.7833779421
  0
LINE
  5
470
100
AcDbEntity
  8
0
100
AcDbLine
 62
7
  6
CONTINUOUS
 10
57.5126737779
 20
39.2870119021
 11
59.9552913104
 21
41.3996921135
  0
LINE
  5
471
100
AcDbEntity
  8
0
100
AcDbLine
 62
7
  6
CONTINUOUS
 10
34.4419545574
 20
111.8752170937
 11
39.8964390623
 21
111.8752170937
  0
LINE
  5
472
100
AcDbEntity
  8
0
100
AcDbLine
 62
7
  6
CONTINUOUS
 10
40.9619546132
 20
111.8752170937
 11
46.4164391181
 21
111.8752170937
  0
LINE
  5
473
100
AcDbEntity
  8
0
100
AcDbLine
 62
7
  6
CONTINUOUS
 10
47.4819545524
 20
111.8752171384
 11
52.9364390573
 21
111.8752171384
  0
LINE
  5
474
100
AcDbEntity
  8
0
100
AcDbLine
 62
7
  6
CONTINUOUS
 10
54.0019545524
 20
111.8752171384
 11
59.4564390573
 21
111.8752171384
  0
LINE
  5
475
100
AcDbEntity
  8
0
100
AcDbLine
 62
7
  6
CONTINUOUS
 10
60.5219545524
 20
111.8752171384
 11
65.9764390573
 21
111.8752171384
  0
LINE
  5
476
100
AcDbEntity
  8
0
100
AcDbLine
 62
7
  6
CONTINUOUS
 10
67.0419545524
 20
111.8752171384
 11
72.4964390573
 21
111.8752171384
  0
LINE
  5
477
100
AcDbEntity
  8
0
100
AcDbLine
 62
7
  6
CONTINUOUS
 10
73.5619545524
 20
111.8752171384
 11
79.0164390573
 21
111.8752171384
  0
LINE
  5
478
100
AcDbEntity
  8
0
100
AcDbLine
 62
7
  6
CONTINUOUS
 10
80.0819545524
 20
111.8752171384
 11
85.5364390573
 21
111.8752171384
  0
LINE
  5
479
100
AcDbEntity
  8
0
100
AcDbLine
 62
7
  6
CONTINUOUS
 10
46.4164390623
 20
112.7941354243
 11
40.9619545574
 21
112.7941354243
  0
LINE
  5
47A
100
AcDbEntity
  8
0
100
AcDbLine
 62
7
  6
CONTINUOUS
 10
39.8964390623
 20
112.7941354243
 11
34.4419545574
 21
112.7941354243
  0
LINE
  5
47B
100
AcDbEntity
  8
0
100
AcDbLine
 62
7
  6
CONTINUOUS
 10
49.4688364279
 20
139.1384662029
 11
48.2730953751
 21
140.6342519766
  0
LINE
  5
47C
100
AcDbEntity
  8
0
100
AcDbLine
 62
7
  6
CONTINUOUS
 10
48.2730953751
 20
142.0342519766
 11
50.5880056989
 21
139.1384662029
  0
LINE
  5
47D
100
AcDbEntity
  8
0
100
AcDbLine
 62
7
  6
CONTINUOUS
 10
79.5455408079
 20
101.0112329246
 11
76.8203235871
 21
105.3752170937
  0
LINE
  5
47E
100
AcDbEntity
  8
0
100
AcDbLine
 62
7
  6
CONTINUOUS
 10
76.2871717732
 20
107.5112329692
 11
73.5619545524
 21
111.8752171384
  0
LINE
  5
47F
100
AcDbEntity
  8
0
100
AcDbLine
 62
7
  6
CONTINUOUS
 10
86.0311771278
 20
91.9581195929
 11
88.7563943486
 21
87.5941354238
  0
LINE
  5
480
100
AcDbEntity
  8
0
100
AcDbLine
 62
7
  6
CONTINUOUS
 10
82.8112218501
 20
104.1581195162
 11
85.5364390573
 21
99.7941354689
  0
LINE
  5
481
100
AcDbEntity
  8
0
100
AcDbLine
 62
7
  6
CONTINUOUS
 10
92.2498946298
 20
24.1346762426
 11
92.2498946298
 21
116.134676259
  0
LINE
  5
482
100
AcDbEntity
  8
0
100
AcDbLine
 62
7
  6
CONTINUOUS
 10
88.7563942904
 20
60.925217094
 11
86.0271270063
 21
56.5612329249
  0
LINE
  5
483
100
AcDbEntity
  8
0
100
AcDbLine
 62
7
  6
CONTINUOUS
 10
66.6525658331
 20
44.8692918452
 11
67.3004965259
 21
45.4297030986
  0
LINE
  5
484
100
AcDbEntity
  8
0
100
AcDbLine
 62
7
  6
CONTINUOUS
 10
63.3012907032
 20
41.4856060167
 11
63.9492213959
 21
42.04601727
  0
LINE
  5
485
100
AcDbEntity
  8
0
100
AcDbLine
 62
7
  6
CONTINUOUS
 10
69.0951833656
 20
45.4297030986
 11
66.6525658331
 21
43.3170228872
  0
LINE
  5
486
100
AcDbEntity
  8
0
100
AcDbLine
 62
7
  6
CONTINUOUS
 10
65.7439082357
 20
42.04601727
 11
63.3012907032
 21
39.9333370586
  0
LINE
  5
487
100
AcDbEntity
  8
0
100
AcDbLine
 62
7
  6
CONTINUOUS
 10
67.5612581511
 20
42.6706977307
 11
70.0038756836
 21
44.7833779421
  0
LINE
  5
488
100
AcDbEntity
  8
0
100
AcDbLine
 62
7
  6
CONTINUOUS
 10
64.2099830212
 20
39.2870119021
 11
66.6526005537
 21
41.3996921135
  0
LINE
  5
489
100
AcDbEntity
  8
0
100
AcDbLine
 62
7
  6
CONTINUOUS
 10
92.2498946298
 20
116.134676259
 11
57.6498946298
 21
116.134676259
  0
LINE
  5
48A
100
AcDbEntity
  8
0
100
AcDbLine
 62
7
  6
CONTINUOUS
 10
31.1803235871
 20
118.3752170937
 11
36.634808092
 21
118.3752170937
  0
LINE
  5
48B
100
AcDbEntity
  8
0
100
AcDbLine
 62
7
  6
CONTINUOUS
 10
37.7003235652
 20
118.3752170937
 11
43.1548080879
 21
118.3752170937
  0
LINE
  5
48C
100
AcDbEntity
  8
0
100
AcDbLine
 62
7
  6
CONTINUOUS
 10
44.220323621
 20
118.3752170937
 11
49.6748081437
 21
118.3752170937
  0
LINE
  5
48D
100
AcDbEntity
  8
0
100
AcDbLine
 62
7
  6
CONTINUOUS
 10
79.5495907859
 20
110.6081195461
 11
82.2748080067
 21
106.244135377
  0
LINE
  5
48E
100
AcDbEntity
  8
0
100
AcDbLine
 62
7
  6
CONTINUOUS
 10
86.0655408079
 20
101.0112329246
 11
83.3403235871
 21
105.3752170937
  0
LINE
  5
48F
100
AcDbEntity
  8
0
100
AcDbLine
 62
7
  6
CONTINUOUS
 10
82.8071717732
 20
107.5112329692
 11
80.0819545524
 21
111.8752171384
  0
LINE
  5
490
100
AcDbEntity
  8
0
100
AcDbLine
 62
7
  6
CONTINUOUS
 10
73.3525658331
 20
44.8692918452
 11
74.0004965259
 21
45.4297030986
  0
LINE
  5
491
100
AcDbEntity
  8
0
100
AcDbLine
 62
7
  6
CONTINUOUS
 10
70.0012907032
 20
41.4856060167
 11
70.6492213959
 21
42.04601727
  0
LINE
  5
492
100
AcDbEntity
  8
0
100
AcDbLine
 62
7
  6
CONTINUOUS
 10
75.7951833656
 20
45.4297030986
 11
73.3525658331
 21
43.3170228872
  0
LINE
  5
493
100
AcDbEntity
  8
0
100
AcDbLine
 62
7
  6
CONTINUOUS
 10
72.4439082357
 20
42.04601727
 11
70.0012907032
 21
39.9333370586
  0
LINE
  5
494
100
AcDbEntity
  8
0
100
AcDbLine
 62
7
  6
CONTINUOUS
 10
74.2612581511
 20
42.6706977307
 11
76.7038756836
 21
44.7833779421
  0
LINE
  5
495
100
AcDbEntity
  8
0
100
AcDbLine
 62
7
  6
CONTINUOUS
 10
70.9099830212
 20
39.2870119021
 11
73.3526005537
 21
41.3996921135
  0
LINE
  5
496
100
AcDbEntity
  8
0
100
AcDbLine
 62
7
  6
CONTINUOUS
 10
80.0552565899
 20
44.8692918452
 11
80.7031872826
 21
45.4297030986
  0
LINE
  5
497
100
AcDbEntity
  8
0
100
AcDbLine
 62
7
  6
CONTINUOUS
 10
76.7039814599
 20
41.4856060167
 11
77.3519121526
 21
42.04601727
  0
LINE
  5
498
100
AcDbEntity
  8
0
100
AcDbLine
 62
7
  6
CONTINUOUS
 10
49.6748080067
 20
119.244135377
 11
44.2203235018
 21
119.244135377
  0
LINE
  5
499
100
AcDbEntity
  8
0
100
AcDbLine
 62
7
  6
CONTINUOUS
 10
43.1548080067
 20
119.244135377
 11
37.7003235018
 21
119.244135377
  0
LINE
  5
49A
100
AcDbEntity
  8
0
100
AcDbLine
 62
7
  6
CONTINUOUS
 10
36.6348080067
 20
119.244135377
 11
31.1803235018
 21
119.244135377
  0
LINE
  5
49B
100
AcDbEntity
  8
0
100
AcDbLine
 62
7
  6
CONTINUOUS
 10
86.0695907859
 20
110.6081195461
 11
88.7948080067
 21
106.244135377
  0
LINE
  5
49C
100
AcDbEntity
  8
0
100
AcDbLine
 62
7
  6
CONTINUOUS
 10
76.8498946298
 20
11.834676259
 11
77.9998946298
 21
14.234676259
  0
LINE
  5
49D
100
AcDbEntity
  8
0
100
AcDbLine
 62
7
  6
CONTINUOUS
 10
82.4978741224
 20
45.4297030986
 11
80.0552565899
 21
43.3170228872
  0
LINE
  5
49E
100
AcDbEntity
  8
0
100
AcDbLine
 62
7
  6
CONTINUOUS
 10
79.1465989924
 20
42.04601727
 11
76.7039814599
 21
39.9333370586
  0
LINE
  5
49F
100
AcDbEntity
  8
0
100
AcDbLine
 62
7
  6
CONTINUOUS
 10
77.6126737779
 20
39.2870119021
 11
80.0552913104
 21
41.3996921135
  0
LINE
  5
4A0
100
AcDbEntity
  8
0
100
AcDbLine
 62
7
  6
CONTINUOUS
 10
34.4419545574
 20
124.8752170937
 11
39.8964390623
 21
124.8752170937
  0
LINE
  5
4A1
100
AcDbEntity
  8
0
100
AcDbLine
 62
7
  6
CONTINUOUS
 10
40.9619546132
 20
124.8752170937
 11
46.4164391181
 21
124.8752170937
  0
LINE
  5
4A2
100
AcDbEntity
  8
0
100
AcDbLine
 62
7
  6
CONTINUOUS
 10
57.6498946298
 20
131.134676259
 11
27.6498946298
 21
131.134676259
  0
LINE
  5
4A3
100
AcDbEntity
  8
0
100
AcDbLine
 62
7
  6
CONTINUOUS
 10
47.3265887412
 20
134.2634662029
 11
42.6920974386
 21
134.2634662029
  0
LINE
  5
4A4
100
AcDbEntity
  8
0
100
AcDbLine
 62
7
  6
CONTINUOUS
 10
40.808168649
 20
134.2634662029
 11
36.1736773464
 21
134.2634662029
  0
LINE
  5
4A5
100
AcDbEntity
  8
0
100
AcDbLine
 62
7
  6
CONTINUOUS
 10
74.7598946298
 20
21.694676259
 11
74.4998946298
 21
21.434676259
  0
LINE
  5
4A6
100
AcDbEntity
  8
0
100
AcDbLine
 62
7
  6
CONTINUOUS
 10
34.0326084153
 20
136.7336319838
 11
36.4265030956
 21
136.7336319838
  0
LINE
  5
4A7
100
AcDbEntity
  8
0
100
AcDbLine
 62
7
  6
CONTINUOUS
 10
40.5510285076
 20
136.7336319838
 11
42.9449231878
 21
136.7336319838
  0
LINE
  5
4A8
100
AcDbEntity
  8
0
100
AcDbLine
 62
7
  6
CONTINUOUS
 10
47.0726084153
 20
136.7336319838
 11
49.4665030956
 21
136.7336319838
  0
LINE
  5
4A9
100
AcDbEntity
  8
0
100
AcDbLine
 62
7
  6
CONTINUOUS
 10
32.9134391444
 20
138.1336319838
 11
37.5479304469
 21
138.1336319838
  0
LINE
  5
4AA
100
AcDbEntity
  8
0
100
AcDbLine
 62
7
  6
CONTINUOUS
 10
39.4318592366
 20
138.1336319838
 11
44.0663505392
 21
138.1336319838
  0
LINE
  5
4AB
100
AcDbEntity
  8
0
100
AcDbLine
 62
7
  6
CONTINUOUS
 10
45.9534391444
 20
138.1336319838
 11
50.5879304469
 21
138.1336319838
  0
LINE
  5
4AC
100
AcDbEntity
  8
0
100
AcDbLine
 62
7
  6
CONTINUOUS
 10
50.5880056989
 20
139.1384662029
 11
45.9535143963
 21
139.1384662029
  0
LINE
  5
4AD
100
AcDbEntity
  8
0
100
AcDbLine
 62
7
  6
CONTINUOUS
 10
44.0695856067
 20
139.1384662029
 11
39.4350943041
 21
139.1384662029
  0
LINE
  5
4AE
100
AcDbEntity
  8
0
100
AcDbLine
 62
7
  6
CONTINUOUS
 10
37.5480056989
 20
139.1384662029
 11
32.9135143963
 21
139.1384662029
  0
LINE
  5
4AF
100
AcDbEntity
  8
0
100
AcDbLine
 62
7
  6
CONTINUOUS
 10
37.2898485835
 20
141.6086319838
 11
39.6837432638
 21
141.6086319838
  0
LINE
  5
4B0
100
AcDbEntity
  8
0
100
AcDbLine
 62
7
  6
CONTINUOUS
 10
43.8082686757
 20
141.6086319838
 11
46.202163356
 21
141.6086319838
  0
LINE
  5
4B1
100
AcDbEntity
  8
0
100
AcDbLine
 62
7
  6
CONTINUOUS
 10
36.1706793125
 20
143.0086319838
 11
40.8051706151
 21
143.0086319838
  0
LINE
  5
4B2
100
AcDbEntity
  8
0
100
AcDbLine
 62
7
  6
CONTINUOUS
 10
42.6890994048
 20
143.0086319838
 11
47.3235907073
 21
143.0086319838
  0
LINE
  5
4B3
100
AcDbEntity
  8
0
100
AcDbLine
 62
7
  6
CONTINUOUS
 10
57.6498946298
 20
146.134676259
 11
27.6498946298
 21
146.134676259
  0
LINE
  5
4B4
100
AcDbEntity
  8
0
100
AcDbLine
 62
7
  6
CONTINUOUS
 10
57.6498946298
 20
152.434676259
 11
27.6498946298
 21
152.434676259
  0
ENDSEC
  0
SECTION
  2
OBJECTS
  0
DICTIONARY
  5
C
100
AcDbDictionary
280
0
281
1
  3
ACAD_GROUP
350
D
  3
ACAD_MLINESTYLE
350
17
  3
ACAD_LAYOUT
350
1A
  3
ACAD_PLOTSETTINGS
350
19
  3
ACAD_PLOTSTYLENAME
350
E
  0
DICTIONARY
  5
D
102
{ACAD_REACTORS
330
C
102
}
100
AcDbDictionary
280
0
281
1
  0
ACDBDICTIONARYWDFLT
  5
E
102
{ACAD_REACTORS
330
C
102
}
100
AcDbDictionary
281
1
  3
Normal
350
F
100
AcDbDictionaryWithDefault
340
F
  0
DICTIONARY
  5
17
102
{ACAD_REACTORS
330
C
102
}
100
AcDbDictionary
280
0
281
1
  3
Standard
350
18
  0
DICTIONARY
  5
19
102
{ACAD_REACTORS
330
C
102
}
100
AcDbDictionary
281
1
  0
DICTIONARY
  5
1A
102
{ACAD_REACTORS
330
C
102
}
100
AcDbDictionary
281
1
  3
Model
350
4B5
  3
Layout1
350
4B6
  0
ACDBPLACEHOLDER
  5
F
102
{ACAD_REACTORS
330
E
102
}
  0
MLINESTYLE
  5
18
102
{ACAD_REACTORS
330
17
102
}
100
AcDbMlineStyle
  2
STANDARD
 70
0
  3

 62
256
 51
90.0
 52
90.0
 71
2
 49
0.5
 62
256
  6
BYLAYER
 49
-0.5
 62
256
  6
BYLAYER
  0
LAYOUT
  5
4B5
102
{ACAD_REACTORS
330
1A
102
}
100
AcDbPlotSettings
  1

  2
none_device
  4

  6

 40
0.0
 41
0.0
 42
0.0
 43
0.0
 44
210.0
 45
297.0
 46
0.0
 47
0.0
 48
0.0
 49
0.0
140
0.0
141
0.0
142
1.0
143
1.0
 70
1024
 72
1
 73
0
 74
0
  7

 75
0
147
1.0
148
0.0
149
0.0
100
AcDbLayout
  1
Model
 70
0
 71
0
 10
0.0
 20
0.0
 11
210.0
 21
297.0
 12
0.0
 22
0.0
 32
0.0
 14
0.0
 24
0.0
 34
0.0
 15
0.0
 25
0.0
 35
0.0
146
0.0
 13
0.0
 23
0.0
 33
0.0
 16
1.0
 26
0.0
 36
0.0
 17
0.0
 27
1.0
 37
0.0
 76
0
330
210
345
0
346
0
  0
LAYOUT
  5
4B6
102
{ACAD_REACTORS
330
1A
102
}
100
AcDbPlotSettings
  1

  2
none_device
  4

  6

 40
0.0
 41
0.0
 42
0.0
 43
0.0
 44
210.0
 45
297.0
 46
0.0
 47
0.0
 48
0.0
 49
0.0
140
0.0
141
0.0
142
1.0
143
1.0
 70
0
 72
1
 73
0
 74
0
  7

 75
0
147
1.0
148
0.0
149
0.0
100
AcDbLayout
  1
Layout1
 70
0
 71
1
 10
0.0
 20
0.0
 11
210.0
 21
297.0
 12
0.0
 22
0.0
 32
0.0
 14
0.0
 24
0.0
 34
0.0
 15
0.0
 25
0.0
 35
0.0
146
0.0
 13
0.0
 23
0.0
 33
0.0
 16
1.0
 26
0.0
 36
0.0
 17
0.0
 27
1.0
 37
0.0
 76
0
330
211
345
0
346
0
  0
ENDSEC
  0
EOF
