999
DXF file: C:\Users\sesa63760\Dev\_Creo\CAD\MCADID0000052_3D-CAD\drw0001_6.dxf
999
Pro/ENGINEER 2019471 by Parametric Technology Corporation
  0
SECTION
  2
HEADER
  9
$ACADVER
  1
AC1024
  9
$DWGCODEPAGE
  3
ANSI_1252
  9
$EXTMAX
 10
172.7974051235
 20
244.3849015318
 30
0.0
  9
$EXTMIN
 10
0.0
 20
0.0
 30
0.0
  9
$LIMMIN
 10
0.0
 20
0.0
  9
$LIMMAX
 10
172.7974051235
 20
244.3849015318
  9
$VIEWCTR
 10
86.3987025617
 20
122.1924507659
  9
$VIEWSIZE
 40
244.3849015318
  9
$CLAYER
  8
0
  9
$LTSCALE
 40
15.9302750628
  9
$CELTYPE
  6
BYLAYER
  9
$DIMSCALE
 40
1.0
  9
$DIMASZ
 40
2.0571119658
  9
$DIMEXO
 40
1.0
  9
$DIMDLI
 40
11.0063718616
  9
$DIMEXE
 40
1.0
  9
$DIMCEN
 40
2.606772283
  9
$DIMLFAC
 40
1.0
  9
$DIMBLK
  1
_FILLED
  9
$DIMALT
 70
0
  9
$DIMALTF
 40
0.0393700787
  9
$DIMTXT
 40
2.8799567521
  9
$DIMTOL
 70
1
  9
$DIMLIM
 70
0
  9
$DIMTFAC
 40
1.0
  9
$DIMTP
 40
0.01
  9
$DIMTM
 40
0.01
  9
$DIMGAP
 40
0.625
  9
$DIMDSEP
 70
46
  9
$AUNITS
 70
0
  9
$PDMODE
 70
3
  9
$PDSIZE
 40
0.3125
  9
$HANDSEED
  5
33B
  9
$TILEMODE
 70
1
  9
$MEASUREMENT
 70
1
  9
$INSUNITS
 70
4
  0
ENDSEC
  0
SECTION
  2
CLASSES
  0
CLASS
  1
ACDBDICTIONARYWDFLT
  2
AcDbDictionaryWithDefault
  3
AutoCAD 2000
 90
0
 91
1
280
0
281
0
  0
CLASS
  1
ACDBPLACEHOLDER
  2
AcDbPlaceHolder
  3
AutoCAD 2000
 90
0
 91
1
280
0
281
0
  0
CLASS
  1
LAYOUT
  2
AcDbLayout
  3
AutoCAD 2000
 90
0
 91
0
280
0
281
0
  0
ENDSEC
  0
SECTION
  2
TABLES
  0
TABLE
  2
VPORT
  5
8
100
AcDbSymbolTable
 70
2
  0
VPORT
  5
1F4
100
AcDbSymbolTableRecord
100
AcDbViewportTableRecord
  2
*ACTIVE
 70
0
 10
0.0
 20
0.0
 11
1.0
 21
1.0
 12
86.3987025617
 22
122.1924507659
 13
0.0
 23
0.0
 14
1.0
 24
1.0
 15
0.0
 25
0.0
 16
0.0
 26
0.0
 36
1.0
 17
0.0
 27
0.0
 37
0.0
 40
244.3849015318
 41
0.7070707071
 42
50.0
 43
0.0
 44
0.0
 50
0.0
 51
0.0
 71
0
 72
100
 73
1
 74
1
 75
0
 76
0
 77
0
 78
0
  0
ENDTAB
  0
TABLE
  2
LTYPE
  5
5
100
AcDbSymbolTable
 70
6
  0
LTYPE
  5
14
100
AcDbSymbolTableRecord
100
AcDbLinetypeTableRecord
  2
BYBLOCK
 70
0
  3

 72
65
 73
0
 40
0.0
  0
LTYPE
  5
15
100
AcDbSymbolTableRecord
100
AcDbLinetypeTableRecord
  2
BYLAYER
 70
0
  3

 72
65
 73
0
 40
0.0
  0
LTYPE
  5
16
100
AcDbSymbolTableRecord
100
AcDbLinetypeTableRecord
  2
CONTINUOUS
 70
64
  3
Solid line
 72
65
 73
0
 40
0.0
  0
LTYPE
  5
1F5
100
AcDbSymbolTableRecord
100
AcDbLinetypeTableRecord
  2
CENTER
 70
64
  3
____ _ ____ _ ____ _ ____ _ ____ _ ____ _ ____
 72
65
 73
4
 40
0.6
 49
0.375
 74
0
 49
-0.075
 74
0
 49
0.075
 74
0
 49
-0.075
 74
0
  0
LTYPE
  5
1F6
100
AcDbSymbolTableRecord
100
AcDbLinetypeTableRecord
  2
HIDDEN
 70
64
  3
- - - - - - - - - - - - - - - - - - - -
 72
65
 73
2
 40
0.2
 49
0.1
 74
0
 49
-0.1
 74
0
  0
LTYPE
  5
1F7
100
AcDbSymbolTableRecord
100
AcDbLinetypeTableRecord
  2
PHANTOM
 70
64
  3
_____ _ _ _____ _ _ _____ _ _ _____
 72
65
 73
6
 40
0.8
 49
0.45
 74
0
 49
-0.05
 74
0
 49
0.1
 74
0
 49
-0.05
 74
0
 49
0.1
 74
0
 49
-0.05
 74
0
  0
LTYPE
  5
1F8
100
AcDbSymbolTableRecord
100
AcDbLinetypeTableRecord
  2
DOT
 70
64
  3
. . . . . . . . . . . . . . . . . . . .
 72
65
 73
2
 40
0.2
 49
0.1
 74
0
 49
-0.1
 74
0
  0
LTYPE
  5
1F9
100
AcDbSymbolTableRecord
100
AcDbLinetypeTableRecord
  2
DASHED
 70
64
  3
- - - - - - - - - - - - - - - - - - - -
 72
65
 73
2
 40
0.2
 49
0.1
 74
0
 49
-0.1
 74
0
  0
ENDTAB
  0
TABLE
  2
LAYER
  5
2
100
AcDbSymbolTable
 70
36
  0
LAYER
  5
10
100
AcDbSymbolTableRecord
100
AcDbLayerTableRecord
  2
0
 70
0
 62
7
  6
CONTINUOUS
370
-3
390
F
  0
LAYER
  5
1FA
100
AcDbSymbolTableRecord
100
AcDbLayerTableRecord
  2
DEFAULT_1
 70
0
 62
7
  6
CENTER
370
-3
390
F
  0
LAYER
  5
1FB
100
AcDbSymbolTableRecord
100
AcDbLayerTableRecord
  2
DEFAULT_2
 70
0
 62
8
  6
HIDDEN
370
-3
390
F
  0
LAYER
  5
1FC
100
AcDbSymbolTableRecord
100
AcDbLayerTableRecord
  2
DEFAULT_3
 70
0
 62
7
  6
PHANTOM
370
-3
390
F
  0
LAYER
  5
1FD
100
AcDbSymbolTableRecord
100
AcDbLayerTableRecord
  2
00_COMPONENTS
 70
0
 62
7
  6
CONTINUOUS
370
-3
390
F
  0
LAYER
  5
1FE
100
AcDbSymbolTableRecord
100
AcDbLayerTableRecord
  2
01_1_DEFAULT_DATUMS
 70
0
 62
7
  6
CONTINUOUS
370
-3
390
F
  0
LAYER
  5
1FF
100
AcDbSymbolTableRecord
100
AcDbLayerTableRecord
  2
01_PLANES
 70
0
 62
7
  6
CONTINUOUS
370
-3
390
F
  0
LAYER
  5
200
100
AcDbSymbolTableRecord
100
AcDbLayerTableRecord
  2
02_COORD_SYS
 70
0
 62
7
  6
CONTINUOUS
370
-3
390
F
  0
LAYER
  5
201
100
AcDbSymbolTableRecord
100
AcDbLayerTableRecord
  2
03_AXES
 70
0
 62
7
  6
CONTINUOUS
370
-3
390
F
  0
LAYER
  5
202
100
AcDbSymbolTableRecord
100
AcDbLayerTableRecord
  2
04_POINTS
 70
0
 62
7
  6
CONTINUOUS
370
-3
390
F
  0
LAYER
  5
203
100
AcDbSymbolTableRecord
100
AcDbLayerTableRecord
  2
05_CURVES
 70
0
 62
7
  6
CONTINUOUS
370
-3
390
F
  0
LAYER
  5
204
100
AcDbSymbolTableRecord
100
AcDbLayerTableRecord
  2
06_SURFS
 70
0
 62
7
  6
CONTINUOUS
370
-3
390
F
  0
LAYER
  5
205
100
AcDbSymbolTableRecord
100
AcDbLayerTableRecord
  2
07_COSMETICS
 70
0
 62
7
  6
CONTINUOUS
370
-3
390
F
  0
LAYER
  5
206
100
AcDbSymbolTableRecord
100
AcDbLayerTableRecord
  2
10_NOTES
 70
0
 62
7
  6
CONTINUOUS
370
-3
390
F
  0
LAYER
  5
207
100
AcDbSymbolTableRecord
100
AcDbLayerTableRecord
  2
11_NOTES_PUB
 70
0
 62
7
  6
CONTINUOUS
370
-3
390
F
  0
LAYER
  5
208
100
AcDbSymbolTableRecord
100
AcDbLayerTableRecord
  2
13_REF_GTOL
 70
0
 62
7
  6
CONTINUOUS
370
-3
390
F
  0
LAYER
  5
209
100
AcDbSymbolTableRecord
100
AcDbLayerTableRecord
  2
16_MISC
 70
0
 62
7
  6
CONTINUOUS
370
-3
390
F
  0
LAYER
  5
20A
100
AcDbSymbolTableRecord
100
AcDbLayerTableRecord
  2
17_NO_PRINT
 70
0
 62
7
  6
CONTINUOUS
370
-3
390
F
  0
LAYER
  5
20B
100
AcDbSymbolTableRecord
100
AcDbLayerTableRecord
  2
18_DATUM_CAMS_JOINTS
 70
0
 62
7
  6
CONTINUOUS
370
-3
390
F
  0
LAYER
  5
20C
100
AcDbSymbolTableRecord
100
AcDbLayerTableRecord
  2
19_DATUM_FUNCTIONAL
 70
0
 62
7
  6
CONTINUOUS
370
-3
390
F
  0
LAYER
  5
20D
100
AcDbSymbolTableRecord
100
AcDbLayerTableRecord
  2
20_DATUM_KINEMATIC_SCHEME
 70
0
 62
7
  6
CONTINUOUS
370
-3
390
F
  0
ENDTAB
  0
TABLE
  2
STYLE
  5
3
100
AcDbSymbolTable
 70
1
  0
STYLE
  5
11
100
AcDbSymbolTableRecord
100
AcDbTextStyleTableRecord
  2
STANDARD
 70
0
 40
0.0
 41
0.8
 50
0.0
 71
0
 42
0.2
  3
txt
  4

  0
STYLE
  5
20E
100
AcDbSymbolTableRecord
100
AcDbTextStyleTableRecord
  2
TEXTSTYLE_1
 70
0
 40
0.0
 41
0.8
 50
0.0
 71
0
 42
0.2
  3
gdt
  4

  0
ENDTAB
  0
TABLE
  2
VIEW
  5
6
100
AcDbSymbolTable
 70
0
  0
ENDTAB
  0
TABLE
  2
UCS
  5
7
100
AcDbSymbolTable
 70
0
  0
ENDTAB
  0
TABLE
  2
APPID
  5
9
100
AcDbSymbolTable
 70
1
  0
APPID
  5
20F
100
AcDbSymbolTableRecord
100
AcDbRegAppTableRecord
  2
ACAD
 70
0
  0
ENDTAB
  0
TABLE
  2
BLOCK_RECORD
  5
1
100
AcDbSymbolTable
 70
0
  0
BLOCK_RECORD
  5
210
100
AcDbSymbolTableRecord
100
AcDbBlockTableRecord
  2
*Model_Space
  0
BLOCK_RECORD
  5
211
100
AcDbSymbolTableRecord
100
AcDbBlockTableRecord
  2
*Paper_Space
  0
BLOCK_RECORD
  5
212
100
AcDbSymbolTableRecord
100
AcDbBlockTableRecord
  2
_FILLED
  0
ENDTAB
  0
TABLE
  2
DIMSTYLE
  5
A
100
AcDbSymbolTable
 70
1
100
AcDbDimStyleTable
 71
0
  0
DIMSTYLE
105
213
100
AcDbSymbolTableRecord
100
AcDbDimStyleTableRecord
  2
STANDARD
 70
0
  3

  4

 40
1.0
 41
2.0571119658
 42
1.0
 43
0.38
 44
1.0
 45
0.0
 46
0.0
 47
0.01
 48
0.01
140
2.8799567521
141
0.09
142
0.0
143
25.4
144
1.0
145
0.0
146
1.0
147
0.625
 71
1
 72
0
 73
0
 74
0
 75
0
 76
0
 77
1
 78
8
 79
2
170
0
171
1
172
0
173
0
174
0
175
0
176
0
177
0
178
0
270
2
179
2
271
2
272
2
273
2
274
2
275
0
280
0
281
0
282
0
283
1
284
8
285
0
286
0
287
3
288
0
340
11
278
46
341
212
342
212
343
212
344
212
  0
ENDTAB
  0
ENDSEC
  0
SECTION
  2
BLOCKS
  0
BLOCK
  5
20
100
AcDbEntity
  8
0
100
AcDbBlockBegin
  2
*Model_Space
 70
0
 10
0.0
 20
0.0
 30
0.0
  3
*Model_Space
  1

  0
ENDBLK
  5
21
100
AcDbEntity
  8
0
100
AcDbBlockEnd
  0
BLOCK
  5
1C
100
AcDbEntity
  8
0
100
AcDbBlockBegin
  2
*Paper_Space
 70
0
 10
0.0
 20
0.0
 30
0.0
  3
*Paper_Space
  1

  0
ENDBLK
  5
1D
100
AcDbEntity
  8
0
100
AcDbBlockEnd
  0
BLOCK
  5
214
100
AcDbEntity
  8
0
100
AcDbBlockBegin
  2
_FILLED
 70
64
 10
0.0
 20
0.0
  3
_FILLED
  1

  0
SOLID
  5
215
100
AcDbEntity
  8
0
  6
BYBLOCK
 62
0
100
AcDbTrace
 10
0.0
 20
0.0
 11
-1.0
 21
0.25
 12
-1.0
 22
-0.25
 13
-1.0
 23
-0.25
  0
ENDBLK
  5
216
100
AcDbEntity
  8
0
  6
BYBLOCK
 62
0
100
AcDbBlockEnd
  0
ENDSEC
  0
SECTION
  2
ENTITIES
  0
LINE
  5
217
100
AcDbEntity
  8
0
100
AcDbLine
 62
7
  6
CONTINUOUS
 10
29.5443261941
 20
212.4924507659
 11
25.8943261941
 21
211.1924507659
  0
LINE
  5
218
100
AcDbEntity
  8
0
100
AcDbLine
 62
7
  6
CONTINUOUS
 10
132.7438998969
 20
24.6924507659
 11
119.7447521054
 21
24.6924507659
  0
LINE
  5
219
100
AcDbEntity
  8
0
100
AcDbLine
 62
7
  6
CONTINUOUS
 10
133.2443261941
 20
25.1924507659
 11
119.2443261941
 21
25.1924507659
  0
LINE
  5
21A
100
AcDbEntity
  8
0
100
AcDbLine
 62
7
  6
CONTINUOUS
 10
84.2443261941
 20
216.0424507659
 11
83.5372194129
 21
215.7495575471
  0
LINE
  5
21B
100
AcDbEntity
  8
0
100
AcDbLine
 62
7
  6
CONTINUOUS
 10
107.0821941598
 20
219.1045828002
 11
107.2943261941
 21
219.1924507659
  0
LINE
  5
21C
100
AcDbEntity
  8
0
100
AcDbLine
 62
7
  6
CONTINUOUS
 10
133.7343261941
 20
48.6924507659
 11
118.7543261941
 21
48.6924507659
  0
LINE
  5
21D
100
AcDbEntity
  8
0
100
AcDbLine
 62
7
  6
CONTINUOUS
 10
140.7443261941
 20
49.1924507659
 11
111.7443261941
 21
49.1924507659
  0
LINE
  5
21E
100
AcDbEntity
  8
0
100
AcDbLine
 62
7
  6
CONTINUOUS
 10
141.2443261941
 20
49.6924507659
 11
111.2443261941
 21
49.6924507659
  0
LINE
  5
21F
100
AcDbEntity
  8
0
100
AcDbLine
 62
7
  6
CONTINUOUS
 10
111.2443261941
 20
51.1924507659
 11
141.2443261941
 21
51.1924507659
  0
LINE
  5
220
100
AcDbEntity
  8
0
100
AcDbLine
 62
7
  6
CONTINUOUS
 10
150.7443261941
 20
51.6924507659
 11
101.7443261941
 21
51.6924507659
  0
LINE
  5
221
100
AcDbEntity
  8
0
100
AcDbLine
 62
7
  6
CONTINUOUS
 10
19.5443261941
 20
215.5574507659
 11
19.5443261941
 21
212.1074507659
  0
LINE
  5
222
100
AcDbEntity
  8
0
100
AcDbLine
 62
7
  6
CONTINUOUS
 10
19.5443261941
 20
211.4174507659
 11
19.5443261941
 21
207.9674507659
  0
LINE
  5
223
100
AcDbEntity
  8
0
100
AcDbLine
 62
7
  6
CONTINUOUS
 10
19.5443261941
 20
207.2774507659
 11
19.5443261941
 21
203.8274507659
  0
LINE
  5
224
100
AcDbEntity
  8
0
100
AcDbLine
 62
7
  6
CONTINUOUS
 10
23.3943261941
 20
93.5424507659
 11
23.3943261941
 21
96.9424507659
  0
LINE
  5
225
100
AcDbEntity
  8
0
100
AcDbLine
 62
7
  6
CONTINUOUS
 10
23.3943261941
 20
97.7424507659
 11
23.3943261941
 21
101.1424507659
  0
LINE
  5
226
100
AcDbEntity
  8
0
100
AcDbLine
 62
7
  6
CONTINUOUS
 10
23.5443261941
 20
208.1924507659
 11
23.5443261941
 21
211.1924507659
  0
LINE
  5
227
100
AcDbEntity
  8
0
100
AcDbLine
 62
7
  6
CONTINUOUS
 10
24.3943261941
 20
208.1924507659
 11
24.3943261941
 21
211.1924507659
  0
LINE
  5
228
100
AcDbEntity
  8
0
100
AcDbLine
 62
7
  6
CONTINUOUS
 10
140.0821941598
 20
219.1045828002
 11
140.2943261941
 21
219.1924507659
  0
LINE
  5
229
100
AcDbEntity
  8
0
100
AcDbLine
 62
7
  6
CONTINUOUS
 10
151.2443261941
 20
52.1924507659
 11
101.2443261941
 21
52.1924507659
  0
LINE
  5
22A
100
AcDbEntity
  8
0
100
AcDbLine
 62
7
  6
CONTINUOUS
 10
96.2443261941
 20
54.6924507659
 11
156.2443261941
 21
54.6924507659
  0
LINE
  5
22B
100
AcDbEntity
  8
0
100
AcDbLine
 62
7
  6
CONTINUOUS
 10
28.9943261941
 20
102.2424507659
 11
28.8630931988
 21
103.7424507659
  0
LINE
  5
22C
100
AcDbEntity
  8
0
100
AcDbLine
 62
7
  6
CONTINUOUS
 10
25.8943261941
 20
210.1924507659
 11
25.8943261941
 21
209.1924507659
  0
LINE
  5
22D
100
AcDbEntity
  8
0
100
AcDbLine
 62
7
  6
CONTINUOUS
 10
25.9943261941
 20
105.0424507659
 11
25.9943261941
 21
103.7424507659
  0
LINE
  5
22E
100
AcDbEntity
  8
0
100
AcDbLine
 62
7
  6
CONTINUOUS
 10
26.7603515979
 20
210.1924507659
 11
26.7603515979
 21
209.1924507659
  0
LINE
  5
22F
100
AcDbEntity
  8
0
100
AcDbLine
 62
7
  6
CONTINUOUS
 10
28.8443261941
 20
202.6924507659
 11
28.8443261941
 21
207.1417658344
  0
LINE
  5
230
100
AcDbEntity
  8
0
100
AcDbLine
 62
7
  6
CONTINUOUS
 10
28.8443261941
 20
212.2431356974
 11
28.8443261941
 21
217.1924306104
  0
LINE
  5
231
100
AcDbEntity
  8
0
100
AcDbLine
 62
7
  6
CONTINUOUS
 10
32.2943261941
 20
92.3924709214
 11
32.2943261941
 21
102.2424507659
  0
LINE
  5
232
100
AcDbEntity
  8
0
100
AcDbLine
 62
7
  6
CONTINUOUS
 10
96.2443261941
 20
62.1924507659
 11
108.7443261942
 21
62.1924507659
  0
LINE
  5
233
100
AcDbEntity
  8
0
100
AcDbLine
 62
7
  6
CONTINUOUS
 10
143.744326194
 20
62.1924507659
 11
156.2443261941
 21
62.1924507659
  0
LINE
  5
234
100
AcDbEntity
  8
0
100
AcDbLine
 62
7
  6
CONTINUOUS
 10
25.9943261941
 20
103.7424507659
 11
27.4943261941
 21
102.2424507659
  0
LINE
  5
235
100
AcDbEntity
  8
0
100
AcDbLine
 62
7
  6
CONTINUOUS
 10
33.5443261941
 20
105.0424507659
 11
33.5443261941
 21
102.5424507659
  0
LINE
  5
236
100
AcDbEntity
  8
0
100
AcDbLine
 62
7
  6
CONTINUOUS
 10
35.0443261941
 20
102.5424507659
 11
35.0443261941
 21
103.4424507659
  0
LINE
  5
237
100
AcDbEntity
  8
0
100
AcDbLine
 62
7
  6
CONTINUOUS
 10
36.0443261941
 20
206.8924507659
 11
36.0443261941
 21
209.1924507659
  0
LINE
  5
238
100
AcDbEntity
  8
0
100
AcDbLine
 62
7
  6
CONTINUOUS
 10
36.0443261941
 20
210.1924507659
 11
36.0443261941
 21
212.4924507659
  0
LINE
  5
239
100
AcDbEntity
  8
0
100
AcDbLine
 62
7
  6
CONTINUOUS
 10
37.0443261941
 20
206.8924507659
 11
37.0443261941
 21
212.4924507659
  0
LINE
  5
23A
100
AcDbEntity
  8
0
100
AcDbLine
 62
7
  6
CONTINUOUS
 10
39.2443261941
 20
217.6924507659
 11
39.2443261941
 21
201.6924507659
  0
LINE
  5
23B
100
AcDbEntity
  8
0
100
AcDbLine
 62
7
  6
CONTINUOUS
 10
39.2943261941
 20
106.0424507659
 11
39.2943261941
 21
105.7424507659
  0
LINE
  5
23C
100
AcDbEntity
  8
0
100
AcDbLine
 62
7
  6
CONTINUOUS
 10
40.4943261941
 20
91.2924507659
 11
40.4943261941
 21
103.5924507659
  0
LINE
  5
23D
100
AcDbEntity
  8
0
100
AcDbLine
 62
7
  6
CONTINUOUS
 10
40.7943261941
 20
104.128776816
 11
40.7943261941
 21
106.0424507659
  0
LINE
  5
23E
100
AcDbEntity
  8
0
100
AcDbLine
 62
7
  6
CONTINUOUS
 10
85.2443261941
 20
216.0424507659
 11
85.7639414364
 21
216.9424507659
  0
LINE
  5
23F
100
AcDbEntity
  8
0
100
AcDbLine
 62
7
  6
CONTINUOUS
 10
42.9943261941
 20
91.2924507659
 11
42.9943261941
 21
103.5924507659
  0
LINE
  5
240
100
AcDbEntity
  8
0
100
AcDbLine
 62
7
  6
CONTINUOUS
 10
49.2443261941
 20
217.6924507659
 11
49.2443261941
 21
201.6924507659
  0
LINE
  5
241
100
AcDbEntity
  8
0
100
AcDbLine
 62
7
  6
CONTINUOUS
 10
83.5372194129
 20
215.7495575471
 11
83.2443261941
 21
215.0424507659
  0
LINE
  5
242
100
AcDbEntity
  8
0
100
AcDbLine
 62
7
  6
CONTINUOUS
 10
119.7443261941
 20
24.6924507659
 11
119.2443261941
 21
25.1924507659
  0
LINE
  5
243
100
AcDbEntity
  8
0
100
AcDbLine
 62
7
  6
CONTINUOUS
 10
101.2443261941
 20
52.1924507659
 11
101.7443261941
 21
51.6924507659
  0
LINE
  5
244
100
AcDbEntity
  8
0
100
AcDbLine
 62
7
  6
CONTINUOUS
 10
26.6943261941
 20
105.7424507659
 11
25.9943261941
 21
105.0424507659
  0
LINE
  5
245
100
AcDbEntity
  8
0
100
AcDbLine
 62
7
  6
CONTINUOUS
 10
42.9943261941
 20
91.2924507659
 11
40.4943261941
 21
91.2924507659
  0
LINE
  5
246
100
AcDbEntity
  8
0
100
AcDbLine
 62
7
  6
CONTINUOUS
 10
111.2443261941
 20
49.6924507659
 11
111.7443261941
 21
49.1924507659
  0
LINE
  5
247
100
AcDbEntity
  8
0
100
AcDbLine
 62
7
  6
CONTINUOUS
 10
57.9943261941
 20
93.4374507659
 11
57.9943261941
 21
101.4474507659
  0
LINE
  5
248
100
AcDbEntity
  8
0
100
AcDbLine
 62
7
  6
CONTINUOUS
 10
58.2443261941
 20
201.6924507659
 11
58.2443261941
 21
217.6924507659
  0
LINE
  5
249
100
AcDbEntity
  8
0
100
AcDbLine
 62
7
  6
CONTINUOUS
 10
62.9943261941
 20
101.4469155921
 11
62.9943261941
 21
93.4379859396
  0
LINE
  5
24A
100
AcDbEntity
  8
0
100
AcDbLine
 62
7
  6
CONTINUOUS
 10
63.2443261941
 20
201.6924507659
 11
63.2443261941
 21
217.6924507659
  0
LINE
  5
24B
100
AcDbEntity
  8
0
100
AcDbLine
 62
7
  6
CONTINUOUS
 10
39.2943261941
 20
105.7424507659
 11
38.7943261941
 21
105.0424507659
  0
LINE
  5
24C
100
AcDbEntity
  8
0
100
AcDbLine
 62
7
  6
CONTINUOUS
 10
42.9943261957
 20
91.2924507659
 11
57.9943261211
 21
93.4374507659
  0
LINE
  5
24D
100
AcDbEntity
  8
0
100
AcDbLine
 62
7
  6
CONTINUOUS
 10
42.9943261941
 20
91.9424507659
 11
40.4943261941
 21
91.9424507659
  0
LINE
  5
24E
100
AcDbEntity
  8
0
100
AcDbLine
 62
7
  6
CONTINUOUS
 10
32.2943261941
 20
92.3924507659
 11
40.4943261941
 21
92.3924507659
  0
LINE
  5
24F
100
AcDbEntity
  8
0
100
AcDbLine
 62
7
  6
CONTINUOUS
 10
32.2943261941
 20
92.6424507659
 11
40.4943261941
 21
92.6424507659
  0
LINE
  5
250
100
AcDbEntity
  8
0
100
AcDbLine
 62
7
  6
CONTINUOUS
 10
62.9943261941
 20
93.4374507659
 11
57.9943261211
 21
93.4374507659
  0
LINE
  5
251
100
AcDbEntity
  8
0
100
AcDbLine
 62
7
  6
CONTINUOUS
 10
32.2943261941
 20
93.5424507659
 11
23.3943261941
 21
93.5424507659
  0
LINE
  5
252
100
AcDbEntity
  8
0
100
AcDbLine
 62
7
  6
CONTINUOUS
 10
62.9943261941
 20
93.7424507659
 11
79.9943261941
 21
93.7424507659
  0
LINE
  5
253
100
AcDbEntity
  8
0
100
AcDbLine
 62
7
  6
CONTINUOUS
 10
32.2943261941
 20
94.2924507659
 11
23.3943261941
 21
94.2924507659
  0
LINE
  5
254
100
AcDbEntity
  8
0
100
AcDbLine
 62
7
  6
CONTINUOUS
 10
32.2943261941
 20
96.9424507659
 11
23.3943261941
 21
96.9424507659
  0
LINE
  5
255
100
AcDbEntity
  8
0
100
AcDbLine
 62
7
  6
CONTINUOUS
 10
32.2943261941
 20
97.7424507659
 11
23.3943261941
 21
97.7424507659
  0
LINE
  5
256
100
AcDbEntity
  8
0
100
AcDbLine
 62
7
  6
CONTINUOUS
 10
57.9943261211
 20
101.4474507659
 11
42.9943261957
 21
103.5924507659
  0
LINE
  5
257
100
AcDbEntity
  8
0
100
AcDbLine
 62
7
  6
CONTINUOUS
 10
42.9943261941
 20
102.9424507628
 11
57.9943261496
 21
100.2974968149
  0
LINE
  5
258
100
AcDbEntity
  8
0
100
AcDbLine
 62
7
  6
CONTINUOUS
 10
42.9943261941
 20
103.5924507659
 11
57.9943144462
 21
100.6746095054
  0
LINE
  5
259
100
AcDbEntity
  8
0
100
AcDbLine
 62
7
  6
CONTINUOUS
 10
106.9943261941
 20
218.8924507659
 11
107.0821941598
 21
219.1045828002
  0
LINE
  5
25A
100
AcDbEntity
  8
0
100
AcDbLine
 62
7
  6
CONTINUOUS
 10
42.9943261941
 20
91.2924507659
 11
57.9943261497
 21
94.2566950347
  0
LINE
  5
25B
100
AcDbEntity
  8
0
100
AcDbLine
 62
7
  6
CONTINUOUS
 10
42.994326194
 20
91.9424507659
 11
57.9943251747
 21
94.6423293517
  0
LINE
  5
25C
100
AcDbEntity
  8
0
100
AcDbLine
 62
7
  6
CONTINUOUS
 10
32.2943261941
 20
101.1424507659
 11
23.3943261941
 21
101.1424507659
  0
LINE
  5
25D
100
AcDbEntity
  8
0
100
AcDbLine
 62
7
  6
CONTINUOUS
 10
62.9943261941
 20
101.1424507659
 11
79.9943261941
 21
101.1424507659
  0
LINE
  5
25E
100
AcDbEntity
  8
0
100
AcDbLine
 62
7
  6
CONTINUOUS
 10
62.9943261941
 20
101.4474507659
 11
57.9943261211
 21
101.4474507659
  0
LINE
  5
25F
100
AcDbEntity
  8
0
100
AcDbLine
 62
7
  6
CONTINUOUS
 10
40.4943261941
 20
102.2424507659
 11
32.2943261941
 21
102.2424507659
  0
LINE
  5
260
100
AcDbEntity
  8
0
100
AcDbLine
 62
7
  6
CONTINUOUS
 10
27.4943261941
 20
102.2424507659
 11
28.9943261941
 21
102.2424507659
  0
LINE
  5
261
100
AcDbEntity
  8
0
100
AcDbLine
 62
7
  6
CONTINUOUS
 10
42.9943261941
 20
102.9424507438
 11
40.4943261941
 21
102.9424507659
  0
LINE
  5
262
100
AcDbEntity
  8
0
100
AcDbLine
 62
7
  6
CONTINUOUS
 10
42.9943261941
 20
103.5924507659
 11
40.4943261941
 21
103.5924507659
  0
LINE
  5
263
100
AcDbEntity
  8
0
100
AcDbLine
 62
7
  6
CONTINUOUS
 10
28.8630931988
 20
103.7424507659
 11
33.5443261941
 21
103.7424507659
  0
LINE
  5
264
100
AcDbEntity
  8
0
100
AcDbLine
 62
7
  6
CONTINUOUS
 10
38.7943261941
 20
105.0424507659
 11
33.5443261941
 21
105.0424507659
  0
LINE
  5
265
100
AcDbEntity
  8
0
100
AcDbLine
 62
7
  6
CONTINUOUS
 10
39.2943261941
 20
105.7424507659
 11
26.6943261941
 21
105.7424507659
  0
LINE
  5
266
100
AcDbEntity
  8
0
100
AcDbLine
 62
7
  6
CONTINUOUS
 10
40.7943261941
 20
106.0424507659
 11
39.2943261941
 21
106.0424507659
  0
LINE
  5
267
100
AcDbEntity
  8
0
100
AcDbLine
 62
7
  6
CONTINUOUS
 10
79.9943261941
 20
101.1424507659
 11
79.9943261941
 21
93.7424507659
  0
LINE
  5
268
100
AcDbEntity
  8
0
100
AcDbLine
 62
7
  6
CONTINUOUS
 10
35.2268950456
 20
103.6416897055
 11
40.7943261941
 21
104.128776816
  0
LINE
  5
269
100
AcDbEntity
  8
0
100
AcDbLine
 62
7
  6
CONTINUOUS
 10
93.6943261941
 20
107.4424507659
 11
86.2943261941
 21
107.4424507659
  0
LINE
  5
26A
100
AcDbEntity
  8
0
100
AcDbLine
 62
7
  6
CONTINUOUS
 10
95.7443261941
 20
108.9424507659
 11
96.2443261941
 21
108.9424507659
  0
LINE
  5
26B
100
AcDbEntity
  8
0
100
AcDbLine
 62
7
  6
CONTINUOUS
 10
82.2399629273
 20
109.8102634818
 11
81.7443261941
 21
109.8102634818
  0
LINE
  5
26C
100
AcDbEntity
  8
0
100
AcDbLine
 62
7
  6
CONTINUOUS
 10
96.2443261941
 20
109.9424507659
 11
95.7443261941
 21
109.9424507659
  0
LINE
  5
26D
100
AcDbEntity
  8
0
100
AcDbLine
 62
7
  6
CONTINUOUS
 10
95.7443261941
 20
108.6924507659
 11
82.2399629295
 21
108.8103015587
  0
LINE
  5
26E
100
AcDbEntity
  8
0
100
AcDbLine
 62
7
  6
CONTINUOUS
 10
82.2399629236
 20
109.8102634818
 11
95.7443261784
 21
109.6924253835
  0
LINE
  5
26F
100
AcDbEntity
  8
0
100
AcDbLine
 62
7
  6
CONTINUOUS
 10
81.7443261941
 20
109.3102821194
 11
81.7443261941
 21
136.0746193897
  0
LINE
  5
270
100
AcDbEntity
  8
0
100
AcDbLine
 62
7
  6
CONTINUOUS
 10
82.2355999909
 20
121.1536607871
 11
82.2355999909
 21
126.2312407446
  0
LINE
  5
271
100
AcDbEntity
  8
0
100
AcDbLine
 62
7
  6
CONTINUOUS
 10
82.2399629236
 20
135.5746380499
 11
82.2399629311
 21
127.2311645951
  0
LINE
  5
272
100
AcDbEntity
  8
0
100
AcDbLine
 62
7
  6
CONTINUOUS
 10
82.239962931
 20
120.1537369366
 11
82.2399629236
 21
109.8102634818
  0
LINE
  5
273
100
AcDbEntity
  8
0
100
AcDbLine
 62
7
  6
CONTINUOUS
 10
82.2443261941
 20
121.5924508612
 11
82.2443261941
 21
125.7924506705
  0
LINE
  5
274
100
AcDbEntity
  8
0
100
AcDbLine
 62
7
  6
CONTINUOUS
 10
82.4943261941
 20
121.3424508612
 11
82.4943261941
 21
126.0424506705
  0
LINE
  5
275
100
AcDbEntity
  8
0
100
AcDbLine
 62
7
  6
CONTINUOUS
 10
83.2443261941
 20
204.3424507659
 11
83.2443261941
 21
215.0424507659
  0
LINE
  5
276
100
AcDbEntity
  8
0
100
AcDbLine
 62
7
  6
CONTINUOUS
 10
84.2443261941
 20
203.3424507659
 11
84.2443261941
 21
216.0424507659
  0
LINE
  5
277
100
AcDbEntity
  8
0
100
AcDbLine
 62
7
  6
CONTINUOUS
 10
84.7443261941
 20
120.1974388502
 11
84.7443261941
 21
127.1874873575
  0
LINE
  5
278
100
AcDbEntity
  8
0
100
AcDbLine
 62
7
  6
CONTINUOUS
 10
85.2443261941
 20
216.0424507659
 11
85.2443261941
 21
203.3424507659
  0
LINE
  5
279
100
AcDbEntity
  8
0
100
AcDbLine
 62
7
  6
CONTINUOUS
 10
85.7639414364
 20
202.4424507659
 11
85.7639414364
 21
202.457631569
  0
LINE
  5
27A
100
AcDbEntity
  8
0
100
AcDbLine
 62
7
  6
CONTINUOUS
 10
85.7639414364
 20
205.6689397136
 11
85.7639414364
 21
206.4811426212
  0
LINE
  5
27B
100
AcDbEntity
  8
0
100
AcDbLine
 62
7
  6
CONTINUOUS
 10
85.7639414364
 20
212.9037589105
 11
85.7639414364
 21
213.7159618181
  0
LINE
  5
27C
100
AcDbEntity
  8
0
100
AcDbLine
 62
7
  6
CONTINUOUS
 10
85.7639414364
 20
216.9272699628
 11
85.7639414364
 21
216.9424507659
  0
LINE
  5
27D
100
AcDbEntity
  8
0
100
AcDbLine
 62
7
  6
CONTINUOUS
 10
86.2943261941
 20
107.4424507659
 11
86.2943261941
 21
108.7749196665
  0
LINE
  5
27E
100
AcDbEntity
  8
0
100
AcDbLine
 62
7
  6
CONTINUOUS
 10
87.7443261941
 20
190.1924507659
 11
87.7443261941
 21
219.1924507659
  0
LINE
  5
27F
100
AcDbEntity
  8
0
100
AcDbLine
 62
7
  6
CONTINUOUS
 10
88.237781401
 20
191.1924507659
 11
88.237781401
 21
218.1924507659
  0
LINE
  5
280
100
AcDbEntity
  8
0
100
AcDbLine
 62
7
  6
CONTINUOUS
 10
82.239962931
 20
120.1537369366
 11
84.7443261941
 21
120.1974507601
  0
LINE
  5
281
100
AcDbEntity
  8
0
100
AcDbLine
 62
7
  6
CONTINUOUS
 10
84.7443261941
 20
121.1974507659
 11
82.2355999956
 21
121.1536607872
  0
LINE
  5
282
100
AcDbEntity
  8
0
100
AcDbLine
 62
7
  6
CONTINUOUS
 10
81.7443261941
 20
120.1537369366
 11
82.2399629273
 21
120.1537369366
  0
LINE
  5
283
100
AcDbEntity
  8
0
100
AcDbLine
 62
7
  6
CONTINUOUS
 10
84.7443261941
 20
121.3424508612
 11
82.4943261941
 21
121.3424508612
  0
LINE
  5
284
100
AcDbEntity
  8
0
100
AcDbLine
 62
7
  6
CONTINUOUS
 10
93.6943261941
 20
107.4424507659
 11
93.6943261941
 21
108.7103408449
  0
LINE
  5
285
100
AcDbEntity
  8
0
100
AcDbLine
 62
7
  6
CONTINUOUS
 10
95.7443261941
 20
136.6924507659
 11
95.7443261941
 21
108.6924507659
  0
LINE
  5
286
100
AcDbEntity
  8
0
100
AcDbLine
 62
7
  6
CONTINUOUS
 10
96.2443261941
 20
185.6924507659
 11
96.2443261941
 21
54.6924507659
  0
LINE
  5
287
100
AcDbEntity
  8
0
100
AcDbLine
 62
7
  6
CONTINUOUS
 10
95.822827096
 20
191.1924507659
 11
96.1762764763
 21
218.1924507656
  0
LINE
  5
288
100
AcDbEntity
  8
0
100
AcDbLine
 62
7
  6
CONTINUOUS
 10
96.2443261958
 20
185.6924508981
 11
96.6829508933
 21
219.1989956244
  0
LINE
  5
289
100
AcDbEntity
  8
0
100
AcDbLine
 62
7
  6
CONTINUOUS
 10
84.7443261941
 20
126.0424506705
 11
82.4943261941
 21
126.0424506705
  0
LINE
  5
28A
100
AcDbEntity
  8
0
100
AcDbLine
 62
7
  6
CONTINUOUS
 10
82.2399629273
 20
127.2311645951
 11
81.7443261941
 21
127.2311645951
  0
LINE
  5
28B
100
AcDbEntity
  8
0
100
AcDbLine
 62
7
  6
CONTINUOUS
 10
82.2355999956
 20
126.2312407446
 11
84.7443261941
 21
126.1874507659
  0
LINE
  5
28C
100
AcDbEntity
  8
0
100
AcDbLine
 62
7
  6
CONTINUOUS
 10
84.7443261941
 20
127.1874507717
 11
82.2399629311
 21
127.2311645951
  0
LINE
  5
28D
100
AcDbEntity
  8
0
100
AcDbLine
 62
7
  6
CONTINUOUS
 10
96.9943261941
 20
183.1924507659
 11
96.9943261941
 21
184.8924507659
  0
LINE
  5
28E
100
AcDbEntity
  8
0
100
AcDbLine
 62
7
  6
CONTINUOUS
 10
97.7443261941
 20
185.1924507659
 11
97.7443261941
 21
185.6924507659
  0
LINE
  5
28F
100
AcDbEntity
  8
0
100
AcDbLine
 62
7
  6
CONTINUOUS
 10
98.7443261941
 20
62.1924507659
 11
98.7443261941
 21
183.1924507659
  0
LINE
  5
290
100
AcDbEntity
  8
0
100
AcDbLine
 62
7
  6
CONTINUOUS
 10
99.1827367115
 20
219.1989955543
 11
99.1827367115
 21
219.6924507659
  0
LINE
  5
291
100
AcDbEntity
  8
0
100
AcDbLine
 62
7
  6
CONTINUOUS
 10
99.7443261941
 20
185.6924507659
 11
99.7443261941
 21
185.1924507659
  0
LINE
  5
292
100
AcDbEntity
  8
0
100
AcDbLine
 62
7
  6
CONTINUOUS
 10
101.2443261941
 20
52.1924507659
 11
101.2443261941
 21
62.1924507659
  0
LINE
  5
293
100
AcDbEntity
  8
0
100
AcDbLine
 62
7
  6
CONTINUOUS
 10
102.2443261941
 20
219.6924507659
 11
102.2443261941
 21
185.6924507659
  0
LINE
  5
294
100
AcDbEntity
  8
0
100
AcDbLine
 62
7
  6
CONTINUOUS
 10
102.2443261941
 20
183.1924507659
 11
102.2443261941
 21
62.1924507659
  0
LINE
  5
295
100
AcDbEntity
  8
0
100
AcDbLine
 62
7
  6
CONTINUOUS
 10
102.4943261941
 20
183.1924507659
 11
102.4943261941
 21
184.8924507659
  0
LINE
  5
296
100
AcDbEntity
  8
0
100
AcDbLine
 62
7
  6
CONTINUOUS
 10
102.5614371433
 20
185.6924507659
 11
102.5614371433
 21
183.1924507659
  0
LINE
  5
297
100
AcDbEntity
  8
0
100
AcDbLine
 62
7
  6
CONTINUOUS
 10
103.5658614299
 20
185.6924507659
 11
103.5658614299
 21
183.1924507659
  0
LINE
  5
298
100
AcDbEntity
  8
0
100
AcDbLine
 62
7
  6
CONTINUOUS
 10
99.1827367115
 20
219.198995545
 11
98.7441834453
 21
185.6924517002
  0
LINE
  5
299
100
AcDbEntity
  8
0
100
AcDbLine
 62
7
  6
CONTINUOUS
 10
139.9943261941
 20
218.8924507659
 11
140.0821941598
 21
219.1045828002
  0
LINE
  5
29A
100
AcDbEntity
  8
0
100
AcDbLine
 62
7
  6
CONTINUOUS
 10
95.7443261784
 20
135.6924761483
 11
82.2399629236
 21
135.5746380499
  0
LINE
  5
29B
100
AcDbEntity
  8
0
100
AcDbLine
 62
7
  6
CONTINUOUS
 10
82.2399629295
 20
136.5745999731
 11
95.7443261941
 21
136.6924507659
  0
LINE
  5
29C
100
AcDbEntity
  8
0
100
AcDbLine
 62
7
  6
CONTINUOUS
 10
95.7443261941
 20
135.4424507659
 11
96.2443261941
 21
135.4424507659
  0
LINE
  5
29D
100
AcDbEntity
  8
0
100
AcDbLine
 62
7
  6
CONTINUOUS
 10
81.7443261941
 20
135.57463805
 11
82.2399629273
 21
135.57463805
  0
LINE
  5
29E
100
AcDbEntity
  8
0
100
AcDbLine
 62
7
  6
CONTINUOUS
 10
96.2443261941
 20
136.4424507659
 11
95.7443261941
 21
136.4424507659
  0
LINE
  5
29F
100
AcDbEntity
  8
0
100
AcDbLine
 62
7
  6
CONTINUOUS
 10
106.2443261941
 20
62.1924507659
 11
106.2443261941
 21
185.6924507927
  0
LINE
  5
2A0
100
AcDbEntity
  8
0
100
AcDbLine
 62
7
  6
CONTINUOUS
 10
106.9943261941
 20
216.1924507659
 11
106.9943261941
 21
218.8924507659
  0
LINE
  5
2A1
100
AcDbEntity
  8
0
100
AcDbLine
 62
7
  6
CONTINUOUS
 10
107.740258524
 20
219.1924507673
 11
107.740258524
 21
219.6924507659
  0
LINE
  5
2A2
100
AcDbEntity
  8
0
100
AcDbLine
 62
7
  6
CONTINUOUS
 10
108.7442191038
 20
185.6924507793
 11
108.7443261941
 21
62.1924507659
  0
LINE
  5
2A3
100
AcDbEntity
  8
0
100
AcDbLine
 62
7
  6
CONTINUOUS
 10
109.7443261941
 20
219.6924507659
 11
109.7443261941
 21
219.1924507673
  0
LINE
  5
2A4
100
AcDbEntity
  8
0
100
AcDbLine
 62
7
  6
CONTINUOUS
 10
111.2443261941
 20
51.1924507659
 11
111.2443261941
 21
49.6924507659
  0
LINE
  5
2A5
100
AcDbEntity
  8
0
100
AcDbLine
 62
7
  6
CONTINUOUS
 10
112.4943261941
 20
216.1924507659
 11
112.4943261941
 21
218.8924507659
  0
LINE
  5
2A6
100
AcDbEntity
  8
0
100
AcDbLine
 62
7
  6
CONTINUOUS
 10
106.2443261945
 20
185.6924507927
 11
106.6435930669
 21
216.1924508982
  0
LINE
  5
2A7
100
AcDbEntity
  8
0
100
AcDbLine
 62
7
  6
CONTINUOUS
 10
109.1433788841
 20
216.1924507659
 11
108.7442191038
 21
185.6924507793
  0
LINE
  5
2A8
100
AcDbEntity
  8
0
100
AcDbLine
 62
7
  6
CONTINUOUS
 10
112.9943261941
 20
219.1924507612
 11
112.9943261941
 21
216.1924507659
  0
LINE
  5
2A9
100
AcDbEntity
  8
0
100
AcDbLine
 62
7
  6
CONTINUOUS
 10
114.4943261941
 20
216.1924507659
 11
114.4943261941
 21
219.6924507659
  0
LINE
  5
2AA
100
AcDbEntity
  8
0
100
AcDbLine
 62
7
  6
CONTINUOUS
 10
118.7543261941
 20
49.1924507659
 11
118.7543261941
 21
48.6924507659
  0
LINE
  5
2AB
100
AcDbEntity
  8
0
100
AcDbLine
 62
7
  6
CONTINUOUS
 10
119.2443261941
 20
48.6924507659
 11
119.2443261941
 21
25.1924507659
  0
LINE
  5
2AC
100
AcDbEntity
  8
0
100
AcDbLine
 62
7
  6
CONTINUOUS
 10
83.5372194129
 20
203.6353439847
 11
83.2443261941
 21
204.3424507659
  0
LINE
  5
2AD
100
AcDbEntity
  8
0
100
AcDbLine
 62
7
  6
CONTINUOUS
 10
85.2443261941
 20
203.3424507659
 11
85.7639414364
 21
202.4424507659
  0
LINE
  5
2AE
100
AcDbEntity
  8
0
100
AcDbLine
 62
7
  6
CONTINUOUS
 10
133.2443261941
 20
48.6924507659
 11
133.2443261941
 21
25.1924507659
  0
LINE
  5
2AF
100
AcDbEntity
  8
0
100
AcDbLine
 62
7
  6
CONTINUOUS
 10
133.7343261941
 20
49.1924507659
 11
133.7343261941
 21
48.6924507659
  0
LINE
  5
2B0
100
AcDbEntity
  8
0
100
AcDbLine
 62
7
  6
CONTINUOUS
 10
137.9943261941
 20
219.6924507659
 11
137.9943261941
 21
216.1924507659
  0
LINE
  5
2B1
100
AcDbEntity
  8
0
100
AcDbLine
 62
7
  6
CONTINUOUS
 10
139.4943261941
 20
216.1924507659
 11
139.4943261941
 21
219.1924507612
  0
LINE
  5
2B2
100
AcDbEntity
  8
0
100
AcDbLine
 62
7
  6
CONTINUOUS
 10
139.9943261941
 20
216.1924507659
 11
139.9943261941
 21
218.8924507659
  0
LINE
  5
2B3
100
AcDbEntity
  8
0
100
AcDbLine
 62
7
  6
CONTINUOUS
 10
141.2443261941
 20
51.1924507659
 11
141.2443261941
 21
49.6924507659
  0
LINE
  5
2B4
100
AcDbEntity
  8
0
100
AcDbLine
 62
7
  6
CONTINUOUS
 10
142.7443261941
 20
219.192450767
 11
142.7443261941
 21
219.6924507659
  0
LINE
  5
2B5
100
AcDbEntity
  8
0
100
AcDbLine
 62
7
  6
CONTINUOUS
 10
143.7443261941
 20
62.1924507659
 11
143.7444332846
 21
185.6924507659
  0
LINE
  5
2B6
100
AcDbEntity
  8
0
100
AcDbLine
 62
7
  6
CONTINUOUS
 10
143.7444332846
 20
185.6924507659
 11
143.3452020824
 21
216.1924508982
  0
LINE
  5
2B7
100
AcDbEntity
  8
0
100
AcDbLine
 62
7
  6
CONTINUOUS
 10
145.845059323
 20
216.1924507659
 11
146.2443261938
 21
185.6924507927
  0
LINE
  5
2B8
100
AcDbEntity
  8
0
100
AcDbLine
 62
7
  6
CONTINUOUS
 10
144.7483938643
 20
219.6924507659
 11
144.7483938643
 21
219.192450767
  0
LINE
  5
2B9
100
AcDbEntity
  8
0
100
AcDbLine
 62
7
  6
CONTINUOUS
 10
145.4943261941
 20
216.1924507659
 11
145.4943261941
 21
218.8924507659
  0
LINE
  5
2BA
100
AcDbEntity
  8
0
100
AcDbLine
 62
7
  6
CONTINUOUS
 10
146.2443261941
 20
185.6924507927
 11
146.2443261941
 21
62.1924507659
  0
LINE
  5
2BB
100
AcDbEntity
  8
0
100
AcDbLine
 62
7
  6
CONTINUOUS
 10
148.9227909584
 20
183.1924507659
 11
148.9227909584
 21
185.6924507659
  0
LINE
  5
2BC
100
AcDbEntity
  8
0
100
AcDbLine
 62
7
  6
CONTINUOUS
 10
149.927215245
 20
183.1924507659
 11
149.927215245
 21
185.6924507659
  0
LINE
  5
2BD
100
AcDbEntity
  8
0
100
AcDbLine
 62
7
  6
CONTINUOUS
 10
149.9943261941
 20
183.1924507659
 11
149.9943261941
 21
184.8924507659
  0
LINE
  5
2BE
100
AcDbEntity
  8
0
100
AcDbLine
 62
7
  6
CONTINUOUS
 10
150.2443261941
 20
62.1924507659
 11
150.2443261941
 21
183.1924507659
  0
LINE
  5
2BF
100
AcDbEntity
  8
0
100
AcDbLine
 62
7
  6
CONTINUOUS
 10
150.2443261941
 20
185.6924507659
 11
150.2443261941
 21
219.6924507659
  0
LINE
  5
2C0
100
AcDbEntity
  8
0
100
AcDbLine
 62
7
  6
CONTINUOUS
 10
151.2443261941
 20
62.1924507659
 11
151.2443261941
 21
52.1924507659
  0
LINE
  5
2C1
100
AcDbEntity
  8
0
100
AcDbLine
 62
7
  6
CONTINUOUS
 10
96.2443261941
 20
183.1924507659
 11
103.5658614299
 21
183.1924507659
  0
LINE
  5
2C2
100
AcDbEntity
  8
0
100
AcDbLine
 62
7
  6
CONTINUOUS
 10
148.9227909584
 20
183.1924507659
 11
156.2443261941
 21
183.1924507659
  0
LINE
  5
2C3
100
AcDbEntity
  8
0
100
AcDbLine
 62
7
  6
CONTINUOUS
 10
96.9943261941
 20
184.8924507659
 11
102.4943261941
 21
184.8924507659
  0
LINE
  5
2C4
100
AcDbEntity
  8
0
100
AcDbLine
 62
7
  6
CONTINUOUS
 10
149.9943261941
 20
184.8924507659
 11
155.4943261941
 21
184.8924507659
  0
LINE
  5
2C5
100
AcDbEntity
  8
0
100
AcDbLine
 62
7
  6
CONTINUOUS
 10
97.2943261941
 20
185.1924507659
 11
102.1943261941
 21
185.1924507659
  0
LINE
  5
2C6
100
AcDbEntity
  8
0
100
AcDbLine
 62
7
  6
CONTINUOUS
 10
150.2943261941
 20
185.1924507659
 11
155.1943261941
 21
185.1924507659
  0
LINE
  5
2C7
100
AcDbEntity
  8
0
100
AcDbLine
 62
7
  6
CONTINUOUS
 10
96.2443261958
 20
185.6924507659
 11
156.2443261941
 21
185.6924507659
  0
LINE
  5
2C8
100
AcDbEntity
  8
0
100
AcDbLine
 62
7
  6
CONTINUOUS
 10
25.8943261941
 20
208.1924507659
 11
29.5443261941
 21
206.8924507659
  0
LINE
  5
2C9
100
AcDbEntity
  8
0
100
AcDbLine
 62
7
  6
CONTINUOUS
 10
112.4943261941
 20
218.8924507659
 11
112.4064582285
 21
219.1045828002
  0
LINE
  5
2CA
100
AcDbEntity
  8
0
100
AcDbLine
 62
7
  6
CONTINUOUS
 10
153.7444689535
 20
185.6924508981
 11
153.3059156757
 21
219.1989956243
  0
LINE
  5
2CB
100
AcDbEntity
  8
0
100
AcDbLine
 62
7
  6
CONTINUOUS
 10
155.8057014959
 20
219.198995545
 11
156.2443261941
 21
185.6924507659
  0
LINE
  5
2CC
100
AcDbEntity
  8
0
100
AcDbLine
 62
7
  6
CONTINUOUS
 10
152.7443261941
 20
185.1924507659
 11
152.7443261941
 21
185.6924507659
  0
LINE
  5
2CD
100
AcDbEntity
  8
0
100
AcDbLine
 62
7
  6
CONTINUOUS
 10
153.3059156767
 20
219.6924507659
 11
153.3059156767
 21
219.198995594
  0
LINE
  5
2CE
100
AcDbEntity
  8
0
100
AcDbLine
 62
7
  6
CONTINUOUS
 10
153.7443261941
 20
183.1924507659
 11
153.7443261941
 21
62.1924507659
  0
LINE
  5
2CF
100
AcDbEntity
  8
0
100
AcDbLine
 62
7
  6
CONTINUOUS
 10
154.7443261941
 20
185.6924507659
 11
154.7443261941
 21
185.1924507659
  0
LINE
  5
2D0
100
AcDbEntity
  8
0
100
AcDbLine
 62
7
  6
CONTINUOUS
 10
155.4943261941
 20
183.1924507659
 11
155.4943261941
 21
184.8924507659
  0
LINE
  5
2D1
100
AcDbEntity
  8
0
100
AcDbLine
 62
7
  6
CONTINUOUS
 10
156.2443261941
 20
54.6924507659
 11
156.2443261941
 21
185.6924507659
  0
LINE
  5
2D2
100
AcDbEntity
  8
0
100
AcDbLine
 62
7
  6
CONTINUOUS
 10
95.7901008641
 20
189.6924507659
 11
88.2443261988
 21
189.6924507659
  0
LINE
  5
2D3
100
AcDbEntity
  8
0
100
AcDbLine
 62
7
  6
CONTINUOUS
 10
95.822827096
 20
191.1924507659
 11
87.7443261941
 21
191.1924507659
  0
LINE
  5
2D4
100
AcDbEntity
  8
0
100
AcDbLine
 62
7
  6
CONTINUOUS
 10
96.316239462
 20
191.1859059681
 11
95.8228271055
 21
191.1924507658
  0
LINE
  5
2D5
100
AcDbEntity
  8
0
100
AcDbLine
 62
7
  6
CONTINUOUS
 10
39.2443261941
 20
201.6924507659
 11
63.2443261941
 21
201.6924507659
  0
LINE
  5
2D6
100
AcDbEntity
  8
0
100
AcDbLine
 62
7
  6
CONTINUOUS
 10
87.7443261941
 20
202.4424507659
 11
85.7639414364
 21
202.4424507659
  0
LINE
  5
2D7
100
AcDbEntity
  8
0
100
AcDbLine
 62
7
  6
CONTINUOUS
 10
87.7443261941
 20
202.4576315689
 11
85.7639414364
 21
202.4576315689
  0
LINE
  5
2D8
100
AcDbEntity
  8
0
100
AcDbLine
 62
7
  6
CONTINUOUS
 10
84.2443261941
 20
203.3424507659
 11
83.5372194129
 21
203.6353439847
  0
LINE
  5
2D9
100
AcDbEntity
  8
0
100
AcDbLine
 62
7
  6
CONTINUOUS
 10
28.8443261941
 20
202.6924507659
 11
39.2443261941
 21
202.6924507659
  0
LINE
  5
2DA
100
AcDbEntity
  8
0
100
AcDbLine
 62
7
  6
CONTINUOUS
 10
39.2443261941
 20
203.1924507659
 11
28.8443261941
 21
203.1924507659
  0
LINE
  5
2DB
100
AcDbEntity
  8
0
100
AcDbLine
 62
7
  6
CONTINUOUS
 10
85.2443261941
 20
203.3424507659
 11
84.2443261941
 21
203.3424507659
  0
LINE
  5
2DC
100
AcDbEntity
  8
0
100
AcDbLine
 62
7
  6
CONTINUOUS
 10
19.5443261941
 20
203.8274507659
 11
28.8443261941
 21
203.8274507659
  0
LINE
  5
2DD
100
AcDbEntity
  8
0
100
AcDbLine
 62
7
  6
CONTINUOUS
 10
85.7639414364
 20
205.6689397136
 11
87.7443261941
 21
205.6689397136
  0
LINE
  5
2DE
100
AcDbEntity
  8
0
100
AcDbLine
 62
7
  6
CONTINUOUS
 10
87.7443261941
 20
206.4811426212
 11
85.7639414364
 21
206.4811426212
  0
LINE
  5
2DF
100
AcDbEntity
  8
0
100
AcDbLine
 62
7
  6
CONTINUOUS
 10
28.8443261941
 20
206.8924507659
 11
37.0443261941
 21
206.8924507659
  0
LINE
  5
2E0
100
AcDbEntity
  8
0
100
AcDbLine
 62
7
  6
CONTINUOUS
 10
63.2443261941
 20
207.1924507659
 11
83.2443261941
 21
207.1924507659
  0
LINE
  5
2E1
100
AcDbEntity
  8
0
100
AcDbLine
 62
7
  6
CONTINUOUS
 10
19.5443261941
 20
207.2774507659
 11
28.4633646556
 21
207.2774507659
  0
LINE
  5
2E2
100
AcDbEntity
  8
0
100
AcDbLine
 62
7
  6
CONTINUOUS
 10
19.5443261941
 20
207.9674507659
 11
26.5260569633
 21
207.9674507659
  0
LINE
  5
2E3
100
AcDbEntity
  8
0
100
AcDbLine
 62
7
  6
CONTINUOUS
 10
23.5443261941
 20
208.1924507659
 11
25.8943261941
 21
208.1924507659
  0
LINE
  5
2E4
100
AcDbEntity
  8
0
100
AcDbLine
 62
7
  6
CONTINUOUS
 10
36.0443261941
 20
209.1924507659
 11
25.8943261941
 21
209.1924507659
  0
LINE
  5
2E5
100
AcDbEntity
  8
0
100
AcDbLine
 62
7
  6
CONTINUOUS
 10
25.8943261941
 20
210.1924507659
 11
36.0443261941
 21
210.1924507659
  0
LINE
  5
2E6
100
AcDbEntity
  8
0
100
AcDbLine
 62
7
  6
CONTINUOUS
 10
141.2443261941
 20
49.6924507659
 11
140.7443261941
 21
49.1924507659
  0
LINE
  5
2E7
100
AcDbEntity
  8
0
100
AcDbLine
 62
7
  6
CONTINUOUS
 10
151.2443261941
 20
52.1924507659
 11
150.7443261941
 21
51.6924507659
  0
LINE
  5
2E8
100
AcDbEntity
  8
0
100
AcDbLine
 62
7
  6
CONTINUOUS
 10
23.5443261941
 20
211.1924507659
 11
25.8943261941
 21
211.1924507659
  0
LINE
  5
2E9
100
AcDbEntity
  8
0
100
AcDbLine
 62
7
  6
CONTINUOUS
 10
19.5443261941
 20
211.4174507659
 11
26.5260569633
 21
211.4174507659
  0
LINE
  5
2EA
100
AcDbEntity
  8
0
100
AcDbLine
 62
7
  6
CONTINUOUS
 10
19.5443261941
 20
212.1074507659
 11
28.4633646557
 21
212.1074507659
  0
LINE
  5
2EB
100
AcDbEntity
  8
0
100
AcDbLine
 62
7
  6
CONTINUOUS
 10
63.2443261941
 20
212.1924507659
 11
83.2443261941
 21
212.1924507659
  0
LINE
  5
2EC
100
AcDbEntity
  8
0
100
AcDbLine
 62
7
  6
CONTINUOUS
 10
28.8443261941
 20
212.4924507659
 11
37.0443261941
 21
212.4924507659
  0
LINE
  5
2ED
100
AcDbEntity
  8
0
100
AcDbLine
 62
7
  6
CONTINUOUS
 10
85.7639414364
 20
212.9037589105
 11
87.7443261941
 21
212.9037589105
  0
LINE
  5
2EE
100
AcDbEntity
  8
0
100
AcDbLine
 62
7
  6
CONTINUOUS
 10
87.7443261941
 20
213.7159618181
 11
85.7639414364
 21
213.7159618181
  0
LINE
  5
2EF
100
AcDbEntity
  8
0
100
AcDbLine
 62
7
  6
CONTINUOUS
 10
19.5443261941
 20
215.5574507659
 11
28.8443261941
 21
215.5574507659
  0
LINE
  5
2F0
100
AcDbEntity
  8
0
100
AcDbLine
 62
7
  6
CONTINUOUS
 10
85.2443261941
 20
216.0424507659
 11
84.2443261941
 21
216.0424507659
  0
LINE
  5
2F1
100
AcDbEntity
  8
0
100
AcDbLine
 62
7
  6
CONTINUOUS
 10
28.8443261941
 20
216.1924507659
 11
39.2443261941
 21
216.1924507659
  0
LINE
  5
2F2
100
AcDbEntity
  8
0
100
AcDbLine
 62
7
  6
CONTINUOUS
 10
106.3110433224
 20
216.1924507659
 11
114.4942832347
 21
216.1924507659
  0
LINE
  5
2F3
100
AcDbEntity
  8
0
100
AcDbLine
 62
7
  6
CONTINUOUS
 10
137.9943691589
 20
216.1924507659
 11
146.1776098109
 21
216.1924507659
  0
LINE
  5
2F4
100
AcDbEntity
  8
0
100
AcDbLine
 62
7
  6
CONTINUOUS
 10
39.2443261941
 20
216.6924507659
 11
28.8443261941
 21
216.6924507659
  0
LINE
  5
2F5
100
AcDbEntity
  8
0
100
AcDbLine
 62
7
  6
CONTINUOUS
 10
85.7639414364
 20
216.9272699628
 11
87.7443261941
 21
216.9272699628
  0
LINE
  5
2F6
100
AcDbEntity
  8
0
100
AcDbLine
 62
7
  6
CONTINUOUS
 10
87.7443261941
 20
216.9424507659
 11
85.7639414364
 21
216.9424507659
  0
LINE
  5
2F7
100
AcDbEntity
  8
0
100
AcDbLine
 62
7
  6
CONTINUOUS
 10
28.8443261941
 20
216.9424507659
 11
39.2443261941
 21
216.9424507659
  0
LINE
  5
2F8
100
AcDbEntity
  8
0
100
AcDbLine
 62
7
  6
CONTINUOUS
 10
28.8443261941
 20
217.1924507659
 11
39.2443261941
 21
217.1924507659
  0
LINE
  5
2F9
100
AcDbEntity
  8
0
100
AcDbLine
 62
7
  6
CONTINUOUS
 10
39.2443261941
 20
217.6924507659
 11
63.2443261941
 21
217.6924507659
  0
LINE
  5
2FA
100
AcDbEntity
  8
0
100
AcDbLine
 62
7
  6
CONTINUOUS
 10
87.7443261941
 20
218.1924507659
 11
96.1762764763
 21
218.1924507656
  0
LINE
  5
2FB
100
AcDbEntity
  8
0
100
AcDbLine
 62
7
  6
CONTINUOUS
 10
96.1762764668
 20
218.1924507658
 11
96.6696888233
 21
218.1859059681
  0
LINE
  5
2FC
100
AcDbEntity
  8
0
100
AcDbLine
 62
7
  6
CONTINUOUS
 10
145.4943261941
 20
218.8924507659
 11
145.4064582285
 21
219.1045828002
  0
LINE
  5
2FD
100
AcDbEntity
  8
0
100
AcDbLine
 62
7
  6
CONTINUOUS
 10
132.7443261941
 20
24.6924507659
 11
133.2443261941
 21
25.1924507659
  0
LINE
  5
2FE
100
AcDbEntity
  8
0
100
AcDbLine
 62
7
  6
CONTINUOUS
 10
146.1367268665
 20
219.1989969632
 11
145.1693793746
 21
219.194434829
  0
LINE
  5
2FF
100
AcDbEntity
  8
0
100
AcDbLine
 62
7
  6
CONTINUOUS
 10
106.9943261941
 20
218.8924507659
 11
112.4943261941
 21
218.8924507659
  0
LINE
  5
300
100
AcDbEntity
  8
0
100
AcDbLine
 62
7
  6
CONTINUOUS
 10
139.9943261941
 20
218.8924507659
 11
145.4943261941
 21
218.8924507659
  0
LINE
  5
301
100
AcDbEntity
  8
0
100
AcDbLine
 62
7
  6
CONTINUOUS
 10
107.2943554741
 20
219.1924507659
 11
112.9943261941
 21
219.1924507659
  0
LINE
  5
302
100
AcDbEntity
  8
0
100
AcDbLine
 62
7
  6
CONTINUOUS
 10
139.4943261941
 20
219.1924507659
 11
145.1942969141
 21
219.1924507659
  0
LINE
  5
303
100
AcDbEntity
  8
0
100
AcDbLine
 62
7
  6
CONTINUOUS
 10
99.1827367115
 20
219.198995545
 11
106.3520259191
 21
219.1989955637
  0
LINE
  5
304
100
AcDbEntity
  8
0
100
AcDbLine
 62
7
  6
CONTINUOUS
 10
114.4943261941
 20
219.198995559
 11
137.9943261941
 21
219.198995559
  0
LINE
  5
305
100
AcDbEntity
  8
0
100
AcDbLine
 62
7
  6
CONTINUOUS
 10
146.1366264691
 20
219.1989955637
 11
153.3059156757
 21
219.1989956243
  0
LINE
  5
306
100
AcDbEntity
  8
0
100
AcDbLine
 62
7
  6
CONTINUOUS
 10
88.2443261988
 20
219.6924507659
 11
155.3057459347
 21
219.6924507659
  0
LINE
  5
307
100
AcDbEntity
  8
0
100
AcDbLine
 62
7
  6
CONTINUOUS
 10
107.2943653796
 20
219.1945521318
 11
106.351925526
 21
219.1989971586
  0
LINE
  5
308
100
AcDbEntity
  8
0
100
AcDbLine
 62
7
  6
CONTINUOUS
 10
112.4064582285
 20
219.1045828002
 11
112.1943261941
 21
219.1924507659
  0
LINE
  5
309
100
AcDbEntity
  8
0
100
AcDbLine
 62
7
  6
CONTINUOUS
 10
145.4064582285
 20
219.1045828002
 11
145.1943261941
 21
219.1924507659
  0
ARC
  5
30A
100
AcDbEntity
  8
0
100
AcDbCircle
 62
7
  6
CONTINUOUS
 10
79.9943261941
 20
107.4424507659
 40
13.7
100
AcDbArc
 50
270.0
 51
360.0
  0
ARC
  5
30B
100
AcDbEntity
  8
0
100
AcDbCircle
 62
7
  6
CONTINUOUS
 10
79.9943261941
 20
107.4424507659
 40
6.3
100
AcDbArc
 50
270.0
 51
360.0
  0
ARC
  5
30C
100
AcDbEntity
  8
0
100
AcDbCircle
 62
7
  6
CONTINUOUS
 10
82.2443261941
 20
120.6537369395
 40
0.5
100
AcDbArc
 50
90.9999997321
 51
179.9999806672
  0
ARC
  5
30D
100
AcDbEntity
  8
0
100
AcDbCircle
 62
7
  6
CONTINUOUS
 10
82.2443261941
 20
126.7311645922
 40
0.5
100
AcDbArc
 50
180.0000216319
 51
269.0000002667
  0
ARC
  5
30E
100
AcDbEntity
  8
0
100
AcDbCircle
 62
7
  6
CONTINUOUS
 10
82.2443261941
 20
109.3102825202
 40
0.5
100
AcDbArc
 50
180.0
 51
269.5000003576
  0
ARC
  5
30F
100
AcDbEntity
  8
0
100
AcDbCircle
 62
7
  6
CONTINUOUS
 10
33.2443261941
 20
102.5424507659
 40
0.3
100
AcDbArc
 50
270.0000000009
 51
359.9999999991
  0
ARC
  5
310
100
AcDbEntity
  8
0
100
AcDbCircle
 62
7
  6
CONTINUOUS
 10
35.3443261941
 20
102.5424507659
 40
0.3
100
AcDbArc
 50
180.0000000009
 51
269.9999999991
  0
ARC
  5
311
100
AcDbEntity
  8
0
100
AcDbCircle
 62
7
  6
CONTINUOUS
 10
82.4943261941
 20
125.7924506705
 40
0.25
100
AcDbArc
 50
90.0
 51
180.0
  0
ARC
  5
312
100
AcDbEntity
  8
0
100
AcDbCircle
 62
7
  6
CONTINUOUS
 10
82.4943261941
 20
121.5924508612
 40
0.25
100
AcDbArc
 50
180.0
 51
270.0
  0
ARC
  5
313
100
AcDbEntity
  8
0
100
AcDbCircle
 62
7
  6
CONTINUOUS
 10
35.2443261941
 20
103.4424507659
 40
0.2
100
AcDbArc
 50
95.0000000026
 51
179.9999999991
  0
ARC
  5
314
100
AcDbEntity
  8
0
100
AcDbCircle
 62
7
  6
CONTINUOUS
 10
88.2443261941
 20
190.1924507659
 40
0.5
100
AcDbArc
 50
180.0
 51
270.0000005385
  0
ARC
  5
315
100
AcDbEntity
  8
0
100
AcDbCircle
 62
7
  6
CONTINUOUS
 10
88.2443261941
 20
219.1924507659
 40
0.5
100
AcDbArc
 50
90.0
 51
180.0
  0
ARC
  5
316
100
AcDbEntity
  8
0
100
AcDbCircle
 62
7
  6
CONTINUOUS
 10
82.2443261941
 20
136.0746190115
 40
0.5
100
AcDbArc
 50
90.4999999794
 51
180.0
  0
ARC
  5
317
100
AcDbEntity
  8
0
100
AcDbCircle
 62
7
  6
CONTINUOUS
 10
110.7443261941
 20
51.1924507659
 40
0.5
100
AcDbArc
 50
0.0
 51
44.999999999
  0
ARC
  5
318
100
AcDbEntity
  8
0
100
AcDbCircle
 62
7
  6
CONTINUOUS
 10
141.7443261941
 20
51.1924507659
 40
0.5
100
AcDbArc
 50
135.000000001
 51
180.0
  0
ARC
  5
319
100
AcDbEntity
  8
0
100
AcDbCircle
 62
7
  6
CONTINUOUS
 10
155.3057443319
 20
219.1924507659
 40
0.5
100
AcDbArc
 50
0.7500024082
 51
89.9998228569
  0
ARC
  5
31A
100
AcDbEntity
  8
0
100
AcDbCircle
 62
7
  6
CONTINUOUS
 10
95.790100864
 20
189.1924507659
 40
0.5
100
AcDbArc
 50
0.0
 51
89.9999999971
  0
ARC
  5
31B
100
AcDbEntity
  8
0
100
AcDbCircle
 62
7
  6
CONTINUOUS
 10
97.1829080563
 20
219.1924507659
 40
0.5
100
AcDbArc
 50
90.0
 51
179.249992737
  0
ARC
  5
31C
100
AcDbEntity
  8
0
100
AcDbCircle
 62
7
  6
CONTINUOUS
 10
138.9943261941
 20
219.1924507659
 40
0.5
100
AcDbArc
 50
0.0
 51
90.0
  0
ARC
  5
31D
100
AcDbEntity
  8
0
100
AcDbCircle
 62
7
  6
CONTINUOUS
 10
113.4943261941
 20
219.1924507659
 40
0.5
100
AcDbArc
 50
90.0
 51
180.0
  0
ARC
  5
31E
100
AcDbEntity
  8
0
100
AcDbCircle
 62
7
  6
CONTINUOUS
 10
97.2943261941
 20
184.8924507659
 40
0.3
100
AcDbArc
 50
90.0
 51
180.0
  0
ARC
  5
31F
100
AcDbEntity
  8
0
100
AcDbCircle
 62
7
  6
CONTINUOUS
 10
102.1943261941
 20
184.8924507659
 40
0.3
100
AcDbArc
 50
0.0
 51
90.0
  0
ARC
  5
320
100
AcDbEntity
  8
0
100
AcDbCircle
 62
7
  6
CONTINUOUS
 10
150.2943261941
 20
184.8924507659
 40
0.3
100
AcDbArc
 50
90.0
 51
180.0
  0
ARC
  5
321
100
AcDbEntity
  8
0
100
AcDbCircle
 62
7
  6
CONTINUOUS
 10
155.1943261941
 20
184.8924507659
 40
0.3
100
AcDbArc
 50
0.0
 51
90.0
  0
SPLINE
  5
322
100
AcDbEntity
  8
0
100
AcDbSpline
 62
7
  6
CONTINUOUS
 70
0
 71
3
 72
22
 73
18
 74
0
 42
0.0000001
 43
0.0000001
 44
0.0000000001
 40
0.0
 40
0.0
 40
0.0
 40
0.0
 40
0.1950932766
 40
0.3826852447
 40
0.5555683467
 40
0.7071001829
 40
0.7729985654
 40
0.8314587528
 40
0.8819054174
 40
0.923866199
 40
0.9569231158
 40
0.9700159969
 40
0.9807726981
 40
0.989162714
 40
0.9951708139
 40
0.9987859055
 40
1.0
 40
1.0
 40
1.0
 40
1.0
 10
99.1827367116
 20
219.1989955844
 30
0.0
 10
99.020171432
 20
219.1994210723
 30
0.0
 10
98.7012912448
 20
219.2001750293
 30
0.0
 10
98.2383523495
 20
219.2010267579
 30
0.0
 10
97.811711142
 20
219.2015604869
 30
0.0
 10
97.4864746576
 20
219.2017352344
 30
0.0
 10
97.256581388
 20
219.2016815299
 30
0.0
 10
97.1109245103
 20
219.2015526649
 30
0.0
 10
96.985200455
 20
219.201350916
 30
0.0
 10
96.8806842311
 20
219.2010358857
 30
0.0
 10
96.8071964081
 20
219.200768958
 30
0.0
 10
96.759884206
 20
219.2003672759
 30
0.0
 10
96.7327980734
 20
219.2003121207
 30
0.0
 10
96.7124161036
 20
219.199595546
 30
0.0
 10
96.6960975855
 20
219.2003978933
 30
0.0
 10
96.6893775649
 20
219.1982827525
 30
0.0
 10
96.6829585972
 20
219.200007133
 30
0.0
 10
96.6829508919
 20
219.1989954909
 30
0.0
  0
LINE
  5
323
100
AcDbEntity
  8
0
100
AcDbLine
 62
7
  6
CONTINUOUS
 10
106.3111359118
 20
216.1924492562
 11
106.351925526
 21
219.1989971586
  0
LINE
  5
324
100
AcDbEntity
  8
0
100
AcDbLine
 62
7
  6
CONTINUOUS
 10
146.1367268665
 20
219.1989969632
 11
146.1775171255
 21
216.1924493529
  0
SPLINE
  5
325
100
AcDbEntity
  8
0
100
AcDbSpline
 62
7
  6
CONTINUOUS
 70
0
 71
3
 72
22
 73
18
 74
0
 42
0.0000001
 43
0.0000001
 44
0.0000000001
 40
0.0
 40
0.0
 40
0.0
 40
0.0
 40
0.0012147749
 40
0.0048305127
 40
0.0108392215
 40
0.0192298091
 40
0.0299870416
 40
0.0430804106
 40
0.0761381749
 40
0.1180996245
 40
0.1685467708
 40
0.2270072495
 40
0.2929057295
 40
0.4444371783
 40
0.6173191317
 40
0.804909234
 40
1.0
 40
1.0
 40
1.0
 40
1.0
 10
155.8057014955
 20
219.1989955794
 30
0.0
 10
155.8056882455
 20
219.2000077455
 30
0.0
 10
155.7992806731
 20
219.1982824636
 30
0.0
 10
155.7925463273
 20
219.2003980763
 30
0.0
 10
155.7762333658
 20
219.1995955828
 30
0.0
 10
155.7558464289
 20
219.2003121951
 30
0.0
 10
155.7287598436
 20
219.2003673349
 30
0.0
 10
155.6814448122
 20
219.2007690115
 30
0.0
 10
155.6079546592
 20
219.2010359283
 30
0.0
 10
155.5034351109
 20
219.2013509476
 30
0.0
 10
155.3777081189
 20
219.2015526845
 30
0.0
 10
155.2320484161
 20
219.201681537
 30
0.0
 10
155.0021518708
 20
219.2017352237
 30
0.0
 10
154.6769119361
 20
219.2015604552
 30
0.0
 10
154.2502674727
 20
219.2010267022
 30
0.0
 10
153.7873265701
 20
219.2001749516
 30
0.0
 10
153.4684454764
 20
219.1994209806
 30
0.0
 10
153.3058799676
 20
219.1989954859
 30
0.0
  0
SPLINE
  5
326
100
AcDbEntity
  8
0
100
AcDbSpline
 62
7
  6
CONTINUOUS
 70
0
 71
3
 72
11
 73
7
 74
0
 42
0.0000001
 43
0.0000001
 44
0.0000000001
 40
0.0
 40
0.0
 40
0.0
 40
0.0
 40
0.2488601515
 40
0.5125739775
 40
0.7683693451
 40
1.0
 40
1.0
 40
1.0
 40
1.0
 10
146.1366264733
 20
219.1989955637
 30
0.0
 10
146.1358777313
 20
219.2607998293
 30
0.0
 10
146.1122026266
 20
219.3889028668
 30
0.0
 10
146.0101053104
 20
219.5558019378
 30
0.0
 10
145.8538290659
 20
219.6672727046
 30
0.0
 10
145.731473541
 20
219.6924507485
 30
0.0
 10
145.673943989
 20
219.6924507659
 30
0.0
  0
SPLINE
  5
327
100
AcDbEntity
  8
0
100
AcDbSpline
 62
7
  6
CONTINUOUS
 70
0
 71
3
 72
21
 73
17
 74
0
 42
0.0000001
 43
0.0000001
 44
0.0000000001
 40
0.0
 40
0.0
 40
0.0
 40
0.0
 40
0.0012255166
 40
0.0048441015
 40
0.0108541307
 40
0.019245435
 40
0.0430966826
 40
0.0761547446
 40
0.1181163924
 40
0.168563706
 40
0.2270243127
 40
0.2929228205
 40
0.4444536484
 40
0.6173332845
 40
0.8049182751
 40
1.0
 40
1.0
 40
1.0
 40
1.0
 10
139.4943261941
 20
219.1924508048
 30
0.0
 10
139.4943261941
 20
219.1930635901
 30
0.0
 10
139.4904933322
 20
219.1923264246
 30
0.0
 10
139.4864307289
 20
219.1935224943
 30
0.0
 10
139.4766599071
 20
219.1932998242
 30
0.0
 10
139.4580011498
 20
219.1940759014
 30
0.0
 10
139.4250111893
 20
219.1943657058
 30
0.0
 10
139.3757399853
 20
219.195059725
 30
0.0
 10
139.3129436998
 20
219.1955801003
 30
0.0
 10
139.2375295634
 20
219.196135231
 30
0.0
 10
139.1501166033
 20
219.1966374552
 30
0.0
 10
139.0121700892
 20
219.1972963587
 30
0.0
 10
138.8170063382
 20
219.1979711761
 30
0.0
 10
138.5609985863
 20
219.198555023
 30
0.0
 10
138.2832131334
 20
219.1989148601
 30
0.0
 10
138.0918713641
 20
219.1989956023
 30
0.0
 10
137.9943261941
 20
219.1989956023
 30
0.0
  0
SPLINE
  5
328
100
AcDbEntity
  8
0
100
AcDbSpline
 62
7
  6
CONTINUOUS
 70
0
 71
3
 72
21
 73
17
 74
0
 42
0.0000001
 43
0.0000001
 44
0.0000000001
 40
0.0
 40
0.0
 40
0.0
 40
0.0
 40
0.1950817249
 40
0.3826667155
 40
0.5555463517
 40
0.7070771795
 40
0.7729756874
 40
0.831436294
 40
0.8818836076
 40
0.9238452554
 40
0.9569033175
 40
0.980754565
 40
0.9891458693
 40
0.9951558985
 40
0.9987744834
 40
1.0
 40
1.0
 40
1.0
 40
1.0
 10
114.4943261941
 20
219.1989956025
 30
0.0
 10
114.3967810241
 20
219.1989956025
 30
0.0
 10
114.2054392548
 20
219.1989148603
 30
0.0
 10
113.9276538019
 20
219.1985550232
 30
0.0
 10
113.67164605
 20
219.1979711763
 30
0.0
 10
113.476482299
 20
219.1972963589
 30
0.0
 10
113.3385357848
 20
219.1966374554
 30
0.0
 10
113.2511228247
 20
219.1961352312
 30
0.0
 10
113.1757086884
 20
219.1955801004
 30
0.0
 10
113.1129124029
 20
219.1950597252
 30
0.0
 10
113.0636411989
 20
219.1943657059
 30
0.0
 10
113.0306512384
 20
219.1940759016
 30
0.0
 10
113.0119924811
 20
219.1932998243
 30
0.0
 10
113.0022216593
 20
219.1935224944
 30
0.0
 10
112.998159056
 20
219.1923264248
 30
0.0
 10
112.9943261941
 20
219.1930635903
 30
0.0
 10
112.9943261941
 20
219.1924508049
 30
0.0
  0
SPLINE
  5
329
100
AcDbEntity
  8
0
100
AcDbSpline
 62
7
  6
CONTINUOUS
 70
0
 71
3
 72
21
 73
17
 74
0
 42
0.0000001
 43
0.0000001
 44
0.0000000001
 40
0.0
 40
0.0
 40
0.0
 40
0.0
 40
0.00122909
 40
0.0048511157
 40
0.0108643916
 40
0.0192587364
 40
0.0431154137
 40
0.0761779943
 40
0.1181432035
 40
0.1685930885
 40
0.2270552499
 40
0.2929542826
 40
0.4444830562
 40
0.6173565832
 40
0.804931644
 40
1.0
 40
1.0
 40
1.0
 40
1.0
 10
95.7901008664
 20
189.6924507659
 30
0.0
 10
95.7907155789
 20
189.6924507658
 30
0.0
 10
95.790041327
 20
189.6962774091
 30
0.0
 10
95.7913112294
 20
189.7003480422
 30
0.0
 10
95.791257828
 20
189.7101147032
 30
0.0
 10
95.7923602499
 20
189.7287756101
 30
0.0
 10
95.7932254029
 20
189.7617632599
 30
0.0
 10
95.7947796442
 20
189.8110358597
 30
0.0
 10
95.7963960156
 20
189.8738320138
 30
0.0
 10
95.7982674789
 20
189.9492464524
 30
0.0
 10
95.8002954293
 20
190.0366594863
 30
0.0
 10
95.8033620746
 20
190.1746050617
 30
0.0
 10
95.8074433219
 20
190.3697680256
 30
0.0
 10
95.8124956101
 20
190.6257760203
 30
0.0
 10
95.8177039993
 20
190.9035616062
 30
0.0
 10
95.821124504
 20
191.0949048654
 30
0.0
 10
95.8228270984
 20
191.192450767
 30
0.0
  0
SPLINE
  5
32A
100
AcDbEntity
  8
0
100
AcDbSpline
 62
7
  6
CONTINUOUS
 70
0
 71
3
 72
21
 73
17
 74
0
 42
0.0000001
 43
0.0000001
 44
0.0000000001
 40
0.0
 40
0.0
 40
0.0
 40
0.0
 40
0.1950817249
 40
0.3826667155
 40
0.5555463517
 40
0.7070771795
 40
0.7729756874
 40
0.831436294
 40
0.8818836076
 40
0.9238452554
 40
0.9569033175
 40
0.980754565
 40
0.9891458693
 40
0.9951558985
 40
0.9987744834
 40
1.0
 40
1.0
 40
1.0
 40
1.0
 10
88.2377813575
 20
191.1924507659
 30
0.0
 10
88.2377813575
 20
191.0949055959
 30
0.0
 10
88.2378620997
 20
190.9035638265
 30
0.0
 10
88.2382219368
 20
190.6257783737
 30
0.0
 10
88.2388057837
 20
190.3697706218
 30
0.0
 10
88.2394806011
 20
190.1746068707
 30
0.0
 10
88.2401395046
 20
190.0366603566
 30
0.0
 10
88.2406417288
 20
189.9492473965
 30
0.0
 10
88.2411968596
 20
189.8738332601
 30
0.0
 10
88.2417172348
 20
189.8110369747
 30
0.0
 10
88.2424112541
 20
189.7617657707
 30
0.0
 10
88.2427010584
 20
189.7287758101
 30
0.0
 10
88.2434771357
 20
189.7101170529
 30
0.0
 10
88.2432544656
 20
189.700346231
 30
0.0
 10
88.2444505352
 20
189.6962836278
 30
0.0
 10
88.2437133697
 20
189.6924507659
 30
0.0
 10
88.2443261551
 20
189.6924507659
 30
0.0
  0
SPLINE
  5
32B
100
AcDbEntity
  8
0
100
AcDbSpline
 62
7
  6
CONTINUOUS
 70
0
 71
3
 72
10
 73
6
 74
0
 42
0.0000001
 43
0.0000001
 44
0.0000000001
 40
0.0
 40
0.0
 40
0.0
 40
0.0
 40
0.1906797475
 40
0.4590684072
 40
1.0
 40
1.0
 40
1.0
 40
1.0
 10
96.682948701
 20
219.1988260264
 30
0.0
 10
96.6835241736
 20
219.2446760913
 30
0.0
 10
96.6341272805
 20
219.3512041279
 30
0.0
 10
96.4972084878
 20
219.5377242496
 30
0.0
 10
96.3259937276
 20
219.6924506548
 30
0.0
 10
96.1959133054
 20
219.6924507659
 30
0.0
  0
SPLINE
  5
32C
100
AcDbEntity
  8
0
100
AcDbSpline
 62
7
  6
CONTINUOUS
 70
0
 71
3
 72
21
 73
17
 74
0
 42
0.0000001
 43
0.0000001
 44
0.0000000001
 40
0.0
 40
0.0
 40
0.0
 40
0.0
 40
0.1950951581
 40
0.3826901197
 40
0.5555759085
 40
0.7071088095
 40
0.7730067207
 40
0.8314658452
 40
0.8819105342
 40
0.923868651
 40
0.9569221777
 40
0.9807679652
 40
0.9891567835
 40
0.9951630547
 40
0.9987776413
 40
1.0
 40
1.0
 40
1.0
 40
1.0
 10
96.1762766663
 20
218.1924507615
 30
0.0
 10
96.1779792353
 20
218.2899952129
 30
0.0
 10
96.1812382037
 20
218.4813355082
 30
0.0
 10
96.1857269142
 20
218.7591208476
 30
0.0
 10
96.1896114994
 20
219.0151283643
 30
0.0
 10
96.1923431397
 20
219.2102928515
 30
0.0
 10
96.1940920085
 20
219.3482403091
 30
0.0
 10
96.1951155103
 20
219.4356531097
 30
0.0
 10
96.1958766943
 20
219.5110670939
 30
0.0
 10
96.1964523395
 20
219.573863097
 30
0.0
 10
96.1966184407
 20
219.6231339002
 30
0.0
 10
96.1969041803
 20
219.656124313
 30
0.0
 10
96.1964542052
 20
219.6747837812
 30
0.0
 10
96.1968465927
 20
219.6845537092
 30
0.0
 10
96.1957235151
 20
219.6886165518
 30
0.0
 10
96.1965245412
 20
219.6924468891
 30
0.0
 10
96.1959132995
 20
219.6924505705
 30
0.0
  0
SPLINE
  5
32D
100
AcDbEntity
  8
0
100
AcDbSpline
 62
7
  6
CONTINUOUS
 70
0
 71
3
 72
21
 73
17
 74
0
 42
0.0000001
 43
0.0000001
 44
0.0000000001
 40
0.0
 40
0.0
 40
0.0
 40
0.0
 40
0.0012255175
 40
0.0048441033
 40
0.0108541333
 40
0.0192454383
 40
0.0430966872
 40
0.0761547502
 40
0.1181163987
 40
0.1685637128
 40
0.2270243196
 40
0.2929228274
 40
0.4444536544
 40
0.617333289
 40
0.8049182775
 40
1.0
 40
1.0
 40
1.0
 40
1.0
 10
88.2443261551
 20
219.6924507659
 30
0.0
 10
88.2437133693
 20
219.6924507631
 30
0.0
 10
88.2444505357
 20
219.6886179063
 30
0.0
 10
88.2432544654
 20
219.6845552956
 30
0.0
 10
88.2434771358
 20
219.6747844761
 30
0.0
 10
88.2427010584
 20
219.6561257152
 30
0.0
 10
88.2424112542
 20
219.6231357549
 30
0.0
 10
88.2417172349
 20
219.5738645485
 30
0.0
 10
88.2411968597
 20
219.5110682623
 30
0.0
 10
88.2406417289
 20
219.4356541251
 30
0.0
 10
88.2401395047
 20
219.3482411648
 30
0.0
 10
88.2394806012
 20
219.210294651
 30
0.0
 10
88.2388057839
 20
219.0151309012
 30
0.0
 10
88.2382219369
 20
218.7591231516
 30
0.0
 10
88.2378620999
 20
218.4813377018
 30
0.0
 10
88.2377813577
 20
218.2899959347
 30
0.0
 10
88.2377813577
 20
218.1924507659
 30
0.0
  0
SPLINE
  5
32E
100
AcDbEntity
  8
0
100
AcDbSpline
 62
7
  6
CONTINUOUS
 70
0
 71
3
 72
9
 73
5
 74
0
 42
0.0000001
 43
0.0000001
 44
0.0000000001
 40
0.0
 40
0.0
 40
0.0
 40
0.0
 40
0.4999456789
 40
1.0
 40
1.0
 40
1.0
 40
1.0
 10
85.3309287354
 20
209.6924507659
 30
0.0
 10
85.3309287354
 20
209.1513639042
 30
0.0
 10
85.4109037318
 20
208.0678438091
 30
0.0
 10
85.6298538127
 20
207.0054733943
 30
0.0
 10
85.7639414364
 20
206.4811426212
 30
0.0
  0
SPLINE
  5
32F
100
AcDbEntity
  8
0
100
AcDbSpline
 62
7
  6
CONTINUOUS
 70
0
 71
3
 72
9
 73
5
 74
0
 42
0.0000001
 43
0.0000001
 44
0.0000000001
 40
0.0
 40
0.0
 40
0.0
 40
0.0
 40
0.5000550929
 40
1.0
 40
1.0
 40
1.0
 40
1.0
 10
85.7639414364
 20
212.9037589105
 30
0.0
 10
85.6298536066
 20
212.3794273314
 30
0.0
 10
85.4109039258
 20
211.3170568401
 30
0.0
 10
85.3309287354
 20
210.2335367891
 30
0.0
 10
85.3309287354
 20
209.6924507659
 30
0.0
  0
SPLINE
  5
330
100
AcDbEntity
  8
0
100
AcDbSpline
 62
7
  6
CONTINUOUS
 70
0
 71
3
 72
10
 73
6
 74
0
 42
0.0000001
 43
0.0000001
 44
0.0000000001
 40
0.0
 40
0.0
 40
0.0
 40
0.0
 40
0.5093920248
 40
0.7541501435
 40
1.0
 40
1.0
 40
1.0
 40
1.0
 10
85.7639414364
 20
213.7159618181
 30
0.0
 10
85.5835174013
 20
214.0687232111
 30
0.0
 10
85.3690897744
 20
214.6285796961
 30
0.0
 10
85.3125780782
 20
215.4093201388
 30
0.0
 10
85.3639387016
 20
215.7904301645
 30
0.0
 10
85.4064899879
 20
215.976867092
 30
0.0
  0
SPLINE
  5
331
100
AcDbEntity
  8
0
100
AcDbSpline
 62
7
  6
CONTINUOUS
 70
0
 71
3
 72
9
 73
5
 74
0
 42
0.0000001
 43
0.0000001
 44
0.0000000001
 40
0.0
 40
0.0
 40
0.0
 40
0.0
 40
0.2441216641
 40
1.0
 40
1.0
 40
1.0
 40
1.0
 10
85.4064899879
 20
215.976867092
 30
0.0
 10
85.4249042115
 20
216.0575483494
 30
0.0
 10
85.5129906421
 20
216.3851800531
 30
0.0
 10
85.6472608761
 20
216.6991385114
 30
0.0
 10
85.7639414364
 20
216.9272699628
 30
0.0
  0
SPLINE
  5
332
100
AcDbEntity
  8
0
100
AcDbSpline
 62
7
  6
CONTINUOUS
 70
0
 71
3
 72
9
 73
5
 74
0
 42
0.0000001
 43
0.0000001
 44
0.0000000001
 40
0.0
 40
0.0
 40
0.0
 40
0.0
 40
0.2566518874
 40
1.0
 40
1.0
 40
1.0
 40
1.0
 10
85.7639414364
 20
202.4576315689
 30
0.0
 10
85.7243321685
 20
202.5350748014
 30
0.0
 10
85.5771351811
 20
202.8402521658
 30
0.0
 10
85.4625489438
 20
203.1624141378
 30
0.0
 10
85.4064899784
 20
203.4080344751
 30
0.0
  0
SPLINE
  5
333
100
AcDbEntity
  8
0
100
AcDbSpline
 62
7
  6
CONTINUOUS
 70
0
 71
3
 72
10
 73
6
 74
0
 42
0.0000001
 43
0.0000001
 44
0.0000000001
 40
0.0
 40
0.0
 40
0.0
 40
0.0
 40
0.245849858
 40
0.490607977
 40
1.0
 40
1.0
 40
1.0
 40
1.0
 10
85.4064899784
 20
203.4080344751
 30
0.0
 10
85.3639386926
 20
203.5944714009
 30
0.0
 10
85.3125780698
 20
203.9755814231
 30
0.0
 10
85.3690897927
 20
204.7563218512
 30
0.0
 10
85.5835174048
 20
205.3161783275
 30
0.0
 10
85.7639414364
 20
205.6689397136
 30
0.0
  0
SPLINE
  5
334
100
AcDbEntity
  8
0
100
AcDbSpline
 62
7
  6
CONTINUOUS
 70
0
 71
3
 72
11
 73
7
 74
0
 42
0.0000001
 43
0.0000001
 44
0.0000000001
 40
0.0
 40
0.0
 40
0.0
 40
0.0
 40
0.2316306561
 40
0.4874260225
 40
0.7511398489
 40
1.0
 40
1.0
 40
1.0
 40
1.0
 10
106.8147083992
 20
219.6924507659
 30
0.0
 10
106.757178847
 20
219.6924507545
 30
0.0
 10
106.6348233222
 20
219.6672727006
 30
0.0
 10
106.4785470775
 20
219.5558019384
 30
0.0
 10
106.3764497614
 20
219.3889028664
 30
0.0
 10
106.3527746569
 20
219.2607998292
 30
0.0
 10
106.352025915
 20
219.1989955637
 30
0.0
  0
SPLINE
  5
335
100
AcDbEntity
  8
0
100
AcDbSpline
 62
7
  6
CONTINUOUS
 70
0
 71
3
 72
21
 73
17
 74
0
 42
0.0000001
 43
0.0000001
 44
0.0000000001
 40
0.0
 40
0.0
 40
0.0
 40
0.0
 40
0.0012263896
 40
0.0048457671
 40
0.0108564956
 40
0.0192484047
 40
0.0431005775
 40
0.076159199
 40
0.1181210612
 40
0.1685682799
 40
0.2270285247
 40
0.2929264585
 40
0.4444557543
 40
0.6173338369
 40
0.8049179007
 40
1.0
 40
1.0
 40
1.0
 40
1.0
 10
82.2399628663
 20
136.5745999725
 30
0.0
 10
82.2395540842
 20
136.5745964051
 30
0.0
 10
82.2400572185
 20
136.5720467278
 30
0.0
 10
82.2392713266
 20
136.5693302558
 30
0.0
 10
82.2394483482
 20
136.5628189473
 30
0.0
 10
82.2389851995
 20
136.5503759952
 30
0.0
 10
82.2388880281
 20
136.5283833164
 30
0.0
 10
82.238568677
 20
136.4955344265
 30
0.0
 10
82.2384044508
 20
136.4536708159
 30
0.0
 10
82.238253743
 20
136.4033956758
 30
0.0
 10
82.2381732053
 20
136.3451222342
 30
0.0
 10
82.2381352014
 20
136.2531614587
 30
0.0
 10
82.2382530057
 20
136.1230581615
 30
0.0
 10
82.2386084147
 20
135.9523946317
 30
0.0
 10
82.2391764888
 20
135.7672133906
 30
0.0
 10
82.2396791839
 20
135.6396586383
 30
0.0
 10
82.239962894
 20
135.5746317027
 30
0.0
  0
SPLINE
  5
336
100
AcDbEntity
  8
0
100
AcDbSpline
 62
7
  6
CONTINUOUS
 70
0
 71
3
 72
21
 73
17
 74
0
 42
0.0000001
 43
0.0000001
 44
0.0000000001
 40
0.0
 40
0.0
 40
0.0
 40
0.0
 40
0.1950831519
 40
0.3826665745
 40
0.5555431012
 40
0.7070706814
 40
0.7729679137
 40
0.8314276605
 40
0.8818746503
 40
0.9238366039
 40
0.9568956807
 40
0.9807486993
 40
0.9891411839
 40
0.9951525904
 40
0.9987727463
 40
1.0
 40
1.0
 40
1.0
 40
1.0
 10
82.2399628337
 20
127.231164596
 30
0.0
 10
82.2393954717
 20
127.1661414372
 30
0.0
 10
82.2383363642
 20
127.0385944098
 30
0.0
 10
82.2369604673
 20
126.8534242596
 30
0.0
 10
82.2358605335
 20
126.682771168
 30
0.0
 10
82.2351751154
 20
126.5526754973
 30
0.0
 10
82.2348118863
 20
126.4607196058
 30
0.0
 10
82.2346381561
 20
126.4024489019
 30
0.0
 10
82.2345694817
 20
126.3521754824
 30
0.0
 10
82.2345510036
 20
126.3103131034
 30
0.0
 10
82.2347269948
 20
126.2774633132
 30
0.0
 10
82.2347281074
 20
126.2554716114
 30
0.0
 10
82.2351369736
 20
126.2430250817
 30
0.0
 10
82.2349313639
 20
126.2365164475
 30
0.0
 10
82.2357057137
 20
126.233791956
 30
0.0
 10
82.2351908895
 20
126.2312478856
 30
0.0
 10
82.2355998987
 20
126.2312407462
 30
0.0
  0
SPLINE
  5
337
100
AcDbEntity
  8
0
100
AcDbSpline
 62
7
  6
CONTINUOUS
 70
0
 71
3
 72
21
 73
17
 74
0
 42
0.0000001
 43
0.0000001
 44
0.0000000001
 40
0.0
 40
0.0
 40
0.0
 40
0.0
 40
0.0012272537
 40
0.0048474097
 40
0.0108588161
 40
0.0192513007
 40
0.0431043193
 40
0.0761633961
 40
0.1181253498
 40
0.1685723396
 40
0.2270320864
 40
0.2929293187
 40
0.4444568989
 40
0.6173334255
 40
0.8049168481
 40
1.0
 40
1.0
 40
1.0
 40
1.0
 10
82.2355998981
 20
121.1536607855
 30
0.0
 10
82.235190889
 20
121.1536536462
 30
0.0
 10
82.2357057131
 20
121.1511095758
 30
0.0
 10
82.2349313634
 20
121.1483850842
 30
0.0
 10
82.2351369731
 20
121.1418764501
 30
0.0
 10
82.2347281069
 20
121.1294299203
 30
0.0
 10
82.2347269943
 20
121.1074382185
 30
0.0
 10
82.234551003
 20
121.0745884283
 30
0.0
 10
82.2345694812
 20
121.0327260493
 30
0.0
 10
82.2346381556
 20
120.9824526297
 30
0.0
 10
82.2348118858
 20
120.9241819258
 30
0.0
 10
82.2351751149
 20
120.8322260343
 30
0.0
 10
82.235860533
 20
120.7021303636
 30
0.0
 10
82.2369604667
 20
120.5314772719
 30
0.0
 10
82.2383363637
 20
120.3463071217
 30
0.0
 10
82.2393954712
 20
120.2187600942
 30
0.0
 10
82.2399628332
 20
120.1537369355
 30
0.0
  0
SPLINE
  5
338
100
AcDbEntity
  8
0
100
AcDbSpline
 62
7
  6
CONTINUOUS
 70
0
 71
3
 72
21
 73
17
 74
0
 42
0.0000001
 43
0.0000001
 44
0.0000000001
 40
0.0
 40
0.0
 40
0.0
 40
0.0
 40
0.1950820993
 40
0.3826661632
 40
0.5555442458
 40
0.7070735415
 40
0.7729714753
 40
0.8314317201
 40
0.8818789389
 40
0.923840801
 40
0.9568994225
 40
0.9807515953
 40
0.9891435044
 40
0.9951542329
 40
0.9987736104
 40
1.0
 40
1.0
 40
1.0
 40
1.0
 10
82.2399628921
 20
109.810269829
 30
0.0
 10
82.2396791819
 20
109.7452428934
 30
0.0
 10
82.2391764868
 20
109.617688141
 30
0.0
 10
82.2386084128
 20
109.4325069
 30
0.0
 10
82.2382530038
 20
109.2618433702
 30
0.0
 10
82.2381351995
 20
109.131740073
 30
0.0
 10
82.2381732034
 20
109.0397792975
 30
0.0
 10
82.2382537411
 20
108.9815058559
 30
0.0
 10
82.2384044489
 20
108.9312307158
 30
0.0
 10
82.2385686751
 20
108.8893671053
 30
0.0
 10
82.2388880262
 20
108.8565182154
 30
0.0
 10
82.2389851976
 20
108.8345255366
 30
0.0
 10
82.2394483463
 20
108.8220825844
 30
0.0
 10
82.2392713247
 20
108.8155712759
 30
0.0
 10
82.2400572165
 20
108.812854804
 30
0.0
 10
82.2395540822
 20
108.8103051267
 30
0.0
 10
82.2399628644
 20
108.8103015593
 30
0.0
  0
ENDSEC
  0
SECTION
  2
OBJECTS
  0
DICTIONARY
  5
C
100
AcDbDictionary
280
0
281
1
  3
ACAD_GROUP
350
D
  3
ACAD_MLINESTYLE
350
17
  3
ACAD_LAYOUT
350
1A
  3
ACAD_PLOTSETTINGS
350
19
  3
ACAD_PLOTSTYLENAME
350
E
  0
DICTIONARY
  5
D
102
{ACAD_REACTORS
330
C
102
}
100
AcDbDictionary
280
0
281
1
  0
ACDBDICTIONARYWDFLT
  5
E
102
{ACAD_REACTORS
330
C
102
}
100
AcDbDictionary
281
1
  3
Normal
350
F
100
AcDbDictionaryWithDefault
340
F
  0
DICTIONARY
  5
17
102
{ACAD_REACTORS
330
C
102
}
100
AcDbDictionary
280
0
281
1
  3
Standard
350
18
  0
DICTIONARY
  5
19
102
{ACAD_REACTORS
330
C
102
}
100
AcDbDictionary
281
1
  0
DICTIONARY
  5
1A
102
{ACAD_REACTORS
330
C
102
}
100
AcDbDictionary
281
1
  3
Model
350
339
  3
Layout1
350
33A
  0
ACDBPLACEHOLDER
  5
F
102
{ACAD_REACTORS
330
E
102
}
  0
MLINESTYLE
  5
18
102
{ACAD_REACTORS
330
17
102
}
100
AcDbMlineStyle
  2
STANDARD
 70
0
  3

 62
256
 51
90.0
 52
90.0
 71
2
 49
0.5
 62
256
  6
BYLAYER
 49
-0.5
 62
256
  6
BYLAYER
  0
LAYOUT
  5
339
102
{ACAD_REACTORS
330
1A
102
}
100
AcDbPlotSettings
  1

  2
none_device
  4

  6

 40
0.0
 41
0.0
 42
0.0
 43
0.0
 44
210.0
 45
297.0
 46
0.0
 47
0.0
 48
0.0
 49
0.0
140
0.0
141
0.0
142
1.0
143
1.0
 70
1024
 72
1
 73
0
 74
0
  7

 75
0
147
1.0
148
0.0
149
0.0
100
AcDbLayout
  1
Model
 70
0
 71
0
 10
0.0
 20
0.0
 11
210.0
 21
297.0
 12
0.0
 22
0.0
 32
0.0
 14
0.0
 24
0.0
 34
0.0
 15
0.0
 25
0.0
 35
0.0
146
0.0
 13
0.0
 23
0.0
 33
0.0
 16
1.0
 26
0.0
 36
0.0
 17
0.0
 27
1.0
 37
0.0
 76
0
330
210
345
0
346
0
  0
LAYOUT
  5
33A
102
{ACAD_REACTORS
330
1A
102
}
100
AcDbPlotSettings
  1

  2
none_device
  4

  6

 40
0.0
 41
0.0
 42
0.0
 43
0.0
 44
210.0
 45
297.0
 46
0.0
 47
0.0
 48
0.0
 49
0.0
140
0.0
141
0.0
142
1.0
143
1.0
 70
0
 72
1
 73
0
 74
0
  7

 75
0
147
1.0
148
0.0
149
0.0
100
AcDbLayout
  1
Layout1
 70
0
 71
1
 10
0.0
 20
0.0
 11
210.0
 21
297.0
 12
0.0
 22
0.0
 32
0.0
 14
0.0
 24
0.0
 34
0.0
 15
0.0
 25
0.0
 35
0.0
146
0.0
 13
0.0
 23
0.0
 33
0.0
 16
1.0
 26
0.0
 36
0.0
 17
0.0
 27
1.0
 37
0.0
 76
0
330
211
345
0
346
0
  0
ENDSEC
  0
EOF
