999
DXF file: C:\Users\sesa63760\Dev\_Creo\CAD\MCADID0000283_3D-CAD\drw0001_1.dxf
999
Pro/ENGINEER 2019471 by Parametric Technology Corporation
  0
SECTION
  2
HEADER
  9
$ACADVER
  1
AC1024
  9
$DWGCODEPAGE
  3
ANSI_1252
  9
$EXTMAX
 10
168.0414286397
 20
237.6585919332
 30
0.0
  9
$EXTMIN
 10
0.0
 20
0.0
 30
0.0
  9
$LIMMIN
 10
0.0
 20
0.0
  9
$LIMMAX
 10
168.0414286397
 20
237.6585919332
  9
$VIEWCTR
 10
84.0207143198
 20
118.8292959666
  9
$VIEWSIZE
 40
237.6585919332
  9
$CLAYER
  8
0
  9
$LTSCALE
 40
15.491819326
  9
$CELTYPE
  6
BYLAYER
  9
$DIMSCALE
 40
1.0
  9
$DIMASZ
 40
2.0004931981
  9
$DIMEXO
 40
1.0
  9
$DIMDLI
 40
10.7034388071
  9
$DIMEXE
 40
1.0
  9
$DIMCEN
 40
2.5350249806
  9
$DIMLFAC
 40
1.0
  9
$DIMBLK
  1
_FILLED
  9
$DIMALT
 70
0
  9
$DIMALTF
 40
0.0393700787
  9
$DIMTXT
 40
2.8006904773
  9
$DIMTOL
 70
1
  9
$DIMLIM
 70
0
  9
$DIMTFAC
 40
1.0
  9
$DIMTP
 40
0.01
  9
$DIMTM
 40
0.01
  9
$DIMGAP
 40
0.625
  9
$DIMDSEP
 70
46
  9
$AUNITS
 70
0
  9
$PDMODE
 70
3
  9
$PDSIZE
 40
0.3125
  9
$HANDSEED
  5
514
  9
$TILEMODE
 70
1
  9
$MEASUREMENT
 70
1
  9
$INSUNITS
 70
4
  0
ENDSEC
  0
SECTION
  2
CLASSES
  0
CLASS
  1
ACDBDICTIONARYWDFLT
  2
AcDbDictionaryWithDefault
  3
AutoCAD 2000
 90
0
 91
1
280
0
281
0
  0
CLASS
  1
ACDBPLACEHOLDER
  2
AcDbPlaceHolder
  3
AutoCAD 2000
 90
0
 91
1
280
0
281
0
  0
CLASS
  1
LAYOUT
  2
AcDbLayout
  3
AutoCAD 2000
 90
0
 91
0
280
0
281
0
  0
ENDSEC
  0
SECTION
  2
TABLES
  0
TABLE
  2
VPORT
  5
8
100
AcDbSymbolTable
 70
2
  0
VPORT
  5
1F4
100
AcDbSymbolTableRecord
100
AcDbViewportTableRecord
  2
*ACTIVE
 70
0
 10
0.0
 20
0.0
 11
1.0
 21
1.0
 12
84.0207143198
 22
118.8292959666
 13
0.0
 23
0.0
 14
1.0
 24
1.0
 15
0.0
 25
0.0
 16
0.0
 26
0.0
 36
1.0
 17
0.0
 27
0.0
 37
0.0
 40
237.6585919332
 41
0.7070707071
 42
50.0
 43
0.0
 44
0.0
 50
0.0
 51
0.0
 71
0
 72
100
 73
1
 74
1
 75
0
 76
0
 77
0
 78
0
  0
ENDTAB
  0
TABLE
  2
LTYPE
  5
5
100
AcDbSymbolTable
 70
6
  0
LTYPE
  5
14
100
AcDbSymbolTableRecord
100
AcDbLinetypeTableRecord
  2
BYBLOCK
 70
0
  3

 72
65
 73
0
 40
0.0
  0
LTYPE
  5
15
100
AcDbSymbolTableRecord
100
AcDbLinetypeTableRecord
  2
BYLAYER
 70
0
  3

 72
65
 73
0
 40
0.0
  0
LTYPE
  5
16
100
AcDbSymbolTableRecord
100
AcDbLinetypeTableRecord
  2
CONTINUOUS
 70
64
  3
Solid line
 72
65
 73
0
 40
0.0
  0
LTYPE
  5
1F5
100
AcDbSymbolTableRecord
100
AcDbLinetypeTableRecord
  2
CENTER
 70
64
  3
____ _ ____ _ ____ _ ____ _ ____ _ ____ _ ____
 72
65
 73
4
 40
0.6
 49
0.375
 74
0
 49
-0.075
 74
0
 49
0.075
 74
0
 49
-0.075
 74
0
  0
LTYPE
  5
1F6
100
AcDbSymbolTableRecord
100
AcDbLinetypeTableRecord
  2
HIDDEN
 70
64
  3
- - - - - - - - - - - - - - - - - - - -
 72
65
 73
2
 40
0.2
 49
0.1
 74
0
 49
-0.1
 74
0
  0
LTYPE
  5
1F7
100
AcDbSymbolTableRecord
100
AcDbLinetypeTableRecord
  2
PHANTOM
 70
64
  3
_____ _ _ _____ _ _ _____ _ _ _____
 72
65
 73
6
 40
0.8
 49
0.45
 74
0
 49
-0.05
 74
0
 49
0.1
 74
0
 49
-0.05
 74
0
 49
0.1
 74
0
 49
-0.05
 74
0
  0
LTYPE
  5
1F8
100
AcDbSymbolTableRecord
100
AcDbLinetypeTableRecord
  2
DOT
 70
64
  3
. . . . . . . . . . . . . . . . . . . .
 72
65
 73
2
 40
0.2
 49
0.1
 74
0
 49
-0.1
 74
0
  0
LTYPE
  5
1F9
100
AcDbSymbolTableRecord
100
AcDbLinetypeTableRecord
  2
DASHED
 70
64
  3
- - - - - - - - - - - - - - - - - - - -
 72
65
 73
2
 40
0.2
 49
0.1
 74
0
 49
-0.1
 74
0
  0
ENDTAB
  0
TABLE
  2
LAYER
  5
2
100
AcDbSymbolTable
 70
36
  0
LAYER
  5
10
100
AcDbSymbolTableRecord
100
AcDbLayerTableRecord
  2
0
 70
0
 62
7
  6
CONTINUOUS
370
-3
390
F
  0
LAYER
  5
1FA
100
AcDbSymbolTableRecord
100
AcDbLayerTableRecord
  2
DEFAULT_1
 70
0
 62
7
  6
CENTER
370
-3
390
F
  0
LAYER
  5
1FB
100
AcDbSymbolTableRecord
100
AcDbLayerTableRecord
  2
DEFAULT_2
 70
0
 62
8
  6
HIDDEN
370
-3
390
F
  0
LAYER
  5
1FC
100
AcDbSymbolTableRecord
100
AcDbLayerTableRecord
  2
DEFAULT_3
 70
0
 62
7
  6
PHANTOM
370
-3
390
F
  0
LAYER
  5
1FD
100
AcDbSymbolTableRecord
100
AcDbLayerTableRecord
  2
00_COMPONENTS
 70
0
 62
7
  6
CONTINUOUS
370
-3
390
F
  0
LAYER
  5
1FE
100
AcDbSymbolTableRecord
100
AcDbLayerTableRecord
  2
01_1_DEFAULT_DATUMS
 70
0
 62
7
  6
CONTINUOUS
370
-3
390
F
  0
LAYER
  5
1FF
100
AcDbSymbolTableRecord
100
AcDbLayerTableRecord
  2
01_PLANES
 70
0
 62
7
  6
CONTINUOUS
370
-3
390
F
  0
LAYER
  5
200
100
AcDbSymbolTableRecord
100
AcDbLayerTableRecord
  2
02_COORD_SYS
 70
0
 62
7
  6
CONTINUOUS
370
-3
390
F
  0
LAYER
  5
201
100
AcDbSymbolTableRecord
100
AcDbLayerTableRecord
  2
03_AXES
 70
0
 62
7
  6
CONTINUOUS
370
-3
390
F
  0
LAYER
  5
202
100
AcDbSymbolTableRecord
100
AcDbLayerTableRecord
  2
04_POINTS
 70
0
 62
7
  6
CONTINUOUS
370
-3
390
F
  0
LAYER
  5
203
100
AcDbSymbolTableRecord
100
AcDbLayerTableRecord
  2
05_CURVES
 70
0
 62
7
  6
CONTINUOUS
370
-3
390
F
  0
LAYER
  5
204
100
AcDbSymbolTableRecord
100
AcDbLayerTableRecord
  2
06_SURFS
 70
0
 62
7
  6
CONTINUOUS
370
-3
390
F
  0
LAYER
  5
205
100
AcDbSymbolTableRecord
100
AcDbLayerTableRecord
  2
07_COSMETICS
 70
0
 62
7
  6
CONTINUOUS
370
-3
390
F
  0
LAYER
  5
206
100
AcDbSymbolTableRecord
100
AcDbLayerTableRecord
  2
10_NOTES
 70
0
 62
7
  6
CONTINUOUS
370
-3
390
F
  0
LAYER
  5
207
100
AcDbSymbolTableRecord
100
AcDbLayerTableRecord
  2
11_NOTES_PUB
 70
0
 62
7
  6
CONTINUOUS
370
-3
390
F
  0
LAYER
  5
208
100
AcDbSymbolTableRecord
100
AcDbLayerTableRecord
  2
13_REF_GTOL
 70
0
 62
7
  6
CONTINUOUS
370
-3
390
F
  0
LAYER
  5
209
100
AcDbSymbolTableRecord
100
AcDbLayerTableRecord
  2
16_MISC
 70
0
 62
7
  6
CONTINUOUS
370
-3
390
F
  0
LAYER
  5
20A
100
AcDbSymbolTableRecord
100
AcDbLayerTableRecord
  2
17_NO_PRINT
 70
0
 62
7
  6
CONTINUOUS
370
-3
390
F
  0
LAYER
  5
20B
100
AcDbSymbolTableRecord
100
AcDbLayerTableRecord
  2
18_DATUM_CAMS_JOINTS
 70
0
 62
7
  6
CONTINUOUS
370
-3
390
F
  0
LAYER
  5
20C
100
AcDbSymbolTableRecord
100
AcDbLayerTableRecord
  2
19_DATUM_FUNCTIONAL
 70
0
 62
7
  6
CONTINUOUS
370
-3
390
F
  0
LAYER
  5
20D
100
AcDbSymbolTableRecord
100
AcDbLayerTableRecord
  2
20_DATUM_KINEMATIC_SCHEME
 70
0
 62
7
  6
CONTINUOUS
370
-3
390
F
  0
LAYER
  5
20E
100
AcDbSymbolTableRecord
100
AcDbLayerTableRecord
  2
_1
 70
0
 62
7
  6
CONTINUOUS
370
-3
390
F
  0
ENDTAB
  0
TABLE
  2
STYLE
  5
3
100
AcDbSymbolTable
 70
1
  0
STYLE
  5
11
100
AcDbSymbolTableRecord
100
AcDbTextStyleTableRecord
  2
STANDARD
 70
0
 40
0.0
 41
0.8
 50
0.0
 71
0
 42
0.2
  3
txt
  4

  0
STYLE
  5
20F
100
AcDbSymbolTableRecord
100
AcDbTextStyleTableRecord
  2
TEXTSTYLE_1
 70
0
 40
0.0
 41
0.8
 50
0.0
 71
0
 42
0.2
  3
gdt
  4

  0
ENDTAB
  0
TABLE
  2
VIEW
  5
6
100
AcDbSymbolTable
 70
0
  0
ENDTAB
  0
TABLE
  2
UCS
  5
7
100
AcDbSymbolTable
 70
0
  0
ENDTAB
  0
TABLE
  2
APPID
  5
9
100
AcDbSymbolTable
 70
1
  0
APPID
  5
210
100
AcDbSymbolTableRecord
100
AcDbRegAppTableRecord
  2
ACAD
 70
0
  0
ENDTAB
  0
TABLE
  2
BLOCK_RECORD
  5
1
100
AcDbSymbolTable
 70
0
  0
BLOCK_RECORD
  5
211
100
AcDbSymbolTableRecord
100
AcDbBlockTableRecord
  2
*Model_Space
  0
BLOCK_RECORD
  5
212
100
AcDbSymbolTableRecord
100
AcDbBlockTableRecord
  2
*Paper_Space
  0
BLOCK_RECORD
  5
213
100
AcDbSymbolTableRecord
100
AcDbBlockTableRecord
  2
_FILLED
  0
ENDTAB
  0
TABLE
  2
DIMSTYLE
  5
A
100
AcDbSymbolTable
 70
1
100
AcDbDimStyleTable
 71
0
  0
DIMSTYLE
105
214
100
AcDbSymbolTableRecord
100
AcDbDimStyleTableRecord
  2
STANDARD
 70
0
  3

  4

 40
1.0
 41
2.0004931981
 42
1.0
 43
0.38
 44
1.0
 45
0.0
 46
0.0
 47
0.01
 48
0.01
140
2.8006904773
141
0.09
142
0.0
143
25.4
144
1.0
145
0.0
146
1.0
147
0.625
 71
1
 72
0
 73
0
 74
0
 75
0
 76
0
 77
1
 78
8
 79
2
170
0
171
1
172
0
173
0
174
0
175
0
176
0
177
0
178
0
270
2
179
2
271
2
272
2
273
2
274
2
275
0
280
0
281
0
282
0
283
1
284
8
285
0
286
0
287
3
288
0
340
11
278
46
341
213
342
213
343
213
344
213
  0
ENDTAB
  0
ENDSEC
  0
SECTION
  2
BLOCKS
  0
BLOCK
  5
20
100
AcDbEntity
  8
0
100
AcDbBlockBegin
  2
*Model_Space
 70
0
 10
0.0
 20
0.0
 30
0.0
  3
*Model_Space
  1

  0
ENDBLK
  5
21
100
AcDbEntity
  8
0
100
AcDbBlockEnd
  0
BLOCK
  5
1C
100
AcDbEntity
  8
0
100
AcDbBlockBegin
  2
*Paper_Space
 70
0
 10
0.0
 20
0.0
 30
0.0
  3
*Paper_Space
  1

  0
ENDBLK
  5
1D
100
AcDbEntity
  8
0
100
AcDbBlockEnd
  0
BLOCK
  5
215
100
AcDbEntity
  8
0
100
AcDbBlockBegin
  2
_FILLED
 70
64
 10
0.0
 20
0.0
  3
_FILLED
  1

  0
SOLID
  5
216
100
AcDbEntity
  8
0
  6
BYBLOCK
 62
0
100
AcDbTrace
 10
0.0
 20
0.0
 11
-1.0
 21
0.25
 12
-1.0
 22
-0.25
 13
-1.0
 23
-0.25
  0
ENDBLK
  5
217
100
AcDbEntity
  8
0
  6
BYBLOCK
 62
0
100
AcDbBlockEnd
  0
ENDSEC
  0
SECTION
  2
ENTITIES
  0
LINE
  5
218
100
AcDbEntity
  8
_1
100
AcDbLine
 62
7
  6
CONTINUOUS
 10
21.9695626914
 20
69.1303447952
 11
22.3231055564
 21
68.9262208907
  0
LINE
  5
219
100
AcDbEntity
  8
_1
100
AcDbLine
 62
7
  6
CONTINUOUS
 10
19.4947390848
 20
73.8251517603
 11
19.4947420287
 21
73.4169093061
  0
LINE
  5
21A
100
AcDbEntity
  8
_1
100
AcDbLine
 62
7
  6
CONTINUOUS
 10
51.4579392019
 20
59.0453556731
 11
29.5048343243
 21
71.7196999517
  0
LINE
  5
21B
100
AcDbEntity
  8
_1
100
AcDbLine
 62
7
  6
CONTINUOUS
 10
25.5050274941
 20
90.3589856025
 11
25.6790192202
 21
78.7484682782
  0
LINE
  5
21C
100
AcDbEntity
  8
_1
100
AcDbLine
 62
7
  6
CONTINUOUS
 10
25.7154987056
 20
104.1607636282
 11
25.5050274941
 21
90.3589856025
  0
LINE
  5
21D
100
AcDbEntity
  8
_1
100
AcDbLine
 62
7
  6
CONTINUOUS
 10
23.8956223787
 20
71.0394136336
 11
23.7781473103
 21
70.3719465802
  0
LINE
  5
21E
100
AcDbEntity
  8
_1
100
AcDbLine
 62
7
  6
CONTINUOUS
 10
38.3611204732
 20
102.4468716752
 11
38.3174599258
 21
102.0401828314
  0
LINE
  5
21F
100
AcDbEntity
  8
_1
100
AcDbLine
 62
7
  6
CONTINUOUS
 10
119.4340575136
 20
175.6383305452
 11
120.8653360112
 21
176.0537022178
  0
LINE
  5
220
100
AcDbEntity
  8
_1
100
AcDbLine
 62
7
  6
CONTINUOUS
 10
50.2538207708
 20
98.932486804
 11
50.2228887284
 21
99.3585962315
  0
LINE
  5
221
100
AcDbEntity
  8
_1
100
AcDbLine
 62
7
  6
CONTINUOUS
 10
47.2839316631
 20
104.9744767418
 11
47.2839322852
 21
104.5662356281
  0
LINE
  5
222
100
AcDbEntity
  8
_1
100
AcDbLine
 62
7
  6
CONTINUOUS
 10
47.6374688619
 20
107.2198110897
 11
47.637469484
 21
106.811569976
  0
LINE
  5
223
100
AcDbEntity
  8
_1
100
AcDbLine
 62
7
  6
CONTINUOUS
 10
47.6374776938
 20
105.9950837271
 11
47.6374783159
 21
105.5868426134
  0
LINE
  5
224
100
AcDbEntity
  8
_1
100
AcDbLine
 62
7
  6
CONTINUOUS
 10
27.8365047923
 20
105.342985351
 11
51.4579392019
 21
91.7054523582
  0
LINE
  5
225
100
AcDbEntity
  8
_1
100
AcDbLine
 62
7
  6
CONTINUOUS
 10
57.1335087897
 20
88.8445473829
 11
58.2362349146
 21
88.2079025607
  0
LINE
  5
226
100
AcDbEntity
  8
_1
100
AcDbLine
 62
7
  6
CONTINUOUS
 10
31.3720239784
 20
107.3842061204
 11
35.0682548158
 21
105.2502345283
  0
LINE
  5
227
100
AcDbEntity
  8
_1
100
AcDbLine
 62
7
  6
CONTINUOUS
 10
51.2972275505
 20
95.8806447197
 11
54.9934583879
 21
93.7466731276
  0
LINE
  5
228
100
AcDbEntity
  8
_1
100
AcDbLine
 62
7
  6
CONTINUOUS
 10
54.1674569992
 20
95.9263717515
 11
54.2060728181
 21
94.2012601142
  0
LINE
  5
229
100
AcDbEntity
  8
_1
100
AcDbLine
 62
7
  6
CONTINUOUS
 10
53.7894165
 20
74.0293554216
 11
53.5789452886
 21
88.0741591705
  0
LINE
  5
22A
100
AcDbEntity
  8
_1
100
AcDbLine
 62
7
  6
CONTINUOUS
 10
50.6426851938
 20
105.484787883
 11
50.6426858159
 21
105.0765467693
  0
LINE
  5
22B
100
AcDbEntity
  8
_1
100
AcDbLine
 62
7
  6
CONTINUOUS
 10
53.6125213101
 20
107.1994133293
 11
53.6125219322
 21
106.7911695346
  0
LINE
  5
22C
100
AcDbEntity
  8
_1
100
AcDbLine
 62
7
  6
CONTINUOUS
 10
53.5789452886
 20
60.2275773959
 11
53.7894165
 21
74.0293554216
  0
LINE
  5
22D
100
AcDbEntity
  8
_1
100
AcDbLine
 62
7
  6
CONTINUOUS
 10
98.0157669842
 20
163.2727722568
 11
119.4339606596
 21
175.6384983274
  0
LINE
  5
22E
100
AcDbEntity
  8
_1
100
AcDbLine
 62
7
  6
CONTINUOUS
 10
118.8796710366
 20
175.3126826271
 11
101.2020751062
 21
165.1065787804
  0
LINE
  5
22F
100
AcDbEntity
  8
_1
100
AcDbLine
 62
7
  6
CONTINUOUS
 10
101.5143125158
 20
165.2421273707
 11
119.1919084461
 21
175.4482312175
  0
LINE
  5
230
100
AcDbEntity
  8
_1
100
AcDbLine
 62
7
  6
CONTINUOUS
 10
120.8653360112
 20
176.0537022178
 11
96.5762714297
 21
162.0304879506
  0
LINE
  5
231
100
AcDbEntity
  8
_1
100
AcDbLine
 62
7
  6
CONTINUOUS
 10
95.2666393786
 20
160.8356509912
 11
122.1675804202
 21
176.3668238344
  0
LINE
  5
232
100
AcDbEntity
  8
_1
100
AcDbLine
 62
7
  6
CONTINUOUS
 10
127.803523977
 20
179.1048148609
 11
122.6763244299
 21
176.1446424921
  0
LINE
  5
233
100
AcDbEntity
  8
_1
100
AcDbLine
 62
7
  6
CONTINUOUS
 10
66.2094346694
 20
93.5988632613
 11
64.6520253327
 21
94.4980136195
  0
LINE
  5
234
100
AcDbEntity
  8
_1
100
AcDbLine
 62
7
  6
CONTINUOUS
 10
49.7588186451
 20
103.1373916468
 11
46.9303797445
 21
104.7703546649
  0
LINE
  5
235
100
AcDbEntity
  8
_1
100
AcDbLine
 62
7
  6
CONTINUOUS
 10
47.2839316631
 20
104.9744767418
 11
50.1123705637
 21
103.3415137237
  0
LINE
  5
236
100
AcDbEntity
  8
_1
100
AcDbLine
 62
7
  6
CONTINUOUS
 10
51.5265841261
 20
103.3415171231
 11
47.2839257752
 21
105.7909616502
  0
LINE
  5
237
100
AcDbEntity
  8
_1
100
AcDbLine
 62
7
  6
CONTINUOUS
 10
47.6374776938
 20
105.9950837271
 11
51.8801360447
 21
103.5456392
  0
LINE
  5
238
100
AcDbEntity
  8
_1
100
AcDbLine
 62
7
  6
CONTINUOUS
 10
53.6479044696
 20
103.3415222221
 11
47.2839169433
 21
107.0156890128
  0
LINE
  5
239
100
AcDbEntity
  8
_1
100
AcDbLine
 62
7
  6
CONTINUOUS
 10
47.6374688619
 20
107.2198110897
 11
50.6426851938
 21
105.484787883
  0
LINE
  5
23A
100
AcDbEntity
  8
_1
100
AcDbLine
 62
7
  6
CONTINUOUS
 10
50.9962400563
 20
105.2806675057
 11
54.0014563882
 21
103.545644299
  0
LINE
  5
23B
100
AcDbEntity
  8
_1
100
AcDbLine
 62
7
  6
CONTINUOUS
 10
59.9844600194
 20
105.5342627988
 11
60.0281205669
 21
105.127573955
  0
LINE
  5
23C
100
AcDbEntity
  8
_1
100
AcDbLine
 62
7
  6
CONTINUOUS
 10
59.4152386122
 20
104.6657702319
 11
59.4461706546
 21
104.2396608043
  0
LINE
  5
23D
100
AcDbEntity
  8
_1
100
AcDbLine
 62
7
  6
CONTINUOUS
 10
57.1144644747
 20
90.1153799399
 11
57.249581043
 21
81.0990129384
  0
LINE
  5
23E
100
AcDbEntity
  8
_1
100
AcDbLine
 62
7
  6
CONTINUOUS
 10
57.249581043
 20
71.1291495221
 11
57.1144644747
 21
62.2687981653
  0
LINE
  5
23F
100
AcDbEntity
  8
_1
100
AcDbLine
 62
7
  6
CONTINUOUS
 10
50.9962400563
 20
105.2806675057
 11
50.8468138288
 21
104.9586960722
  0
LINE
  5
240
100
AcDbEntity
  8
_1
100
AcDbLine
 62
7
  6
CONTINUOUS
 10
126.5502270665
 20
175.6418370468
 11
127.7128918595
 21
176.3130978712
  0
LINE
  5
241
100
AcDbEntity
  8
_1
100
AcDbLine
 62
7
  6
CONTINUOUS
 10
125.6065852894
 20
174.4740783416
 11
127.0664171659
 21
175.3169076374
  0
LINE
  5
242
100
AcDbEntity
  8
_1
100
AcDbLine
 62
7
  6
CONTINUOUS
 10
127.7943019324
 20
175.6019480929
 11
127.363679488
 21
175.3533295927
  0
LINE
  5
243
100
AcDbEntity
  8
_1
100
AcDbLine
 62
7
  6
CONTINUOUS
 10
127.0664171659
 20
174.9068778245
 11
125.9231382693
 21
174.2468093859
  0
LINE
  5
244
100
AcDbEntity
  8
_1
100
AcDbLine
 62
7
  6
CONTINUOUS
 10
126.2659883872
 20
174.0006604212
 11
94.2890592115
 21
155.5388819558
  0
LINE
  5
245
100
AcDbEntity
  8
_1
100
AcDbLine
 62
7
  6
CONTINUOUS
 10
113.1527775149
 20
165.7345105681
 11
94.4264547554
 21
154.9229264496
  0
LINE
  5
246
100
AcDbEntity
  8
_1
100
AcDbLine
 62
7
  6
CONTINUOUS
 10
94.5475132076
 20
154.857541772
 11
113.3892904584
 21
165.7357820054
  0
LINE
  5
247
100
AcDbEntity
  8
_1
100
AcDbLine
 62
7
  6
CONTINUOUS
 10
115.1987465535
 20
165.0423869188
 11
127.5682327962
 21
172.1838705019
  0
LINE
  5
248
100
AcDbEntity
  8
_1
100
AcDbLine
 62
7
  6
CONTINUOUS
 10
90.1174946963
 20
85.306405628
 11
90.7047874462
 21
84.9673396715
  0
LINE
  5
249
100
AcDbEntity
  8
_1
100
AcDbLine
 62
7
  6
CONTINUOUS
 10
53.6125213101
 20
107.1994133293
 11
53.9660761726
 21
106.995292952
  0
LINE
  5
24A
100
AcDbEntity
  8
_1
100
AcDbLine
 62
7
  6
CONTINUOUS
 10
52.3441298424
 20
110.3454310071
 11
59.4152270939
 21
106.2630234619
  0
LINE
  5
24B
100
AcDbEntity
  8
_1
100
AcDbLine
 62
7
  6
CONTINUOUS
 10
62.884856792
 20
97.50608796
 11
62.8229834807
 21
100.270197911
  0
LINE
  5
24C
100
AcDbEntity
  8
_1
100
AcDbLine
 62
7
  6
CONTINUOUS
 10
62.8384727293
 20
69.8745401653
 11
62.8397358295
 21
69.9295090584
  0
LINE
  5
24D
100
AcDbEntity
  8
_1
100
AcDbLine
 62
7
  6
CONTINUOUS
 10
93.7084612453
 20
148.4817216799
 11
93.3885077257
 21
148.2652293769
  0
LINE
  5
24E
100
AcDbEntity
  8
_1
100
AcDbLine
 62
7
  6
CONTINUOUS
 10
130.934305596
 20
171.5952755329
 11
131.1690999962
 21
171.7308333339
  0
LINE
  5
24F
100
AcDbEntity
  8
_1
100
AcDbLine
 62
7
  6
CONTINUOUS
 10
131.3090706298
 20
170.8699390663
 11
130.934305596
 21
170.6535696647
  0
LINE
  5
250
100
AcDbEntity
  8
_1
100
AcDbLine
 62
7
  6
CONTINUOUS
 10
129.5474559115
 20
169.0784627656
 11
119.1448685311
 21
163.0725619917
  0
LINE
  5
251
100
AcDbEntity
  8
_1
100
AcDbLine
 62
7
  6
CONTINUOUS
 10
130.0086909669
 20
168.5010511236
 11
119.7418548878
 21
162.5735259321
  0
LINE
  5
252
100
AcDbEntity
  8
_1
100
AcDbLine
 62
7
  6
CONTINUOUS
 10
121.3699428354
 20
161.2125658618
 11
132.0013845633
 21
167.3505949661
  0
LINE
  5
253
100
AcDbEntity
  8
_1
100
AcDbLine
 62
7
  6
CONTINUOUS
 10
121.4639869148
 20
161.133952027
 11
133.0104673824
 21
167.8002758406
  0
LINE
  5
254
100
AcDbEntity
  8
_1
100
AcDbLine
 62
7
  6
CONTINUOUS
 10
121.6959879551
 20
160.9400164644
 11
102.8542107043
 21
150.0617762309
  0
LINE
  5
255
100
AcDbEntity
  8
_1
100
AcDbLine
 62
7
  6
CONTINUOUS
 10
134.441842734
 20
168.215479731
 11
121.7418309505
 21
160.8831682771
  0
LINE
  5
256
100
AcDbEntity
  8
_1
100
AcDbLine
 62
7
  6
CONTINUOUS
 10
103.1596410683
 20
149.9115185051
 11
121.8594766769
 21
160.7078091823
  0
LINE
  5
257
100
AcDbEntity
  8
_1
100
AcDbLine
 62
7
  6
CONTINUOUS
 10
93.4421439757
 20
144.2790714566
 11
94.4478145218
 21
144.8596921513
  0
LINE
  5
258
100
AcDbEntity
  8
_1
100
AcDbLine
 62
7
  6
CONTINUOUS
 10
29.8720306937
 20
107.5327789574
 11
26.3365115076
 21
105.4915581881
  0
LINE
  5
259
100
AcDbEntity
  8
_1
100
AcDbLine
 62
7
  6
CONTINUOUS
 10
68.4091898218
 20
129.7820853434
 11
89.9832995944
 21
142.2378290774
  0
LINE
  5
25A
100
AcDbEntity
  8
_1
100
AcDbLine
 62
7
  6
CONTINUOUS
 10
121.9191823981
 20
160.6069987095
 11
103.250311693
 21
149.8285855208
  0
LINE
  5
25B
100
AcDbEntity
  8
_1
100
AcDbLine
 62
7
  6
CONTINUOUS
 10
103.7671579674
 20
150.0668228822
 11
135.744087143
 21
168.5286013477
  0
LINE
  5
25C
100
AcDbEntity
  8
_1
100
AcDbLine
 62
7
  6
CONTINUOUS
 10
68.4698581068
 20
129.4343465001
 11
67.3383901672
 21
128.78109708
  0
LINE
  5
25D
100
AcDbEntity
  8
_1
100
AcDbLine
 62
7
  6
CONTINUOUS
 10
136.0285388556
 20
168.4043741093
 11
137.2267212653
 21
169.0961409168
  0
LINE
  5
25E
100
AcDbEntity
  8
_1
100
AcDbLine
 62
7
  6
CONTINUOUS
 10
136.2528311528
 20
168.3064200053
 11
141.3800306998
 21
171.2665923741
  0
LWPOLYLINE
  5
25F
100
AcDbEntity
  8
_1
100
AcDbPolyline
 62
7
  6
CONTINUOUS
 90
4
 70
0
 10
81.1352922273
 20
133.7321493706
 10
80.3362113443
 20
133.0362997686
 10
80.0699686465
 20
132.5990031594
 10
79.8436022298
 20
131.6613442976
  0
LINE
  5
260
100
AcDbEntity
  8
_1
100
AcDbLine
 62
7
  6
CONTINUOUS
 10
36.7384565607
 20
106.5535244075
 11
44.2435982333
 21
111.5383914522
  0
LINE
  5
261
100
AcDbEntity
  8
_1
100
AcDbLine
 62
7
  6
CONTINUOUS
 10
44.7800713719
 20
111.5107355165
 11
37.2563082777
 21
106.5135002428
  0
LINE
  5
262
100
AcDbEntity
  8
_1
100
AcDbLine
 62
7
  6
CONTINUOUS
 10
44.2626055261
 20
111.5501744863
 11
44.2436008339
 21
111.5383931795
  0
LINE
  5
263
100
AcDbEntity
  8
_1
100
AcDbLine
 62
7
  6
CONTINUOUS
 10
27.8365047923
 20
105.342985351
 11
31.3720239784
 21
107.3842061204
  0
LINE
  5
264
100
AcDbEntity
  8
_1
100
AcDbLine
 62
7
  6
CONTINUOUS
 10
69.9091831065
 20
129.6335125064
 11
89.7943153544
 21
141.1141304325
  0
LINE
  5
265
100
AcDbEntity
  8
_1
100
AcDbLine
 62
7
  6
CONTINUOUS
 10
140.1267337893
 20
167.80361456
 11
141.2893985823
 21
168.4748753844
  0
LINE
  5
266
100
AcDbEntity
  8
_1
100
AcDbLine
 62
7
  6
CONTINUOUS
 10
81.1354427867
 20
133.7322372152
 11
90.358395069
 21
139.0570794131
  0
LINE
  5
267
100
AcDbEntity
  8
_1
100
AcDbLine
 62
7
  6
CONTINUOUS
 10
139.1830920122
 20
166.6358558548
 11
140.6429238887
 21
167.4786851506
  0
LINE
  5
268
100
AcDbEntity
  8
_1
100
AcDbLine
 62
7
  6
CONTINUOUS
 10
82.1354383098
 20
133.6331886572
 11
91.358482968
 21
138.958084188
  0
LINE
  5
269
100
AcDbEntity
  8
_1
100
AcDbLine
 62
7
  6
CONTINUOUS
 10
141.3708086552
 20
167.7637256061
 11
140.9401862108
 21
167.515107106
  0
LINE
  5
26A
100
AcDbEntity
  8
_1
100
AcDbLine
 62
7
  6
CONTINUOUS
 10
44.2626074785
 20
111.5501757798
 11
72.5395344888
 21
127.8757697504
  0
LINE
  5
26B
100
AcDbEntity
  8
_1
100
AcDbLine
 62
7
  6
CONTINUOUS
 10
140.6429238887
 20
167.0686553377
 11
139.4996449921
 21
166.4085868991
  0
LINE
  5
26C
100
AcDbEntity
  8
_1
100
AcDbLine
 62
7
  6
CONTINUOUS
 10
44.7800713719
 20
111.5107355165
 11
73.0395322504
 21
127.8262454714
  0
LINE
  5
26D
100
AcDbEntity
  8
_1
100
AcDbLine
 62
7
  6
CONTINUOUS
 10
139.84249511
 20
166.1624379345
 11
112.9415540683
 21
150.6312650912
  0
LINE
  5
26E
100
AcDbEntity
  8
_1
100
AcDbLine
 62
7
  6
CONTINUOUS
 10
36.7388443843
 20
106.5529405061
 11
34.7753639565
 21
105.4193313193
  0
LINE
  5
26F
100
AcDbEntity
  8
_1
100
AcDbLine
 62
7
  6
CONTINUOUS
 10
35.0682548158
 20
105.2502345283
 11
37.2563082777
 21
106.5135002428
  0
LINE
  5
270
100
AcDbEntity
  8
_1
100
AcDbLine
 62
7
  6
CONTINUOUS
 10
116.8556749376
 20
150.3224337479
 11
141.144739519
 21
164.3456480151
  0
LINE
  5
271
100
AcDbEntity
  8
_1
100
AcDbLine
 62
7
  6
CONTINUOUS
 10
90.3595275748
 20
139.05773326
 11
90.3637186742
 21
139.0601292246
  0
LINE
  5
272
100
AcDbEntity
  8
_1
100
AcDbLine
 62
7
  6
CONTINUOUS
 10
90.3637186742
 20
139.0601292246
 11
90.5235749639
 21
139.1233153674
  0
LINE
  5
273
100
AcDbEntity
  8
_1
100
AcDbLine
 62
7
  6
CONTINUOUS
 10
79.843175602
 20
131.6322967936
 11
79.8436068747
 21
131.661667329
  0
LINE
  5
274
100
AcDbEntity
  8
_1
100
AcDbLine
 62
7
  6
CONTINUOUS
 10
79.7927391552
 20
129.979147374
 11
79.7922822904
 21
129.9489183901
  0
LINE
  5
275
100
AcDbEntity
  8
_1
100
AcDbLine
 62
7
  6
CONTINUOUS
 10
79.7927390933
 20
129.9791453275
 11
79.8436321858
 21
131.6625164822
  0
LINE
  5
276
100
AcDbEntity
  8
_1
100
AcDbLine
 62
7
  6
CONTINUOUS
 10
40.3852166612
 20
105.0382503568
 11
49.577566545
 21
110.3454243571
  0
LINE
  5
277
100
AcDbEntity
  8
_1
100
AcDbLine
 62
7
  6
CONTINUOUS
 10
141.4039594097
 20
162.6243877286
 11
123.7263634793
 21
152.4182838818
  0
LINE
  5
278
100
AcDbEntity
  8
_1
100
AcDbLine
 62
7
  6
CONTINUOUS
 10
144.5108123189
 20
163.7570530461
 11
144.745606719
 21
163.8926108471
  0
LINE
  5
279
100
AcDbEntity
  8
_1
100
AcDbLine
 62
7
  6
CONTINUOUS
 10
124.0386008889
 20
151.9222027428
 11
141.7161968192
 21
162.1283065896
  0
LINE
  5
27A
100
AcDbEntity
  8
_1
100
AcDbLine
 62
7
  6
CONTINUOUS
 10
47.2839169433
 20
107.0156890128
 11
47.6374688619
 21
107.2198110897
  0
LINE
  5
27B
100
AcDbEntity
  8
_1
100
AcDbLine
 62
7
  6
CONTINUOUS
 10
144.8855773526
 20
163.0317165795
 11
144.5108123189
 21
162.8153471779
  0
LINE
  5
27C
100
AcDbEntity
  8
_1
100
AcDbLine
 62
7
  6
CONTINUOUS
 10
47.2839257752
 20
105.7909616502
 11
47.6374776938
 21
105.9950837271
  0
LINE
  5
27D
100
AcDbEntity
  8
_1
100
AcDbLine
 62
7
  6
CONTINUOUS
 10
142.5047213091
 20
160.6459293304
 11
126.9484368904
 21
151.6645579452
  0
LINE
  5
27E
100
AcDbEntity
  8
_1
100
AcDbLine
 62
7
  6
CONTINUOUS
 10
104.0480755824
 20
138.1558725137
 11
105.0537461285
 21
138.7364932084
  0
LINE
  5
27F
100
AcDbEntity
  8
_1
100
AcDbLine
 62
7
  6
CONTINUOUS
 10
127.1825160428
 20
151.1335977452
 11
142.7388004615
 21
160.1149691304
  0
LINE
  5
280
100
AcDbEntity
  8
_1
100
AcDbLine
 62
7
  6
CONTINUOUS
 10
46.9303797445
 20
104.7703546649
 11
47.2839316631
 21
104.9744767418
  0
LINE
  5
281
100
AcDbEntity
  8
_1
100
AcDbLine
 62
7
  6
CONTINUOUS
 10
30.7330478992
 20
94.3680826465
 11
32.1472555737
 21
95.1845709542
  0
LINE
  5
282
100
AcDbEntity
  8
_1
100
AcDbLine
 62
7
  6
CONTINUOUS
 10
104.0480755824
 20
136.5228676794
 11
104.32214482
 21
136.681100683
  0
LINE
  5
283
100
AcDbEntity
  8
_1
100
AcDbLine
 62
7
  6
CONTINUOUS
 10
50.6426851938
 20
105.484787883
 11
53.6125213101
 21
107.1994133293
  0
LINE
  5
284
100
AcDbEntity
  8
_1
100
AcDbLine
 62
7
  6
CONTINUOUS
 10
53.9660761726
 20
106.995292952
 11
50.9962400563
 21
105.2806675057
  0
LINE
  5
285
100
AcDbEntity
  8
_1
100
AcDbLine
 62
7
  6
CONTINUOUS
 10
110.9524027771
 20
138.124939245
 11
115.195348118
 21
140.2151280652
  0
LINE
  5
286
100
AcDbEntity
  8
_1
100
AcDbLine
 62
7
  6
CONTINUOUS
 10
80.7214519131
 20
130.3959591806
 11
80.6710044941
 21
128.7273293949
  0
LINE
  5
287
100
AcDbEntity
  8
_1
100
AcDbLine
 62
7
  6
CONTINUOUS
 10
93.7465441656
 20
150.4618696973
 11
93.7084612453
 21
150.3090521436
  0
LINE
  5
288
100
AcDbEntity
  8
_1
100
AcDbLine
 62
7
  6
CONTINUOUS
 10
116.6353356791
 20
141.0465003086
 11
119.8139826029
 21
143.1972895658
  0
LINE
  5
289
100
AcDbEntity
  8
_1
100
AcDbLine
 62
7
  6
CONTINUOUS
 10
120.2556653391
 20
141.8631434934
 11
121.8263771799
 21
142.9259448156
  0
LINE
  5
28A
100
AcDbEntity
  8
_1
100
AcDbLine
 62
7
  6
CONTINUOUS
 10
50.7374289873
 20
105.0218480112
 11
50.9268868668
 21
105.1312309161
  0
LINE
  5
28B
100
AcDbEntity
  8
_1
100
AcDbLine
 62
7
  6
CONTINUOUS
 10
50.1123705637
 20
103.3415137237
 11
49.7588186451
 21
103.1373916468
  0
LINE
  5
28C
100
AcDbEntity
  8
_1
100
AcDbLine
 62
7
  6
CONTINUOUS
 10
145.4675628758
 20
158.1773891294
 11
150.8032279882
 21
161.25791843
  0
LINE
  5
28D
100
AcDbEntity
  8
_1
100
AcDbLine
 62
7
  6
CONTINUOUS
 10
151.1567290026
 20
161.0609541073
 11
146.0264351733
 21
158.0989952645
  0
LINE
  5
28E
100
AcDbEntity
  8
_1
100
AcDbLine
 62
7
  6
CONTINUOUS
 10
51.8801360447
 20
103.5456392
 11
51.5265841261
 21
103.3415171231
  0
LINE
  5
28F
100
AcDbEntity
  8
_1
100
AcDbLine
 62
7
  6
CONTINUOUS
 10
126.7605187413
 20
145.7980130962
 11
144.4401225429
 21
156.005276181
  0
LINE
  5
290
100
AcDbEntity
  8
_1
100
AcDbLine
 62
7
  6
CONTINUOUS
 10
123.6919837036
 20
143.817183657
 11
123.0720865323
 21
143.4592879946
  0
LINE
  5
291
100
AcDbEntity
  8
_1
100
AcDbLine
 62
7
  6
CONTINUOUS
 10
103.3172042141
 20
132.0538694516
 11
94.0941595559
 21
126.7289739208
  0
LINE
  5
292
100
AcDbEntity
  8
_1
100
AcDbLine
 62
7
  6
CONTINUOUS
 10
54.0014563882
 20
103.545644299
 11
53.6479044696
 21
103.3415222221
  0
LINE
  5
293
100
AcDbEntity
  8
_1
100
AcDbLine
 62
7
  6
CONTINUOUS
 10
144.4401225429
 20
155.5970249725
 11
126.7605187413
 21
145.3897618876
  0
LINE
  5
294
100
AcDbEntity
  8
_1
100
AcDbLine
 62
7
  6
CONTINUOUS
 10
144.2044103898
 20
154.191118208
 11
149.4799944371
 21
157.2369598966
  0
LINE
  5
295
100
AcDbEntity
  8
_1
100
AcDbLine
 62
7
  6
CONTINUOUS
 10
59.4152386122
 20
104.6657702319
 11
50.2228887284
 21
99.3585962315
  0
LINE
  5
296
100
AcDbEntity
  8
_1
100
AcDbLine
 62
7
  6
CONTINUOUS
 10
59.4461706546
 20
104.2396608043
 11
50.2538207708
 21
98.932486804
  0
LINE
  5
297
100
AcDbEntity
  8
_1
100
AcDbLine
 62
7
  6
CONTINUOUS
 10
122.9501058749
 20
140.5736747029
 11
108.9431509359
 21
132.4868037705
  0
LINE
  5
298
100
AcDbEntity
  8
_1
100
AcDbLine
 62
7
  6
CONTINUOUS
 10
128.9134884028
 20
143.757982768
 11
142.6796708524
 21
151.7058444687
  0
LINE
  5
299
100
AcDbEntity
  8
_1
100
AcDbLine
 62
7
  6
CONTINUOUS
 10
95.5081636137
 20
124.3081117956
 11
104.8039361268
 21
129.6749965224
  0
LINE
  5
29A
100
AcDbEntity
  8
_1
100
AcDbLine
 62
7
  6
CONTINUOUS
 10
123.863024039
 20
140.6787003758
 11
130.1252875506
 21
144.2941983183
  0
LINE
  5
29B
100
AcDbEntity
  8
_1
100
AcDbLine
 62
7
  6
CONTINUOUS
 10
130.1256411992
 20
144.2705992426
 11
130.3687055461
 21
144.410931671
  0
LINE
  5
29C
100
AcDbEntity
  8
_1
100
AcDbLine
 62
7
  6
CONTINUOUS
 10
130.4636709932
 20
144.4248699622
 11
131.524326749
 21
145.037236193
  0
LINE
  5
29D
100
AcDbEntity
  8
_1
100
AcDbLine
 62
7
  6
CONTINUOUS
 10
109.1115636513
 20
135.5850876211
 11
110.9524027771
 21
136.4919344107
  0
LINE
  5
29E
100
AcDbEntity
  8
_1
100
AcDbLine
 62
7
  6
CONTINUOUS
 10
115.195348118
 20
136.1326159795
 11
108.2825974221
 21
132.7272093431
  0
LINE
  5
29F
100
AcDbEntity
  8
_1
100
AcDbLine
 62
7
  6
CONTINUOUS
 10
94.4939615356
 20
109.9284138513
 11
92.9361788213
 21
110.8277797744
  0
LINE
  5
2A0
100
AcDbEntity
  8
_1
100
AcDbLine
 62
7
  6
CONTINUOUS
 10
91.1071357886
 20
116.6000168124
 11
91.1690102805
 21
113.8358541148
  0
LINE
  5
2A1
100
AcDbEntity
  8
_1
100
AcDbLine
 62
7
  6
CONTINUOUS
 10
90.3220865325
 20
144.2476503662
 11
90.3220865325
 21
145.3090160948
  0
LINE
  5
2A2
100
AcDbEntity
  8
_1
100
AcDbLine
 62
7
  6
CONTINUOUS
 10
90.5720865325
 20
143.6892663971
 11
90.5720865325
 21
141.7981431148
  0
LINE
  5
2A3
100
AcDbEntity
  8
_1
100
AcDbLine
 62
7
  6
CONTINUOUS
 10
91.1104854701
 20
140.954962466
 11
91.1104854701
 21
143.1984079474
  0
LINE
  5
2A4
100
AcDbEntity
  8
_1
100
AcDbLine
 62
7
  6
CONTINUOUS
 10
91.2661693114
 20
122.6103465202
 11
91.2661691014
 21
124.3081015991
  0
LINE
  5
2A5
100
AcDbEntity
  8
_1
100
AcDbLine
 62
7
  6
CONTINUOUS
 10
89.7209992187
 20
138.689080944
 11
89.8159085816
 21
141.8283612663
  0
LINE
  5
2A6
100
AcDbEntity
  8
_1
100
AcDbLine
 62
7
  6
CONTINUOUS
 10
90.694084851
 20
140.573597169
 11
90.6698105633
 21
139.7706859344
  0
LINE
  5
2A7
100
AcDbEntity
  8
_1
100
AcDbLine
 62
7
  6
CONTINUOUS
 10
122.5336997555
 20
140.9550379981
 11
116.6353356791
 21
136.9639882229
  0
LINE
  5
2A8
100
AcDbEntity
  8
_1
100
AcDbLine
 62
7
  6
CONTINUOUS
 10
128.9389462071
 20
143.7749222217
 11
128.9138465311
 21
143.7581895347
  0
LINE
  5
2A9
100
AcDbEntity
  8
_1
100
AcDbLine
 62
7
  6
CONTINUOUS
 10
130.3687055461
 20
142.7779268368
 11
130.1499030075
 21
142.6516018862
  0
LINE
  5
2AA
100
AcDbEntity
  8
_1
100
AcDbLine
 62
7
  6
CONTINUOUS
 10
130.1505113651
 20
142.6110060073
 11
123.913471458
 21
139.0100708327
  0
LINE
  5
2AB
100
AcDbEntity
  8
_1
100
AcDbLine
 62
7
  6
CONTINUOUS
 10
104.8039363368
 20
127.9772414435
 11
95.5081638238
 21
122.6103567167
  0
LINE
  5
2AC
100
AcDbEntity
  8
_1
100
AcDbLine
 62
7
  6
CONTINUOUS
 10
131.5495421043
 20
143.3546083736
 11
130.4888863484
 21
142.7422421428
  0
LINE
  5
2AD
100
AcDbEntity
  8
_1
100
AcDbLine
 62
7
  6
CONTINUOUS
 10
130.4818852236
 20
142.0267754016
 11
130.7222604087
 21
142.165555251
  0
LINE
  5
2AE
100
AcDbEntity
  8
_1
100
AcDbLine
 62
7
  6
CONTINUOUS
 10
95.8616648382
 20
122.0051411854
 11
105.1574373513
 21
127.3720259122
  0
LINE
  5
2AF
100
AcDbEntity
  8
_1
100
AcDbLine
 62
7
  6
CONTINUOUS
 10
124.0309147332
 20
138.2685681156
 11
130.5040123796
 21
142.005790476
  0
LINE
  5
2B0
100
AcDbEntity
  8
_1
100
AcDbLine
 62
7
  6
CONTINUOUS
 10
130.8423873629
 20
142.1370266115
 11
131.9030431187
 21
142.7493928423
  0
LINE
  5
2B1
100
AcDbEntity
  8
_1
100
AcDbLine
 62
7
  6
CONTINUOUS
 10
53.4852810123
 20
97.1439104342
 11
51.2972275505
 21
95.8806447197
  0
LINE
  5
2B2
100
AcDbEntity
  8
_1
100
AcDbLine
 62
7
  6
CONTINUOUS
 10
90.4002683723
 20
117.8032465486
 11
62.1408074938
 21
101.4877365937
  0
LINE
  5
2B3
100
AcDbEntity
  8
_1
100
AcDbLine
 62
7
  6
CONTINUOUS
 10
123.0737472307
 20
136.4840379485
 11
108.9431514507
 21
128.3257833693
  0
LINE
  5
2B4
100
AcDbEntity
  8
_1
100
AcDbLine
 62
7
  6
CONTINUOUS
 10
52.6927066166
 20
95.0749827318
 11
54.1674558185
 21
95.9264244981
  0
LINE
  5
2B5
100
AcDbEntity
  8
_1
100
AcDbLine
 62
7
  6
CONTINUOUS
 10
109.2966524651
 20
127.720567838
 11
123.4272482451
 21
135.8788224172
  0
LINE
  5
2B6
100
AcDbEntity
  8
_1
100
AcDbLine
 62
7
  6
CONTINUOUS
 10
62.8229823
 20
100.2702506576
 11
91.1071357886
 21
116.6000168124
  0
LINE
  5
2B7
100
AcDbEntity
  8
_1
100
AcDbLine
 62
7
  6
CONTINUOUS
 10
20.3231869391
 20
75.6562955268
 11
38.1422036368
 21
85.9440482043
  0
LINE
  5
2B8
100
AcDbEntity
  8
_1
100
AcDbLine
 62
7
  6
CONTINUOUS
 10
53.4852810123
 20
97.1439104342
 11
62.1408074938
 21
101.4877365937
  0
LINE
  5
2B9
100
AcDbEntity
  8
_1
100
AcDbLine
 62
7
  6
CONTINUOUS
 10
54.1674569992
 20
95.9263717515
 11
62.8229834807
 21
100.270197911
  0
LINE
  5
2BA
100
AcDbEntity
  8
_1
100
AcDbLine
 62
7
  6
CONTINUOUS
 10
93.5306175161
 20
115.9959795136
 11
90.4002683723
 21
117.8032465486
  0
LINE
  5
2BB
100
AcDbEntity
  8
_1
100
AcDbLine
 62
7
  6
CONTINUOUS
 10
73.0395322504
 20
127.8262454714
 11
69.9091831065
 21
129.6335125064
  0
LINE
  5
2BC
100
AcDbEntity
  8
_1
100
AcDbLine
 62
7
  6
CONTINUOUS
 10
96.7125847836
 20
117.833078206
 11
73.091150374
 21
131.4706111988
  0
LINE
  5
2BD
100
AcDbEntity
  8
_1
100
AcDbLine
 62
7
  6
CONTINUOUS
 10
80.3175064231
 20
128.1221121643
 11
90.9126712405
 21
122.0051292895
  0
LINE
  5
2BE
100
AcDbEntity
  8
_1
100
AcDbLine
 62
7
  6
CONTINUOUS
 10
91.2661693114
 20
122.6103465202
 11
80.6710044941
 21
128.7273293949
  0
LINE
  5
2BF
100
AcDbEntity
  8
_1
100
AcDbLine
 62
7
  6
CONTINUOUS
 10
95.7867401712
 20
103.3483193244
 11
95.6516236028
 21
112.3646863259
  0
LINE
  5
2C0
100
AcDbEntity
  8
_1
100
AcDbLine
 62
7
  6
CONTINUOUS
 10
93.1492247138
 20
147.890486079
 11
93.1492247138
 21
146.7204827682
  0
LINE
  5
2C1
100
AcDbEntity
  8
_1
100
AcDbLine
 62
7
  6
CONTINUOUS
 10
93.1492537008
 20
142.2378258678
 11
93.1492537008
 21
143.8708307021
  0
LINE
  5
2C2
100
AcDbEntity
  8
_1
100
AcDbLine
 62
7
  6
CONTINUOUS
 10
93.387170226
 20
122.1000814175
 11
93.3871723071
 21
121.4133241313
  0
LINE
  5
2C3
100
AcDbEntity
  8
_1
100
AcDbLine
 62
7
  6
CONTINUOUS
 10
93.3871616899
 20
126.5598833336
 11
93.3871700141
 21
123.8128442089
  0
LINE
  5
2C4
100
AcDbEntity
  8
_1
100
AcDbLine
 62
7
  6
CONTINUOUS
 10
93.3885421175
 20
141.8630789128
 11
93.3885421175
 21
143.496083747
  0
LINE
  5
2C5
100
AcDbEntity
  8
_1
100
AcDbLine
 62
7
  6
CONTINUOUS
 10
93.4421208766
 20
146.6715504897
 11
93.4421208766
 21
147.4822419251
  0
LINE
  5
2C6
100
AcDbEntity
  8
_1
100
AcDbLine
 62
7
  6
CONTINUOUS
 10
93.7084612453
 20
148.2677961008
 11
93.7084612453
 21
150.3090521436
  0
LINE
  5
2C7
100
AcDbEntity
  8
_1
100
AcDbLine
 62
7
  6
CONTINUOUS
 10
93.9220865324
 20
157.4703530099
 11
93.9220865324
 21
148.4118463454
  0
LINE
  5
2C8
100
AcDbEntity
  8
_1
100
AcDbLine
 62
7
  6
CONTINUOUS
 10
94.4478145218
 20
146.4685456039
 11
94.4478145218
 21
144.8596921513
  0
LINE
  5
2C9
100
AcDbEntity
  8
_1
100
AcDbLine
 62
7
  6
CONTINUOUS
 10
95.5081636137
 20
124.3081117956
 11
95.5081638238
 21
122.6103567167
  0
LINE
  5
2CA
100
AcDbEntity
  8
_1
100
AcDbLine
 62
7
  6
CONTINUOUS
 10
97.0089071078
 20
141.0464531324
 11
97.0089071078
 21
136.9639410468
  0
LINE
  5
2CB
100
AcDbEntity
  8
_1
100
AcDbLine
 62
7
  6
CONTINUOUS
 10
95.6516236028
 20
84.5181045512
 11
95.7867401712
 21
93.3784559081
  0
LINE
  5
2CC
100
AcDbEntity
  8
_1
100
AcDbLine
 62
7
  6
CONTINUOUS
 10
93.9408297353
 20
157.8763582434
 11
93.9222178646
 21
157.4703511516
  0
LINE
  5
2CD
100
AcDbEntity
  8
_1
100
AcDbLine
 62
7
  6
CONTINUOUS
 10
113.1860210673
 20
160.8634447144
 11
113.4848749144
 21
161.5073867778
  0
LINE
  5
2CE
100
AcDbEntity
  8
_1
100
AcDbLine
 62
7
  6
CONTINUOUS
 10
113.7837287614
 20
162.1513288412
 11
114.0825826085
 21
162.7952709045
  0
LINE
  5
2CF
100
AcDbEntity
  8
_1
100
AcDbLine
 62
7
  6
CONTINUOUS
 10
114.0825826085
 20
161.5705172788
 11
113.7983964363
 21
160.958179737
  0
LINE
  5
2D0
100
AcDbEntity
  8
_1
100
AcDbLine
 62
7
  6
CONTINUOUS
 10
116.0144364162
 20
162.4964213299
 11
115.7155825691
 21
161.8524792665
  0
LINE
  5
2D1
100
AcDbEntity
  8
_1
100
AcDbLine
 62
7
  6
CONTINUOUS
 10
115.4167287221
 20
161.2085372031
 11
115.117874875
 21
160.5645951397
  0
LINE
  5
2D2
100
AcDbEntity
  8
_1
100
AcDbLine
 62
7
  6
CONTINUOUS
 10
66.9255657895
 20
92.5703719507
 11
58.955317099
 21
87.1609367674
  0
LINE
  5
2D3
100
AcDbEntity
  8
_1
100
AcDbLine
 62
7
  6
CONTINUOUS
 10
58.2362349146
 20
88.2079025607
 11
66.2094346694
 21
93.5988632613
  0
LINE
  5
2D4
100
AcDbEntity
  8
_1
100
AcDbLine
 62
7
  6
CONTINUOUS
 10
57.1230383095
 20
89.5432455066
 11
64.6520253327
 21
94.4980136195
  0
LINE
  5
2D5
100
AcDbEntity
  8
_1
100
AcDbLine
 62
7
  6
CONTINUOUS
 10
135.8861373652
 20
140.4498043305
 11
134.8254816094
 21
139.8374380997
  0
LINE
  5
2D6
100
AcDbEntity
  8
_1
100
AcDbLine
 62
7
  6
CONTINUOUS
 10
54.9934583879
 20
93.7466731276
 11
51.4579392019
 21
91.7054523582
  0
LINE
  5
2D7
100
AcDbEntity
  8
_1
100
AcDbLine
 62
7
  6
CONTINUOUS
 10
134.7907378698
 20
139.8166718324
 11
93.5306175161
 21
115.9959795136
  0
LINE
  5
2D8
100
AcDbEntity
  8
_1
100
AcDbLine
 62
7
  6
CONTINUOUS
 10
91.1690102805
 20
113.8358541148
 11
62.884856792
 21
97.50608796
  0
LINE
  5
2D9
100
AcDbEntity
  8
_1
100
AcDbLine
 62
7
  6
CONTINUOUS
 10
64.6520253327
 20
94.4980136195
 11
92.9361788213
 21
110.8277797744
  0
LINE
  5
2DA
100
AcDbEntity
  8
_1
100
AcDbLine
 62
7
  6
CONTINUOUS
 10
53.5789452886
 20
88.0741591705
 11
57.1144644747
 21
90.1153799399
  0
LINE
  5
2DB
100
AcDbEntity
  8
_1
100
AcDbLine
 62
7
  6
CONTINUOUS
 10
136.9464876961
 20
136.206144912
 11
138.0071434519
 21
136.8185111428
  0
LINE
  5
2DC
100
AcDbEntity
  8
_1
100
AcDbLine
 62
7
  6
CONTINUOUS
 10
95.6516236028
 20
112.3646863259
 11
136.9117439565
 21
136.1853786447
  0
LINE
  5
2DD
100
AcDbEntity
  8
_1
100
AcDbLine
 62
7
  6
CONTINUOUS
 10
94.4939615356
 20
109.9284138513
 11
66.2098080471
 21
93.5986476964
  0
LINE
  5
2DE
100
AcDbEntity
  8
_1
100
AcDbLine
 62
7
  6
CONTINUOUS
 10
55.1726425261
 20
93.6200596075
 11
62.884856792
 21
97.50608796
  0
LINE
  5
2DF
100
AcDbEntity
  8
_1
100
AcDbLine
 62
7
  6
CONTINUOUS
 10
80.7214519131
 20
130.3959591806
 11
91.2661691014
 21
124.3081015991
  0
LINE
  5
2E0
100
AcDbEntity
  8
_1
100
AcDbLine
 62
7
  6
CONTINUOUS
 10
92.6801613851
 20
126.7289705219
 11
82.1354441968
 21
132.8168281034
  0
LINE
  5
2E1
100
AcDbEntity
  8
_1
100
AcDbLine
 62
7
  6
CONTINUOUS
 10
98.8335908703
 20
114.2017850183
 11
99.0440620817
 21
100.1569812694
  0
LINE
  5
2E2
100
AcDbEntity
  8
_1
100
AcDbLine
 62
7
  6
CONTINUOUS
 10
98.4489066594
 20
136.132575726
 11
98.4489066594
 21
140.2150878117
  0
LINE
  5
2E3
100
AcDbEntity
  8
_1
100
AcDbLine
 62
7
  6
CONTINUOUS
 10
102.6918821462
 20
138.1249193891
 11
102.6918821462
 21
136.4919145548
  0
LINE
  5
2E4
100
AcDbEntity
  8
_1
100
AcDbLine
 62
7
  6
CONTINUOUS
 10
99.0440620817
 20
100.1569812694
 11
98.8335908703
 21
86.3552032437
  0
LINE
  5
2E5
100
AcDbEntity
  8
_1
100
AcDbLine
 62
7
  6
CONTINUOUS
 10
109.3220760097
 20
136.1648958357
 11
109.1115636513
 21
135.5850876211
  0
LINE
  5
2E6
100
AcDbEntity
  8
_1
100
AcDbLine
 62
7
  6
CONTINUOUS
 10
24.3231690316
 20
68.7280819576
 11
42.1421857294
 21
79.0158346352
  0
LINE
  5
2E7
100
AcDbEntity
  8
_1
100
AcDbLine
 62
7
  6
CONTINUOUS
 10
58.2365706392
 20
88.2077087344
 11
57.1524321701
 21
87.5817848337
  0
LINE
  5
2E8
100
AcDbEntity
  8
_1
100
AcDbLine
 62
7
  6
CONTINUOUS
 10
66.9255657895
 20
92.5703719506
 11
95.185026668
 21
108.8858819055
  0
LINE
  5
2E9
100
AcDbEntity
  8
_1
100
AcDbLine
 62
7
  6
CONTINUOUS
 10
57.1741494395
 20
86.1325852782
 11
58.9553170989
 21
87.1609367674
  0
LINE
  5
2EA
100
AcDbEntity
  8
_1
100
AcDbLine
 62
7
  6
CONTINUOUS
 10
126.0217686898
 20
144.2672482797
 11
119.9817309659
 21
143.1004421943
  0
LINE
  5
2EB
100
AcDbEntity
  8
_1
100
AcDbLine
 62
7
  6
CONTINUOUS
 10
114.1176140671
 20
141.9676202491
 11
110.9153675324
 21
141.3490147181
  0
LINE
  5
2EC
100
AcDbEntity
  8
_1
100
AcDbLine
 62
7
  6
CONTINUOUS
 10
94.4243689979
 20
154.9313724731
 11
94.4264547553
 21
154.9229264496
  0
LINE
  5
2ED
100
AcDbEntity
  8
_1
100
AcDbLine
 62
7
  6
CONTINUOUS
 10
94.424428339
 20
154.9314050223
 11
94.4264547553
 21
154.9229264496
  0
LINE
  5
2EE
100
AcDbEntity
  8
_1
100
AcDbLine
 62
7
  6
CONTINUOUS
 10
104.0480755824
 20
136.5228676794
 11
104.0480755824
 21
138.1558725137
  0
LINE
  5
2EF
100
AcDbEntity
  8
_1
100
AcDbLine
 62
7
  6
CONTINUOUS
 10
104.32214482
 20
136.1648958016
 11
104.32214482
 21
137.2263214957
  0
LINE
  5
2F0
100
AcDbEntity
  8
_1
100
AcDbLine
 62
7
  6
CONTINUOUS
 10
104.7011565246
 20
131.6698678315
 11
104.7011564235
 21
132.486793574
  0
LINE
  5
2F1
100
AcDbEntity
  8
_1
100
AcDbLine
 62
7
  6
CONTINUOUS
 10
104.8039363368
 20
127.9772414435
 11
104.8039361268
 21
129.6749965224
  0
LINE
  5
2F2
100
AcDbEntity
  8
_1
100
AcDbLine
 62
7
  6
CONTINUOUS
 10
105.0537461285
 20
138.7364932084
 11
105.0537461285
 21
140.9410497346
  0
LINE
  5
2F3
100
AcDbEntity
  8
_1
100
AcDbLine
 62
7
  6
CONTINUOUS
 10
105.1250814796
 20
141.1214508796
 11
105.1250814796
 21
138.2060124336
  0
LINE
  5
2F4
100
AcDbEntity
  8
_1
100
AcDbLine
 62
7
  6
CONTINUOUS
 10
105.36170647
 20
135.0374117129
 11
105.36170647
 21
132.7272023222
  0
LINE
  5
2F5
100
AcDbEntity
  8
_1
100
AcDbLine
 62
7
  6
CONTINUOUS
 10
105.3952527819
 20
128.0252656615
 11
105.3952525719
 21
129.7230207405
  0
LINE
  5
2F6
100
AcDbEntity
  8
_1
100
AcDbLine
 62
7
  6
CONTINUOUS
 10
106.8221578529
 20
127.8155080701
 11
106.822159934
 21
127.1287507838
  0
LINE
  5
2F7
100
AcDbEntity
  8
_1
100
AcDbLine
 62
7
  6
CONTINUOUS
 10
108.2825974221
 20
132.7272093431
 11
108.2825974221
 21
135.0096442688
  0
LINE
  5
2F8
100
AcDbEntity
  8
_1
100
AcDbLine
 62
7
  6
CONTINUOUS
 10
108.5191940293
 20
138.2060158858
 11
108.5191940293
 21
141.1194261345
  0
LINE
  5
2F9
100
AcDbEntity
  8
_1
100
AcDbLine
 62
7
  6
CONTINUOUS
 10
108.5905299744
 20
140.941058236
 11
108.5905299744
 21
138.7365017098
  0
LINE
  5
2FA
100
AcDbEntity
  8
_1
100
AcDbLine
 62
7
  6
CONTINUOUS
 10
108.9431509359
 20
132.4868037705
 11
108.9431514507
 21
128.3257833693
  0
LINE
  5
2FB
100
AcDbEntity
  8
_1
100
AcDbLine
 62
7
  6
CONTINUOUS
 10
109.32214482
 20
136.1648958016
 11
109.32214482
 21
137.2263689728
  0
LINE
  5
2FC
100
AcDbEntity
  8
_1
100
AcDbLine
 62
7
  6
CONTINUOUS
 10
109.5962088945
 20
138.1558858498
 11
109.5962088945
 21
136.5228810155
  0
LINE
  5
2FD
100
AcDbEntity
  8
_1
100
AcDbLine
 62
7
  6
CONTINUOUS
 10
57.249581043
 20
81.0990129384
 11
95.7867401712
 21
103.3483193244
  0
LINE
  5
2FE
100
AcDbEntity
  8
_1
100
AcDbLine
 62
7
  6
CONTINUOUS
 10
137.1215980356
 20
122.1817563101
 11
136.8735107455
 21
122.0385239014
  0
LINE
  5
2FF
100
AcDbEntity
  8
_1
100
AcDbLine
 62
7
  6
CONTINUOUS
 10
138.2176146634
 20
122.7737073939
 11
137.1569589075
 21
122.1613411631
  0
LINE
  5
300
100
AcDbEntity
  8
_1
100
AcDbLine
 62
7
  6
CONTINUOUS
 10
136.8741173726
 20
121.9980435015
 11
53.7894165
 21
74.0293554216
  0
LINE
  5
301
100
AcDbEntity
  8
_1
100
AcDbLine
 62
7
  6
CONTINUOUS
 10
45.7329807461
 20
68.3872817621
 11
47.1471884205
 21
69.2037700699
  0
LINE
  5
302
100
AcDbEntity
  8
_1
100
AcDbLine
 62
7
  6
CONTINUOUS
 10
128.9138465311
 20
143.7581895347
 11
128.7638393711
 21
143.7553455025
  0
LINE
  5
303
100
AcDbEntity
  8
_1
100
AcDbLine
 62
7
  6
CONTINUOUS
 10
105.36170647
 20
132.7272023222
 11
98.4489066594
 21
136.132575726
  0
LINE
  5
304
100
AcDbEntity
  8
_1
100
AcDbLine
 62
7
  6
CONTINUOUS
 10
102.6918821462
 20
136.4919145548
 11
104.5327343511
 21
135.585076615
  0
LINE
  5
305
100
AcDbEntity
  8
_1
100
AcDbLine
 62
7
  6
CONTINUOUS
 10
91.358482968
 20
138.958084188
 11
103.3172042141
 21
132.0538694516
  0
LINE
  5
306
100
AcDbEntity
  8
_1
100
AcDbLine
 62
7
  6
CONTINUOUS
 10
103.6707022851
 20
132.6590866823
 11
91.711981039
 21
139.5633014187
  0
LINE
  5
307
100
AcDbEntity
  8
_1
100
AcDbLine
 62
7
  6
CONTINUOUS
 10
104.7011564235
 20
132.486793574
 11
90.694084851
 21
140.573597169
  0
LINE
  5
308
100
AcDbEntity
  8
_1
100
AcDbLine
 62
7
  6
CONTINUOUS
 10
97.0089071078
 20
136.9639410468
 11
91.1104854701
 21
140.954962466
  0
LINE
  5
309
100
AcDbEntity
  8
_1
100
AcDbLine
 62
7
  6
CONTINUOUS
 10
91.8178149484
 20
142.9258726838
 11
93.3885421175
 21
141.8630789128
  0
LINE
  5
30A
100
AcDbEntity
  8
_1
100
AcDbLine
 62
7
  6
CONTINUOUS
 10
104.5327343511
 20
135.585076615
 11
104.3222136123
 21
136.1648958357
  0
LINE
  5
30B
100
AcDbEntity
  8
_1
100
AcDbLine
 62
7
  6
CONTINUOUS
 10
110.8502287417
 20
161.6799330221
 11
110.8502287417
 21
161.2308566938
  0
LINE
  5
30C
100
AcDbEntity
  8
_1
100
AcDbLine
 62
7
  6
CONTINUOUS
 10
110.9153675324
 20
141.3490147181
 11
110.9153675324
 21
150.3348145332
  0
LINE
  5
30D
100
AcDbEntity
  8
_1
100
AcDbLine
 62
7
  6
CONTINUOUS
 10
110.9524027771
 20
136.4919344107
 11
110.9524027771
 21
138.124939245
  0
LINE
  5
30E
100
AcDbEntity
  8
_1
100
AcDbLine
 62
7
  6
CONTINUOUS
 10
113.4848749144
 20
161.5073867778
 11
113.4848749144
 21
160.9096776744
  0
LINE
  5
30F
100
AcDbEntity
  8
_1
100
AcDbLine
 62
7
  6
CONTINUOUS
 10
113.7837287614
 20
162.1513288412
 11
113.7837287614
 21
160.9559106344
  0
LINE
  5
310
100
AcDbEntity
  8
_1
100
AcDbLine
 62
7
  6
CONTINUOUS
 10
114.0825826085
 20
162.7952709045
 11
114.0825826085
 21
161.5705172788
  0
LINE
  5
311
100
AcDbEntity
  8
_1
100
AcDbLine
 62
7
  6
CONTINUOUS
 10
114.1176140671
 20
148.7376074267
 11
114.1176140671
 21
141.9676202491
  0
LINE
  5
312
100
AcDbEntity
  8
_1
100
AcDbLine
 62
7
  6
CONTINUOUS
 10
114.8990825888
 20
162.3238750855
 11
114.8990825888
 21
161.0991214598
  0
LINE
  5
313
100
AcDbEntity
  8
_1
100
AcDbLine
 62
7
  6
CONTINUOUS
 10
115.195348118
 20
140.2151280652
 11
115.195348118
 21
136.1326159795
  0
LINE
  5
314
100
AcDbEntity
  8
_1
100
AcDbLine
 62
7
  6
CONTINUOUS
 10
115.7155825691
 20
161.2547701631
 11
115.7155825691
 21
161.8524792665
  0
LINE
  5
315
100
AcDbEntity
  8
_1
100
AcDbLine
 62
7
  6
CONTINUOUS
 10
95.7867401712
 20
93.3784559081
 11
57.249581043
 21
71.1291495221
  0
LINE
  5
316
100
AcDbEntity
  8
_1
100
AcDbLine
 62
7
  6
CONTINUOUS
 10
116.436414718
 20
149.029232512
 11
114.1176140671
 21
148.7376074267
  0
LINE
  5
317
100
AcDbEntity
  8
_1
100
AcDbLine
 62
7
  6
CONTINUOUS
 10
93.9741384672
 20
148.2194341865
 11
93.7084612453
 21
148.2677961008
  0
LINE
  5
318
100
AcDbEntity
  8
_1
100
AcDbLine
 62
7
  6
CONTINUOUS
 10
98.4489066594
 20
140.2150878117
 11
102.6918821462
 21
138.1249193891
  0
LINE
  5
319
100
AcDbEntity
  8
_1
100
AcDbLine
 62
7
  6
CONTINUOUS
 10
109.32214482
 20
136.6811084032
 11
109.5962088945
 21
136.5228810155
  0
LINE
  5
31A
100
AcDbEntity
  8
_1
100
AcDbLine
 62
7
  6
CONTINUOUS
 10
109.5962088945
 20
138.1558858498
 11
108.5905299744
 21
138.7365017098
  0
LINE
  5
31B
100
AcDbEntity
  8
_1
100
AcDbLine
 62
7
  6
CONTINUOUS
 10
93.4421208766
 20
147.4822419251
 11
94.3089669858
 21
146.9817794126
  0
LINE
  5
31C
100
AcDbEntity
  8
_1
100
AcDbLine
 62
7
  6
CONTINUOUS
 10
93.3885421175
 20
143.496083747
 11
97.0089071078
 21
141.0464531324
  0
LINE
  5
31D
100
AcDbEntity
  8
_1
100
AcDbLine
 62
7
  6
CONTINUOUS
 10
116.6353356791
 20
136.9639882229
 11
116.6353356791
 21
141.0465003086
  0
LINE
  5
31E
100
AcDbEntity
  8
_1
100
AcDbLine
 62
7
  6
CONTINUOUS
 10
118.3502287417
 20
161.6799330221
 11
118.3502287417
 21
161.2308566938
  0
LINE
  5
31F
100
AcDbEntity
  8
_1
100
AcDbLine
 62
7
  6
CONTINUOUS
 10
119.1955281377
 20
143.5543463401
 11
119.1955281377
 21
147.7591817964
  0
LINE
  5
320
100
AcDbEntity
  8
_1
100
AcDbLine
 62
7
  6
CONTINUOUS
 10
119.7712601993
 20
147.7127180932
 11
119.7712601993
 21
149.2359395114
  0
LINE
  5
321
100
AcDbEntity
  8
_1
100
AcDbLine
 62
7
  6
CONTINUOUS
 10
119.9817309659
 20
143.1004421943
 11
119.9817309659
 21
149.2387986914
  0
LINE
  5
322
100
AcDbEntity
  8
_1
100
AcDbLine
 62
7
  6
CONTINUOUS
 10
120.2556653391
 20
143.1533604555
 11
120.2556653391
 21
141.8631434934
  0
LINE
  5
323
100
AcDbEntity
  8
_1
100
AcDbLine
 62
7
  6
CONTINUOUS
 10
120.494948351
 20
143.1995848148
 11
120.494948351
 21
142.2378867914
  0
LINE
  5
324
100
AcDbEntity
  8
_1
100
AcDbLine
 62
7
  6
CONTINUOUS
 10
58.9553170989
 20
68.1506766911
 11
57.1886059654
 21
67.1306716312
  0
LINE
  5
325
100
AcDbEntity
  8
_1
100
AcDbLine
 62
7
  6
CONTINUOUS
 10
57.1855734451
 20
66.9318122589
 11
58.7480858065
 21
67.8339238065
  0
LINE
  5
326
100
AcDbEntity
  8
_1
100
AcDbLine
 62
7
  6
CONTINUOUS
 10
63.680668048
 20
70.3603045112
 11
62.8384616807
 21
69.8740593409
  0
LINE
  5
327
100
AcDbEntity
  8
_1
100
AcDbLine
 62
7
  6
CONTINUOUS
 10
95.185026668
 20
88.535676515
 11
66.9255657895
 21
72.2201665601
  0
LINE
  5
328
100
AcDbEntity
  8
_1
100
AcDbLine
 62
7
  6
CONTINUOUS
 10
66.7216635712
 20
71.918655405
 11
94.9939592972
 21
88.2415755184
  0
LINE
  5
329
100
AcDbEntity
  8
_1
100
AcDbLine
 62
7
  6
CONTINUOUS
 10
62.6433645182
 20
69.4443038579
 11
90.4458295404
 21
85.4959687071
  0
LINE
  5
32A
100
AcDbEntity
  8
_1
100
AcDbLine
 62
7
  6
CONTINUOUS
 10
136.9117439565
 20
108.4204471118
 11
136.6648914739
 21
108.2779276153
  0
LINE
  5
32B
100
AcDbEntity
  8
_1
100
AcDbLine
 62
7
  6
CONTINUOUS
 10
138.0071434519
 20
108.9719293682
 11
136.9464876961
 21
108.3595631373
  0
LINE
  5
32C
100
AcDbEntity
  8
_1
100
AcDbLine
 62
7
  6
CONTINUOUS
 10
136.6636461612
 20
108.1962654758
 11
95.6516236028
 21
84.5181045512
  0
LINE
  5
32D
100
AcDbEntity
  8
_1
100
AcDbLine
 62
7
  6
CONTINUOUS
 10
57.1144644747
 20
62.2687981653
 11
53.5789452886
 21
60.2275773959
  0
LINE
  5
32E
100
AcDbEntity
  8
_1
100
AcDbLine
 62
7
  6
CONTINUOUS
 10
94.9699425158
 20
83.5350488347
 11
93.838475618
 21
82.881800016
  0
LINE
  5
32F
100
AcDbEntity
  8
_1
100
AcDbLine
 62
7
  6
CONTINUOUS
 10
137.3861306499
 20
107.6411348083
 11
136.3254748941
 21
107.0287685775
  0
LINE
  5
330
100
AcDbEntity
  8
_1
100
AcDbLine
 62
7
  6
CONTINUOUS
 10
56.4934516726
 20
60.9380036054
 11
52.9579324866
 21
58.896782836
  0
LINE
  5
331
100
AcDbEntity
  8
_1
100
AcDbLine
 62
7
  6
CONTINUOUS
 10
95.0306108008
 20
83.1873099914
 11
136.0426333592
 21
106.8654709159
  0
LINE
  5
332
100
AcDbEntity
  8
_1
100
AcDbLine
 62
7
  6
CONTINUOUS
 10
62.630181267
 20
69.4370679643
 11
62.6425297845
 21
69.4438219277
  0
LINE
  5
333
100
AcDbEntity
  8
_1
100
AcDbLine
 62
7
  6
CONTINUOUS
 10
66.7048229159
 20
71.9094621461
 11
66.7208481584
 21
71.9181846298
  0
LINE
  5
334
100
AcDbEntity
  8
_1
100
AcDbLine
 62
7
  6
CONTINUOUS
 10
57.5075356462
 20
67.1176961128
 11
62.8384727293
 21
69.8745401653
  0
LINE
  5
335
100
AcDbEntity
  8
_1
100
AcDbLine
 62
7
  6
CONTINUOUS
 10
57.1808040974
 20
66.6190593785
 11
62.6310861105
 21
69.4375892508
  0
LINE
  5
336
100
AcDbEntity
  8
_1
100
AcDbLine
 62
7
  6
CONTINUOUS
 10
58.7482947011
 20
67.8335160397
 11
66.7055677232
 21
71.9098932665
  0
LINE
  5
337
100
AcDbEntity
  8
_1
100
AcDbLine
 62
7
  6
CONTINUOUS
 10
58.955317099
 20
68.1506766911
 11
66.9255657895
 21
72.2201665601
  0
LINE
  5
338
100
AcDbEntity
  8
_1
100
AcDbLine
 62
7
  6
CONTINUOUS
 10
123.0737472307
 20
136.4840379485
 11
122.9501058749
 21
140.5736747029
  0
LINE
  5
339
100
AcDbEntity
  8
_1
100
AcDbLine
 62
7
  6
CONTINUOUS
 10
123.9519949347
 20
137.7358448663
 11
123.8282644831
 21
141.8284286107
  0
LINE
  5
33A
100
AcDbEntity
  8
_1
100
AcDbLine
 62
7
  6
CONTINUOUS
 10
123.9524517732
 20
137.7056311679
 11
123.9519949347
 21
137.7358448663
  0
LINE
  5
33B
100
AcDbEntity
  8
_1
100
AcDbLine
 62
7
  6
CONTINUOUS
 10
122.5336997555
 20
143.2406891781
 11
122.5336997555
 21
140.9550379981
  0
LINE
  5
33C
100
AcDbEntity
  8
_1
100
AcDbLine
 62
7
  6
CONTINUOUS
 10
123.0720865323
 20
143.6974327837
 11
123.0720865323
 21
141.7982104185
  0
LINE
  5
33D
100
AcDbEntity
  8
_1
100
AcDbLine
 62
7
  6
CONTINUOUS
 10
126.7605187413
 20
145.3897618876
 11
126.7605187413
 21
145.7980130962
  0
LINE
  5
33E
100
AcDbEntity
  8
_1
100
AcDbLine
 62
7
  6
CONTINUOUS
 10
127.0664171659
 20
175.4489204224
 11
127.0664171659
 21
174.9068778245
  0
LINE
  5
33F
100
AcDbEntity
  8
_1
100
AcDbLine
 62
7
  6
CONTINUOUS
 10
131.3278650941
 20
172.1121295942
 11
131.3288001834
 21
172.1219824599
  0
LINE
  5
340
100
AcDbEntity
  8
_1
100
AcDbLine
 62
7
  6
CONTINUOUS
 10
115.4020610472
 20
161.1769326816
 11
114.8990825888
 21
161.0991214598
  0
LINE
  5
341
100
AcDbEntity
  8
_1
100
AcDbLine
 62
7
  6
CONTINUOUS
 10
116.5320825494
 20
161.3810834474
 11
115.4167287221
 21
161.2085372031
  0
LINE
  5
342
100
AcDbEntity
  8
_1
100
AcDbLine
 62
7
  6
CONTINUOUS
 10
114.3013748947
 20
161.0359909587
 11
113.1860210673
 21
160.8634447144
  0
LINE
  5
343
100
AcDbEntity
  8
_1
100
AcDbLine
 62
7
  6
CONTINUOUS
 10
112.6683749341
 20
161.9787825968
 11
113.7837287614
 21
162.1513288412
  0
LINE
  5
344
100
AcDbEntity
  8
_1
100
AcDbLine
 62
7
  6
CONTINUOUS
 10
114.8990825888
 20
162.3238750855
 11
116.0144364162
 21
162.4964213299
  0
LINE
  5
345
100
AcDbEntity
  8
_1
100
AcDbLine
 62
7
  6
CONTINUOUS
 10
119.1955281377
 20
143.5543463401
 11
119.9817309659
 21
143.1004421943
  0
LINE
  5
346
100
AcDbEntity
  8
_1
100
AcDbLine
 62
7
  6
CONTINUOUS
 10
130.5040123796
 20
142.005790476
 11
134.5426400745
 21
139.6741404381
  0
LINE
  5
347
100
AcDbEntity
  8
_1
100
AcDbLine
 62
7
  6
CONTINUOUS
 10
130.1252875506
 20
144.2941983183
 11
130.1505113651
 21
142.6110060073
  0
LINE
  5
348
100
AcDbEntity
  8
_1
100
AcDbLine
 62
7
  6
CONTINUOUS
 10
130.4888863484
 20
142.7422421428
 11
130.4636709932
 21
144.4248699622
  0
LINE
  5
349
100
AcDbEntity
  8
_1
100
AcDbLine
 62
7
  6
CONTINUOUS
 10
131.524326749
 20
145.037236193
 11
131.5495421043
 21
143.3546083736
  0
LINE
  5
34A
100
AcDbEntity
  8
_1
100
AcDbLine
 62
7
  6
CONTINUOUS
 10
130.3687055461
 20
144.410931671
 11
130.3687055461
 21
142.7779268368
  0
LINE
  5
34B
100
AcDbEntity
  8
_1
100
AcDbLine
 62
7
  6
CONTINUOUS
 10
130.934305596
 20
171.5952755329
 11
130.934305596
 21
170.6535696647
  0
LINE
  5
34C
100
AcDbEntity
  8
_1
100
AcDbLine
 62
7
  6
CONTINUOUS
 10
131.3090706298
 20
171.7888535907
 11
131.3090706298
 21
170.8699390663
  0
LINE
  5
34D
100
AcDbEntity
  8
_1
100
AcDbLine
 62
7
  6
CONTINUOUS
 10
133.1751254564
 20
177.3418183208
 11
133.1751254564
 21
177.7621712844
  0
LINE
  5
34E
100
AcDbEntity
  8
_1
100
AcDbLine
 62
7
  6
CONTINUOUS
 10
145.4675628758
 20
158.1773891294
 11
146.0264351733
 21
158.0989952645
  0
LINE
  5
34F
100
AcDbEntity
  8
_1
100
AcDbLine
 62
7
  6
CONTINUOUS
 10
130.7222604087
 20
142.165555251
 11
134.7907378698
 21
139.8166718324
  0
LINE
  5
350
100
AcDbEntity
  8
_1
100
AcDbLine
 62
7
  6
CONTINUOUS
 10
134.8254816094
 20
139.8374380997
 11
130.8423873629
 21
142.1370266115
  0
LINE
  5
351
100
AcDbEntity
  8
_1
100
AcDbLine
 62
7
  6
CONTINUOUS
 10
127.6403730995
 20
144.4040257131
 11
128.7638968274
 21
143.7553736609
  0
LINE
  5
352
100
AcDbEntity
  8
_1
100
AcDbLine
 62
7
  6
CONTINUOUS
 10
127.927411973
 20
144.3589185723
 11
128.9389462071
 21
143.7749222217
  0
LINE
  5
353
100
AcDbEntity
  8
_1
100
AcDbLine
 62
7
  6
CONTINUOUS
 10
135.8861373652
 20
140.4498043305
 11
131.9030431187
 21
142.7493928423
  0
LINE
  5
354
100
AcDbEntity
  8
_1
100
AcDbLine
 62
7
  6
CONTINUOUS
 10
136.6636461612
 20
136.0428472504
 11
136.8741173726
 21
121.9980435015
  0
LINE
  5
355
100
AcDbEntity
  8
_1
100
AcDbLine
 62
7
  6
CONTINUOUS
 10
136.9117439565
 20
136.1853786447
 11
137.1215980356
 21
122.1817563101
  0
LINE
  5
356
100
AcDbEntity
  8
_1
100
AcDbLine
 62
7
  6
CONTINUOUS
 10
137.1569589075
 20
122.1613411631
 11
136.9464876961
 21
136.206144912
  0
LINE
  5
357
100
AcDbEntity
  8
_1
100
AcDbLine
 62
7
  6
CONTINUOUS
 10
138.0071434519
 20
136.8185111428
 11
138.2176146634
 21
122.7737073939
  0
LINE
  5
358
100
AcDbEntity
  8
_1
100
AcDbLine
 62
7
  6
CONTINUOUS
 10
136.8741173726
 20
121.9980435015
 11
136.6636461612
 21
108.1962654758
  0
LINE
  5
359
100
AcDbEntity
  8
_1
100
AcDbLine
 62
7
  6
CONTINUOUS
 10
137.1215980356
 20
122.1817563101
 11
136.9117439565
 21
108.4204471118
  0
LINE
  5
35A
100
AcDbEntity
  8
_1
100
AcDbLine
 62
7
  6
CONTINUOUS
 10
136.9464876961
 20
108.3595631373
 11
137.1569589075
 21
122.1613411631
  0
LINE
  5
35B
100
AcDbEntity
  8
_1
100
AcDbLine
 62
7
  6
CONTINUOUS
 10
138.2176146634
 20
122.7737073939
 11
138.0071434519
 21
108.9719293682
  0
LINE
  5
35C
100
AcDbEntity
  8
_1
100
AcDbLine
 62
7
  6
CONTINUOUS
 10
145.4765293912
 20
157.9936875581
 11
145.5467408102
 21
157.9782643877
  0
LINE
  5
35D
100
AcDbEntity
  8
_1
100
AcDbLine
 62
7
  6
CONTINUOUS
 10
112.6683749341
 20
161.9787825968
 11
113.4848749144
 21
161.5073867778
  0
LINE
  5
35E
100
AcDbEntity
  8
_1
100
AcDbLine
 62
7
  6
CONTINUOUS
 10
114.3013748947
 20
161.0359909587
 11
115.117874875
 21
160.5645951397
  0
LINE
  5
35F
100
AcDbEntity
  8
_1
100
AcDbLine
 62
7
  6
CONTINUOUS
 10
114.0825826085
 20
161.5705172788
 11
114.8990825888
 21
161.0991214598
  0
LINE
  5
360
100
AcDbEntity
  8
_1
100
AcDbLine
 62
7
  6
CONTINUOUS
 10
116.5320825494
 20
161.3810834474
 11
115.7155825691
 21
161.8524792665
  0
LINE
  5
361
100
AcDbEntity
  8
_1
100
AcDbLine
 62
7
  6
CONTINUOUS
 10
114.8990825888
 20
162.3238750855
 11
114.0825826085
 21
162.7952709045
  0
LINE
  5
362
100
AcDbEntity
  8
_1
100
AcDbLine
 62
7
  6
CONTINUOUS
 10
140.6429238887
 20
167.6106979356
 11
140.6429238887
 21
167.0686553377
  0
LINE
  5
363
100
AcDbEntity
  8
_1
100
AcDbLine
 62
7
  6
CONTINUOUS
 10
144.4401225429
 20
156.005276181
 11
144.4401225429
 21
155.5970249725
  0
LINE
  5
364
100
AcDbEntity
  8
_1
100
AcDbLine
 62
7
  6
CONTINUOUS
 10
144.5108123189
 20
163.7570530461
 11
144.5108123189
 21
162.8153471779
  0
LINE
  5
365
100
AcDbEntity
  8
_1
100
AcDbLine
 62
7
  6
CONTINUOUS
 10
144.8855773526
 20
163.9506311039
 11
144.8855773526
 21
163.0317165795
  0
LINE
  5
366
100
AcDbEntity
  8
_1
100
AcDbLine
 62
7
  6
CONTINUOUS
 10
144.904371817
 20
164.2739071074
 11
144.9053069063
 21
164.2837599731
  0
LINE
  5
367
100
AcDbEntity
  8
_1
100
AcDbLine
 62
7
  6
CONTINUOUS
 10
146.7516321792
 20
169.503595834
 11
146.7516321792
 21
169.9239487976
  0
LINE
  5
368
100
AcDbEntity
  8
_1
100
AcDbLine
 62
7
  6
CONTINUOUS
 10
140.9401862108
 20
167.515107106
 11
140.6429238887
 21
167.6106979356
  0
LINE
  5
369
100
AcDbEntity
  8
_1
100
AcDbLine
 62
7
  6
CONTINUOUS
 10
140.6429238887
 20
167.6106979356
 11
140.1267337893
 21
167.80361456
  0
LINE
  5
36A
100
AcDbEntity
  8
_1
100
AcDbLine
 62
7
  6
CONTINUOUS
 10
127.363679488
 20
175.3533295927
 11
127.0664171659
 21
175.4489204224
  0
LINE
  5
36B
100
AcDbEntity
  8
_1
100
AcDbLine
 62
7
  6
CONTINUOUS
 10
127.0664171659
 20
175.4489204224
 11
126.5502270665
 21
175.6418370468
  0
LINE
  5
36C
100
AcDbEntity
  8
_1
100
AcDbLine
 62
7
  6
CONTINUOUS
 10
150.8032279882
 20
161.25791843
 11
151.1567290026
 21
161.0609541073
  0
LINE
  5
36D
100
AcDbEntity
  8
_1
100
AcDbLine
 62
7
  6
CONTINUOUS
 10
137.427199728
 20
168.9844379711
 11
137.2267212653
 21
169.0961409168
  0
ARC
  5
36E
100
AcDbEntity
  8
_1
100
AcDbCircle
 62
7
  6
CONTINUOUS
 10
44.5725214773
 20
80.9255098226
 40
13.3848033912
100
AcDbArc
 50
239.9954527235
 51
241.7646169111
  0
ARC
  5
36F
100
AcDbEntity
  8
_1
100
AcDbCircle
 62
7
  6
CONTINUOUS
 10
40.8450925698
 20
87.0956739759
 40
13.2187214406
100
AcDbArc
 50
178.1873265006
 51
180.0113688424
  0
ARC
  5
370
100
AcDbEntity
  8
_1
100
AcDbCircle
 62
7
  6
CONTINUOUS
 10
51.7801760272
 20
101.6450979174
 40
6.8747822695
100
AcDbArc
 50
66.0463222275
 51
68.3368960644
  0
ARC
  5
371
100
AcDbEntity
  8
_1
100
AcDbCircle
 62
7
  6
CONTINUOUS
 10
50.071733574
 20
108.3241378961
 40
6.1914185138
100
AcDbArc
 50
243.9485945581
 51
246.6285213934
  0
ARC
  5
372
100
AcDbEntity
  8
_1
100
AcDbCircle
 62
7
  6
CONTINUOUS
 10
49.6986522804
 20
102.5657656623
 40
5.8527925953
100
AcDbArc
 50
117.2359385183
 51
119.968242178
  0
ARC
  5
373
100
AcDbEntity
  8
_1
100
AcDbCircle
 62
7
  6
CONTINUOUS
 10
52.4333069071
 20
107.2323114469
 40
4.9528992007
100
AcDbArc
 50
299.9608858305
 51
303.3779928017
  0
ARC
  5
374
100
AcDbEntity
  8
_1
100
AcDbCircle
 62
7
  6
CONTINUOUS
 10
35.1803585964
 20
86.4830020945
 40
3.5641930595
100
AcDbArc
 50
98.9370288593
 51
101.8681217893
  0
ARC
  5
375
100
AcDbEntity
  8
_1
100
AcDbCircle
 62
7
  6
CONTINUOUS
 10
37.2139622887
 20
87.704640575
 40
3.520513447
100
AcDbArc
 50
137.6609800403
 51
139.6746105441
  0
ARC
  5
376
100
AcDbEntity
  8
_1
100
AcDbCircle
 62
7
  6
CONTINUOUS
 10
37.176667194
 20
87.7383539381
 40
3.4702394496
100
AcDbArc
 50
136.9405847354
 51
137.657696877
  0
ARC
  5
377
100
AcDbEntity
  8
_1
100
AcDbCircle
 62
7
  6
CONTINUOUS
 10
41.0751965751
 20
75.6291299738
 40
3.2827025494
100
AcDbArc
 50
306.9041923551
 51
308.707607844
  0
ARC
  5
378
100
AcDbEntity
  8
_1
100
AcDbCircle
 62
7
  6
CONTINUOUS
 10
21.0716715356
 20
70.8123350654
 40
2.9274828174
100
AcDbArc
 50
0.0785019023
 51
4.3947177264
  0
ARC
  5
379
100
AcDbEntity
  8
_1
100
AcDbCircle
 62
7
  6
CONTINUOUS
 10
47.1264885643
 20
105.2370210378
 40
2.0867185029
100
AcDbArc
 50
191.7312955032
 51
195.0653379165
  0
ARC
  5
37A
100
AcDbEntity
  8
_1
100
AcDbCircle
 62
7
  6
CONTINUOUS
 10
54.7955805817
 20
105.2369720487
 40
2.0864213847
100
AcDbArc
 50
344.9062424715
 51
348.2687444681
  0
ARC
  5
37B
100
AcDbEntity
  8
_1
100
AcDbCircle
 62
7
  6
CONTINUOUS
 10
24.2023185671
 20
73.7027864052
 40
1.5255980871
100
AcDbArc
 50
180.003745586
 51
181.1503281075
  0
ARC
  5
37C
100
AcDbEntity
  8
_1
100
AcDbCircle
 62
7
  6
CONTINUOUS
 10
58.5663174654
 20
68.147039254
 40
0.3620400806
100
AcDbArc
 50
299.9775500728
 51
303.9288177714
  0
ARC
  5
37D
100
AcDbEntity
  8
_1
100
AcDbCircle
 62
7
  6
CONTINUOUS
 10
66.5400532775
 20
72.231577691
 40
0.3617976061
100
AcDbArc
 50
299.9789485456
 51
302.7326310756
  0
ARC
  5
37E
100
AcDbEntity
  8
_1
100
AcDbCircle
 62
7
  6
CONTINUOUS
 10
81.1725048431
 20
131.5920991781
 40
1.3299368704
100
AcDbArc
 50
177.1317767192
 51
178.2679876425
  0
ARC
  5
37F
100
AcDbEntity
  8
_1
100
AcDbCircle
 62
7
  6
CONTINUOUS
 10
135.4988228404
 20
107.7843247754
 40
1.068702323
100
AcDbArc
 50
310.1078958941
 51
317.9220397422
  0
ARC
  5
380
100
AcDbEntity
  8
_1
100
AcDbCircle
 62
7
  6
CONTINUOUS
 10
135.5361654546
 20
107.741616694
 40
1.0119811342
100
AcDbArc
 50
300.3949937987
 51
310.0486138307
  0
ARC
  5
381
100
AcDbEntity
  8
_1
100
AcDbCircle
 62
7
  6
CONTINUOUS
 10
135.8208235855
 20
107.9036737327
 40
1.0099973252
100
AcDbArc
 50
291.396871332
 51
299.5930097045
  0
ARC
  5
382
100
AcDbEntity
  8
_1
100
AcDbCircle
 62
7
  6
CONTINUOUS
 10
135.5417902983
 20
107.7330138528
 40
1.0017148731
100
AcDbArc
 50
299.9983616622
 51
300.3664479451
  0
ARC
  5
383
100
AcDbEntity
  8
_1
100
AcDbCircle
 62
7
  6
CONTINUOUS
 10
135.824631844
 20
107.8963114958
 40
1.0017148517
100
AcDbArc
 50
299.6115658943
 51
300.3657160601
  0
ARC
  5
384
100
AcDbEntity
  8
_1
100
AcDbCircle
 62
7
  6
CONTINUOUS
 10
103.07399513
 20
149.5138880264
 40
21.8677430887
100
AcDbArc
 50
30.4829487473
 51
30.7899324386
  0
ARC
  5
385
100
AcDbEntity
  8
_1
100
AcDbCircle
 62
7
  6
CONTINUOUS
 10
106.9014716751
 20
161.4876266229
 40
20.615877144
100
AcDbArc
 50
274.6995094103
 51
281.0496877341
  0
ARC
  5
386
100
AcDbEntity
  8
_1
100
AcDbCircle
 62
7
  6
CONTINUOUS
 10
106.7142189052
 20
161.2893706185
 40
20.4159577937
100
AcDbArc
 50
259.4587658136
 51
265.3348608553
  0
ARC
  5
387
100
AcDbEntity
  8
_1
100
AcDbCircle
 62
7
  6
CONTINUOUS
 10
107.1911339326
 20
159.8891996172
 40
18.9915658798
100
AcDbArc
 50
281.4574802591
 51
283.5609716017
  0
ARC
  5
388
100
AcDbEntity
  8
_1
100
AcDbCircle
 62
7
  6
CONTINUOUS
 10
107.4062327623
 20
158.9910601266
 40
18.0680293586
100
AcDbArc
 50
283.5657081526
 51
286.1615667288
  0
ARC
  5
389
100
AcDbEntity
  8
_1
100
AcDbCircle
 62
7
  6
CONTINUOUS
 10
154.1951777559
 20
175.0750906864
 40
16.8948180875
100
AcDbArc
 50
211.8392347163
 51
219.4253983537
  0
ARC
  5
38A
100
AcDbEntity
  8
_1
100
AcDbCircle
 62
7
  6
CONTINUOUS
 10
140.6186710331
 20
182.9133131732
 40
16.8948180875
100
AcDbArc
 50
211.8392347163
 51
219.4253983537
  0
ARC
  5
38B
100
AcDbEntity
  8
_1
100
AcDbCircle
 62
7
  6
CONTINUOUS
 10
108.5359681867
 20
155.6765449406
 40
14.5634789652
100
AcDbArc
 50
292.7586798045
 51
292.9260206236
  0
ARC
  5
38C
100
AcDbEntity
  8
_1
100
AcDbCircle
 62
7
  6
CONTINUOUS
 10
108.1042845299
 20
158.2971054565
 40
14.0878759037
100
AcDbArc
 50
191.2907038461
 51
193.8222105501
  0
ARC
  5
38D
100
AcDbEntity
  8
_1
100
AcDbCircle
 62
7
  6
CONTINUOUS
 10
108.6745003987
 20
155.3243560827
 40
13.7617824974
100
AcDbArc
 50
293.7428196828
 51
294.2600000509
  0
ARC
  5
38E
100
AcDbEntity
  8
_1
100
AcDbCircle
 62
7
  6
CONTINUOUS
 10
104.1940427504
 20
147.8039149765
 40
13.0087181768
100
AcDbArc
 50
240.0547250436
 51
243.7916014276
  0
ARC
  5
38F
100
AcDbEntity
  8
_1
100
AcDbCircle
 62
7
  6
CONTINUOUS
 10
104.0791224177
 20
151.6709908298
 40
12.7646795277
100
AcDbArc
 50
240.0189906954
 51
243.8273357758
  0
ARC
  5
390
100
AcDbEntity
  8
_1
100
AcDbCircle
 62
7
  6
CONTINUOUS
 10
104.1662575157
 20
153.7004604027
 40
12.3737767628
100
AcDbArc
 50
240.0209540091
 51
243.8922075352
  0
ARC
  5
391
100
AcDbEntity
  8
_1
100
AcDbCircle
 62
7
  6
CONTINUOUS
 10
103.4792364354
 20
146.5494148297
 40
11.5648808576
100
AcDbArc
 50
235.9800976059
 51
240.0208843058
  0
ARC
  5
392
100
AcDbEntity
  8
_1
100
AcDbCircle
 62
7
  6
CONTINUOUS
 10
103.3548568397
 20
150.4328741583
 40
11.3303123379
100
AcDbArc
 50
235.9382520378
 51
240.0627298738
  0
ARC
  5
393
100
AcDbEntity
  8
_1
100
AcDbCircle
 62
7
  6
CONTINUOUS
 10
99.8891511431
 20
157.8002439306
 40
8.6512853404
100
AcDbArc
 50
292.8621760684
 51
296.6319661499
  0
ARC
  5
394
100
AcDbEntity
  8
_1
100
AcDbCircle
 62
7
  6
CONTINUOUS
 10
136.0895626133
 20
160.8175942289
 40
8.0686573339
100
AcDbArc
 50
55.6444292099
 51
59.9766899282
  0
ARC
  5
395
100
AcDbEntity
  8
_1
100
AcDbCircle
 62
7
  6
CONTINUOUS
 10
122.5130558904
 20
168.6558167157
 40
8.0686573339
100
AcDbArc
 50
55.6444292099
 51
59.9766899282
  0
ARC
  5
396
100
AcDbEntity
  8
_1
100
AcDbCircle
 62
7
  6
CONTINUOUS
 10
122.5322169346
 20
168.9931083486
 40
7.2991856121
100
AcDbArc
 50
118.1531678665
 51
120.0267702959
  0
ARC
  5
397
100
AcDbEntity
  8
_1
100
AcDbCircle
 62
7
  6
CONTINUOUS
 10
99.3152414129
 20
147.418332489
 40
6.3461981968
100
AcDbArc
 50
148.3952657778
 51
151.3414605502
  0
ARC
  5
398
100
AcDbEntity
  8
_1
100
AcDbCircle
 62
7
  6
CONTINUOUS
 10
115.4856656964
 20
159.9045844708
 40
3.8878299345
100
AcDbArc
 50
60.0159364484
 51
61.9133235926
  0
ARC
  5
399
100
AcDbEntity
  8
_1
100
AcDbCircle
 62
7
  6
CONTINUOUS
 10
126.1828461691
 20
174.4843586911
 40
2.1793173718
100
AcDbArc
 50
41.6065591621
 51
42.0419159798
  0
ARC
  5
39A
100
AcDbEntity
  8
_1
100
AcDbCircle
 62
7
  6
CONTINUOUS
 10
139.7593528944
 20
166.6461362066
 40
2.1793173685
100
AcDbArc
 50
41.6065591618
 51
42.0419159802
  0
ARC
  5
39B
100
AcDbEntity
  8
_1
100
AcDbCircle
 62
7
  6
CONTINUOUS
 10
128.0607283879
 20
144.2610774267
 40
2.0648248182
100
AcDbArc
 50
0.9190942853
 51
4.6376519733
  0
ARC
  5
39C
100
AcDbEntity
  8
_1
100
AcDbCircle
 62
7
  6
CONTINUOUS
 10
117.2194567286
 20
161.4291843376
 40
1.381145573
100
AcDbArc
 50
7.9309107009
 51
12.8385311459
  0
ARC
  5
39D
100
AcDbEntity
  8
_1
100
AcDbCircle
 62
7
  6
CONTINUOUS
 10
111.9810006678
 20
161.4291843774
 40
1.3811454807
100
AcDbArc
 50
167.161490331
 51
172.0690570708
  0
ARC
  5
39E
100
AcDbEntity
  8
_1
100
AcDbCircle
 62
7
  6
CONTINUOUS
 10
144.8685014453
 20
159.2143938063
 40
1.1976031468
100
AcDbArc
 50
296.6570103938
 51
300.0143563817
  0
ARC
  5
39F
100
AcDbEntity
  8
_1
100
AcDbCircle
 62
7
  6
CONTINUOUS
 10
127.4097439423
 20
151.6531555477
 40
0.4614479503
100
AcDbArc
 50
178.5840748578
 51
180.0050570854
  0
ARC
  5
3A0
100
AcDbEntity
  8
_1
100
AcDbCircle
 62
7
  6
CONTINUOUS
 10
142.9660283527
 20
160.634526933
 40
0.461447942
100
AcDbArc
 50
178.584074845
 51
180.0050570982
  0
SPLINE
  5
3A1
100
AcDbEntity
  8
_1
100
AcDbSpline
 62
7
  6
CONTINUOUS
 70
0
 71
3
 72
15
 73
11
 74
0
 42
0.0000001
 43
0.0000001
 44
0.0000000001
 40
0.0
 40
0.0
 40
0.0
 40
0.0
 40
0.1141564308
 40
0.2373248993
 40
0.366975279
 40
0.4999972043
 40
0.6330228648
 40
0.7626735591
 40
0.8858454977
 40
1.0
 40
1.0
 40
1.0
 40
1.0
 10
19.4947420287
 20
73.4169093061
 30
0.0
 10
19.4947420287
 20
73.2212746977
 30
0.0
 10
19.5305698196
 20
72.8141806752
 30
0.0
 10
19.6734220352
 20
72.2000337347
 30
0.0
 10
19.9022420863
 20
71.5779512424
 30
0.0
 10
20.208510582
 20
70.9713210248
 30
0.0
 10
20.5807304948
 20
70.402767404
 30
0.0
 10
21.0050594944
 20
69.8935448161
 30
0.0
 10
21.4655047692
 20
69.4627578486
 30
0.0
 10
21.8001421484
 20
69.2281754764
 30
0.0
 10
21.9695626874
 20
69.1303578511
 30
0.0
  0
SPLINE
  5
3A2
100
AcDbEntity
  8
_1
100
AcDbSpline
 62
7
  6
CONTINUOUS
 70
0
 71
3
 72
16
 73
12
 74
0
 42
0.0000001
 43
0.0000001
 44
0.0000000001
 40
0.0
 40
0.0
 40
0.0
 40
0.0
 40
0.0992143554
 40
0.1542128872
 40
0.2126449002
 40
0.3384390388
 40
0.4731084587
 40
0.6117984208
 40
0.7491651681
 40
0.8800107957
 40
1.0
 40
1.0
 40
1.0
 40
1.0
 10
21.4742985094
 20
74.362352461
 30
0.0
 10
21.6180400391
 20
74.3427497346
 30
0.0
 10
21.8369328301
 20
74.2749047163
 30
0.0
 10
22.1140972161
 20
74.1336102506
 30
0.0
 10
22.4080438205
 20
73.9427965216
 30
0.0
 10
22.7611658415
 20
73.6345356046
 30
0.0
 10
23.1379197385
 20
73.1862018242
 30
0.0
 10
23.4571589511
 20
72.6752405576
 30
0.0
 10
23.7009154145
 20
72.1302789422
 30
0.0
 10
23.8556297962
 20
71.5820389176
 30
0.0
 10
23.8956223787
 20
71.2148628167
 30
0.0
 10
23.8956223787
 20
71.0394136336
 30
0.0
  0
SPLINE
  5
3A3
100
AcDbEntity
  8
_1
100
AcDbSpline
 62
7
  6
CONTINUOUS
 70
0
 71
3
 72
14
 73
10
 74
0
 42
0.0000001
 43
0.0000001
 44
0.0000000001
 40
0.0
 40
0.0
 40
0.0
 40
0.0
 40
0.289271266
 40
0.422536393
 40
0.5484968263
 40
0.667894022
 40
0.7818675835
 40
0.8919527969
 40
1.0
 40
1.0
 40
1.0
 40
1.0
 10
22.3231055564
 20
68.9262208907
 30
0.0
 10
22.4986871296
 20
68.8248459104
 30
0.0
 10
22.7682538488
 20
68.6965372551
 30
0.0
 10
23.1379487686
 20
68.5887449186
 30
0.0
 10
23.4003573363
 20
68.5447164715
 30
0.0
 10
23.6528514259
 20
68.535925479
 30
0.0
 10
23.8930312381
 20
68.5627252421
 30
0.0
 10
24.1183425255
 20
68.6250047944
 30
0.0
 10
24.2575810066
 20
68.6902266444
 30
0.0
 10
24.323163907
 20
68.7280908337
 30
0.0
  0
SPLINE
  5
3A4
100
AcDbEntity
  8
_1
100
AcDbSpline
 62
7
  6
CONTINUOUS
 70
0
 71
3
 72
14
 73
10
 74
0
 42
0.0000001
 43
0.0000001
 44
0.0000000001
 40
0.0
 40
0.0
 40
0.0
 40
0.0
 40
0.1080470808
 40
0.2181317812
 40
0.3321075955
 40
0.4515068119
 40
0.5774545012
 40
0.7107201378
 40
1.0
 40
1.0
 40
1.0
 40
1.0
 10
20.3231920637
 20
75.6562866507
 30
0.0
 10
20.2576100596
 20
75.6184229789
 30
0.0
 10
20.1315086786
 20
75.5304519456
 30
0.0
 10
19.9649150353
 20
75.3664712676
 30
0.0
 10
19.8216174005
 20
75.1718680416
 30
0.0
 10
19.7029910957
 20
74.9488134807
 30
0.0
 10
19.6099005088
 20
74.699564117
 30
0.0
 10
19.5184085606
 20
74.3255082918
 30
0.0
 10
19.4947390848
 20
74.0279008364
 30
0.0
 10
19.4947390848
 20
73.8251517603
 30
0.0
  0
SPLINE
  5
3A5
100
AcDbEntity
  8
_1
100
AcDbSpline
 62
7
  6
CONTINUOUS
 70
0
 71
3
 72
25
 73
21
 74
0
 42
0.0000001
 43
0.0000001
 44
0.0000000001
 40
0.0
 40
0.0
 40
0.0
 40
0.0
 40
0.0605280452
 40
0.1148628019
 40
0.1638279448
 40
0.1869516484
 40
0.2095807891
 40
0.2321118249
 40
0.2549495723
 40
0.3028752111
 40
0.355792654
 40
0.4148062171
 40
0.4799672738
 40
0.5505419413
 40
0.6252518784
 40
0.7024669848
 40
0.7803612167
 40
0.8570647236
 40
0.9307834304
 40
1.0
 40
1.0
 40
1.0
 40
1.0
 10
19.9401005281
 20
73.1597872734
 30
0.0
 10
19.9401005281
 20
73.3012306281
 30
0.0
 10
19.9609813206
 20
73.5705414038
 30
0.0
 10
20.0664977418
 20
73.9416132514
 30
0.0
 10
20.2179035456
 20
74.2003330249
 30
0.0
 10
20.3714248892
 20
74.3609569877
 30
0.0
 10
20.4993311122
 20
74.4575748262
 30
0.0
 10
20.6409078675
 20
74.5313355793
 30
0.0
 10
20.8489280482
 20
74.5994621754
 30
0.0
 10
21.1417125677
 20
74.6215910785
 30
0.0
 10
21.5117447668
 20
74.5500032424
 30
0.0
 10
21.8948965541
 20
74.3871987244
 30
0.0
 10
22.278984997
 20
74.139743723
 30
0.0
 10
22.6515102127
 20
73.816512015
 30
0.0
 10
22.9997333504
 20
73.4287697225
 30
0.0
 10
23.3114984966
 20
72.99012433
 30
0.0
 10
23.5758306543
 20
72.5160645024
 30
0.0
 10
23.783352669
 20
72.0232915774
 30
0.0
 10
23.9268213582
 20
71.5292869329
 30
0.0
 10
23.9782210499
 20
71.1979361685
 30
0.0
 10
23.9905470294
 20
71.0366596028
 30
0.0
  0
SPLINE
  5
3A6
100
AcDbEntity
  8
_1
100
AcDbSpline
 62
7
  6
CONTINUOUS
 70
0
 71
3
 72
25
 73
21
 74
0
 42
0.0000001
 43
0.0000001
 44
0.0000000001
 40
0.0
 40
0.0
 40
0.0
 40
0.0
 40
0.0603604842
 40
0.1143583326
 40
0.162926005
 40
0.1858962962
 40
0.2084415114
 40
0.2309872627
 40
0.2539579196
 40
0.3025256269
 40
0.3565228583
 40
0.4168824722
 40
0.4834469169
 40
0.5552692845
 40
0.6308696143
 40
0.7084382251
 40
0.7860059325
 40
0.8616079301
 40
0.9334333135
 40
1.0
 40
1.0
 40
1.0
 40
1.0
 10
23.9991516053
 20
70.8163460571
 30
0.0
 10
23.9991516053
 20
70.670871064
 30
0.0
 10
23.9771130915
 20
70.394268819
 30
0.0
 10
23.8652622379
 20
70.0144496192
 30
0.0
 10
23.7045749551
 20
69.7523905853
 30
0.0
 10
23.5422121422
 20
69.5927485106
 30
0.0
 10
23.4070636499
 20
69.4983718814
 30
0.0
 10
23.2577564376
 20
69.4285191197
 30
0.0
 10
23.0383203533
 20
69.3677170325
 30
0.0
 10
22.7310443409
 20
69.3595771936
 30
0.0
 10
22.3461013778
 20
69.4526624555
 30
0.0
 10
21.9500744631
 20
69.6410522929
 30
0.0
 10
21.5563633712
 20
69.917093194
 30
0.0
 10
21.1786491471
 20
70.2704207444
 30
0.0
 10
20.8307094381
 20
70.6879843159
 30
0.0
 10
20.5254514536
 20
71.154230103
 30
0.0
 10
20.2742939308
 20
71.651701629
 30
0.0
 10
20.0866318121
 20
72.1618543972
 30
0.0
 10
19.9694863325
 20
72.665503997
 30
0.0
 10
19.9401005281
 20
72.9993546925
 30
0.0
 10
19.9401005281
 20
73.1597872734
 30
0.0
  0
SPLINE
  5
3A7
100
AcDbEntity
  8
_1
100
AcDbSpline
 62
7
  6
CONTINUOUS
 70
0
 71
3
 72
15
 73
11
 74
0
 42
0.0000001
 43
0.0000001
 44
0.0000000001
 40
0.0
 40
0.0
 40
0.0
 40
0.0
 40
0.1147233716
 40
0.237946332
 40
0.3672477494
 40
0.4997400867
 40
0.6322663739
 40
0.7616850198
 40
0.885073523
 40
1.0
 40
1.0
 40
1.0
 40
1.0
 10
22.6770279436
 20
73.6721590103
 30
0.0
 10
22.6787753086
 20
73.5848554232
 30
0.0
 10
22.6974257085
 20
73.403918348
 30
0.0
 10
22.7633123085
 20
73.1315690058
 30
0.0
 10
22.8659030388
 20
72.856355612
 30
0.0
 10
23.0015627995
 20
72.5879627638
 30
0.0
 10
23.1655653088
 20
72.3357818588
 30
0.0
 10
23.3521614042
 20
72.1086478729
 30
0.0
 10
23.5547666898
 20
71.9145558026
 30
0.0
 10
23.7019927381
 20
71.807265867
 30
0.0
 10
23.7766879209
 20
71.7617398133
 30
0.0
  0
SPLINE
  5
3A8
100
AcDbEntity
  8
_1
100
AcDbSpline
 62
7
  6
CONTINUOUS
 70
0
 71
3
 72
11
 73
7
 74
0
 42
0.0000001
 43
0.0000001
 44
0.0000000001
 40
0.0
 40
0.0
 40
0.0
 40
0.0
 40
0.2810016997
 40
0.5403631775
 40
0.7788082249
 40
1.0
 40
1.0
 40
1.0
 40
1.0
 10
22.1110374135
 20
73.3760913495
 30
0.0
 10
22.1110374135
 20
73.4370461794
 30
0.0
 10
22.1181290372
 20
73.5544556652
 30
0.0
 10
22.1528170836
 20
73.7205097919
 30
0.0
 10
22.2108129884
 20
73.866221506
 30
0.0
 10
22.2663267866
 20
73.9501947977
 30
0.0
 10
22.2973904212
 20
73.9867627458
 30
0.0
  0
SPLINE
  5
3A9
100
AcDbEntity
  8
_1
100
AcDbSpline
 62
7
  6
CONTINUOUS
 70
0
 71
3
 72
11
 73
7
 74
0
 42
0.0000001
 43
0.0000001
 44
0.0000000001
 40
0.0
 40
0.0
 40
0.0
 40
0.0
 40
0.2423783423
 40
0.4993175327
 40
0.7566172296
 40
1.0
 40
1.0
 40
1.0
 40
1.0
 10
23.6410562961
 20
72.1603488084
 30
0.0
 10
23.5538254169
 20
72.2304322082
 30
0.0
 10
23.3897280055
 20
72.3947362766
 30
0.0
 10
23.1887746131
 20
72.6823176691
 30
0.0
 10
23.0375225979
 20
72.9993806688
 30
0.0
 10
22.9751388711
 20
73.2236943656
 30
0.0
 10
22.9569157563
 20
73.334567342
 30
0.0
  0
SPLINE
  5
3AA
100
AcDbEntity
  8
_1
100
AcDbSpline
 62
7
  6
CONTINUOUS
 70
0
 71
3
 72
9
 73
5
 74
0
 42
0.0000001
 43
0.0000001
 44
0.0000000001
 40
0.0
 40
0.0
 40
0.0
 40
0.0
 40
0.257551395
 40
1.0
 40
1.0
 40
1.0
 40
1.0
 10
21.9695626874
 20
69.1303578511
 30
0.0
 10
22.0001587047
 20
69.1126927571
 30
0.0
 10
22.1200388532
 20
69.0460157795
 30
0.0
 10
22.2443709479
 20
68.9872162841
 30
0.0
 10
22.3388310824
 20
68.9491415513
 30
0.0
  0
SPLINE
  5
3AB
100
AcDbEntity
  8
_1
100
AcDbSpline
 62
7
  6
CONTINUOUS
 70
0
 71
3
 72
18
 73
14
 74
0
 42
0.0000001
 43
0.0000001
 44
0.0000000001
 40
0.0
 40
0.0
 40
0.0
 40
0.0
 40
0.1362156121
 40
0.2594192785
 40
0.3172672917
 40
0.3733596301
 40
0.4284702196
 40
0.4834441038
 40
0.5391392944
 40
0.5963591747
 40
0.71777195
 40
0.8518203978
 40
1.0
 40
1.0
 40
1.0
 40
1.0
 10
22.3388310824
 20
68.9491415513
 30
0.0
 10
22.4763976451
 20
68.8936915973
 30
0.0
 10
22.7482594815
 20
68.8098864612
 30
0.0
 10
23.0964433815
 20
68.7826126455
 30
0.0
 10
23.3533792372
 20
68.8152892367
 30
0.0
 10
23.5314257013
 20
68.8646329221
 30
0.0
 10
23.6971429624
 20
68.9390441325
 30
0.0
 10
23.8490671242
 20
69.0378539488
 30
0.0
 10
23.9858207896
 20
69.160223787
 30
0.0
 10
24.149608472
 20
69.3569085559
 30
0.0
 10
24.3100189031
 20
69.6618227958
 30
0.0
 10
24.4221233215
 20
70.0896933043
 30
0.0
 10
24.4445101047
 20
70.3978752984
 30
0.0
 10
24.4445101047
 20
70.5592240244
 30
0.0
  0
SPLINE
  5
3AC
100
AcDbEntity
  8
_1
100
AcDbSpline
 62
7
  6
CONTINUOUS
 70
0
 71
3
 72
14
 73
10
 74
0
 42
0.0000001
 43
0.0000001
 44
0.0000000001
 40
0.0
 40
0.0
 40
0.0
 40
0.0
 40
0.1080470808
 40
0.2181317812
 40
0.3321075955
 40
0.4515068119
 40
0.5774545012
 40
0.7107201378
 40
1.0
 40
1.0
 40
1.0
 40
1.0
 10
24.323163907
 20
68.7280908337
 30
0.0
 10
24.3887459111
 20
68.7659545055
 30
0.0
 10
24.514847292
 20
68.8539255388
 30
0.0
 10
24.6814409353
 20
69.0179062168
 30
0.0
 10
24.8247385702
 20
69.2125094428
 30
0.0
 10
24.943364875
 20
69.4355640037
 30
0.0
 10
25.0364554619
 20
69.6848133674
 30
0.0
 10
25.1279474101
 20
70.0588691926
 30
0.0
 10
25.1516168859
 20
70.356476648
 30
0.0
 10
25.1516168859
 20
70.5592257241
 30
0.0
  0
SPLINE
  5
3AD
100
AcDbEntity
  8
_1
100
AcDbSpline
 62
7
  6
CONTINUOUS
 70
0
 71
3
 72
23
 73
19
 74
0
 42
0.0000001
 43
0.0000001
 44
0.0000000001
 40
0.0
 40
0.0
 40
0.0
 40
0.0
 40
0.0623893411
 40
0.1287457053
 40
0.1983459753
 40
0.270335013
 40
0.3437233813
 40
0.4174667952
 40
0.490502831
 40
0.5618006007
 40
0.6304085969
 40
0.6955065344
 40
0.756464181
 40
0.8129111322
 40
0.8648206422
 40
0.9126035512
 40
0.9571855005
 40
1.0
 40
1.0
 40
1.0
 40
1.0
 10
25.1516168859
 20
70.5592257241
 30
0.0
 10
25.1516168859
 20
70.7251599871
 30
0.0
 10
25.1291249317
 20
71.0678068753
 30
0.0
 10
25.0366341209
 20
71.588061337
 30
0.0
 10
24.8862103796
 20
72.1211588201
 30
0.0
 10
24.6811473673
 20
72.6556843955
 30
0.0
 10
24.4257571181
 20
73.1803219343
 30
0.0
 10
24.1255114039
 20
73.6838734252
 30
0.0
 10
23.7868017194
 20
74.1555967933
 30
0.0
 10
23.4168478529
 20
74.5854380389
 30
0.0
 10
23.0235007741
 20
74.9642613696
 30
0.0
 10
22.615038573
 20
75.2840386398
 30
0.0
 10
22.1999416652
 20
75.5379949421
 30
0.0
 10
21.7866408172
 20
75.7206596015
 30
0.0
 10
21.3833624786
 20
75.8278096855
 30
0.0
 10
20.9980269511
 20
75.8561706102
 30
0.0
 10
20.6391893328
 20
75.8035762249
 30
0.0
 10
20.4218080918
 20
75.7132224668
 30
0.0
 10
20.3231920637
 20
75.6562866507
 30
0.0
  0
SPLINE
  5
3AE
100
AcDbEntity
  8
_1
100
AcDbSpline
 62
7
  6
CONTINUOUS
 70
0
 71
3
 72
15
 73
11
 74
0
 42
0.0000001
 43
0.0000001
 44
0.0000000001
 40
0.0
 40
0.0
 40
0.0
 40
0.0
 40
0.1514504589
 40
0.2907272351
 40
0.4184587829
 40
0.5368550171
 40
0.6494931472
 40
0.7610786116
 40
0.8765340516
 40
1.0
 40
1.0
 40
1.0
 40
1.0
 10
20.3264712897
 20
73.1000173585
 30
0.0
 10
20.3264712897
 20
73.1994861481
 30
0.0
 10
20.33839317
 20
73.3907804201
 30
0.0
 10
20.3970303653
 20
73.660529416
 30
0.0
 10
20.4951805796
 20
73.8956427961
 30
0.0
 10
20.6315381407
 20
74.0904030917
 30
0.0
 10
20.8038311987
 20
74.2390444006
 30
0.0
 10
21.0074573357
 20
74.336441788
 30
0.0
 10
21.2357999645
 20
74.3799359778
 30
0.0
 10
21.3939529263
 20
74.373309576
 30
0.0
 10
21.4742985094
 20
74.362352461
 30
0.0
  0
SPLINE
  5
3AF
100
AcDbEntity
  8
_1
100
AcDbSpline
 62
7
  6
CONTINUOUS
 70
0
 71
3
 72
17
 73
13
 74
0
 42
0.0000001
 43
0.0000001
 44
0.0000000001
 40
0.0
 40
0.0
 40
0.0
 40
0.0
 40
0.0442511904
 40
0.0916384438
 40
0.1428036716
 40
0.1980224948
 40
0.3200051457
 40
0.4547384301
 40
0.5967023669
 40
0.7392402948
 40
0.87559225
 40
1.0
 40
1.0
 40
1.0
 40
1.0
 10
23.8654717397
 20
71.2727495818
 30
0.0
 10
23.8219448749
 20
71.2647217055
 30
0.0
 10
23.7297560922
 20
71.2581167656
 30
0.0
 10
23.5872703987
 20
71.2754393631
 30
0.0
 10
23.4390814989
 20
71.318838547
 30
0.0
 10
23.2305098679
 20
71.4134411698
 30
0.0
 10
22.9727543661
 20
71.5939920013
 30
0.0
 10
22.6929490852
 20
71.8806065493
 30
0.0
 10
22.4508449873
 20
72.2250843511
 30
0.0
 10
22.263189888
 20
72.6037967538
 30
0.0
 10
22.1427483265
 20
72.990540082
 30
0.0
 10
22.1110374135
 20
73.2516560639
 30
0.0
 10
22.1110374135
 20
73.3760913495
 30
0.0
  0
SPLINE
  5
3B0
100
AcDbEntity
  8
_1
100
AcDbSpline
 62
7
  6
CONTINUOUS
 70
0
 71
3
 72
9
 73
5
 74
0
 42
0.0000001
 43
0.0000001
 44
0.0000000001
 40
0.0
 40
0.0
 40
0.0
 40
0.0
 40
0.4822761097
 40
1.0
 40
1.0
 40
1.0
 40
1.0
 10
24.4445101047
 20
70.5592240244
 30
0.0
 10
24.4445101047
 20
70.7356667783
 30
0.0
 10
24.4154033158
 20
71.1017860636
 30
0.0
 10
24.3392950863
 20
71.4606184258
 30
0.0
 10
24.2897106963
 20
71.6434245933
 30
0.0
  0
SPLINE
  5
3B1
100
AcDbEntity
  8
_1
100
AcDbSpline
 62
7
  6
CONTINUOUS
 70
0
 71
3
 72
11
 73
7
 74
0
 42
0.0000001
 43
0.0000001
 44
0.0000000001
 40
0.0
 40
0.0
 40
0.0
 40
0.0
 40
0.2462095151
 40
0.5001131496
 40
0.7539628795
 40
1.0
 40
1.0
 40
1.0
 40
1.0
 10
24.2897106963
 20
71.6434245933
 30
0.0
 10
24.2261811405
 20
71.877643359
 30
0.0
 10
24.0629135921
 20
72.3446036605
 30
0.0
 10
23.7301077991
 20
73.0111056157
 30
0.0
 10
23.3182176222
 20
73.631653108
 30
0.0
 10
22.9948398855
 20
74.0057098698
 30
0.0
 10
22.8235151072
 20
74.177348469
 30
0.0
  0
SPLINE
  5
3B2
100
AcDbEntity
  8
_1
100
AcDbSpline
 62
7
  6
CONTINUOUS
 70
0
 71
3
 72
21
 73
17
 74
0
 42
0.0000001
 43
0.0000001
 44
0.0000000001
 40
0.0
 40
0.0
 40
0.0
 40
0.0
 40
0.1612098298
 40
0.3079311386
 40
0.3752570622
 40
0.4384723189
 40
0.4978195346
 40
0.5537997699
 40
0.6071881583
 40
0.6590061408
 40
0.7104486424
 40
0.7627548619
 40
0.8170670672
 40
0.8743099563
 40
0.9351465928
 40
1.0
 40
1.0
 40
1.0
 40
1.0
 10
22.8235151072
 20
74.177348469
 30
0.0
 10
22.6588254439
 20
74.3423397995
 30
0.0
 10
22.321974149
 20
74.6364039933
 30
0.0
 10
21.8568268634
 20
74.9226086488
 30
0.0
 10
21.4855501445
 20
75.07601167
 30
0.0
 10
21.2204574567
 20
75.1503705223
 30
0.0
 10
20.9638886378
 20
75.1862521147
 30
0.0
 10
20.7188772794
 20
75.1829088229
 30
0.0
 10
20.4885085978
 20
75.1400333811
 30
0.0
 10
20.2759952149
 20
75.0577424197
 30
0.0
 10
20.0844621677
 20
74.9371102328
 30
0.0
 10
19.9167261615
 20
74.7798994933
 30
0.0
 10
19.7749605121
 20
74.5885772104
 30
0.0
 10
19.6606454438
 20
74.3659246823
 30
0.0
 10
19.5749204721
 20
74.1148325564
 30
0.0
 10
19.5384910245
 20
73.9362464211
 30
0.0
 10
19.5247901653
 20
73.8434704235
 30
0.0
  0
SPLINE
  5
3B3
100
AcDbEntity
  8
_1
100
AcDbSpline
 62
7
  6
CONTINUOUS
 70
0
 71
3
 72
9
 73
5
 74
0
 42
0.0000001
 43
0.0000001
 44
0.0000000001
 40
0.0
 40
0.0
 40
0.0
 40
0.0
 40
0.2423998893
 40
1.0
 40
1.0
 40
1.0
 40
1.0
 10
19.5247901653
 20
73.8434704235
 30
0.0
 10
19.5197398665
 20
73.8092720929
 30
0.0
 10
19.5017524018
 20
73.667775713
 30
0.0
 10
19.4947420287
 20
73.5249524611
 30
0.0
 10
19.4947420287
 20
73.4169093061
 30
0.0
  0
SPLINE
  5
3B4
100
AcDbEntity
  8
_1
100
AcDbSpline
 62
7
  6
CONTINUOUS
 70
0
 71
3
 72
23
 73
19
 74
0
 42
0.0000001
 43
0.0000001
 44
0.0000000001
 40
0.0
 40
0.0
 40
0.0
 40
0.0
 40
0.0490293723
 40
0.0946368265
 40
0.1391330172
 40
0.1851312724
 40
0.2348454491
 40
0.289658817
 40
0.3500847931
 40
0.4159235037
 40
0.4864449161
 40
0.5605443517
 40
0.6368689266
 40
0.7139234606
 40
0.7901708178
 40
0.8641153457
 40
0.9344279947
 40
1.0
 40
1.0
 40
1.0
 40
1.0
 10
23.7781480306
 20
70.3719458466
 30
0.0
 10
23.7430351624
 20
70.2860685279
 30
0.0
 10
23.6569525165
 20
70.1266090249
 30
0.0
 10
23.471835982
 20
69.9343421084
 30
0.0
 10
23.2421996663
 20
69.8089438875
 30
0.0
 10
22.9785460267
 20
69.755970854
 30
0.0
 10
22.6915924854
 20
69.7749737681
 30
0.0
 10
22.3900212406
 20
69.8629007061
 30
0.0
 10
22.0818087944
 20
70.0159580269
 30
0.0
 10
21.7752345716
 20
70.2293260314
 30
0.0
 10
21.4788631778
 20
70.4967389974
 30
0.0
 10
21.2012060432
 20
70.8103993087
 30
0.0
 10
20.9503648301
 20
71.1611232997
 30
0.0
 10
20.7336981385
 20
71.538602489
 30
0.0
 10
20.5576059786
 20
71.9317162141
 30
0.0
 10
20.4272229658
 20
72.3289579209
 30
0.0
 10
20.3464463155
 20
72.7185909636
 30
0.0
 10
20.3264712897
 20
72.9759353236
 30
0.0
 10
20.3264712897
 20
73.1000173585
 30
0.0
  0
SPLINE
  5
3B5
100
AcDbEntity
  8
_1
100
AcDbSpline
 62
7
  6
CONTINUOUS
 70
0
 71
3
 72
12
 73
8
 74
0
 42
0.0000001
 43
0.0000001
 44
0.0000000001
 40
0.0
 40
0.0
 40
0.0
 40
0.0
 40
0.2885527725
 40
0.5472919965
 40
0.7806866176
 40
0.8913271377
 40
1.0
 40
1.0
 40
1.0
 40
1.0
 10
136.9117439565
 20
108.4204471118
 30
0.0
 10
136.9094958315
 20
108.27302494
 30
0.0
 10
136.8829153122
 20
107.9927718084
 30
0.0
 10
136.7641122697
 20
107.6085349466
 30
0.0
 10
136.5977525861
 20
107.3436686423
 30
0.0
 10
136.431350071
 20
107.1817242541
 30
0.0
 10
136.3388098578
 20
107.1174330803
 30
0.0
 10
136.290720724
 20
107.0896706399
 30
0.0
  0
SPLINE
  5
3B6
100
AcDbEntity
  8
_1
100
AcDbSpline
 62
7
  6
CONTINUOUS
 70
0
 71
3
 72
15
 73
11
 74
0
 42
0.0000001
 43
0.0000001
 44
0.0000000001
 40
0.0
 40
0.0
 40
0.0
 40
0.0
 40
0.1139344176
 40
0.2368222307
 40
0.3661451487
 40
0.4989169389
 40
0.6318389705
 40
0.7616009426
 40
0.8851816562
 40
1.0
 40
1.0
 40
1.0
 40
1.0
 10
134.7907378698
 20
139.8166718324
 30
0.0
 10
134.9342710497
 20
139.7338047871
 30
0.0
 10
135.2178779043
 20
139.5353983561
 30
0.0
 10
135.6086682929
 20
139.1714950454
 30
0.0
 10
135.9694378126
 20
138.7414215001
 30
0.0
 10
136.2869741809
 20
138.2610798921
 30
0.0
 10
136.5496311372
 20
137.747951554
 30
0.0
 10
136.7478920711
 20
137.2207965493
 30
0.0
 10
136.8743623303
 20
136.6990048681
 30
0.0
 10
136.9092412852
 20
136.3523826168
 30
0.0
 10
136.9117439565
 20
136.1853786447
 30
0.0
  0
SPLINE
  5
3B7
100
AcDbEntity
  8
_1
100
AcDbSpline
 62
7
  6
CONTINUOUS
 70
0
 71
3
 72
11
 73
7
 74
0
 42
0.0000001
 43
0.0000001
 44
0.0000000001
 40
0.0
 40
0.0
 40
0.0
 40
0.0
 40
0.2372539654
 40
0.5000012591
 40
0.7627478695
 40
1.0
 40
1.0
 40
1.0
 40
1.0
 10
130.3687055461
 20
142.7779268368
 30
0.0
 10
130.3687055461
 20
142.7199638952
 30
0.0
 10
130.3904376789
 20
142.597727383
 30
0.0
 10
130.4662405566
 20
142.4259892337
 30
0.0
 10
130.5770691756
 20
142.274473834
 30
0.0
 10
130.6720631331
 20
142.1945360059
 30
0.0
 10
130.7222604087
 20
142.165555251
 30
0.0
  0
SPLINE
  5
3B8
100
AcDbEntity
  8
_1
100
AcDbSpline
 62
7
  6
CONTINUOUS
 70
0
 71
3
 72
9
 73
5
 74
0
 42
0.0000001
 43
0.0000001
 44
0.0000000001
 40
0.0
 40
0.0
 40
0.0
 40
0.0
 40
0.2548104254
 40
1.0
 40
1.0
 40
1.0
 40
1.0
 10
130.3610687646
 20
144.5845801432
 30
0.0
 10
130.36233145
 20
144.5698683307
 30
0.0
 10
130.3667034513
 20
144.5120842764
 30
0.0
 10
130.3687055461
 20
144.4541143417
 30
0.0
 10
130.3687055461
 20
144.410931671
 30
0.0
  0
SPLINE
  5
3B9
100
AcDbEntity
  8
_1
100
AcDbSpline
 62
7
  6
CONTINUOUS
 70
0
 71
3
 72
12
 73
8
 74
0
 42
0.0000001
 43
0.0000001
 44
0.0000000001
 40
0.0
 40
0.0
 40
0.0
 40
0.0
 40
0.2885527725
 40
0.5472919965
 40
0.7806866176
 40
0.8913271377
 40
1.0
 40
1.0
 40
1.0
 40
1.0
 10
138.0071434519
 20
108.9719293682
 30
0.0
 10
138.0048953269
 20
108.8245071963
 30
0.0
 10
137.9783148076
 20
108.5442540647
 30
0.0
 10
137.8595117651
 20
108.1600172029
 30
0.0
 10
137.6931520815
 20
107.8951508986
 30
0.0
 10
137.5267495664
 20
107.7332065104
 30
0.0
 10
137.4342093532
 20
107.6689153366
 30
0.0
 10
137.3861202194
 20
107.6411528963
 30
0.0
  0
SPLINE
  5
3BA
100
AcDbEntity
  8
_1
100
AcDbSpline
 62
7
  6
CONTINUOUS
 70
0
 71
3
 72
15
 73
11
 74
0
 42
0.0000001
 43
0.0000001
 44
0.0000000001
 40
0.0
 40
0.0
 40
0.0
 40
0.0
 40
0.1139344176
 40
0.2368222307
 40
0.3661451487
 40
0.4989169389
 40
0.6318389705
 40
0.7616009426
 40
0.8851816562
 40
1.0
 40
1.0
 40
1.0
 40
1.0
 10
135.8861373652
 20
140.4498043305
 30
0.0
 10
136.0296705451
 20
140.3669372852
 30
0.0
 10
136.3132773997
 20
140.1685308542
 30
0.0
 10
136.7040677883
 20
139.8046275434
 30
0.0
 10
137.064837308
 20
139.3745539981
 30
0.0
 10
137.3823736763
 20
138.8942123901
 30
0.0
 10
137.6450306326
 20
138.3810840521
 30
0.0
 10
137.8432915665
 20
137.8539290473
 30
0.0
 10
137.9697618257
 20
137.3321373662
 30
0.0
 10
138.0046407806
 20
136.9855151149
 30
0.0
 10
138.0071434519
 20
136.8185111428
 30
0.0
  0
SPLINE
  5
3BB
100
AcDbEntity
  8
_1
100
AcDbSpline
 62
7
  6
CONTINUOUS
 70
0
 71
3
 72
11
 73
7
 74
0
 42
0.0000001
 43
0.0000001
 44
0.0000000001
 40
0.0
 40
0.0
 40
0.0
 40
0.0
 40
0.2383285595
 40
0.5010926793
 40
0.7632637416
 40
1.0
 40
1.0
 40
1.0
 40
1.0
 10
131.5495421043
 20
143.3546083736
 30
0.0
 10
131.5504061297
 20
143.2969517097
 30
0.0
 10
131.573156888
 20
143.1759403403
 30
0.0
 10
131.649282175
 20
143.0062203907
 30
0.0
 10
131.759444956
 20
142.8568205513
 30
0.0
 10
131.8534387362
 20
142.778031298
 30
0.0
 10
131.9030431187
 20
142.7493928423
 30
0.0
  0
SPLINE
  5
3BC
100
AcDbEntity
  8
_1
100
AcDbSpline
 62
7
  6
CONTINUOUS
 70
0
 71
3
 72
9
 73
5
 74
0
 42
0.0000001
 43
0.0000001
 44
0.0000000001
 40
0.0
 40
0.0
 40
0.0
 40
0.0
 40
0.2555655888
 40
1.0
 40
1.0
 40
1.0
 40
1.0
 10
131.5101959068
 20
145.2487333509
 30
0.0
 10
131.5122749827
 20
145.2307919247
 30
0.0
 10
131.5195845641
 20
145.1604975172
 30
0.0
 10
131.523538423
 20
145.0898414103
 30
0.0
 10
131.524326749
 20
145.037236193
 30
0.0
  0
SPLINE
  5
3BD
100
AcDbEntity
  8
_1
100
AcDbSpline
 62
7
  6
CONTINUOUS
 70
0
 71
3
 72
12
 73
8
 74
0
 42
0.0000001
 43
0.0000001
 44
0.0000000001
 40
0.0
 40
0.0
 40
0.0
 40
0.0
 40
0.108637177
 40
0.2192953498
 40
0.4527892199
 40
0.7115657981
 40
1.0
 40
1.0
 40
1.0
 40
1.0
 10
136.3310163049
 20
107.0320155848
 30
0.0
 10
136.3787116793
 20
107.0599599456
 30
0.0
 10
136.4704656615
 20
107.1245307409
 30
0.0
 10
136.6353838517
 20
107.2866546007
 30
0.0
 10
136.8001705994
 20
107.5509876876
 30
0.0
 10
136.9178824926
 20
107.933776408
 30
0.0
 10
136.9442498337
 20
108.2128139477
 30
0.0
 10
136.9464876961
 20
108.3595631373
 30
0.0
  0
SPLINE
  5
3BE
100
AcDbEntity
  8
_1
100
AcDbSpline
 62
7
  6
CONTINUOUS
 70
0
 71
3
 72
9
 73
5
 74
0
 42
0.0000001
 43
0.0000001
 44
0.0000000001
 40
0.0
 40
0.0
 40
0.0
 40
0.0
 40
0.2399393285
 40
1.0
 40
1.0
 40
1.0
 40
1.0
 10
130.8423873629
 20
142.1370266115
 30
0.0
 10
130.8354849862
 20
142.1410116104
 30
0.0
 10
130.80714807
 20
142.1583614641
 30
0.0
 10
130.780512025
 20
142.1784306413
 30
0.0
 10
130.7612657508
 20
142.1947707639
 30
0.0
  0
SPLINE
  5
3BF
100
AcDbEntity
  8
_1
100
AcDbSpline
 62
7
  6
CONTINUOUS
 70
0
 71
3
 72
11
 73
7
 74
0
 42
0.0000001
 43
0.0000001
 44
0.0000000001
 40
0.0
 40
0.0
 40
0.0
 40
0.0
 40
0.24953255
 40
0.5115454862
 40
0.7674488896
 40
1.0
 40
1.0
 40
1.0
 40
1.0
 10
130.7612657508
 20
142.1947707639
 30
0.0
 10
130.7215124024
 20
142.2285214307
 30
0.0
 10
130.6482338129
 20
142.3076507527
 30
0.0
 10
130.5631590475
 20
142.4446423293
 30
0.0
 10
130.5061370212
 20
142.5916933603
 30
0.0
 10
130.4896145623
 20
142.6936482275
 30
0.0
 10
130.4888863484
 20
142.7422421428
 30
0.0
  0
SPLINE
  5
3C0
100
AcDbEntity
  8
_1
100
AcDbSpline
 62
7
  6
CONTINUOUS
 70
0
 71
3
 72
15
 73
11
 74
0
 42
0.0000001
 43
0.0000001
 44
0.0000000001
 40
0.0
 40
0.0
 40
0.0
 40
0.0
 40
0.1148183438
 40
0.2383990574
 40
0.3681610295
 40
0.5010830611
 40
0.6338548513
 40
0.7631777693
 40
0.8860655824
 40
1.0
 40
1.0
 40
1.0
 40
1.0
 10
136.9464876961
 20
136.206144912
 30
0.0
 10
136.9439850247
 20
136.3731488841
 30
0.0
 10
136.9091060699
 20
136.7197711354
 30
0.0
 10
136.7826358107
 20
137.2415628165
 30
0.0
 10
136.5843748768
 20
137.7687178213
 30
0.0
 10
136.3217179205
 20
138.2818461593
 30
0.0
 10
136.0041815521
 20
138.7621877673
 30
0.0
 10
135.6434120325
 20
139.1922613126
 30
0.0
 10
135.2526216438
 20
139.5561646234
 30
0.0
 10
134.9690147893
 20
139.7545710544
 30
0.0
 10
134.8254816094
 20
139.8374380997
 30
0.0
  0
SPLINE
  5
3C1
100
AcDbEntity
  8
_1
100
AcDbSpline
 62
7
  6
CONTINUOUS
 70
0
 71
3
 72
9
 73
5
 74
0
 42
0.0000001
 43
0.0000001
 44
0.0000000001
 40
0.0
 40
0.0
 40
0.0
 40
0.0
 40
0.2443762517
 40
1.0
 40
1.0
 40
1.0
 40
1.0
 10
130.4636709932
 20
144.4248699622
 30
0.0
 10
130.4634122067
 20
144.442138859
 30
0.0
 10
130.4613989686
 20
144.5127879903
 30
0.0
 10
130.455687343
 20
144.5833198056
 30
0.0
 10
130.449540151
 20
144.6363671201
 30
0.0
  0
SPLINE
  5
3C2
100
AcDbEntity
  8
_1
100
AcDbSpline
 62
7
  6
CONTINUOUS
 70
0
 71
3
 72
11
 73
7
 74
0
 42
0.0000001
 43
0.0000001
 44
0.0000000001
 40
0.0
 40
0.0
 40
0.0
 40
0.0
 40
0.286647043
 40
0.5463666753
 40
0.7817001035
 40
1.0
 40
1.0
 40
1.0
 40
1.0
 10
114.9528874506
 20
143.554336142
 30
0.0
 10
114.8344093529
 20
143.4859331888
 30
0.0
 10
114.6173769503
 20
143.3389541593
 30
0.0
 10
114.349595173
 20
143.0756276326
 30
0.0
 10
114.1639368308
 20
142.7863420786
 30
0.0
 10
114.0993019091
 20
142.5759389428
 30
0.0
 10
114.0845117291
 20
142.472807242
 30
0.0
  0
SPLINE
  5
3C3
100
AcDbEntity
  8
_1
100
AcDbSpline
 62
7
  6
CONTINUOUS
 70
0
 71
3
 72
15
 73
11
 74
0
 42
0.0000001
 43
0.0000001
 44
0.0000000001
 40
0.0
 40
0.0
 40
0.0
 40
0.0
 40
0.1141469224
 40
0.2373360366
 40
0.366976904
 40
0.5000005214
 40
0.6330240662
 40
0.7626647219
 40
0.8858535023
 40
1.0
 40
1.0
 40
1.0
 40
1.0
 10
119.1955281377
 20
143.5543463401
 30
0.0
 10
119.050316568
 20
143.6381823823
 30
0.0
 10
118.73274413
 20
143.7860404137
 30
0.0
 10
118.215636028
 20
143.9432404946
 30
0.0
 10
117.6557588137
 20
144.0399437484
 30
0.0
 10
117.0742042167
 20
144.0726092435
 30
0.0
 10
116.4926500845
 20
144.0399409882
 30
0.0
 10
115.9327742437
 20
143.9432350761
 30
0.0
 10
115.4156683679
 20
143.786032537
 30
0.0
 10
115.0980978755
 20
143.6381729195
 30
0.0
 10
114.9528874506
 20
143.554336142
 30
0.0
  0
SPLINE
  5
3C4
100
AcDbEntity
  8
_1
100
AcDbSpline
 62
7
  6
CONTINUOUS
 70
0
 71
3
 72
11
 73
7
 74
0
 42
0.0000001
 43
0.0000001
 44
0.0000000001
 40
0.0
 40
0.0
 40
0.0
 40
0.0
 40
0.2222049144
 40
0.4572786547
 40
0.7150063809
 40
1.0
 40
1.0
 40
1.0
 40
1.0
 10
123.0720791842
 20
141.7982104185
 30
0.0
 10
123.0720791706
 20
141.7212493011
 30
0.0
 10
123.0468854066
 20
141.5619643181
 30
0.0
 10
122.9378020028
 20
141.3364106348
 30
0.0
 10
122.7633651548
 20
141.1282486569
 30
0.0
 10
122.6154517427
 20
141.0103543953
 30
0.0
 10
122.5336997555
 20
140.9550379981
 30
0.0
  0
SPLINE
  5
3C5
100
AcDbEntity
  8
_1
100
AcDbSpline
 62
7
  6
CONTINUOUS
 70
0
 71
3
 72
18
 73
14
 74
0
 42
0.0000001
 43
0.0000001
 44
0.0000000001
 40
0.0
 40
0.0
 40
0.0
 40
0.0
 40
0.1425369367
 40
0.2873044563
 40
0.429973918
 40
0.5663885194
 40
0.6930167652
 40
0.7519081219
 40
0.8075753403
 40
0.8599932103
 40
0.9092947272
 40
0.9557937383
 40
1.0
 40
1.0
 40
1.0
 40
1.0
 10
110.9153675324
 20
141.3490147181
 30
0.0
 10
110.0316563774
 20
141.1783006265
 30
0.0
 10
108.2257514747
 20
140.9525893975
 30
0.0
 10
105.5044339757
 20
140.9474388023
 30
0.0
 10
102.8401999379
 20
141.2696008423
 30
0.0
 10
100.3507514318
 20
141.9051251216
 30
0.0
 10
98.4657846283
 20
142.6921814795
 30
0.0
 10
97.1497803299
 20
143.4626977504
 30
0.0
 10
96.2948602071
 20
144.0830821221
 30
0.0
 10
95.557910959
 20
144.7531916195
 30
0.0
 10
94.9473400452
 20
145.4662092942
 30
0.0
 10
94.4706032982
 20
146.2143880707
 30
0.0
 10
94.2415535306
 20
146.7427635581
 30
0.0
 10
94.1534600079
 20
147.0076387751
 30
0.0
  0
SPLINE
  5
3C6
100
AcDbEntity
  8
_1
100
AcDbSpline
 62
7
  6
CONTINUOUS
 70
0
 71
3
 72
9
 73
5
 74
0
 42
0.0000001
 43
0.0000001
 44
0.0000000001
 40
0.0
 40
0.0
 40
0.0
 40
0.0
 40
0.5043708692
 40
1.0
 40
1.0
 40
1.0
 40
1.0
 10
94.1534600079
 20
147.0076387751
 30
0.0
 10
94.0777055267
 20
147.2354135765
 30
0.0
 10
93.961622271
 20
147.6992528451
 30
0.0
 10
93.9221049705
 20
148.1759648687
 30
0.0
 10
93.9220913474
 20
148.4118463455
 30
0.0
  0
SPLINE
  5
3C7
100
AcDbEntity
  8
_1
100
AcDbSpline
 62
7
  6
CONTINUOUS
 70
0
 71
3
 72
10
 73
6
 74
0
 42
0.0000001
 43
0.0000001
 44
0.0000000001
 40
0.0
 40
0.0
 40
0.0
 40
0.0
 40
0.4530024579
 40
0.7164609303
 40
1.0
 40
1.0
 40
1.0
 40
1.0
 10
123.1182841788
 20
143.6769294585
 30
0.0
 10
122.9813851484
 20
143.4933272561
 30
0.0
 10
122.6869268801
 20
143.261105418
 30
0.0
 10
122.2301507486
 20
143.0450584518
 30
0.0
 10
121.9653372598
 20
142.961138033
 30
0.0
 10
121.8263771799
 20
142.9259448156
 30
0.0
  0
SPLINE
  5
3C8
100
AcDbEntity
  8
_1
100
AcDbSpline
 62
7
  6
CONTINUOUS
 70
0
 71
3
 72
11
 73
7
 74
0
 42
0.0000001
 43
0.0000001
 44
0.0000000001
 40
0.0
 40
0.0
 40
0.0
 40
0.0
 40
0.2333059433
 40
0.474155658
 40
0.730066519
 40
1.0
 40
1.0
 40
1.0
 40
1.0
 10
109.3221276965
 20
137.2264409148
 30
0.0
 10
109.3221396322
 20
137.2868494204
 30
0.0
 10
109.3085555158
 20
137.4100328491
 30
0.0
 10
109.2478600249
 20
137.5903469958
 30
0.0
 10
109.1501254155
 20
137.7642908794
 30
0.0
 10
109.0632177518
 20
137.8702171188
 30
0.0
 10
109.0141708369
 20
137.9200099645
 30
0.0
  0
SPLINE
  5
3C9
100
AcDbEntity
  8
_1
100
AcDbSpline
 62
7
  6
CONTINUOUS
 70
0
 71
3
 72
9
 73
5
 74
0
 42
0.0000001
 43
0.0000001
 44
0.0000000001
 40
0.0
 40
0.0
 40
0.0
 40
0.0
 40
0.4632261644
 40
1.0
 40
1.0
 40
1.0
 40
1.0
 10
127.2077393376
 20
144.4720125742
 30
0.0
 10
127.1059680028
 20
144.4737290594
 30
0.0
 10
126.8856446312
 20
144.4474877504
 30
0.0
 10
126.6753503541
 20
144.3801985396
 30
0.0
 10
126.5659118842
 20
144.3362141581
 30
0.0
  0
SPLINE
  5
3CA
100
AcDbEntity
  8
_1
100
AcDbSpline
 62
7
  6
CONTINUOUS
 70
0
 71
3
 72
14
 73
10
 74
0
 42
0.0000001
 43
0.0000001
 44
0.0000000001
 40
0.0
 40
0.0
 40
0.0
 40
0.0
 40
0.2892808737
 40
0.4225466678
 40
0.5484941357
 40
0.6678930747
 40
0.7818686332
 40
0.891953058
 40
1.0
 40
1.0
 40
1.0
 40
1.0
 10
144.4401225429
 20
155.5970249725
 30
0.0
 10
144.4401225429
 20
155.166182226
 30
0.0
 10
144.3898239922
 20
154.5337653449
 30
0.0
 10
144.195400953
 20
153.7388969874
 30
0.0
 10
143.9975821627
 20
153.2092438297
 30
0.0
 10
143.7454996635
 20
152.7352558411
 30
0.0
 10
143.4409929811
 20
152.321725786
 30
0.0
 10
143.0869816444
 20
151.9732688781
 30
0.0
 10
142.8190163214
 20
151.7863321638
 30
0.0
 10
142.67965482
 20
151.7058722377
 30
0.0
  0
SPLINE
  5
3CB
100
AcDbEntity
  8
_1
100
AcDbSpline
 62
7
  6
CONTINUOUS
 70
0
 71
3
 72
13
 73
9
 74
0
 42
0.0000001
 43
0.0000001
 44
0.0000000001
 40
0.0
 40
0.0
 40
0.0
 40
0.0
 40
0.2605131476
 40
0.5217183082
 40
0.6488635798
 40
0.7717242794
 40
0.8891231201
 40
1.0
 40
1.0
 40
1.0
 40
1.0
 10
141.144739519
 20
164.3456480151
 30
0.0
 10
141.6489009514
 20
163.7341619444
 30
0.0
 10
142.5596475367
 20
162.4253401726
 30
0.0
 10
143.433954007
 20
160.6464403916
 30
0.0
 10
143.948431966
 20
159.1771876708
 30
0.0
 10
144.2277471667
 20
158.0933884434
 30
0.0
 10
144.3988473755
 20
157.0374375742
 30
0.0
 10
144.4401225429
 20
156.3425818655
 30
0.0
 10
144.4401225429
 20
156.005276181
 30
0.0
  0
SPLINE
  5
3CC
100
AcDbEntity
  8
_1
100
AcDbSpline
 62
7
  6
CONTINUOUS
 70
0
 71
3
 72
9
 73
5
 74
0
 42
0.0000001
 43
0.0000001
 44
0.0000000001
 40
0.0
 40
0.0
 40
0.0
 40
0.0
 40
0.2437103893
 40
1.0
 40
1.0
 40
1.0
 40
1.0
 10
137.7932911265
 20
167.5178619945
 30
0.0
 10
137.9662003421
 20
167.4180350708
 30
0.0
 10
138.669156464
 20
166.9971635065
 30
0.0
 10
139.3459815911
 20
166.5330547201
 30
0.0
 10
139.84249511
 20
166.1624379345
 30
0.0
  0
SPLINE
  5
3CD
100
AcDbEntity
  8
_1
100
AcDbSpline
 62
7
  6
CONTINUOUS
 70
0
 71
3
 72
9
 73
5
 74
0
 42
0.0000001
 43
0.0000001
 44
0.0000000001
 40
0.0
 40
0.0
 40
0.0
 40
0.0
 40
0.2427859645
 40
1.0
 40
1.0
 40
1.0
 40
1.0
 10
135.744087143
 20
168.5286013477
 30
0.0
 10
135.9153613931
 20
168.4586810402
 30
0.0
 10
136.6154415257
 20
168.1576032745
 30
0.0
 10
137.2936113626
 20
167.8063457144
 30
0.0
 10
137.7932911265
 20
167.5178619945
 30
0.0
  0
SPLINE
  5
3CE
100
AcDbEntity
  8
_1
100
AcDbSpline
 62
7
  6
CONTINUOUS
 70
0
 71
3
 72
9
 73
5
 74
0
 42
0.0000001
 43
0.0000001
 44
0.0000000001
 40
0.0
 40
0.0
 40
0.0
 40
0.0
 40
0.508813072
 40
1.0
 40
1.0
 40
1.0
 40
1.0
 10
134.441842734
 20
168.215479731
 30
0.0
 10
134.6695943895
 20
168.2287355856
 30
0.0
 10
135.1161330263
 20
168.2920434367
 30
0.0
 10
135.543595365
 20
168.4374636508
 30
0.0
 10
135.744087143
 20
168.5286013477
 30
0.0
  0
SPLINE
  5
3CF
100
AcDbEntity
  8
_1
100
AcDbSpline
 62
7
  6
CONTINUOUS
 70
0
 71
3
 72
9
 73
5
 74
0
 42
0.0000001
 43
0.0000001
 44
0.0000000001
 40
0.0
 40
0.0
 40
0.0
 40
0.0
 40
0.2625974044
 40
1.0
 40
1.0
 40
1.0
 40
1.0
 10
132.0013845633
 20
167.3505949661
 30
0.0
 10
132.0148196617
 20
167.345046337
 30
0.0
 10
132.066571505
 20
167.3254260859
 30
0.0
 10
132.1208532859
 20
167.3120606828
 30
0.0
 10
132.1613709685
 20
167.3071174995
 30
0.0
  0
SPLINE
  5
3D0
100
AcDbEntity
  8
_1
100
AcDbSpline
 62
7
  6
CONTINUOUS
 70
0
 71
3
 72
9
 73
5
 74
0
 42
0.0000001
 43
0.0000001
 44
0.0000000001
 40
0.0
 40
0.0
 40
0.0
 40
0.0
 40
0.2570956023
 40
1.0
 40
1.0
 40
1.0
 40
1.0
 10
131.0050377651
 20
167.8443626026
 30
0.0
 10
131.0875995989
 20
167.796696584
 30
0.0
 10
131.4115107069
 20
167.6161849811
 30
0.0
 10
131.7467679289
 20
167.4557503752
 30
0.0
 10
132.0013845633
 20
167.3505949661
 30
0.0
  0
SPLINE
  5
3D1
100
AcDbEntity
  8
_1
100
AcDbSpline
 62
7
  6
CONTINUOUS
 70
0
 71
3
 72
9
 73
5
 74
0
 42
0.0000001
 43
0.0000001
 44
0.0000000001
 40
0.0
 40
0.0
 40
0.0
 40
0.0
 40
0.2561195364
 40
1.0
 40
1.0
 40
1.0
 40
1.0
 10
130.0086909669
 20
168.5010511236
 30
0.0
 10
130.0905414451
 20
168.4403443126
 30
0.0
 10
130.4132565209
 20
168.2075977146
 30
0.0
 10
130.7487115811
 20
167.992349246
 30
0.0
 10
131.0050377651
 20
167.8443626026
 30
0.0
  0
SPLINE
  5
3D2
100
AcDbEntity
  8
_1
100
AcDbSpline
 62
7
  6
CONTINUOUS
 70
0
 71
3
 72
9
 73
5
 74
0
 42
0.0000001
 43
0.0000001
 44
0.0000000001
 40
0.0
 40
0.0
 40
0.0
 40
0.0
 40
0.5165446842
 40
1.0
 40
1.0
 40
1.0
 40
1.0
 10
129.5474559115
 20
169.0784627656
 30
0.0
 10
129.6029467072
 20
168.9629685436
 30
0.0
 10
129.7353791453
 20
168.7507347418
 30
0.0
 10
129.9123674673
 20
168.5724922759
 30
0.0
 10
130.0086909669
 20
168.5010511236
 30
0.0
  0
SPLINE
  5
3D3
100
AcDbEntity
  8
_1
100
AcDbSpline
 62
7
  6
CONTINUOUS
 70
0
 71
3
 72
9
 73
5
 74
0
 42
0.0000001
 43
0.0000001
 44
0.0000000001
 40
0.0
 40
0.0
 40
0.0
 40
0.0
 40
0.4973912536
 40
1.0
 40
1.0
 40
1.0
 40
1.0
 10
127.5682327962
 20
172.1838705019
 30
0.0
 10
127.9573312527
 20
171.7119417286
 30
0.0
 10
128.6801102855
 20
170.7128398143
 30
0.0
 10
129.2797900266
 20
169.6355616995
 30
0.0
 10
129.5474559115
 20
169.0784627656
 30
0.0
  0
SPLINE
  5
3D4
100
AcDbEntity
  8
_1
100
AcDbSpline
 62
7
  6
CONTINUOUS
 70
0
 71
3
 72
9
 73
5
 74
0
 42
0.0000001
 43
0.0000001
 44
0.0000000001
 40
0.0
 40
0.0
 40
0.0
 40
0.0
 40
0.2437103893
 40
1.0
 40
1.0
 40
1.0
 40
1.0
 10
124.2167844037
 20
175.3560844813
 30
0.0
 10
124.3896936193
 20
175.2562575576
 30
0.0
 10
125.0926497412
 20
174.8353859933
 30
0.0
 10
125.7694748683
 20
174.3712772069
 30
0.0
 10
126.2659883872
 20
174.0006604212
 30
0.0
  0
SPLINE
  5
3D5
100
AcDbEntity
  8
_1
100
AcDbSpline
 62
7
  6
CONTINUOUS
 70
0
 71
3
 72
9
 73
5
 74
0
 42
0.0000001
 43
0.0000001
 44
0.0000000001
 40
0.0
 40
0.0
 40
0.0
 40
0.0
 40
0.2427859645
 40
1.0
 40
1.0
 40
1.0
 40
1.0
 10
122.1675804202
 20
176.3668238344
 30
0.0
 10
122.3388546702
 20
176.296903527
 30
0.0
 10
123.0389348029
 20
175.9958257613
 30
0.0
 10
123.7171046398
 20
175.6445682012
 30
0.0
 10
124.2167844037
 20
175.3560844813
 30
0.0
  0
SPLINE
  5
3D6
100
AcDbEntity
  8
_1
100
AcDbSpline
 62
7
  6
CONTINUOUS
 70
0
 71
3
 72
9
 73
5
 74
0
 42
0.0000001
 43
0.0000001
 44
0.0000000001
 40
0.0
 40
0.0
 40
0.0
 40
0.0
 40
0.508813072
 40
1.0
 40
1.0
 40
1.0
 40
1.0
 10
120.8653360112
 20
176.0537022178
 30
0.0
 10
121.0930876667
 20
176.0669580724
 30
0.0
 10
121.5396263035
 20
176.1302659235
 30
0.0
 10
121.9670886422
 20
176.2756861375
 30
0.0
 10
122.1675804202
 20
176.3668238344
 30
0.0
  0
SPLINE
  5
3D7
100
AcDbEntity
  8
_1
100
AcDbSpline
 62
7
  6
CONTINUOUS
 70
0
 71
3
 72
11
 73
7
 74
0
 42
0.0000001
 43
0.0000001
 44
0.0000000001
 40
0.0
 40
0.0
 40
0.0
 40
0.0
 40
0.2781437656
 40
0.5387796473
 40
0.7796145308
 40
1.0
 40
1.0
 40
1.0
 40
1.0
 10
113.3892904584
 20
165.7357820054
 30
0.0
 10
114.253234874
 20
165.4834052601
 30
0.0
 10
115.9034723182
 20
164.908304997
 30
0.0
 10
118.1777785641
 20
163.8013177129
 30
0.0
 10
120.1269422465
 20
162.5000833159
 30
0.0
 10
121.2259474644
 20
161.4763427575
 30
0.0
 10
121.6959879551
 20
160.9400164644
 30
0.0
  0
SPLINE
  5
3D8
100
AcDbEntity
  8
_1
100
AcDbSpline
 62
7
  6
CONTINUOUS
 70
0
 71
3
 72
9
 73
5
 74
0
 42
0.0000001
 43
0.0000001
 44
0.0000000001
 40
0.0
 40
0.0
 40
0.0
 40
0.0
 40
0.4344943362
 40
1.0
 40
1.0
 40
1.0
 40
1.0
 10
113.1527775149
 20
165.7345105681
 30
0.0
 10
113.1829742827
 20
165.7519451934
 30
0.0
 10
113.2667347953
 20
165.7642439462
 30
0.0
 10
113.3457288442
 20
165.7485072899
 30
0.0
 10
113.3892904584
 20
165.7357820054
 30
0.0
  0
SPLINE
  5
3D9
100
AcDbEntity
  8
_1
100
AcDbSpline
 62
7
  6
CONTINUOUS
 70
0
 71
3
 72
9
 73
5
 74
0
 42
0.0000001
 43
0.0000001
 44
0.0000000001
 40
0.0
 40
0.0
 40
0.0
 40
0.0
 40
0.4538655488
 40
1.0
 40
1.0
 40
1.0
 40
1.0
 10
121.6959879551
 20
160.9400164644
 30
0.0
 10
121.7243328813
 20
160.9076742949
 30
0.0
 10
121.7818746473
 20
160.8321353409
 30
0.0
 10
121.8329872809
 20
160.7522633108
 30
0.0
 10
121.8594766769
 20
160.7078091823
 30
0.0
  0
SPLINE
  5
3DA
100
AcDbEntity
  8
_1
100
AcDbSpline
 62
7
  6
CONTINUOUS
 70
0
 71
3
 72
12
 73
8
 74
0
 42
0.0000001
 43
0.0000001
 44
0.0000000001
 40
0.0
 40
0.0
 40
0.0
 40
0.0
 40
0.289572783
 40
0.5486441711
 40
0.781639023
 40
0.8918405879
 40
1.0
 40
1.0
 40
1.0
 40
1.0
 10
111.7718133929
 20
160.0061312858
 30
0.0
 10
111.5962404678
 20
160.1074960682
 30
0.0
 10
111.2777641641
 20
160.326847463
 30
0.0
 10
110.8972610804
 20
160.7264726382
 30
0.0
 10
110.6929898944
 20
161.103073409
 30
0.0
 10
110.6134081486
 20
161.4101904318
 30
0.0
 10
110.6002500852
 20
161.5633843412
 30
0.0
 10
110.6002424208
 20
161.6391079028
 30
0.0
  0
SPLINE
  5
3DB
100
AcDbEntity
  8
_1
100
AcDbSpline
 62
7
  6
CONTINUOUS
 70
0
 71
3
 72
10
 73
6
 74
0
 42
0.0000001
 43
0.0000001
 44
0.0000000001
 40
0.0
 40
0.0
 40
0.0
 40
0.0
 40
0.5047397737
 40
0.7518093339
 40
1.0
 40
1.0
 40
1.0
 40
1.0
 10
94.5886943386
 20
159.7608104521
 30
0.0
 10
94.4106847395
 20
159.4736197046
 30
0.0
 10
94.187605851
 20
159.0162427244
 30
0.0
 10
94.0067405914
 20
158.3704674531
 30
0.0
 10
93.9562922368
 20
158.0417817461
 30
0.0
 10
93.9408297353
 20
157.8763582434
 30
0.0
  0
SPLINE
  5
3DC
100
AcDbEntity
  8
_1
100
AcDbSpline
 62
7
  6
CONTINUOUS
 70
0
 71
3
 72
12
 73
8
 74
0
 42
0.0000001
 43
0.0000001
 44
0.0000000001
 40
0.0
 40
0.0
 40
0.0
 40
0.0
 40
0.3805453346
 40
0.6816207602
 40
0.8917568907
 40
0.9591589159
 40
1.0
 40
1.0
 40
1.0
 40
1.0
 10
119.1919084461
 20
175.4482312175
 30
0.0
 10
119.2059857985
 20
175.4563587322
 30
0.0
 10
119.2310739266
 20
175.4711754915
 30
0.0
 10
119.2630810891
 20
175.4917496555
 30
0.0
 10
119.2833356411
 20
175.5061161681
 30
0.0
 10
119.2934395075
 20
175.5151155665
 30
0.0
 10
119.2965822338
 20
175.5186593816
 30
0.0
 10
119.2972947832
 20
175.520251766
 30
0.0
  0
SPLINE
  5
3DD
100
AcDbEntity
  8
_1
100
AcDbSpline
 62
7
  6
CONTINUOUS
 70
0
 71
3
 72
17
 73
13
 74
0
 42
0.0000001
 43
0.0000001
 44
0.0000000001
 40
0.0
 40
0.0
 40
0.0
 40
0.0
 40
0.1282787673
 40
0.269567052
 40
0.4155981315
 40
0.5579464647
 40
0.6895807996
 40
0.7500191435
 40
0.8064786536
 40
0.9078861932
 40
0.9546211907
 40
1.0
 40
1.0
 40
1.0
 40
1.0
 10
120.8226859851
 20
173.3965125427
 30
0.0
 10
120.9716039899
 20
173.3105366376
 30
0.0
 10
121.3063968406
 20
173.1670984625
 30
0.0
 10
121.8508052161
 20
173.0389305794
 30
0.0
 10
122.4280668716
 20
172.9983716777
 30
0.0
 10
122.9911284512
 20
173.0552558621
 30
0.0
 10
123.4234372226
 20
173.1892100936
 30
0.0
 10
123.7174579488
 20
173.3483222495
 30
0.0
 10
123.9524063193
 20
173.5236104373
 30
0.0
 10
124.1311925709
 20
173.7421812766
 30
0.0
 10
124.2218871803
 20
173.9873260355
 30
0.0
 10
124.2368798558
 20
174.1112911617
 30
0.0
 10
124.2368886361
 20
174.1721204079
 30
0.0
  0
SPLINE
  5
3DE
100
AcDbEntity
  8
_1
100
AcDbSpline
 62
7
  6
CONTINUOUS
 70
0
 71
3
 72
18
 73
14
 74
0
 42
0.0000001
 43
0.0000001
 44
0.0000000001
 40
0.0
 40
0.0
 40
0.0
 40
0.0
 40
0.128655269
 40
0.2702043903
 40
0.4173187262
 40
0.5616284349
 40
0.6952658342
 40
0.7562722468
 40
0.812763492
 40
0.8647148092
 40
0.9125358752
 40
0.9571525633
 40
1.0
 40
1.0
 40
1.0
 40
1.0
 10
117.2518681313
 20
163.2108485991
 30
0.0
 10
116.9742769227
 20
163.3711123325
 30
0.0
 10
116.3457638255
 20
163.6304184375
 30
0.0
 10
115.3214842886
 20
163.8353852141
 30
0.0
 10
114.2378901472
 20
163.8653154197
 30
0.0
 10
113.1843958025
 20
163.7173941959
 30
0.0
 10
112.3770128309
 20
163.4477465781
 30
0.0
 10
111.8260145726
 20
163.1481973201
 30
0.0
 10
111.4839821215
 20
162.8982289214
 30
0.0
 10
111.2079431631
 20
162.6210604218
 30
0.0
 10
111.004279741
 20
162.3215083406
 30
0.0
 10
110.8788108022
 20
162.0055166547
 30
0.0
 10
110.8502330146
 20
161.786683515
 30
0.0
 10
110.850243594
 20
161.6799330227
 30
0.0
  0
SPLINE
  5
3DF
100
AcDbEntity
  8
_1
100
AcDbSpline
 62
7
  6
CONTINUOUS
 70
0
 71
3
 72
17
 73
13
 74
0
 42
0.0000001
 43
0.0000001
 44
0.0000000001
 40
0.0
 40
0.0
 40
0.0
 40
0.0
 40
0.1282787673
 40
0.269567052
 40
0.4155981315
 40
0.5579464647
 40
0.6895807996
 40
0.7500191435
 40
0.8064786536
 40
0.9078861932
 40
0.9546211907
 40
1.0
 40
1.0
 40
1.0
 40
1.0
 10
134.3991927079
 20
165.558290056
 30
0.0
 10
134.5481107128
 20
165.4723141508
 30
0.0
 10
134.8829035634
 20
165.3288759757
 30
0.0
 10
135.4273119389
 20
165.2007080927
 30
0.0
 10
136.0045735944
 20
165.1601491909
 30
0.0
 10
136.567635174
 20
165.2170333753
 30
0.0
 10
136.9999439454
 20
165.3509876068
 30
0.0
 10
137.2939646717
 20
165.5100997627
 30
0.0
 10
137.5289130421
 20
165.6853879505
 30
0.0
 10
137.7076992937
 20
165.9039587898
 30
0.0
 10
137.7983939032
 20
166.1491035487
 30
0.0
 10
137.8133865786
 20
166.2730686749
 30
0.0
 10
137.8133953589
 20
166.3338979211
 30
0.0
  0
SPLINE
  5
3E0
100
AcDbEntity
  8
_1
100
AcDbSpline
 62
7
  6
CONTINUOUS
 70
0
 71
3
 72
9
 73
5
 74
0
 42
0.0000001
 43
0.0000001
 44
0.0000000001
 40
0.0
 40
0.0
 40
0.0
 40
0.0
 40
0.2404497403
 40
1.0
 40
1.0
 40
1.0
 40
1.0
 10
145.4300125684
 20
170.8654457141
 30
0.0
 10
145.5427352832
 20
170.8003666966
 30
0.0
 10
146.0045846903
 20
170.5177327326
 30
0.0
 10
146.4385343449
 20
170.1904484358
 30
0.0
 10
146.7516321792
 20
169.9239487976
 30
0.0
  0
SPLINE
  5
3E1
100
AcDbEntity
  8
_1
100
AcDbSpline
 62
7
  6
CONTINUOUS
 70
0
 71
3
 72
14
 73
10
 74
0
 42
0.0000001
 43
0.0000001
 44
0.0000000001
 40
0.0
 40
0.0
 40
0.0
 40
0.0
 40
0.2902519675
 40
0.4237925056
 40
0.5498306303
 40
0.6691249412
 40
0.7828117332
 40
0.8924642231
 40
1.0
 40
1.0
 40
1.0
 40
1.0
 10
151.1567290026
 20
161.0609541073
 30
0.0
 10
151.1630693436
 20
160.6378613541
 30
0.0
 10
151.1228232457
 20
160.016286572
 30
0.0
 10
150.9426717071
 20
159.2337985507
 30
0.0
 10
150.7553974352
 20
158.7125872673
 30
0.0
 10
150.5139157289
 20
158.2463138833
 30
0.0
 10
150.2200088827
 20
157.8399129882
 30
0.0
 10
149.8766215395
 20
157.4981088756
 30
0.0
 10
149.615743801
 20
157.3153745003
 30
0.0
 10
149.4799786762
 20
157.2369871771
 30
0.0
  0
SPLINE
  5
3E2
100
AcDbEntity
  8
_1
100
AcDbSpline
 62
7
  6
CONTINUOUS
 70
0
 71
3
 72
15
 73
11
 74
0
 42
0.0000001
 43
0.0000001
 44
0.0000000001
 40
0.0
 40
0.0
 40
0.0
 40
0.0
 40
0.1225892889
 40
0.2502724954
 40
0.3808942873
 40
0.5122010273
 40
0.6418687797
 40
0.7676639753
 40
0.8876013848
 40
1.0
 40
1.0
 40
1.0
 40
1.0
 10
146.7516321792
 20
169.503595834
 30
0.0
 10
147.042199212
 20
169.2507131369
 30
0.0
 10
147.6057046801
 20
168.6995591638
 30
0.0
 10
148.3724297868
 20
167.7781851026
 30
0.0
 10
149.06245587
 20
166.7646853745
 30
0.0
 10
149.6577570293
 20
165.6857530223
 30
0.0
 10
150.1427493982
 20
164.5693924595
 30
0.0
 10
150.5049434281
 20
163.4445957424
 30
0.0
 10
150.7347135713
 20
162.340780702
 30
0.0
 10
150.7979359531
 20
161.6110574349
 30
0.0
 10
150.8032279882
 20
161.25791843
 30
0.0
  0
SPLINE
  5
3E3
100
AcDbEntity
  8
_1
100
AcDbSpline
 62
7
  6
CONTINUOUS
 70
0
 71
3
 72
15
 73
11
 74
0
 42
0.0000001
 43
0.0000001
 44
0.0000000001
 40
0.0
 40
0.0
 40
0.0
 40
0.0
 40
0.1015480673
 40
0.2062671531
 40
0.3168634365
 40
0.4353023856
 40
0.5627316767
 40
0.6995407327
 40
0.845581899
 40
1.0
 40
1.0
 40
1.0
 40
1.0
 10
127.8035387168
 20
179.104789283
 30
0.0
 10
127.9759492472
 20
179.2043166416
 30
0.0
 10
128.3500020762
 20
179.3678303053
 30
0.0
 10
128.9634820334
 20
179.4894411337
 30
0.0
 10
129.6215447006
 20
179.48893449
 30
0.0
 10
130.3128208516
 20
179.3679404312
 30
0.0
 10
131.0267045624
 20
179.1297290102
 30
0.0
 10
131.752535964
 20
178.7787373204
 30
0.0
 10
132.4789921883
 20
178.3208080527
 30
0.0
 10
132.9446025747
 20
177.9583855594
 30
0.0
 10
133.1751254564
 20
177.7621712844
 30
0.0
  0
SPLINE
  5
3E4
100
AcDbEntity
  8
_1
100
AcDbSpline
 62
7
  6
CONTINUOUS
 70
0
 71
3
 72
9
 73
5
 74
0
 42
0.0000001
 43
0.0000001
 44
0.0000000001
 40
0.0
 40
0.0
 40
0.0
 40
0.0
 40
0.5155400853
 40
1.0
 40
1.0
 40
1.0
 40
1.0
 10
144.0595372312
 20
158.6042626984
 30
0.0
 10
144.1522443378
 20
158.5160107982
 30
0.0
 10
144.3492603414
 20
158.361289997
 30
0.0
 10
144.5789999803
 20
158.258870782
 30
0.0
 10
144.6945603503
 20
158.2255091593
 30
0.0
  0
SPLINE
  5
3E5
100
AcDbEntity
  8
_1
100
AcDbSpline
 62
7
  6
CONTINUOUS
 70
0
 71
3
 72
14
 73
10
 74
0
 42
0.0000001
 43
0.0000001
 44
0.0000000001
 40
0.0
 40
0.0
 40
0.0
 40
0.0
 40
0.1080472951
 40
0.2181321566
 40
0.3321084401
 40
0.4515068899
 40
0.5774537029
 40
0.7107203653
 40
1.0
 40
1.0
 40
1.0
 40
1.0
 10
141.3800464607
 20
171.2665650935
 30
0.0
 10
141.5128450398
 20
171.3432396088
 30
0.0
 10
141.7947930642
 20
171.4753032954
 30
0.0
 10
142.2510276842
 20
171.6014349499
 30
0.0
 10
142.7373795737
 20
171.6556908181
 30
0.0
 10
143.2486437089
 20
171.6378991205
 30
0.0
 10
143.7799917296
 20
171.5487910032
 30
0.0
 10
144.5285911614
 20
171.3305262927
 30
0.0
 10
145.0744595208
 20
171.0707197179
 30
0.0
 10
145.4300125684
 20
170.8654457141
 30
0.0
  0
SPLINE
  5
3E6
100
AcDbEntity
  8
_1
100
AcDbSpline
 62
7
  6
CONTINUOUS
 70
0
 71
3
 72
11
 73
7
 74
0
 42
0.0000001
 43
0.0000001
 44
0.0000000001
 40
0.0
 40
0.0
 40
0.0
 40
0.0
 40
0.2100376787
 40
0.4397300909
 40
0.7017842387
 40
1.0
 40
1.0
 40
1.0
 40
1.0
 10
133.8134065142
 20
166.3339109877
 30
0.0
 10
133.8133938331
 20
166.2629116811
 30
0.0
 10
133.8423426425
 20
166.11324447
 30
0.0
 10
133.9638538914
 20
165.9056554206
 30
0.0
 10
134.1541183657
 20
165.7152939262
 30
0.0
 10
134.3118914332
 20
165.6086923301
 30
0.0
 10
134.3991927079
 20
165.558290056
 30
0.0
  0
SPLINE
  5
3E7
100
AcDbEntity
  8
_1
100
AcDbSpline
 62
7
  6
CONTINUOUS
 70
0
 71
3
 72
18
 73
14
 74
0
 42
0.0000001
 43
0.0000001
 44
0.0000000001
 40
0.0
 40
0.0
 40
0.0
 40
0.0
 40
0.042847292
 40
0.0874641136
 40
0.1352853591
 40
0.187236804
 40
0.2437277733
 40
0.3047333296
 40
0.438368097
 40
0.5826759885
 40
0.7297917446
 40
0.8713432923
 40
1.0
 40
1.0
 40
1.0
 40
1.0
 10
118.6002150627
 20
161.6391078997
 30
0.0
 10
118.6002265878
 20
161.5252410915
 30
0.0
 10
118.5697413028
 20
161.2918192538
 30
0.0
 10
118.4359072441
 20
160.9547616152
 30
0.0
 10
118.2186675688
 20
160.6352369572
 30
0.0
 10
117.9242245404
 20
160.3395916352
 30
0.0
 10
117.5593916287
 20
160.072961173
 30
0.0
 10
116.9716700273
 20
159.7534447674
 30
0.0
 10
116.1104754732
 20
159.4658243204
 30
0.0
 10
114.986757489
 20
159.3080340718
 30
0.0
 10
113.8309180779
 20
159.3399573519
 30
0.0
 10
112.73833818
 20
159.5585850349
 30
0.0
 10
112.0679139961
 20
159.8351813902
 30
0.0
 10
111.7718133929
 20
160.0061312858
 30
0.0
  0
SPLINE
  5
3E8
100
AcDbEntity
  8
_1
100
AcDbSpline
 62
7
  6
CONTINUOUS
 70
0
 71
3
 72
12
 73
8
 74
0
 42
0.0000001
 43
0.0000001
 44
0.0000000001
 40
0.0
 40
0.0
 40
0.0
 40
0.0
 40
0.1081583165
 40
0.2183597755
 40
0.4513539159
 40
0.7104277657
 40
1.0
 40
1.0
 40
1.0
 40
1.0
 10
118.3502138895
 20
161.6799330215
 30
0.0
 10
118.3502068541
 20
161.7509231037
 30
0.0
 10
118.3378745307
 20
161.8945419555
 30
0.0
 10
118.2632614315
 20
162.1824614691
 30
0.0
 10
118.0717632156
 20
162.5355279898
 30
0.0
 10
117.7150385644
 20
162.9101757644
 30
0.0
 10
117.4164673492
 20
163.1158193462
 30
0.0
 10
117.2518681313
 20
163.2108485991
 30
0.0
  0
SPLINE
  5
3E9
100
AcDbEntity
  8
_1
100
AcDbSpline
 62
7
  6
CONTINUOUS
 70
0
 71
3
 72
9
 73
5
 74
0
 42
0.0000001
 43
0.0000001
 44
0.0000000001
 40
0.0
 40
0.0
 40
0.0
 40
0.0
 40
0.4906623627
 40
1.0
 40
1.0
 40
1.0
 40
1.0
 10
133.0104698381
 20
167.8002715875
 30
0.0
 10
133.2230189091
 20
167.9230105488
 30
0.0
 10
133.689067458
 20
168.1198116342
 30
0.0
 10
134.1874889484
 20
168.2006755497
 30
0.0
 10
134.441842734
 20
168.215479731
 30
0.0
  0
SPLINE
  5
3EA
100
AcDbEntity
  8
_1
100
AcDbSpline
 62
7
  6
CONTINUOUS
 70
0
 71
3
 72
11
 73
7
 74
0
 42
0.0000001
 43
0.0000001
 44
0.0000000001
 40
0.0
 40
0.0
 40
0.0
 40
0.0
 40
0.2100376787
 40
0.4397300909
 40
0.7017842387
 40
1.0
 40
1.0
 40
1.0
 40
1.0
 10
120.2368997914
 20
174.1721334745
 30
0.0
 10
120.2368871103
 20
174.1011341679
 30
0.0
 10
120.2658359197
 20
173.9514669568
 30
0.0
 10
120.3873471686
 20
173.7438779074
 30
0.0
 10
120.5776116429
 20
173.553516413
 30
0.0
 10
120.7353847104
 20
173.4469148169
 30
0.0
 10
120.8226859851
 20
173.3965125427
 30
0.0
  0
SPLINE
  5
3EB
100
AcDbEntity
  8
_1
100
AcDbSpline
 62
7
  6
CONTINUOUS
 70
0
 71
3
 72
17
 73
13
 74
0
 42
0.0000001
 43
0.0000001
 44
0.0000000001
 40
0.0
 40
0.0
 40
0.0
 40
0.0
 40
0.010954713
 40
0.0326767397
 40
0.065042772
 40
0.1075540586
 40
0.159659324
 40
0.2205090499
 40
0.3627076118
 40
0.5227699843
 40
0.6899088358
 40
1.0
 40
1.0
 40
1.0
 40
1.0
 10
101.0943024649
 20
165.0377126073
 30
0.0
 10
101.0959995428
 20
165.0375223878
 30
0.0
 10
101.1010402604
 20
165.0391259718
 30
0.0
 10
101.1105442928
 20
165.0422337404
 30
0.0
 10
101.1245736822
 20
165.0479159001
 30
0.0
 10
101.1427885571
 20
165.0555881711
 30
0.0
 10
101.1649645736
 20
165.0653945124
 30
0.0
 10
101.2011720765
 20
165.081848492
 30
0.0
 10
101.2524024474
 20
165.1059332606
 30
0.0
 10
101.3182178072
 20
165.1379189923
 30
0.0
 10
101.4068483693
 20
165.1827975539
 30
0.0
 10
101.4724493037
 20
165.2179577782
 30
0.0
 10
101.5143125158
 20
165.2421273707
 30
0.0
  0
SPLINE
  5
3EC
100
AcDbEntity
  8
_1
100
AcDbSpline
 62
7
  6
CONTINUOUS
 70
0
 71
3
 72
11
 73
7
 74
0
 42
0.0000001
 43
0.0000001
 44
0.0000000001
 40
0.0
 40
0.0
 40
0.0
 40
0.0
 40
0.1837903411
 40
0.4149060055
 40
0.6888976848
 40
1.0
 40
1.0
 40
1.0
 40
1.0
 10
128.7720943997
 20
144.1526417552
 30
0.0
 10
128.6866631604
 20
144.2019394277
 30
0.0
 10
128.4803066116
 20
144.2894870297
 30
0.0
 10
128.1224318562
 20
144.3849090904
 30
0.0
 10
127.6886170764
 20
144.4509923586
 30
0.0
 10
127.3746743673
 20
144.469197032
 30
0.0
 10
127.2077393376
 20
144.4720125742
 30
0.0
  0
SPLINE
  5
3ED
100
AcDbEntity
  8
_1
100
AcDbSpline
 62
7
  6
CONTINUOUS
 70
0
 71
3
 72
15
 73
11
 74
0
 42
0.0000001
 43
0.0000001
 44
0.0000000001
 40
0.0
 40
0.0
 40
0.0
 40
0.0
 40
0.0989410684
 40
0.2120110088
 40
0.337721363
 40
0.4724296996
 40
0.6112552654
 40
0.7488097569
 40
0.8798585669
 40
1.0
 40
1.0
 40
1.0
 40
1.0
 10
109.1115636513
 20
135.5850876211
 30
0.0
 10
109.0246420971
 20
135.4706853296
 30
0.0
 10
108.7966929386
 20
135.2567424466
 30
0.0
 10
108.3677236894
 20
135.0128551957
 30
0.0
 10
107.8526765054
 20
134.8346239496
 30
0.0
 10
107.2800065984
 20
134.7318461699
 30
0.0
 10
106.6815425556
 20
134.7099116812
 30
0.0
 10
106.0909335864
 20
134.770163541
 30
0.0
 10
105.5416869424
 20
134.9090552209
 30
0.0
 10
105.2054761034
 20
135.0570550321
 30
0.0
 10
105.0543852269
 20
135.1442854169
 30
0.0
  0
SPLINE
  5
3EE
100
AcDbEntity
  8
_1
100
AcDbSpline
 62
7
  6
CONTINUOUS
 70
0
 71
3
 72
9
 73
5
 74
0
 42
0.0000001
 43
0.0000001
 44
0.0000000001
 40
0.0
 40
0.0
 40
0.0
 40
0.0
 40
0.2703887678
 40
1.0
 40
1.0
 40
1.0
 40
1.0
 10
105.0543852269
 20
135.1442854169
 30
0.0
 10
105.0008929813
 20
135.1751684806
 30
0.0
 10
104.8078349496
 20
135.2969215191
 30
0.0
 10
104.6335679764
 20
135.4523668769
 30
0.0
 10
104.5327343511
 20
135.585076615
 30
0.0
  0
SPLINE
  5
3EF
100
AcDbEntity
  8
_1
100
AcDbSpline
 62
7
  6
CONTINUOUS
 70
0
 71
3
 72
15
 73
11
 74
0
 42
0.0000001
 43
0.0000001
 44
0.0000000001
 40
0.0
 40
0.0
 40
0.0
 40
0.0
 40
0.1225892889
 40
0.2502724954
 40
0.3808942873
 40
0.5122010273
 40
0.6418687797
 40
0.7676639753
 40
0.8876013848
 40
1.0
 40
1.0
 40
1.0
 40
1.0
 10
133.1751254564
 20
177.3418183208
 30
0.0
 10
133.4656924891
 20
177.0889356237
 30
0.0
 10
134.0291979573
 20
176.5377816506
 30
0.0
 10
134.795923064
 20
175.6164075894
 30
0.0
 10
135.4859491472
 20
174.6029078613
 30
0.0
 10
136.0812503065
 20
173.5239755091
 30
0.0
 10
136.5662426754
 20
172.4076149463
 30
0.0
 10
136.9284367053
 20
171.2828182292
 30
0.0
 10
137.1582068485
 20
170.1790031888
 30
0.0
 10
137.2214292302
 20
169.4492799217
 30
0.0
 10
137.2267212653
 20
169.0961409168
 30
0.0
  0
SPLINE
  5
3F0
100
AcDbEntity
  8
_1
100
AcDbSpline
 62
7
  6
CONTINUOUS
 70
0
 71
3
 72
11
 73
7
 74
0
 42
0.0000001
 43
0.0000001
 44
0.0000000001
 40
0.0
 40
0.0
 40
0.0
 40
0.0
 40
0.2895971787
 40
0.5491098301
 40
0.7822367324
 40
1.0
 40
1.0
 40
1.0
 40
1.0
 10
93.4421439757
 20
144.2790714566
 30
0.0
 10
93.3982822111
 20
144.2537480062
 30
0.0
 10
93.3186925128
 20
144.1988901765
 30
0.0
 10
93.2235231236
 20
144.09893634
 30
0.0
 10
93.1632966383
 20
143.9883082491
 30
0.0
 10
93.1493088119
 20
143.9089148443
 30
0.0
 10
93.1492951979
 20
143.8708306222
 30
0.0
  0
SPLINE
  5
3F1
100
AcDbEntity
  8
_1
100
AcDbSpline
 62
7
  6
CONTINUOUS
 70
0
 71
3
 72
9
 73
5
 74
0
 42
0.0000001
 43
0.0000001
 44
0.0000000001
 40
0.0
 40
0.0
 40
0.0
 40
0.0
 40
0.2634743292
 40
1.0
 40
1.0
 40
1.0
 40
1.0
 10
91.8178149484
 20
142.9258726838
 30
0.0
 10
91.7478214856
 20
142.9435989215
 30
0.0
 10
91.4843382425
 20
143.018729976
 30
0.0
 10
91.2291260458
 20
143.1261219535
 30
0.0
 10
91.0543269395
 20
143.2270399815
 30
0.0
  0
SPLINE
  5
3F2
100
AcDbEntity
  8
_1
100
AcDbSpline
 62
7
  6
CONTINUOUS
 70
0
 71
3
 72
11
 73
7
 74
0
 42
0.0000001
 43
0.0000001
 44
0.0000000001
 40
0.0
 40
0.0
 40
0.0
 40
0.0
 40
0.2897459695
 40
0.5490812187
 40
0.7822207561
 40
1.0
 40
1.0
 40
1.0
 40
1.0
 10
91.0543269395
 20
143.2270399815
 30
0.0
 10
90.9446126986
 20
143.290382095
 30
0.0
 10
90.7455787632
 20
143.4274359002
 30
0.0
 10
90.5077420177
 20
143.6774372832
 30
0.0
 10
90.357298074
 20
143.953952867
 30
0.0
 10
90.3220868092
 20
144.1524301357
 30
0.0
 10
90.3221049774
 20
144.2476503138
 30
0.0
  0
SPLINE
  5
3F3
100
AcDbEntity
  8
_1
100
AcDbSpline
 62
7
  6
CONTINUOUS
 70
0
 71
3
 72
11
 73
7
 74
0
 42
0.0000001
 43
0.0000001
 44
0.0000000001
 40
0.0
 40
0.0
 40
0.0
 40
0.0
 40
0.2848089236
 40
0.5427468396
 40
0.7778437356
 40
1.0
 40
1.0
 40
1.0
 40
1.0
 10
93.3885077257
 20
148.2652293769
 30
0.0
 10
93.3521977498
 20
148.2406607136
 30
0.0
 10
93.2864903805
 20
148.188225132
 30
0.0
 10
93.2089028951
 20
148.0957568668
 30
0.0
 10
93.1604036165
 20
147.9954786316
 30
0.0
 10
93.1492539619
 20
147.9246829558
 30
0.0
 10
93.1492662002
 20
147.8904861591
 30
0.0
  0
SPLINE
  5
3F4
100
AcDbEntity
  8
_1
100
AcDbSpline
 62
7
  6
CONTINUOUS
 70
0
 71
3
 72
9
 73
5
 74
0
 42
0.0000001
 43
0.0000001
 44
0.0000000001
 40
0.0
 40
0.0
 40
0.0
 40
0.0
 40
0.2426221852
 40
1.0
 40
1.0
 40
1.0
 40
1.0
 10
116.6353356791
 20
136.9639882229
 30
0.0
 10
116.5239121676
 20
136.8885949826
 30
0.0
 10
116.0588506009
 20
136.5864829942
 30
0.0
 10
115.5720810336
 20
136.318204731
 30
0.0
 10
115.195348118
 20
136.1326159795
 30
0.0
  0
SPLINE
  5
3F5
100
AcDbEntity
  8
_1
100
AcDbSpline
 62
7
  6
CONTINUOUS
 70
0
 71
3
 72
11
 73
7
 74
0
 42
0.0000001
 43
0.0000001
 44
0.0000000001
 40
0.0
 40
0.0
 40
0.0
 40
0.0
 40
0.2396577697
 40
0.4999994782
 40
0.7603414627
 40
1.0
 40
1.0
 40
1.0
 40
1.0
 10
108.2825974221
 20
132.7272093431
 30
0.0
 10
108.0672520829
 20
132.6211244459
 30
0.0
 10
107.5847736855
 20
132.4657839168
 30
0.0
 10
106.8221541062
 20
132.3906468589
 30
0.0
 10
106.0595334043
 20
132.4657803617
 30
0.0
 10
105.5770532082
 20
132.6211185248
 30
0.0
 10
105.36170647
 20
132.7272023222
 30
0.0
  0
SPLINE
  5
3F6
100
AcDbEntity
  8
_1
100
AcDbSpline
 62
7
  6
CONTINUOUS
 70
0
 71
3
 72
11
 73
7
 74
0
 42
0.0000001
 43
0.0000001
 44
0.0000000001
 40
0.0
 40
0.0
 40
0.0
 40
0.0
 40
0.2849941403
 40
0.5427219816
 40
0.7777955253
 40
1.0
 40
1.0
 40
1.0
 40
1.0
 10
91.1104854701
 20
140.954962466
 30
0.0
 10
91.0287317512
 20
141.010279102
 30
0.0
 10
90.8808151637
 20
141.1281740135
 30
0.0
 10
90.7063743376
 20
141.3363378756
 30
0.0
 10
90.5972883191
 20
141.5618940505
 30
0.0
 10
90.572093867
 20
141.7211810677
 30
0.0
 10
90.5720938806
 20
141.7981431148
 30
0.0
  0
SPLINE
  5
3F7
100
AcDbEntity
  8
_1
100
AcDbSpline
 62
7
  6
CONTINUOUS
 70
0
 71
3
 72
11
 73
7
 74
0
 42
0.0000001
 43
0.0000001
 44
0.0000000001
 40
0.0
 40
0.0
 40
0.0
 40
0.0
 40
0.2700404487
 40
0.5259223155
 40
0.7666600923
 40
1.0
 40
1.0
 40
1.0
 40
1.0
 10
104.6301087936
 20
137.9200109752
 30
0.0
 10
104.5810517325
 20
137.8701839532
 30
0.0
 10
104.4941760773
 20
137.7641970048
 30
0.0
 10
104.3964287274
 20
137.5902649582
 30
0.0
 10
104.3357115396
 20
137.4099725641
 30
0.0
 10
104.3221543048
 20
137.2868000007
 30
0.0
 10
104.3221608566
 20
137.2263794393
 30
0.0
  0
SPLINE
  5
3F8
100
AcDbEntity
  8
_1
100
AcDbSpline
 62
7
  6
CONTINUOUS
 70
0
 71
3
 72
19
 73
15
 74
0
 42
0.0000001
 43
0.0000001
 44
0.0000000001
 40
0.0
 40
0.0
 40
0.0
 40
0.0
 40
0.069576656
 40
0.1413466906
 40
0.2146589513
 40
0.2886868539
 40
0.435526757
 40
0.5755358221
 40
0.7033097726
 40
0.8155202269
 40
0.8658277687
 40
0.9127265014
 40
0.9570574813
 40
1.0
 40
1.0
 40
1.0
 40
1.0
 10
94.0241589342
 20
146.5743131341
 30
0.0
 10
93.9281657092
 20
146.6066581061
 30
0.0
 10
93.7289018023
 20
146.6599468157
 30
0.0
 10
93.4208154457
 20
146.7137518688
 30
0.0
 10
93.1032788473
 20
146.7472148166
 30
0.0
 10
92.6748090967
 20
146.7594367386
 30
0.0
 10
92.1491317981
 20
146.7153993181
 30
0.0
 10
91.559702156
 20
146.5731437076
 30
0.0
 10
91.0501765623
 20
146.3496894879
 30
0.0
 10
90.7051596605
 20
146.0963283278
 30
0.0
 10
90.5062950195
 20
145.863547444
 30
0.0
 10
90.401018637
 20
145.6849828426
 30
0.0
 10
90.3366434822
 20
145.4991054643
 30
0.0
 10
90.3220916607
 20
145.3716152123
 30
0.0
 10
90.3220958842
 20
145.3090955516
 30
0.0
  0
SPLINE
  5
3F9
100
AcDbEntity
  8
_1
100
AcDbSpline
 62
7
  6
CONTINUOUS
 70
0
 71
3
 72
11
 73
7
 74
0
 42
0.0000001
 43
0.0000001
 44
0.0000000001
 40
0.0
 40
0.0
 40
0.0
 40
0.0
 40
0.259361847
 40
0.5209431608
 40
0.7716061174
 40
1.0
 40
1.0
 40
1.0
 40
1.0
 10
119.7712601993
 20
147.7127180932
 30
0.0
 10
119.3240834538
 20
147.7993837831
 30
0.0
 10
118.4094759602
 20
147.8958303073
 30
0.0
 10
117.0507165516
 20
147.8250351451
 30
0.0
 10
115.7740553397
 20
147.5476786926
 30
0.0
 10
114.9919071144
 20
147.2178414111
 30
0.0
 10
114.6445344288
 20
147.0172868948
 30
0.0
  0
SPLINE
  5
3FA
100
AcDbEntity
  8
_1
100
AcDbSpline
 62
7
  6
CONTINUOUS
 70
0
 71
3
 72
9
 73
5
 74
0
 42
0.0000001
 43
0.0000001
 44
0.0000000001
 40
0.0
 40
0.0
 40
0.0
 40
0.0
 40
0.2582744601
 40
1.0
 40
1.0
 40
1.0
 40
1.0
 10
114.6445344288
 20
147.0172868948
 30
0.0
 10
114.596914006
 20
146.9897933949
 30
0.0
 10
114.4144254708
 20
146.8801331234
 30
0.0
 10
114.2397254963
 20
146.7572677618
 30
0.0
 10
114.1167248884
 20
146.6582322212
 30
0.0
  0
SPLINE
  5
3FB
100
AcDbEntity
  8
_1
100
AcDbSpline
 62
7
  6
CONTINUOUS
 70
0
 71
3
 72
9
 73
5
 74
0
 42
0.0000001
 43
0.0000001
 44
0.0000000001
 40
0.0
 40
0.0
 40
0.0
 40
0.0
 40
0.260715657
 40
1.0
 40
1.0
 40
1.0
 40
1.0
 10
118.8796710366
 20
175.3126826271
 30
0.0
 10
118.8856542748
 20
175.309865666
 30
0.0
 10
118.9088620526
 20
175.2996310092
 30
0.0
 10
118.9331466373
 20
175.2917413174
 30
0.0
 10
118.9514558006
 20
175.2876884536
 30
0.0
  0
SPLINE
  5
3FC
100
AcDbEntity
  8
_1
100
AcDbSpline
 62
7
  6
CONTINUOUS
 70
0
 71
3
 72
11
 73
7
 74
0
 42
0.0000001
 43
0.0000001
 44
0.0000000001
 40
0.0
 40
0.0
 40
0.0
 40
0.0
 40
0.2221563748
 40
0.4572532743
 40
0.7151910335
 40
1.0
 40
1.0
 40
1.0
 40
1.0
 10
120.4949068557
 20
142.2378867115
 30
0.0
 10
120.4949190823
 20
142.2036898974
 30
0.0
 10
120.4837694602
 20
142.1328941973
 30
0.0
 10
120.4352701389
 20
142.0326159862
 30
0.0
 10
120.3576827066
 20
141.9401477012
 30
0.0
 10
120.2919753209
 20
141.8877121607
 30
0.0
 10
120.2556653391
 20
141.8631434934
 30
0.0
  0
SPLINE
  5
3FD
100
AcDbEntity
  8
_1
100
AcDbSpline
 62
7
  6
CONTINUOUS
 70
0
 71
3
 72
13
 73
9
 74
0
 42
0.0000001
 43
0.0000001
 44
0.0000000001
 40
0.0
 40
0.0
 40
0.0
 40
0.0
 40
0.4347045048
 40
0.6129522129
 40
0.7601937235
 40
0.8738992662
 40
0.9522812162
 40
1.0
 40
1.0
 40
1.0
 40
1.0
 10
101.2020751062
 20
165.1065787804
 30
0.0
 10
101.1859543997
 20
165.0972715417
 30
0.0
 10
101.1633716854
 20
165.0841554833
 30
0.0
 10
101.1352380401
 20
165.067187616
 30
0.0
 10
101.1196957601
 20
165.0577761433
 30
0.0
 10
101.1062987634
 20
165.0487235811
 30
0.0
 10
101.1004742004
 20
165.0454327688
 30
0.0
 10
101.0922718063
 20
165.0379402166
 30
0.0
 10
101.0943024649
 20
165.0377126073
 30
0.0
  0
SPLINE
  5
3FE
100
AcDbEntity
  8
_1
100
AcDbSpline
 62
7
  6
CONTINUOUS
 70
0
 71
3
 72
11
 73
7
 74
0
 42
0.0000001
 43
0.0000001
 44
0.0000000001
 40
0.0
 40
0.0
 40
0.0
 40
0.0
 40
0.2221559072
 40
0.457252588
 40
0.7151905087
 40
1.0
 40
1.0
 40
1.0
 40
1.0
 10
93.1492951979
 20
143.8708306222
 30
0.0
 10
93.1492829733
 20
143.8366333994
 30
0.0
 10
93.1604328719
 20
143.7658368024
 30
0.0
 10
93.2089333633
 20
143.6655574823
 30
0.0
 10
93.2865225682
 20
143.5730883621
 30
0.0
 10
93.3522313662
 20
143.5206525207
 30
0.0
 10
93.3885421175
 20
143.496083747
 30
0.0
  0
SPLINE
  5
3FF
100
AcDbEntity
  8
_1
100
AcDbSpline
 62
7
  6
CONTINUOUS
 70
0
 71
3
 72
17
 73
13
 74
0
 42
0.0000001
 43
0.0000001
 44
0.0000000001
 40
0.0
 40
0.0
 40
0.0
 40
0.0
 40
0.1291840354
 40
0.2711105016
 40
0.4193983039
 40
0.5657914767
 40
0.7016202929
 40
0.8196366658
 40
0.8709595372
 40
0.9173340353
 40
0.959774581
 40
1.0
 40
1.0
 40
1.0
 40
1.0
 10
123.6511013339
 20
175.0294891582
 30
0.0
 10
123.503750303
 20
175.1145603911
 30
0.0
 10
123.1677454321
 20
175.247772966
 30
0.0
 10
122.6196791971
 20
175.3379720008
 30
0.0
 10
122.0419028651
 20
175.3292552127
 30
0.0
 10
121.4812599587
 20
175.2286574423
 30
0.0
 10
120.9827964159
 20
175.050002692
 30
0.0
 10
120.634589219
 20
174.8403235722
 30
0.0
 10
120.4287135665
 20
174.6428188088
 30
0.0
 10
120.3198594706
 20
174.4922194981
 30
0.0
 10
120.2523468523
 20
174.3345070263
 30
0.0
 10
120.236909254
 20
174.2251134574
 30
0.0
 10
120.2368997914
 20
174.1721334745
 30
0.0
  0
SPLINE
  5
400
100
AcDbEntity
  8
_1
100
AcDbSpline
 62
7
  6
CONTINUOUS
 70
0
 71
3
 72
15
 73
11
 74
0
 42
0.0000001
 43
0.0000001
 44
0.0000000001
 40
0.0
 40
0.0
 40
0.0
 40
0.0
 40
0.123543881
 40
0.2587846764
 40
0.4003412867
 40
0.5418664738
 40
0.6770467406
 40
0.7405801802
 40
0.800642699
 40
1.0
 40
1.0
 40
1.0
 40
1.0
 10
123.6511013339
 20
174.6212379497
 30
0.0
 10
123.5201549952
 20
174.6968381433
 30
0.0
 10
123.2268186437
 20
174.8229290488
 30
0.0
 10
122.7476991554
 20
174.9344356308
 30
0.0
 10
122.2351192388
 20
174.9723433098
 30
0.0
 10
121.7227529963
 20
174.9339061867
 30
0.0
 10
121.3154258852
 20
174.8387214198
 30
0.0
 10
121.0188997113
 20
174.7246747191
 30
0.0
 10
120.6676022547
 20
174.5481214221
 30
0.0
 10
120.4058141958
 20
174.3226554358
 30
0.0
 10
120.3038566692
 20
174.1009900349
 30
0.0
  0
SPLINE
  5
401
100
AcDbEntity
  8
_1
100
AcDbSpline
 62
7
  6
CONTINUOUS
 70
0
 71
3
 72
11
 73
7
 74
0
 42
0.0000001
 43
0.0000001
 44
0.0000000001
 40
0.0
 40
0.0
 40
0.0
 40
0.0
 40
0.2177629239
 40
0.4508896611
 40
0.710402324
 40
1.0
 40
1.0
 40
1.0
 40
1.0
 10
93.1492662002
 20
147.8904861591
 30
0.0
 10
93.1492798299
 20
147.8524015061
 30
0.0
 10
93.16326799
 20
147.7730071613
 30
0.0
 10
93.2234957986
 20
147.662378016
 30
0.0
 10
93.3186670718
 20
147.5624234201
 30
0.0
 10
93.3982582887
 20
147.5075654291
 30
0.0
 10
93.4421208766
 20
147.4822419251
 30
0.0
  0
SPLINE
  5
402
100
AcDbEntity
  8
_1
100
AcDbSpline
 62
7
  6
CONTINUOUS
 70
0
 71
3
 72
14
 73
10
 74
0
 42
0.0000001
 43
0.0000001
 44
0.0000000001
 40
0.0
 40
0.0
 40
0.0
 40
0.0
 40
0.1085978582
 40
0.2037295311
 40
0.2960133713
 40
0.3965966205
 40
0.5137824258
 40
0.6522213744
 40
1.0
 40
1.0
 40
1.0
 40
1.0
 10
128.9389462071
 20
143.7749222217
 30
0.0
 10
128.9534033385
 20
143.7857991253
 30
0.0
 10
128.9785177018
 20
143.809414966
 30
0.0
 10
129.0019358914
 20
143.8540890107
 30
0.0
 10
129.0060109788
 20
143.9031532921
 30
0.0
 10
128.9911424101
 20
143.9535552627
 30
0.0
 10
128.9594000063
 20
144.0042903874
 30
0.0
 10
128.8903212273
 20
144.077898517
 30
0.0
 10
128.8222769879
 20
144.1236841419
 30
0.0
 10
128.7720943997
 20
144.1526417552
 30
0.0
  0
SPLINE
  5
403
100
AcDbEntity
  8
_1
100
AcDbSpline
 62
7
  6
CONTINUOUS
 70
0
 71
3
 72
13
 73
9
 74
0
 42
0.0000001
 43
0.0000001
 44
0.0000000001
 40
0.0
 40
0.0
 40
0.0
 40
0.0
 40
0.365920113
 40
0.6465004098
 40
0.7551879254
 40
0.8456467092
 40
0.9239055334
 40
1.0
 40
1.0
 40
1.0
 40
1.0
 10
94.5475132076
 20
154.857541772
 30
0.0
 10
94.5394990607
 20
154.8718546711
 30
0.0
 10
94.5242768685
 20
154.8965377639
 30
0.0
 10
94.5024898086
 20
154.9228617389
 30
0.0
 10
94.4853001514
 20
154.9359651263
 30
0.0
 10
94.4738485483
 20
154.9411971542
 30
0.0
 10
94.4626570369
 20
154.942273594
 30
0.0
 10
94.4558960738
 20
154.9399255991
 30
0.0
 10
94.4529419063
 20
154.9382198909
 30
0.0
  0
SPLINE
  5
404
100
AcDbEntity
  8
_1
100
AcDbSpline
 62
7
  6
CONTINUOUS
 70
0
 71
3
 72
10
 73
6
 74
0
 42
0.0000001
 43
0.0000001
 44
0.0000000001
 40
0.0
 40
0.0
 40
0.0
 40
0.0
 40
0.2250336746
 40
0.5912964187
 40
1.0
 40
1.0
 40
1.0
 40
1.0
 10
145.5465392203
 20
157.9783085275
 30
0.0
 10
145.5838864212
 20
157.973075583
 30
0.0
 10
145.6838277233
 20
157.9708676419
 30
0.0
 10
145.8489797217
 20
158.0087724653
 30
0.0
 10
145.9671191387
 20
158.0647493403
 30
0.0
 10
146.0264351733
 20
158.0989952645
 30
0.0
  0
SPLINE
  5
405
100
AcDbEntity
  8
_1
100
AcDbSpline
 62
7
  6
CONTINUOUS
 70
0
 71
3
 72
9
 73
5
 74
0
 42
0.0000001
 43
0.0000001
 44
0.0000000001
 40
0.0
 40
0.0
 40
0.0
 40
0.0
 40
0.244563509
 40
1.0
 40
1.0
 40
1.0
 40
1.0
 10
137.7988857571
 20
166.105276911
 30
0.0
 10
137.7953245512
 20
166.1222427379
 30
0.0
 10
137.7781848277
 20
166.1910623354
 30
0.0
 10
137.7508641903
 20
166.2572309934
 30
0.0
 10
137.7257844387
 20
166.3045427773
 30
0.0
  0
SPLINE
  5
406
100
AcDbEntity
  8
_1
100
AcDbSpline
 62
7
  6
CONTINUOUS
 70
0
 71
3
 72
9
 73
5
 74
0
 42
0.0000001
 43
0.0000001
 44
0.0000000001
 40
0.0
 40
0.0
 40
0.0
 40
0.0
 40
0.2258377038
 40
1.0
 40
1.0
 40
1.0
 40
1.0
 10
137.7257844387
 20
166.3045427773
 30
0.0
 10
137.7012419188
 20
166.3508410987
 30
0.0
 10
137.5732810877
 20
166.5457485888
 30
0.0
 10
137.3831718871
 20
166.6932026754
 30
0.0
 10
137.2276080568
 20
166.7830154629
 30
0.0
  0
SPLINE
  5
407
100
AcDbEntity
  8
_1
100
AcDbSpline
 62
7
  6
CONTINUOUS
 70
0
 71
3
 72
11
 73
7
 74
0
 42
0.0000001
 43
0.0000001
 44
0.0000000001
 40
0.0
 40
0.0
 40
0.0
 40
0.0
 40
0.2247336474
 40
0.4610488749
 40
0.717963572
 40
1.0
 40
1.0
 40
1.0
 40
1.0
 10
137.8133953589
 20
166.3338979211
 30
0.0
 10
137.8134070907
 20
166.4151754718
 30
0.0
 10
137.7859366201
 20
166.5829734915
 30
0.0
 10
137.6668600704
 20
166.8175861838
 30
0.0
 10
137.4767475325
 20
167.0273999311
 30
0.0
 10
137.3159446823
 20
167.1402666507
 30
0.0
 10
137.2276080568
 20
167.1912666714
 30
0.0
  0
SPLINE
  5
408
100
AcDbEntity
  8
_1
100
AcDbSpline
 62
7
  6
CONTINUOUS
 70
0
 71
3
 72
14
 73
10
 74
0
 42
0.0000001
 43
0.0000001
 44
0.0000000001
 40
0.0
 40
0.0
 40
0.0
 40
0.0
 40
0.1719546446
 40
0.31186943
 40
0.4301428336
 40
0.5396197001
 40
0.6486849201
 40
0.760955824
 40
1.0
 40
1.0
 40
1.0
 40
1.0
 10
141.3708086552
 20
167.7637256061
 30
0.0
 10
141.3903830579
 20
167.7750268253
 30
0.0
 10
141.4240782704
 20
167.7991834748
 30
0.0
 10
141.4599281914
 20
167.8440834944
 30
0.0
 10
141.4758796487
 20
167.89076019
 30
0.0
 10
141.4755841919
 20
167.9356703288
 30
0.0
 10
141.4645328169
 20
167.9780519424
 30
0.0
 10
141.4385662228
 20
168.03300927
 30
0.0
 10
141.4097405639
 20
168.0697344033
 30
0.0
 10
141.3888766101
 20
168.0932286889
 30
0.0
  0
SPLINE
  5
409
100
AcDbEntity
  8
_1
100
AcDbSpline
 62
7
  6
CONTINUOUS
 70
0
 71
3
 72
10
 73
6
 74
0
 42
0.0000001
 43
0.0000001
 44
0.0000000001
 40
0.0
 40
0.0
 40
0.0
 40
0.0
 40
0.2296511362
 40
0.4708156514
 40
1.0
 40
1.0
 40
1.0
 40
1.0
 10
118.5660738604
 20
161.7360807274
 30
0.0
 10
118.5455200372
 20
161.8263506492
 30
0.0
 10
118.4847193437
 20
162.007609125
 30
0.0
 10
118.2891164707
 20
162.3619236918
 30
0.0
 10
118.0731216298
 20
162.5929793592
 30
0.0
 10
117.9106599736
 20
162.7312435644
 30
0.0
  0
SPLINE
  5
40A
100
AcDbEntity
  8
_1
100
AcDbSpline
 62
7
  6
CONTINUOUS
 70
0
 71
3
 72
9
 73
5
 74
0
 42
0.0000001
 43
0.0000001
 44
0.0000000001
 40
0.0
 40
0.0
 40
0.0
 40
0.0
 40
0.4926973899
 40
1.0
 40
1.0
 40
1.0
 40
1.0
 10
118.3502287417
 20
161.2308566932
 30
0.0
 10
118.3502287398
 20
161.1411901431
 30
0.0
 10
118.3303404063
 20
160.958693618
 30
0.0
 10
118.2728083816
 20
160.784589584
 30
0.0
 10
118.2357539203
 20
160.7000272211
 30
0.0
  0
SPLINE
  5
40B
100
AcDbEntity
  8
_1
100
AcDbSpline
 62
7
  6
CONTINUOUS
 70
0
 71
3
 72
12
 73
8
 74
0
 42
0.0000001
 43
0.0000001
 44
0.0000000001
 40
0.0
 40
0.0
 40
0.0
 40
0.0
 40
0.1081583165
 40
0.2183597755
 40
0.4513539159
 40
0.7104277657
 40
1.0
 40
1.0
 40
1.0
 40
1.0
 10
110.850243594
 20
161.6799330227
 30
0.0
 10
110.8502506294
 20
161.6089429406
 30
0.0
 10
110.8625829528
 20
161.4653240888
 30
0.0
 10
110.937196052
 20
161.1774045751
 30
0.0
 10
111.1286942679
 20
160.8243380544
 30
0.0
 10
111.4854189191
 20
160.4496902798
 30
0.0
 10
111.7839901343
 20
160.244046698
 30
0.0
 10
111.9485893522
 20
160.1490174451
 30
0.0
  0
SPLINE
  5
40C
100
AcDbEntity
  8
_1
100
AcDbSpline
 62
7
  6
CONTINUOUS
 70
0
 71
3
 72
9
 73
5
 74
0
 42
0.0000001
 43
0.0000001
 44
0.0000000001
 40
0.0
 40
0.0
 40
0.0
 40
0.0
 40
0.2358725936
 40
1.0
 40
1.0
 40
1.0
 40
1.0
 10
144.8855773526
 20
163.9506311039
 30
0.0
 10
144.8739925648
 20
163.9477579053
 30
0.0
 10
144.8253642605
 20
163.9336218827
 30
0.0
 10
144.7790932355
 20
163.911944181
 30
0.0
 10
144.745606719
 20
163.8926108471
 30
0.0
  0
SPLINE
  5
40D
100
AcDbEntity
  8
_1
100
AcDbSpline
 62
7
  6
CONTINUOUS
 70
0
 71
3
 72
18
 73
14
 74
0
 42
0.0000001
 43
0.0000001
 44
0.0000000001
 40
0.0
 40
0.0
 40
0.0
 40
0.0
 40
0.0428183016
 40
0.0873494753
 40
0.1349920292
 40
0.1866617589
 40
0.2427815123
 40
0.3033559879
 40
0.436110425
 40
0.5798182273
 40
0.7269668777
 40
0.8694453789
 40
1.0
 40
1.0
 40
1.0
 40
1.0
 10
110.6002424208
 20
161.6391079028
 30
0.0
 10
110.6002310886
 20
161.7510691595
 30
0.0
 10
110.6296657657
 20
161.9804105769
 30
0.0
 10
110.7590052266
 20
162.3120520752
 30
0.0
 10
110.9691893212
 20
162.6270489209
 30
0.0
 10
111.2543768085
 20
162.9193003314
 30
0.0
 10
111.6081512697
 20
163.1838688135
 30
0.0
 10
112.1789353485
 20
163.5026939175
 30
0.0
 10
113.0180267744
 20
163.7941526388
 30
0.0
 10
114.1177331986
 20
163.96315677
 30
0.0
 10
115.2560846768
 20
163.9489203441
 30
0.0
 10
116.3421303512
 20
163.7528476589
 30
0.0
 10
117.0149235003
 20
163.4953167732
 30
0.0
 10
117.3160822266
 20
163.3345694454
 30
0.0
  0
SPLINE
  5
40E
100
AcDbEntity
  8
_1
100
AcDbSpline
 62
7
  6
CONTINUOUS
 70
0
 71
3
 72
11
 73
7
 74
0
 42
0.0000001
 43
0.0000001
 44
0.0000000001
 40
0.0
 40
0.0
 40
0.0
 40
0.0
 40
0.2247336474
 40
0.4610488749
 40
0.717963572
 40
1.0
 40
1.0
 40
1.0
 40
1.0
 10
124.2368886361
 20
174.1721204079
 30
0.0
 10
124.2369003679
 20
174.2533979586
 30
0.0
 10
124.2094298973
 20
174.4211959783
 30
0.0
 10
124.0903533476
 20
174.6558086706
 30
0.0
 10
123.9002408096
 20
174.8656224179
 30
0.0
 10
123.7394379595
 20
174.9784891375
 30
0.0
 10
123.6511013339
 20
175.0294891582
 30
0.0
  0
SPLINE
  5
40F
100
AcDbEntity
  8
_1
100
AcDbSpline
 62
7
  6
CONTINUOUS
 70
0
 71
3
 72
9
 73
5
 74
0
 42
0.0000001
 43
0.0000001
 44
0.0000000001
 40
0.0
 40
0.0
 40
0.0
 40
0.0
 40
0.244563509
 40
1.0
 40
1.0
 40
1.0
 40
1.0
 10
124.2223790343
 20
173.9434993978
 30
0.0
 10
124.2188178284
 20
173.9604652246
 30
0.0
 10
124.2016781049
 20
174.0292848222
 30
0.0
 10
124.1743574675
 20
174.0954534802
 30
0.0
 10
124.1492777159
 20
174.1427652641
 30
0.0
  0
SPLINE
  5
410
100
AcDbEntity
  8
_1
100
AcDbSpline
 62
7
  6
CONTINUOUS
 70
0
 71
3
 72
9
 73
5
 74
0
 42
0.0000001
 43
0.0000001
 44
0.0000000001
 40
0.0
 40
0.0
 40
0.0
 40
0.0
 40
0.2258377038
 40
1.0
 40
1.0
 40
1.0
 40
1.0
 10
124.1492777159
 20
174.1427652641
 30
0.0
 10
124.124735196
 20
174.1890635854
 30
0.0
 10
123.9967743649
 20
174.3839710756
 30
0.0
 10
123.8066651643
 20
174.5314251622
 30
0.0
 10
123.6511013339
 20
174.6212379497
 30
0.0
  0
SPLINE
  5
411
100
AcDbEntity
  8
_1
100
AcDbSpline
 62
7
  6
CONTINUOUS
 70
0
 71
3
 72
9
 73
5
 74
0
 42
0.0000001
 43
0.0000001
 44
0.0000000001
 40
0.0
 40
0.0
 40
0.0
 40
0.0
 40
0.2428545653
 40
1.0
 40
1.0
 40
1.0
 40
1.0
 10
101.2526285231
 20
165.0871085135
 30
0.0
 10
101.2484236137
 20
165.0883619877
 30
0.0
 10
101.2312154486
 20
165.0938770637
 30
0.0
 10
101.214451691
 20
165.1007517755
 30
0.0
 10
101.2020751062
 20
165.1065787804
 30
0.0
  0
SPLINE
  5
412
100
AcDbEntity
  8
_1
100
AcDbSpline
 62
7
  6
CONTINUOUS
 70
0
 71
3
 72
19
 73
15
 74
0
 42
0.0000001
 43
0.0000001
 44
0.0000000001
 40
0.0
 40
0.0
 40
0.0
 40
0.0
 40
0.0092607376
 40
0.0184988234
 40
0.0351791812
 40
0.0607977618
 40
0.0956777488
 40
0.139903254
 40
0.1934826035
 40
0.2562218495
 40
0.4064500156
 40
0.5846906659
 40
0.7847201669
 40
1.0
 40
1.0
 40
1.0
 40
1.0
 10
119.2972947832
 20
175.520251766
 30
0.0
 10
119.2975885813
 20
175.5209083372
 30
0.0
 10
119.2979609812
 20
175.5227046304
 30
0.0
 10
119.2948880672
 20
175.5238159507
 30
0.0
 10
119.2910431634
 20
175.5233368476
 30
0.0
 10
119.2850962409
 20
175.5221281082
 30
0.0
 10
119.2773478408
 20
175.5197133013
 30
0.0
 10
119.2676341174
 20
175.5162381021
 30
0.0
 10
119.2560546879
 20
175.5116126423
 30
0.0
 10
119.2370213742
 20
175.5034595743
 30
0.0
 10
119.2094379265
 20
175.4907021512
 30
0.0
 10
119.1725765178
 20
175.472632483
 30
0.0
 10
119.131530017
 20
175.4516372687
 30
0.0
 10
119.1029935054
 20
175.4365937751
 30
0.0
 10
119.0882403497
 20
175.4287229954
 30
0.0
  0
SPLINE
  5
413
100
AcDbEntity
  8
_1
100
AcDbSpline
 62
7
  6
CONTINUOUS
 70
0
 71
3
 72
9
 73
5
 74
0
 42
0.0000001
 43
0.0000001
 44
0.0000000001
 40
0.0
 40
0.0
 40
0.0
 40
0.0
 40
0.2505287015
 40
1.0
 40
1.0
 40
1.0
 40
1.0
 10
103.1596410683
 20
149.9115185051
 30
0.0
 10
103.1385592957
 20
149.9308980387
 30
0.0
 10
103.0484546336
 20
150.0016176568
 30
0.0
 10
102.9384222583
 20
150.0460597487
 30
0.0
 10
102.8542107043
 20
150.0617762309
 30
0.0
  0
SPLINE
  5
414
100
AcDbEntity
  8
_1
100
AcDbSpline
 62
7
  6
CONTINUOUS
 70
0
 71
3
 72
9
 73
5
 74
0
 42
0.0000001
 43
0.0000001
 44
0.0000000001
 40
0.0
 40
0.0
 40
0.0
 40
0.0
 40
0.5075159655
 40
1.0
 40
1.0
 40
1.0
 40
1.0
 10
110.9682027264
 20
160.6921046427
 30
0.0
 10
110.9300476658
 20
160.777817019
 30
0.0
 10
110.8707486477
 20
160.9544221124
 30
0.0
 10
110.8502287397
 20
161.1398143361
 30
0.0
 10
110.8502287417
 20
161.2308566932
 30
0.0
  0
SPLINE
  5
415
100
AcDbEntity
  8
_1
100
AcDbSpline
 62
7
  6
CONTINUOUS
 70
0
 71
3
 72
9
 73
5
 74
0
 42
0.0000001
 43
0.0000001
 44
0.0000000001
 40
0.0
 40
0.0
 40
0.0
 40
0.0
 40
0.4784800712
 40
1.0
 40
1.0
 40
1.0
 40
1.0
 10
93.9218531866
 20
157.4703559269
 30
0.0
 10
93.9215493199
 20
157.1556044195
 30
0.0
 10
93.9908102333
 20
156.4967016759
 30
0.0
 10
94.173671132
 20
155.861958511
 30
0.0
 10
94.2890592115
 20
155.5388819558
 30
0.0
  0
SPLINE
  5
416
100
AcDbEntity
  8
_1
100
AcDbSpline
 62
7
  6
CONTINUOUS
 70
0
 71
3
 72
11
 73
7
 74
0
 42
0.0000001
 43
0.0000001
 44
0.0000000001
 40
0.0
 40
0.0
 40
0.0
 40
0.0
 40
0.2419831666
 40
0.5047604605
 40
0.7649717181
 40
1.0
 40
1.0
 40
1.0
 40
1.0
 10
110.9524027771
 20
136.4919344107
 30
0.0
 10
110.8510489636
 20
136.4420048002
 30
0.0
 10
110.6231587033
 20
136.3706369739
 30
0.0
 10
110.2647421771
 20
136.3415807637
 30
0.0
 10
109.9112006097
 20
136.3861406808
 30
0.0
 10
109.6912448662
 20
136.468013213
 30
0.0
 10
109.5962088945
 20
136.5228810155
 30
0.0
  0
SPLINE
  5
417
100
AcDbEntity
  8
_1
100
AcDbSpline
 62
7
  6
CONTINUOUS
 70
0
 71
3
 72
9
 73
5
 74
0
 42
0.0000001
 43
0.0000001
 44
0.0000000001
 40
0.0
 40
0.0
 40
0.0
 40
0.0
 40
0.2613194616
 40
1.0
 40
1.0
 40
1.0
 40
1.0
 10
145.4058043805
 20
158.1440859752
 30
0.0
 10
145.3890696369
 20
158.1357016596
 30
0.0
 10
145.3242586524
 20
158.1052280819
 30
0.0
 10
145.2561049558
 20
158.0814932081
 30
0.0
 10
145.2045861463
 20
158.0694414725
 30
0.0
  0
SPLINE
  5
418
100
AcDbEntity
  8
_1
100
AcDbSpline
 62
7
  6
CONTINUOUS
 70
0
 71
3
 72
11
 73
7
 74
0
 42
0.0000001
 43
0.0000001
 44
0.0000000001
 40
0.0
 40
0.0
 40
0.0
 40
0.0
 40
0.2780558125
 40
0.5353624402
 40
0.7745229033
 40
1.0
 40
1.0
 40
1.0
 40
1.0
 10
111.4562910835
 20
162.8627088019
 30
0.0
 10
111.3499933904
 20
162.7846938675
 30
0.0
 10
111.1544030957
 20
162.6213310055
 30
0.0
 10
110.9104783605
 20
162.3445584964
 30
0.0
 10
110.7321143174
 20
162.0500383479
 30
0.0
 10
110.6581211534
 20
161.8403332927
 30
0.0
 10
110.634383511
 20
161.7360802419
 30
0.0
  0
SPLINE
  5
419
100
AcDbEntity
  8
_1
100
AcDbSpline
 62
7
  6
CONTINUOUS
 70
0
 71
3
 72
9
 73
5
 74
0
 42
0.0000001
 43
0.0000001
 44
0.0000000001
 40
0.0
 40
0.0
 40
0.0
 40
0.0
 40
0.21469985
 40
1.0
 40
1.0
 40
1.0
 40
1.0
 10
144.904371817
 20
164.2739071074
 30
0.0
 10
144.902201003
 20
164.2508323126
 30
0.0
 10
144.8935544312
 20
164.1432209043
 30
0.0
 10
144.8886801359
 20
164.0353468431
 30
0.0
 10
144.8855773526
 20
163.9506311039
 30
0.0
  0
SPLINE
  5
41A
100
AcDbEntity
  8
_1
100
AcDbSpline
 62
7
  6
CONTINUOUS
 70
0
 71
3
 72
9
 73
5
 74
0
 42
0.0000001
 43
0.0000001
 44
0.0000000001
 40
0.0
 40
0.0
 40
0.0
 40
0.0
 40
0.2788992422
 40
1.0
 40
1.0
 40
1.0
 40
1.0
 10
144.9547061901
 20
164.827200937
 30
0.0
 10
144.9500915678
 20
164.7766811975
 30
0.0
 10
144.9335442056
 20
164.5955418479
 30
0.0
 10
144.9178067532
 20
164.4143267966
 30
0.0
 10
144.9053069063
 20
164.2837599731
 30
0.0
  0
SPLINE
  5
41B
100
AcDbEntity
  8
_1
100
AcDbSpline
 62
7
  6
CONTINUOUS
 70
0
 71
3
 72
11
 73
7
 74
0
 42
0.0000001
 43
0.0000001
 44
0.0000000001
 40
0.0
 40
0.0
 40
0.0
 40
0.0
 40
0.2327695464
 40
0.4718356604
 40
0.7252798503
 40
1.0
 40
1.0
 40
1.0
 40
1.0
 10
146.7516321792
 20
169.9239487976
 30
0.0
 10
146.4986534189
 20
169.5829380621
 30
0.0
 10
146.0344825537
 20
168.8537568517
 30
0.0
 10
145.5003627957
 20
167.6379202705
 30
0.0
 10
145.1323068546
 20
166.2829515402
 30
0.0
 10
145.000290653
 20
165.3262483275
 30
0.0
 10
144.9547061901
 20
164.827200937
 30
0.0
  0
SPLINE
  5
41C
100
AcDbEntity
  8
_1
100
AcDbSpline
 62
7
  6
CONTINUOUS
 70
0
 71
3
 72
13
 73
9
 74
0
 42
0.0000001
 43
0.0000001
 44
0.0000000001
 40
0.0
 40
0.0
 40
0.0
 40
0.0
 40
0.2838502664
 40
0.5402654333
 40
0.6598378322
 40
0.7753362385
 40
0.8882786022
 40
1.0
 40
1.0
 40
1.0
 40
1.0
 10
144.8855773526
 20
163.0317165795
 30
0.0
 10
144.9036410799
 20
163.6791546146
 30
0.0
 10
144.9815321883
 20
164.9115934102
 30
0.0
 10
145.2689278677
 20
166.3960587701
 30
0.0
 10
145.6230027228
 20
167.4616091435
 30
0.0
 10
145.9402585633
 20
168.1907979165
 30
0.0
 10
146.3141232319
 20
168.8721762704
 30
0.0
 10
146.6004942139
 20
169.2983043074
 30
0.0
 10
146.7516321792
 20
169.503595834
 30
0.0
  0
SPLINE
  5
41D
100
AcDbEntity
  8
_1
100
AcDbSpline
 62
7
  6
CONTINUOUS
 70
0
 71
3
 72
11
 73
7
 74
0
 42
0.0000001
 43
0.0000001
 44
0.0000000001
 40
0.0
 40
0.0
 40
0.0
 40
0.0
 40
0.2349420801
 40
0.4825075335
 40
0.7389475396
 40
1.0
 40
1.0
 40
1.0
 40
1.0
 10
141.3708086552
 20
167.7637256061
 30
0.0
 10
141.6970881362
 20
167.5241724646
 30
0.0
 10
142.3364479135
 20
166.9894099361
 30
0.0
 10
143.2203365876
 20
166.0701837352
 30
0.0
 10
144.0364043138
 20
165.0325437182
 30
0.0
 10
144.5198909402
 20
164.2816324151
 30
0.0
 10
144.745606719
 20
163.8926108471
 30
0.0
  0
SPLINE
  5
41E
100
AcDbEntity
  8
_1
100
AcDbSpline
 62
7
  6
CONTINUOUS
 70
0
 71
3
 72
11
 73
7
 74
0
 42
0.0000001
 43
0.0000001
 44
0.0000000001
 40
0.0
 40
0.0
 40
0.0
 40
0.0
 40
0.2632066944
 40
0.5205204847
 40
0.7674131962
 40
1.0
 40
1.0
 40
1.0
 40
1.0
 10
144.904371817
 20
164.2739071074
 30
0.0
 10
144.6672034033
 20
164.6665653716
 30
0.0
 10
144.1604937563
 20
165.4210730901
 30
0.0
 10
143.3074216018
 20
166.4540991607
 30
0.0
 10
142.3885688984
 20
167.3545789339
 30
0.0
 10
141.7257770006
 20
167.8678064674
 30
0.0
 10
141.3888766101
 20
168.0932286889
 30
0.0
  0
SPLINE
  5
41F
100
AcDbEntity
  8
_1
100
AcDbSpline
 62
7
  6
CONTINUOUS
 70
0
 71
3
 72
11
 73
7
 74
0
 42
0.0000001
 43
0.0000001
 44
0.0000000001
 40
0.0
 40
0.0
 40
0.0
 40
0.0
 40
0.266523632
 40
0.5250121576
 40
0.7707751971
 40
1.0
 40
1.0
 40
1.0
 40
1.0
 10
144.9547061901
 20
164.827200937
 30
0.0
 10
144.7023065779
 20
165.2156353201
 30
0.0
 10
144.1666553302
 20
165.9566573544
 30
0.0
 10
143.2715527037
 20
166.9568210458
 30
0.0
 10
142.3179080105
 20
167.8070285586
 30
0.0
 10
141.6344314831
 20
168.2756750528
 30
0.0
 10
141.2893985823
 20
168.4748753844
 30
0.0
  0
SPLINE
  5
420
100
AcDbEntity
  8
_1
100
AcDbSpline
 62
7
  6
CONTINUOUS
 70
0
 71
3
 72
11
 73
7
 74
0
 42
0.0000001
 43
0.0000001
 44
0.0000000001
 40
0.0
 40
0.0
 40
0.0
 40
0.0
 40
0.2324318152
 40
0.4792821905
 40
0.7366606078
 40
1.0
 40
1.0
 40
1.0
 40
1.0
 10
141.3778340748
 20
168.1055685829
 30
0.0
 10
141.7157790622
 20
167.8807515601
 30
0.0
 10
142.3807706971
 20
167.3681667568
 30
0.0
 10
143.3027294197
 20
166.4675137679
 30
0.0
 10
144.1588411633
 20
165.4331775844
 30
0.0
 10
144.667318886
 20
164.6772563908
 30
0.0
 10
144.9053069063
 20
164.2837599731
 30
0.0
  0
SPLINE
  5
421
100
AcDbEntity
  8
_1
100
AcDbSpline
 62
7
  6
CONTINUOUS
 70
0
 71
3
 72
13
 73
9
 74
0
 42
0.0000001
 43
0.0000001
 44
0.0000000001
 40
0.0
 40
0.0
 40
0.0
 40
0.0
 40
0.1607748547
 40
0.2797659815
 40
0.3919134324
 40
0.5068178726
 40
0.7470738111
 40
1.0
 40
1.0
 40
1.0
 40
1.0
 10
141.2893985823
 20
168.4748753844
 30
0.0
 10
141.2690582273
 20
168.463131945
 30
0.0
 10
141.23538877
 20
168.4349375097
 30
0.0
 10
141.2222481306
 20
168.3765571952
 30
0.0
 10
141.2307967213
 20
168.3260399684
 30
0.0
 10
141.2581640609
 20
168.26314945
 30
0.0
 10
141.3066041349
 20
168.1881854324
 30
0.0
 10
141.3530903098
 20
168.1330089972
 30
0.0
 10
141.3778340733
 20
168.1055685845
 30
0.0
  0
SPLINE
  5
422
100
AcDbEntity
  8
_1
100
AcDbSpline
 62
7
  6
CONTINUOUS
 70
0
 71
3
 72
18
 73
14
 74
0
 42
0.0000001
 43
0.0000001
 44
0.0000000001
 40
0.0
 40
0.0
 40
0.0
 40
0.0
 40
0.128655269
 40
0.2702043903
 40
0.4173187262
 40
0.5616284349
 40
0.6952658342
 40
0.7562722468
 40
0.812763492
 40
0.8647148092
 40
0.9125358752
 40
0.9571525633
 40
1.0
 40
1.0
 40
1.0
 40
1.0
 10
111.9485893522
 20
160.1490174451
 30
0.0
 10
112.2261805608
 20
159.9887537117
 30
0.0
 10
112.8546936579
 20
159.7294476068
 30
0.0
 10
113.8789731949
 20
159.5244808301
 30
0.0
 10
114.9625673363
 20
159.4945506245
 30
0.0
 10
116.016061681
 20
159.6424718483
 30
0.0
 10
116.8234446526
 20
159.9121194661
 30
0.0
 10
117.3744429109
 20
160.2116687242
 30
0.0
 10
117.7164753619
 20
160.4616371228
 30
0.0
 10
117.9925143204
 20
160.7388056225
 30
0.0
 10
118.1961777425
 20
161.0383577037
 30
0.0
 10
118.3216466813
 20
161.3543493895
 30
0.0
 10
118.3502244689
 20
161.5731825292
 30
0.0
 10
118.3502138895
 20
161.6799330215
 30
0.0
  0
SPLINE
  5
423
100
AcDbEntity
  8
_1
100
AcDbSpline
 62
7
  6
CONTINUOUS
 70
0
 71
3
 72
9
 73
5
 74
0
 42
0.0000001
 43
0.0000001
 44
0.0000000001
 40
0.0
 40
0.0
 40
0.0
 40
0.0
 40
0.4936772407
 40
1.0
 40
1.0
 40
1.0
 40
1.0
 10
121.8263771799
 20
142.9259448156
 30
0.0
 10
121.6117123132
 20
142.8715785016
 30
0.0
 10
121.1664708976
 20
142.8004179572
 30
0.0
 10
120.7158937015
 20
142.7996526683
 30
0.0
 10
120.4894583068
 20
142.8172035317
 30
0.0
  0
SPLINE
  5
424
100
AcDbEntity
  8
_1
100
AcDbSpline
 62
7
  6
CONTINUOUS
 70
0
 71
3
 72
11
 73
7
 74
0
 42
0.0000001
 43
0.0000001
 44
0.0000000001
 40
0.0
 40
0.0
 40
0.0
 40
0.0
 40
0.2350277529
 40
0.4952388068
 40
0.7580162956
 40
1.0
 40
1.0
 40
1.0
 40
1.0
 10
104.0480755824
 20
136.5228676794
 30
0.0
 10
103.9530402383
 20
136.4679993254
 30
0.0
 10
103.7330852712
 20
136.3861256801
 30
0.0
 10
103.3795442211
 20
136.341564199
 30
0.0
 10
103.0211273852
 20
136.3706188248
 30
0.0
 10
102.7932364995
 20
136.4419855205
 30
0.0
 10
102.6918821462
 20
136.4919145548
 30
0.0
  0
SPLINE
  5
425
100
AcDbEntity
  8
_1
100
AcDbSpline
 62
7
  6
CONTINUOUS
 70
0
 71
3
 72
11
 73
7
 74
0
 42
0.0000001
 43
0.0000001
 44
0.0000000001
 40
0.0
 40
0.0
 40
0.0
 40
0.0
 40
0.2419839057
 40
0.5047614636
 40
0.7649724444
 40
1.0
 40
1.0
 40
1.0
 40
1.0
 10
102.6918821462
 20
138.1249193891
 30
0.0
 10
102.7932365839
 20
138.0749903132
 30
0.0
 10
103.0211276045
 20
138.0036236051
 30
0.0
 10
103.3795445382
 20
137.9745690401
 30
0.0
 10
103.7330854863
 20
138.0191305784
 30
0.0
 10
103.9530403181
 20
138.1010042058
 30
0.0
 10
104.0480755824
 20
138.1558725137
 30
0.0
  0
SPLINE
  5
426
100
AcDbEntity
  8
_1
100
AcDbSpline
 62
7
  6
CONTINUOUS
 70
0
 71
3
 72
11
 73
7
 74
0
 42
0.0000001
 43
0.0000001
 44
0.0000000001
 40
0.0
 40
0.0
 40
0.0
 40
0.0
 40
0.2665179077
 40
0.5245281474
 40
0.770084549
 40
1.0
 40
1.0
 40
1.0
 40
1.0
 10
105.0537461285
 20
138.7364932084
 30
0.0
 10
104.3973833802
 20
138.7906462411
 30
0.0
 10
103.1096481073
 20
138.9572417792
 30
0.0
 10
101.252214807
 20
139.3855643007
 30
0.0
 10
99.5358203713
 20
139.9787902389
 30
0.0
 10
98.475318921
 20
140.4935694982
 30
0.0
 10
97.9832885672
 20
140.7776369289
 30
0.0
  0
SPLINE
  5
427
100
AcDbEntity
  8
_1
100
AcDbSpline
 62
7
  6
CONTINUOUS
 70
0
 71
3
 72
11
 73
7
 74
0
 42
0.0000001
 43
0.0000001
 44
0.0000000001
 40
0.0
 40
0.0
 40
0.0
 40
0.0
 40
0.2840966143
 40
0.5436708971
 40
0.7806012795
 40
1.0
 40
1.0
 40
1.0
 40
1.0
 10
97.9832885672
 20
140.7776369289
 30
0.0
 10
97.5292055008
 20
141.0397959787
 30
0.0
 10
96.6916059348
 20
141.6001061319
 30
0.0
 10
95.6354735066
 20
142.5912106325
 30
0.0
 10
94.8624923153
 20
143.6747861652
 30
0.0
 10
94.5451104863
 20
144.4666343005
 30
0.0
 10
94.4478145218
 20
144.8596921513
 30
0.0
  0
SPLINE
  5
428
100
AcDbEntity
  8
_1
100
AcDbSpline
 62
7
  6
CONTINUOUS
 70
0
 71
3
 72
9
 73
5
 74
0
 42
0.0000001
 43
0.0000001
 44
0.0000000001
 40
0.0
 40
0.0
 40
0.0
 40
0.0
 40
0.5063223386
 40
1.0
 40
1.0
 40
1.0
 40
1.0
 10
93.154744401
 20
142.8171385256
 30
0.0
 10
92.9283076274
 20
142.7995859639
 30
0.0
 10
92.477727035
 20
142.8003484517
 30
0.0
 10
92.0324818927
 20
142.8715070742
 30
0.0
 10
91.8178149484
 20
142.9258726838
 30
0.0
  0
SPLINE
  5
429
100
AcDbEntity
  8
_1
100
AcDbSpline
 62
7
  6
CONTINUOUS
 70
0
 71
3
 72
11
 73
7
 74
0
 42
0.0000001
 43
0.0000001
 44
0.0000000001
 40
0.0
 40
0.0
 40
0.0
 40
0.0
 40
0.2848094484
 40
0.5427475259
 40
0.7778442032
 40
1.0
 40
1.0
 40
1.0
 40
1.0
 10
93.3885421175
 20
141.8630789128
 30
0.0
 10
93.3522313721
 20
141.8876476825
 30
0.0
 10
93.2865225905
 20
141.9400835649
 30
0.0
 10
93.2089333324
 20
142.0325526653
 30
0.0
 10
93.1604328838
 20
142.1328320096
 30
0.0
 10
93.1492829528
 20
142.2036285823
 30
0.0
 10
93.149295189
 20
142.2378257877
 30
0.0
  0
SPLINE
  5
42A
100
AcDbEntity
  8
_1
100
AcDbSpline
 62
7
  6
CONTINUOUS
 70
0
 71
3
 72
14
 73
10
 74
0
 42
0.0000001
 43
0.0000001
 44
0.0000000001
 40
0.0
 40
0.0
 40
0.0
 40
0.0
 40
0.1719546446
 40
0.31186943
 40
0.4301428336
 40
0.5396197001
 40
0.6486849201
 40
0.760955824
 40
1.0
 40
1.0
 40
1.0
 40
1.0
 10
127.7943019324
 20
175.6019480929
 30
0.0
 10
127.8138763351
 20
175.6132493121
 30
0.0
 10
127.8475715476
 20
175.6374059616
 30
0.0
 10
127.8834214686
 20
175.6823059812
 30
0.0
 10
127.8993729259
 20
175.7289826767
 30
0.0
 10
127.8990774691
 20
175.7738928155
 30
0.0
 10
127.8880260941
 20
175.8162744292
 30
0.0
 10
127.8620595
 20
175.8712317568
 30
0.0
 10
127.8332338411
 20
175.9079568901
 30
0.0
 10
127.8123698873
 20
175.9314511756
 30
0.0
  0
SPLINE
  5
42B
100
AcDbEntity
  8
_1
100
AcDbSpline
 62
7
  6
CONTINUOUS
 70
0
 71
3
 72
9
 73
5
 74
0
 42
0.0000001
 43
0.0000001
 44
0.0000000001
 40
0.0
 40
0.0
 40
0.0
 40
0.0
 40
0.2358725936
 40
1.0
 40
1.0
 40
1.0
 40
1.0
 10
131.3090706298
 20
171.7888535907
 30
0.0
 10
131.297485842
 20
171.7859803921
 30
0.0
 10
131.2488575377
 20
171.7718443695
 30
0.0
 10
131.2025865127
 20
171.7501666678
 30
0.0
 10
131.1690999962
 20
171.7308333339
 30
0.0
  0
SPLINE
  5
42C
100
AcDbEntity
  8
_1
100
AcDbSpline
 62
7
  6
CONTINUOUS
 70
0
 71
3
 72
11
 73
7
 74
0
 42
0.0000001
 43
0.0000001
 44
0.0000000001
 40
0.0
 40
0.0
 40
0.0
 40
0.0
 40
0.2632066944
 40
0.5205204847
 40
0.7674131962
 40
1.0
 40
1.0
 40
1.0
 40
1.0
 10
131.3278650941
 20
172.1121295942
 30
0.0
 10
131.0906966805
 20
172.5047878584
 30
0.0
 10
130.5839870334
 20
173.2592955769
 30
0.0
 10
129.730914879
 20
174.2923216474
 30
0.0
 10
128.8120621756
 20
175.1928014207
 30
0.0
 10
128.1492702778
 20
175.7060289542
 30
0.0
 10
127.8123698873
 20
175.9314511756
 30
0.0
  0
SPLINE
  5
42D
100
AcDbEntity
  8
_1
100
AcDbSpline
 62
7
  6
CONTINUOUS
 70
0
 71
3
 72
11
 73
7
 74
0
 42
0.0000001
 43
0.0000001
 44
0.0000000001
 40
0.0
 40
0.0
 40
0.0
 40
0.0
 40
0.2349420801
 40
0.4825075335
 40
0.7389475396
 40
1.0
 40
1.0
 40
1.0
 40
1.0
 10
127.7943019324
 20
175.6019480929
 30
0.0
 10
128.1205814133
 20
175.3623949514
 30
0.0
 10
128.7599411907
 20
174.8276324229
 30
0.0
 10
129.6438298648
 20
173.908406222
 30
0.0
 10
130.4598975909
 20
172.870766205
 30
0.0
 10
130.9433842173
 20
172.1198549019
 30
0.0
 10
131.1690999962
 20
171.7308333339
 30
0.0
  0
SPLINE
  5
42E
100
AcDbEntity
  8
_1
100
AcDbSpline
 62
7
  6
CONTINUOUS
 70
0
 71
3
 72
11
 73
7
 74
0
 42
0.0000001
 43
0.0000001
 44
0.0000000001
 40
0.0
 40
0.0
 40
0.0
 40
0.0
 40
0.266523632
 40
0.5250121576
 40
0.7707751971
 40
1.0
 40
1.0
 40
1.0
 40
1.0
 10
131.3781994673
 20
172.6654234238
 30
0.0
 10
131.1257998551
 20
173.0538578069
 30
0.0
 10
130.5901486073
 20
173.7948798412
 30
0.0
 10
129.6950459808
 20
174.7950435326
 30
0.0
 10
128.7414012877
 20
175.6452510454
 30
0.0
 10
128.0579247602
 20
176.1138975396
 30
0.0
 10
127.7128918595
 20
176.3130978712
 30
0.0
  0
SPLINE
  5
42F
100
AcDbEntity
  8
_1
100
AcDbSpline
 62
7
  6
CONTINUOUS
 70
0
 71
3
 72
11
 73
7
 74
0
 42
0.0000001
 43
0.0000001
 44
0.0000000001
 40
0.0
 40
0.0
 40
0.0
 40
0.0
 40
0.2324318152
 40
0.4792821905
 40
0.7366606078
 40
1.0
 40
1.0
 40
1.0
 40
1.0
 10
127.801327352
 20
175.9437910697
 30
0.0
 10
128.1392723394
 20
175.7189740469
 30
0.0
 10
128.8042639743
 20
175.2063892436
 30
0.0
 10
129.7262226969
 20
174.3057362547
 30
0.0
 10
130.5823344405
 20
173.2714000712
 30
0.0
 10
131.0908121631
 20
172.5154788775
 30
0.0
 10
131.3288001834
 20
172.1219824599
 30
0.0
  0
SPLINE
  5
430
100
AcDbEntity
  8
_1
100
AcDbSpline
 62
7
  6
CONTINUOUS
 70
0
 71
3
 72
13
 73
9
 74
0
 42
0.0000001
 43
0.0000001
 44
0.0000000001
 40
0.0
 40
0.0
 40
0.0
 40
0.0
 40
0.1607748547
 40
0.2797659815
 40
0.3919134324
 40
0.5068178726
 40
0.7470738111
 40
1.0
 40
1.0
 40
1.0
 40
1.0
 10
127.7128918595
 20
176.3130978712
 30
0.0
 10
127.6925515044
 20
176.3013544318
 30
0.0
 10
127.6588820472
 20
176.2731599965
 30
0.0
 10
127.6457414078
 20
176.214779682
 30
0.0
 10
127.6542899985
 20
176.1642624552
 30
0.0
 10
127.6816573381
 20
176.1013719368
 30
0.0
 10
127.7300974121
 20
176.0264079192
 30
0.0
 10
127.776583587
 20
175.971231484
 30
0.0
 10
127.8013273505
 20
175.9437910713
 30
0.0
  0
SPLINE
  5
431
100
AcDbEntity
  8
_1
100
AcDbSpline
 62
7
  6
CONTINUOUS
 70
0
 71
3
 72
9
 73
5
 74
0
 42
0.0000001
 43
0.0000001
 44
0.0000000001
 40
0.0
 40
0.0
 40
0.0
 40
0.0
 40
0.21469985
 40
1.0
 40
1.0
 40
1.0
 40
1.0
 10
131.3278650941
 20
172.1121295942
 30
0.0
 10
131.3256942802
 20
172.0890547994
 30
0.0
 10
131.3170477084
 20
171.9814433911
 30
0.0
 10
131.3121734131
 20
171.8735693299
 30
0.0
 10
131.3090706298
 20
171.7888535907
 30
0.0
  0
SPLINE
  5
432
100
AcDbEntity
  8
_1
100
AcDbSpline
 62
7
  6
CONTINUOUS
 70
0
 71
3
 72
9
 73
5
 74
0
 42
0.0000001
 43
0.0000001
 44
0.0000000001
 40
0.0
 40
0.0
 40
0.0
 40
0.0
 40
0.2788992422
 40
1.0
 40
1.0
 40
1.0
 40
1.0
 10
131.3781994673
 20
172.6654234238
 30
0.0
 10
131.373584845
 20
172.6149036842
 30
0.0
 10
131.3570374827
 20
172.4337643347
 30
0.0
 10
131.3413000304
 20
172.2525492834
 30
0.0
 10
131.3288001834
 20
172.1219824599
 30
0.0
  0
SPLINE
  5
433
100
AcDbEntity
  8
_1
100
AcDbSpline
 62
7
  6
CONTINUOUS
 70
0
 71
3
 72
11
 73
7
 74
0
 42
0.0000001
 43
0.0000001
 44
0.0000000001
 40
0.0
 40
0.0
 40
0.0
 40
0.0
 40
0.2327695464
 40
0.4718356604
 40
0.7252798503
 40
1.0
 40
1.0
 40
1.0
 40
1.0
 10
133.1751254564
 20
177.7621712844
 30
0.0
 10
132.9221466961
 20
177.4211605489
 30
0.0
 10
132.4579758309
 20
176.6919793385
 30
0.0
 10
131.9238560729
 20
175.4761427573
 30
0.0
 10
131.5558001318
 20
174.121174027
 30
0.0
 10
131.4237839302
 20
173.1644708143
 30
0.0
 10
131.3781994673
 20
172.6654234238
 30
0.0
  0
SPLINE
  5
434
100
AcDbEntity
  8
_1
100
AcDbSpline
 62
7
  6
CONTINUOUS
 70
0
 71
3
 72
9
 73
5
 74
0
 42
0.0000001
 43
0.0000001
 44
0.0000000001
 40
0.0
 40
0.0
 40
0.0
 40
0.0
 40
0.257496431
 40
1.0
 40
1.0
 40
1.0
 40
1.0
 10
131.3090706298
 20
170.8699390663
 30
0.0
 10
131.3132816185
 20
171.0208688395
 30
0.0
 10
131.3346143878
 20
171.6068262351
 30
0.0
 10
131.3784311392
 20
172.192246061
 30
0.0
 10
131.4296137987
 20
172.6246098834
 30
0.0
  0
SPLINE
  5
435
100
AcDbEntity
  8
_1
100
AcDbSpline
 62
7
  6
CONTINUOUS
 70
0
 71
3
 72
11
 73
7
 74
0
 42
0.0000001
 43
0.0000001
 44
0.0000000001
 40
0.0
 40
0.0
 40
0.0
 40
0.0
 40
0.2732771813
 40
0.5266892447
 40
0.7664980312
 40
1.0
 40
1.0
 40
1.0
 40
1.0
 10
131.4296137987
 20
172.6246098834
 30
0.0
 10
131.484077683
 20
173.0846917435
 30
0.0
 10
131.629814355
 20
173.9676934563
 30
0.0
 10
131.9972983452
 20
175.2180322965
 30
0.0
 10
132.5073581594
 20
176.3439600849
 30
0.0
 10
132.9404306397
 20
177.023031065
 30
0.0
 10
133.1751254564
 20
177.3418183208
 30
0.0
  0
SPLINE
  5
436
100
AcDbEntity
  8
_1
100
AcDbSpline
 62
7
  6
CONTINUOUS
 70
0
 71
3
 72
9
 73
5
 74
0
 42
0.0000001
 43
0.0000001
 44
0.0000000001
 40
0.0
 40
0.0
 40
0.0
 40
0.0
 40
0.505238579
 40
1.0
 40
1.0
 40
1.0
 40
1.0
 10
107.5173186804
 20
150.0381254927
 30
0.0
 10
108.091767321
 20
150.056025815
 30
0.0
 10
109.2282387019
 20
150.1167090066
 30
0.0
 10
110.3592540565
 20
150.2482574586
 30
0.0
 10
110.9153675324
 20
150.3348145332
 30
0.0
  0
SPLINE
  5
437
100
AcDbEntity
  8
_1
100
AcDbSpline
 62
7
  6
CONTINUOUS
 70
0
 71
3
 72
9
 73
5
 74
0
 42
0.0000001
 43
0.0000001
 44
0.0000000001
 40
0.0
 40
0.0
 40
0.0
 40
0.0
 40
0.2460150976
 40
1.0
 40
1.0
 40
1.0
 40
1.0
 10
103.7671579674
 20
150.0668228822
 30
0.0
 10
104.0745314313
 20
150.0558906985
 30
0.0
 10
105.3240458682
 20
150.0166672985
 30
0.0
 10
106.5751457486
 20
150.0087670362
 30
0.0
 10
107.5173195526
 20
150.0381259963
 30
0.0
  0
SPLINE
  5
438
100
AcDbEntity
  8
_1
100
AcDbSpline
 62
7
  6
CONTINUOUS
 70
0
 71
3
 72
9
 73
5
 74
0
 42
0.0000001
 43
0.0000001
 44
0.0000000001
 40
0.0
 40
0.0
 40
0.0
 40
0.0
 40
0.2574215209
 40
1.0
 40
1.0
 40
1.0
 40
1.0
 10
115.195348118
 20
140.2151280652
 30
0.0
 10
115.3233918422
 20
140.2782058424
 30
0.0
 10
115.8168917462
 20
140.531031671
 30
0.0
 10
116.29431466
 20
140.8157529617
 30
0.0
 10
116.6353356791
 20
141.0465003086
 30
0.0
  0
SPLINE
  5
439
100
AcDbEntity
  8
_1
100
AcDbSpline
 62
7
  6
CONTINUOUS
 70
0
 71
3
 72
15
 73
11
 74
0
 42
0.0000001
 43
0.0000001
 44
0.0000000001
 40
0.0
 40
0.0
 40
0.0
 40
0.0
 40
0.0970951724
 40
0.2022215798
 40
0.3162050479
 40
0.4390549559
 40
0.5701505197
 40
0.708364785
 40
0.8522397047
 40
1.0
 40
1.0
 40
1.0
 40
1.0
 10
118.7799981418
 20
143.778483707
 30
0.0
 10
118.6019577533
 20
143.4408392896
 30
0.0
 10
118.1536554426
 20
142.7769528794
 30
0.0
 10
117.2807895477
 20
141.8845447434
 30
0.0
 10
116.2023144115
 20
141.0743942245
 30
0.0
 10
114.9398379124
 20
140.3613608233
 30
0.0
 10
113.5178514934
 20
139.7582703834
 30
0.0
 10
111.9639829262
 20
139.2764789751
 30
0.0
 10
110.3088330113
 20
138.9254219905
 30
0.0
 10
109.1694515996
 20
138.7842683234
 30
0.0
 10
108.5905299744
 20
138.7365017098
 30
0.0
  0
SPLINE
  5
43A
100
AcDbEntity
  8
_1
100
AcDbSpline
 62
7
  6
CONTINUOUS
 70
0
 71
3
 72
11
 73
7
 74
0
 42
0.0000001
 43
0.0000001
 44
0.0000000001
 40
0.0
 40
0.0
 40
0.0
 40
0.0
 40
0.2350284792
 40
0.4952398098
 40
0.7580170347
 40
1.0
 40
1.0
 40
1.0
 40
1.0
 10
109.5962088945
 20
138.1558858498
 30
0.0
 10
109.691244946
 20
138.1010180011
 30
0.0
 10
109.9112008249
 20
138.019145451
 30
0.0
 10
110.2647424942
 20
137.9745855911
 30
0.0
 10
110.6231589226
 20
138.0036418622
 30
0.0
 10
110.8510490479
 20
138.0750096761
 30
0.0
 10
110.9524027771
 20
138.124939245
 30
0.0
  0
SPLINE
  5
43B
100
AcDbEntity
  8
_1
100
AcDbSpline
 62
7
  6
CONTINUOUS
 70
0
 71
3
 72
9
 73
5
 74
0
 42
0.0000001
 43
0.0000001
 44
0.0000000001
 40
0.0
 40
0.0
 40
0.0
 40
0.0
 40
0.5212833637
 40
1.0
 40
1.0
 40
1.0
 40
1.0
 10
114.2090587291
 20
142.2634556892
 30
0.0
 10
114.7537235248
 20
142.4938233689
 30
0.0
 10
115.7733110717
 20
142.9994806374
 30
0.0
 10
116.7099269201
 20
143.6498330662
 30
0.0
 10
117.1256439065
 20
143.9992959946
 30
0.0
  0
SPLINE
  5
43C
100
AcDbEntity
  8
_1
100
AcDbSpline
 62
7
  6
CONTINUOUS
 70
0
 71
3
 72
9
 73
5
 74
0
 42
0.0000001
 43
0.0000001
 44
0.0000000001
 40
0.0
 40
0.0
 40
0.0
 40
0.0
 40
0.4753351796
 40
1.0
 40
1.0
 40
1.0
 40
1.0
 10
108.5905299744
 20
140.941058236
 30
0.0
 10
108.5905299744
 20
140.9711745914
 30
0.0
 10
108.5779915231
 20
141.0344396734
 30
0.0
 10
108.5519563625
 20
141.0925695922
 30
0.0
 10
108.5357489709
 20
141.1215926358
 30
0.0
  0
SPLINE
  5
43D
100
AcDbEntity
  8
_1
100
AcDbSpline
 62
7
  6
CONTINUOUS
 70
0
 71
3
 72
13
 73
9
 74
0
 42
0.0000001
 43
0.0000001
 44
0.0000000001
 40
0.0
 40
0.0
 40
0.0
 40
0.0
 40
0.2370344215
 40
0.3668256619
 40
0.5000074942
 40
0.6331878644
 40
0.7629776499
 40
1.0
 40
1.0
 40
1.0
 40
1.0
 10
108.5191940293
 20
138.2060158864
 30
0.0
 10
108.277738252
 20
138.3442331358
 30
0.0
 10
107.8663048094
 20
138.4948477668
 30
0.0
 10
107.2874879966
 20
138.5944188075
 30
0.0
 10
106.8221130793
 20
138.6207599205
 30
0.0
 10
106.3567390237
 20
138.5944162991
 30
0.0
 10
105.7779450829
 20
138.4948235737
 30
0.0
 10
105.3665202637
 20
138.344230849
 30
0.0
 10
105.1250814796
 20
138.2060124342
 30
0.0
  0
SPLINE
  5
43E
100
AcDbEntity
  8
_1
100
AcDbSpline
 62
7
  6
CONTINUOUS
 70
0
 71
3
 72
10
 73
6
 74
0
 42
0.0000001
 43
0.0000001
 44
0.0000000001
 40
0.0
 40
0.0
 40
0.0
 40
0.0
 40
0.4994663668
 40
0.7492607194
 40
1.0
 40
1.0
 40
1.0
 40
1.0
 10
105.1250814796
 20
138.2060124336
 30
0.0
 10
105.0424835028
 20
138.1587269014
 30
0.0
 10
104.9188343642
 20
138.0873393722
 30
0.0
 10
104.7537009166
 20
137.9922615135
 30
0.0
 10
104.6710104288
 20
137.9447076642
 30
0.0
 10
104.6301087936
 20
137.9200109752
 30
0.0
  0
SPLINE
  5
43F
100
AcDbEntity
  8
_1
100
AcDbSpline
 62
7
  6
CONTINUOUS
 70
0
 71
3
 72
11
 73
7
 74
0
 42
0.0000001
 43
0.0000001
 44
0.0000000001
 40
0.0
 40
0.0
 40
0.0
 40
0.0
 40
0.2178552527
 40
0.4509850943
 40
0.7102423762
 40
1.0
 40
1.0
 40
1.0
 40
1.0
 10
104.3221608566
 20
137.2263794393
 30
0.0
 10
104.3221711863
 20
137.1311194086
 30
0.0
 10
104.3572596703
 20
136.932577631
 30
0.0
 10
104.5078194145
 20
136.6560910257
 30
0.0
 10
104.7455764082
 20
136.406030742
 30
0.0
 10
104.9446884001
 20
136.2691111563
 30
0.0
 10
105.0543852269
 20
136.2057111111
 30
0.0
  0
SPLINE
  5
440
100
AcDbEntity
  8
_1
100
AcDbSpline
 62
7
  6
CONTINUOUS
 70
0
 71
3
 72
17
 73
13
 74
0
 42
0.0000001
 43
0.0000001
 44
0.0000000001
 40
0.0
 40
0.0
 40
0.0
 40
0.0
 40
0.1286958482
 40
0.2702594782
 40
0.4173845995
 40
0.5617119607
 40
0.6953822199
 40
0.8126590522
 40
0.8646316105
 40
0.9124678055
 40
0.9571162628
 40
1.0
 40
1.0
 40
1.0
 40
1.0
 10
105.0543852269
 20
136.2057111111
 30
0.0
 10
105.2394095583
 20
136.0987750099
 30
0.0
 10
105.6584864321
 20
135.9260751715
 30
0.0
 10
106.3412670708
 20
135.7893717822
 30
0.0
 10
107.0634571262
 20
135.7693795629
 30
0.0
 10
107.7661177749
 20
135.8680803219
 30
0.0
 10
108.3923435004
 20
136.0771837183
 30
0.0
 10
108.8279177985
 20
136.3422763558
 30
0.0
 10
109.083575996
 20
136.5987864202
 30
0.0
 10
109.219395127
 20
136.7985310113
 30
0.0
 10
109.3031285058
 20
137.0092567112
 30
0.0
 10
109.3221136266
 20
137.1552310084
 30
0.0
 10
109.3221276965
 20
137.2264409148
 30
0.0
  0
SPLINE
  5
441
100
AcDbEntity
  8
_1
100
AcDbSpline
 62
7
  6
CONTINUOUS
 70
0
 71
3
 72
10
 73
6
 74
0
 42
0.0000001
 43
0.0000001
 44
0.0000000001
 40
0.0
 40
0.0
 40
0.0
 40
0.0
 40
0.2507505568
 40
0.5005414791
 40
1.0
 40
1.0
 40
1.0
 40
1.0
 10
109.0141708369
 20
137.9200099645
 30
0.0
 10
108.9732729566
 20
137.9447179774
 30
0.0
 10
108.8905807089
 20
137.9922742126
 30
0.0
 10
108.7254425874
 20
138.0873476402
 30
0.0
 10
108.6017931648
 20
138.1587334167
 30
0.0
 10
108.5191940293
 20
138.2060158858
 30
0.0
  0
SPLINE
  5
442
100
AcDbEntity
  8
_1
100
AcDbSpline
 62
7
  6
CONTINUOUS
 70
0
 71
3
 72
9
 73
5
 74
0
 42
0.0000001
 43
0.0000001
 44
0.0000000001
 40
0.0
 40
0.0
 40
0.0
 40
0.0
 40
0.5246271223
 40
1.0
 40
1.0
 40
1.0
 40
1.0
 10
105.1095573991
 20
141.1234161741
 30
0.0
 10
105.0930642109
 20
141.0941382667
 30
0.0
 10
105.0665781923
 20
141.0354459421
 30
0.0
 10
105.0537461285
 20
140.9714987432
 30
0.0
 10
105.0537461285
 20
140.9410497346
 30
0.0
  0
SPLINE
  5
443
100
AcDbEntity
  8
_1
100
AcDbSpline
 62
7
  6
CONTINUOUS
 70
0
 71
3
 72
9
 73
5
 74
0
 42
0.0000001
 43
0.0000001
 44
0.0000000001
 40
0.0
 40
0.0
 40
0.0
 40
0.0
 40
0.2420585879
 40
1.0
 40
1.0
 40
1.0
 40
1.0
 10
99.7384059794
 20
142.1391399039
 30
0.0
 10
99.9706001291
 20
142.0469389346
 30
0.0
 10
100.9392521653
 20
141.6899110938
 30
0.0
 10
101.9410351741
 20
141.4248936972
 30
0.0
 10
102.7079360631
 20
141.2705593436
 30
0.0
  0
SPLINE
  5
444
100
AcDbEntity
  8
_1
100
AcDbSpline
 62
7
  6
CONTINUOUS
 70
0
 71
3
 72
10
 73
6
 74
0
 42
0.0000001
 43
0.0000001
 44
0.0000000001
 40
0.0
 40
0.0
 40
0.0
 40
0.0
 40
0.2280023333
 40
0.4759572438
 40
1.0
 40
1.0
 40
1.0
 40
1.0
 10
91.0543269395
 20
144.2884656387
 30
0.0
 10
91.1965436648
 20
144.206446813
 30
0.0
 10
91.5113558744
 20
144.0653717846
 30
0.0
 10
92.208648705
 20
143.878916548
 30
0.0
 10
92.7726735923
 20
143.8498041206
 30
0.0
 10
93.1489644836
 20
143.8778711205
 30
0.0
  0
SPLINE
  5
445
100
AcDbEntity
  8
_1
100
AcDbSpline
 62
7
  6
CONTINUOUS
 70
0
 71
3
 72
9
 73
5
 74
0
 42
0.0000001
 43
0.0000001
 44
0.0000000001
 40
0.0
 40
0.0
 40
0.0
 40
0.0
 40
0.5004347968
 40
1.0
 40
1.0
 40
1.0
 40
1.0
 10
94.4478147725
 20
146.330267884
 30
0.0
 10
94.3772998837
 20
146.3712469584
 30
0.0
 10
94.235836054
 20
146.4521563611
 30
0.0
 10
94.0954707249
 20
146.5350299837
 30
0.0
 10
94.0241589342
 20
146.5743131341
 30
0.0
  0
SPLINE
  5
446
100
AcDbEntity
  8
_1
100
AcDbSpline
 62
7
  6
CONTINUOUS
 70
0
 71
3
 72
9
 73
5
 74
0
 42
0.0000001
 43
0.0000001
 44
0.0000000001
 40
0.0
 40
0.0
 40
0.0
 40
0.0
 40
0.5118600839
 40
1.0
 40
1.0
 40
1.0
 40
1.0
 10
93.9191284285
 20
150.6094252062
 30
0.0
 10
93.8825205228
 20
150.5950004874
 30
0.0
 10
93.8145885468
 20
150.5557274329
 30
0.0
 10
93.7644823406
 20
150.4948282985
 30
0.0
 10
93.746493505
 20
150.4618973682
 30
0.0
  0
SPLINE
  5
447
100
AcDbEntity
  8
_1
100
AcDbSpline
 62
7
  6
CONTINUOUS
 70
0
 71
3
 72
17
 73
13
 74
0
 42
0.0000001
 43
0.0000001
 44
0.0000000001
 40
0.0
 40
0.0
 40
0.0
 40
0.0
 40
0.1291840354
 40
0.2711105016
 40
0.4193983039
 40
0.5657914767
 40
0.7016202929
 40
0.8196366658
 40
0.8709595372
 40
0.9173340353
 40
0.959774581
 40
1.0
 40
1.0
 40
1.0
 40
1.0
 10
137.2276080568
 20
167.1912666714
 30
0.0
 10
137.0802570258
 20
167.2763379043
 30
0.0
 10
136.7442521549
 20
167.4095504792
 30
0.0
 10
136.1961859199
 20
167.499749514
 30
0.0
 10
135.6184095879
 20
167.4910327259
 30
0.0
 10
135.0577666815
 20
167.3904349556
 30
0.0
 10
134.5593031387
 20
167.2117802052
 30
0.0
 10
134.2110959418
 20
167.0021010854
 30
0.0
 10
134.0052202893
 20
166.804596322
 30
0.0
 10
133.8963661934
 20
166.6539970113
 30
0.0
 10
133.8288535751
 20
166.4962845395
 30
0.0
 10
133.8134159769
 20
166.3868909706
 30
0.0
 10
133.8134065142
 20
166.3339109877
 30
0.0
  0
SPLINE
  5
448
100
AcDbEntity
  8
_1
100
AcDbSpline
 62
7
  6
CONTINUOUS
 70
0
 71
3
 72
15
 73
11
 74
0
 42
0.0000001
 43
0.0000001
 44
0.0000000001
 40
0.0
 40
0.0
 40
0.0
 40
0.0
 40
0.123543881
 40
0.2587846764
 40
0.4003412867
 40
0.5418664738
 40
0.6770467406
 40
0.7405801802
 40
0.800642699
 40
1.0
 40
1.0
 40
1.0
 40
1.0
 10
137.2276080568
 20
166.7830154629
 30
0.0
 10
137.096661718
 20
166.8586156565
 30
0.0
 10
136.8033253666
 20
166.984706562
 30
0.0
 10
136.3242058782
 20
167.096213144
 30
0.0
 10
135.8116259617
 20
167.134120823
 30
0.0
 10
135.2992597191
 20
167.0956836999
 30
0.0
 10
134.891932608
 20
167.000498933
 30
0.0
 10
134.5954064341
 20
166.8864522323
 30
0.0
 10
134.2441089775
 20
166.7098989353
 30
0.0
 10
133.9823209186
 20
166.4844329491
 30
0.0
 10
133.880363392
 20
166.2627675481
 30
0.0
  0
SPLINE
  5
449
100
AcDbEntity
  8
_1
100
AcDbSpline
 62
7
  6
CONTINUOUS
 70
0
 71
3
 72
14
 73
10
 74
0
 42
0.0000001
 43
0.0000001
 44
0.0000000001
 40
0.0
 40
0.0
 40
0.0
 40
0.0
 40
0.100178005
 40
0.2072428113
 40
0.3218072419
 40
0.4440687611
 40
0.5737654461
 40
0.7102876626
 40
1.0
 40
1.0
 40
1.0
 40
1.0
 10
94.5475132076
 20
154.857541772
 30
0.0
 10
94.7085530463
 20
154.5699320013
 30
0.0
 10
95.0951038476
 20
154.0038273201
 30
0.0
 10
95.8195963418
 20
153.2271375024
 30
0.0
 10
96.6958454765
 20
152.5065747749
 30
0.0
 10
97.7111769534
 20
151.8515119801
 30
0.0
 10
98.8519835531
 20
151.2703291013
 30
0.0
 10
100.5523543555
 20
150.5910492954
 30
0.0
 10
101.917121028
 20
150.236666166
 30
0.0
 10
102.8542107043
 20
150.0617762309
 30
0.0
  0
SPLINE
  5
44A
100
AcDbEntity
  8
_1
100
AcDbSpline
 62
7
  6
CONTINUOUS
 70
0
 71
3
 72
9
 73
5
 74
0
 42
0.0000001
 43
0.0000001
 44
0.0000000001
 40
0.0
 40
0.0
 40
0.0
 40
0.0
 40
0.2604598033
 40
1.0
 40
1.0
 40
1.0
 40
1.0
 10
114.3289137878
 20
142.7778718448
 30
0.0
 10
114.5069865738
 20
142.8581275271
 30
0.0
 10
115.1838863088
 20
143.1808238646
 30
0.0
 10
115.8330144006
 20
143.5638469091
 30
0.0
 10
116.2853188476
 20
143.8847717
 30
0.0
  0
SPLINE
  5
44B
100
AcDbEntity
  8
_1
100
AcDbSpline
 62
7
  6
CONTINUOUS
 70
0
 71
3
 72
12
 73
8
 74
0
 42
0.0000001
 43
0.0000001
 44
0.0000000001
 40
0.0
 40
0.0
 40
0.0
 40
0.0
 40
0.289572783
 40
0.5486441711
 40
0.781639023
 40
0.8918405879
 40
1.0
 40
1.0
 40
1.0
 40
1.0
 10
117.4286440906
 20
163.2720845167
 30
0.0
 10
117.6042170157
 20
163.1707197344
 30
0.0
 10
117.9226933194
 20
162.9513683395
 30
0.0
 10
118.3031964031
 20
162.5517431643
 30
0.0
 10
118.5074675891
 20
162.1751423935
 30
0.0
 10
118.5870493349
 20
161.8680253707
 30
0.0
 10
118.6002073983
 20
161.7148314614
 30
0.0
 10
118.6002150627
 20
161.6391078997
 30
0.0
  0
SPLINE
  5
44C
100
AcDbEntity
  8
_1
100
AcDbSpline
 62
7
  6
CONTINUOUS
 70
0
 71
3
 72
11
 73
7
 74
0
 42
0.0000001
 43
0.0000001
 44
0.0000000001
 40
0.0
 40
0.0
 40
0.0
 40
0.0
 40
0.2177467144
 40
0.4508752365
 40
0.7101798094
 40
1.0
 40
1.0
 40
1.0
 40
1.0
 10
90.3220958842
 20
145.3090955516
 30
0.0
 10
90.322102316
 20
145.2138876798
 30
0.0
 10
90.3572373947
 20
145.0154182655
 30
0.0
 10
90.5077187456
 20
144.7389381414
 30
0.0
 10
90.7455265969
 20
144.4889040798
 30
0.0
 10
90.9445529257
 20
144.3517741961
 30
0.0
 10
91.0543269395
 20
144.2884656387
 30
0.0
  0
SPLINE
  5
44D
100
AcDbEntity
  8
_1
100
AcDbSpline
 62
7
  6
CONTINUOUS
 70
0
 71
3
 72
15
 73
11
 74
0
 42
0.0000001
 43
0.0000001
 44
0.0000000001
 40
0.0
 40
0.0
 40
0.0
 40
0.0
 40
0.1120187874
 40
0.2292655559
 40
0.3567677607
 40
0.4927071465
 40
0.6307897961
 40
0.7630292425
 40
0.8854761583
 40
1.0
 40
1.0
 40
1.0
 40
1.0
 10
123.7263634793
 20
152.4182838818
 30
0.0
 10
123.6992726681
 20
152.402643088
 30
0.0
 10
123.6507676397
 20
152.3567179107
 30
0.0
 10
123.6158553747
 20
152.2599885315
 30
0.0
 10
123.623114689
 20
152.1514723397
 30
0.0
 10
123.6671578865
 20
152.0462281545
 30
0.0
 10
123.7436177396
 20
151.9597688044
 30
0.0
 10
123.8401462568
 20
151.9032869955
 30
0.0
 10
123.9447442679
 20
151.8869620983
 30
0.0
 10
124.0109042511
 20
151.906212177
 30
0.0
 10
124.0386008889
 20
151.9222027428
 30
0.0
  0
SPLINE
  5
44E
100
AcDbEntity
  8
_1
100
AcDbSpline
 62
7
  6
CONTINUOUS
 70
0
 71
3
 72
11
 73
7
 74
0
 42
0.0000001
 43
0.0000001
 44
0.0000000001
 40
0.0
 40
0.0
 40
0.0
 40
0.0
 40
0.2368476818
 40
0.4931782071
 40
0.7531360043
 40
1.0
 40
1.0
 40
1.0
 40
1.0
 10
124.0386008889
 20
151.9222027428
 30
0.0
 10
123.9995479578
 20
151.9489097002
 30
0.0
 10
123.9253116579
 20
152.0151010701
 30
0.0
 10
123.8338866681
 20
152.1355346253
 30
0.0
 10
123.7641032496
 20
152.2719179867
 30
0.0
 10
123.7349661714
 20
152.3697275875
 30
0.0
 10
123.7263634793
 20
152.4182838818
 30
0.0
  0
SPLINE
  5
44F
100
AcDbEntity
  8
_1
100
AcDbSpline
 62
7
  6
CONTINUOUS
 70
0
 71
3
 72
11
 73
7
 74
0
 42
0.0000001
 43
0.0000001
 44
0.0000000001
 40
0.0
 40
0.0
 40
0.0
 40
0.0
 40
0.2468139738
 40
0.5067097693
 40
0.7631035035
 40
1.0
 40
1.0
 40
1.0
 40
1.0
 10
141.4039594097
 20
162.6243877286
 30
0.0
 10
141.4125603582
 20
162.5758412757
 30
0.0
 10
141.4416874755
 20
162.4780525353
 30
0.0
 10
141.511459849
 20
162.3416747551
 30
0.0
 10
141.6028850323
 20
162.221228559
 30
0.0
 10
141.6771358412
 20
162.15501905
 30
0.0
 10
141.7161968192
 20
162.1283065896
 30
0.0
  0
SPLINE
  5
450
100
AcDbEntity
  8
_1
100
AcDbSpline
 62
7
  6
CONTINUOUS
 70
0
 71
3
 72
15
 73
11
 74
0
 42
0.0000001
 43
0.0000001
 44
0.0000000001
 40
0.0
 40
0.0
 40
0.0
 40
0.0
 40
0.1125879611
 40
0.2313741924
 40
0.3594779183
 40
0.4949244251
 40
0.6316848003
 40
0.7635245117
 40
0.8860629988
 40
1.0
 40
1.0
 40
1.0
 40
1.0
 10
141.7161968192
 20
162.1283065896
 30
0.0
 10
141.7436456752
 20
162.1441540994
 30
0.0
 10
141.7927649079
 20
162.1910582043
 30
0.0
 10
141.828854671
 20
162.2888641377
 30
0.0
 10
141.8234143401
 20
162.3988548372
 30
0.0
 10
141.7794138009
 20
162.5050191959
 30
0.0
 10
141.7015321613
 20
162.5907945247
 30
0.0
 10
141.6034379335
 20
162.6455476917
 30
0.0
 10
141.4980935952
 20
162.6598971194
 30
0.0
 10
141.4317371606
 20
162.6404251248
 30
0.0
 10
141.4039594097
 20
162.6243877286
 30
0.0
  0
SPLINE
  5
451
100
AcDbEntity
  8
_1
100
AcDbSpline
 62
7
  6
CONTINUOUS
 70
0
 71
3
 72
26
 73
22
 74
0
 42
0.0000001
 43
0.0000001
 44
0.0000000001
 40
0.0
 40
0.0
 40
0.0
 40
0.0
 40
0.0071263852
 40
0.0141547155
 40
0.021219205
 40
0.0281399506
 40
0.0424268606
 40
0.0573460099
 40
0.0880202794
 40
0.1167285534
 40
0.1454570058
 40
0.1755214599
 40
0.2061571624
 40
0.2372559795
 40
0.3011563649
 40
0.3669706571
 40
0.5019505724
 40
0.6372127718
 40
0.7669892609
 40
0.8878029532
 40
1.0
 40
1.0
 40
1.0
 40
1.0
 10
126.9484368904
 20
151.6645579452
 30
0.0
 10
126.9469463513
 20
151.6636973872
 30
0.0
 10
126.9434771457
 20
151.6665984328
 30
0.0
 10
126.9382701651
 20
151.6667211804
 30
0.0
 10
126.933686146
 20
151.6642716806
 30
0.0
 10
126.927636536
 20
151.6611454096
 30
0.0
 10
126.9212826918
 20
151.6548925925
 30
0.0
 10
126.9132322358
 20
151.6428607457
 30
0.0
 10
126.9078262719
 20
151.6250521153
 30
0.0
 10
126.8907157238
 20
151.6114661779
 30
0.0
 10
126.8749292628
 20
151.597321577
 30
0.0
 10
126.8643271455
 20
151.5782041351
 30
0.0
 10
126.8540340621
 20
151.5586393359
 30
0.0
 10
126.8419219628
 20
151.5307524998
 30
0.0
 10
126.8313806942
 20
151.4931845724
 30
0.0
 10
126.8229791328
 20
151.4296434906
 30
0.0
 10
126.8291868054
 20
151.3476679586
 30
0.0
 10
126.8614980462
 20
151.2553562876
 30
0.0
 10
126.9166408824
 20
151.178609897
 30
0.0
 10
126.9877294005
 20
151.1247124784
 30
0.0
 10
127.0435798644
 20
151.1091635913
 30
0.0
 10
127.0706102974
 20
151.1072627451
 30
0.0
  0
SPLINE
  5
452
100
AcDbEntity
  8
_1
100
AcDbSpline
 62
7
  6
CONTINUOUS
 70
0
 71
3
 72
10
 73
6
 74
0
 42
0.0000001
 43
0.0000001
 44
0.0000000001
 40
0.0
 40
0.0
 40
0.0
 40
0.0
 40
0.5162266803
 40
0.7698526763
 40
1.0
 40
1.0
 40
1.0
 40
1.0
 10
127.1825160428
 20
151.1335977452
 30
0.0
 10
127.1116010958
 20
151.204122317
 30
0.0
 10
127.0256602251
 20
151.3313159562
 30
0.0
 10
126.9613215671
 20
151.5146341376
 30
0.0
 10
126.9482959938
 20
151.6085263143
 30
0.0
 10
126.9482959938
 20
151.653114819
 30
0.0
  0
SPLINE
  5
453
100
AcDbEntity
  8
_1
100
AcDbSpline
 62
7
  6
CONTINUOUS
 70
0
 71
3
 72
10
 73
6
 74
0
 42
0.0000001
 43
0.0000001
 44
0.0000000001
 40
0.0
 40
0.0
 40
0.0
 40
0.0
 40
0.2301553002
 40
0.4837935186
 40
1.0
 40
1.0
 40
1.0
 40
1.0
 10
142.5045804125
 20
160.6344862042
 30
0.0
 10
142.5045804125
 20
160.5898961477
 30
0.0
 10
142.5176027015
 20
160.4959956187
 30
0.0
 10
142.5819725159
 20
160.3127074358
 30
0.0
 10
142.6677777661
 20
160.1853796538
 30
0.0
 10
142.7388004615
 20
160.1149691304
 30
0.0
  0
SPLINE
  5
454
100
AcDbEntity
  8
_1
100
AcDbSpline
 62
7
  6
CONTINUOUS
 70
0
 71
3
 72
15
 73
11
 74
0
 42
0.0000001
 43
0.0000001
 44
0.0000000001
 40
0.0
 40
0.0
 40
0.0
 40
0.0
 40
0.1146049271
 40
0.2382919834
 40
0.3701018142
 40
0.5059946053
 40
0.6405719658
 40
0.7687082189
 40
0.8880207303
 40
1.0
 40
1.0
 40
1.0
 40
1.0
 10
142.7388004615
 20
160.1149691304
 30
0.0
 10
142.7638413072
 20
160.1294263831
 30
0.0
 10
142.8098828469
 20
160.1707466945
 30
0.0
 10
142.8538255299
 20
160.2549745878
 30
0.0
 10
142.8709211737
 20
160.3537311447
 30
0.0
 10
142.8587068875
 20
160.4559386287
 30
0.0
 10
142.8178864198
 20
160.5494669857
 30
0.0
 10
142.7533149068
 20
160.6233829031
 30
0.0
 10
142.6721042778
 20
160.6680189861
 30
0.0
 10
142.6122072837
 20
160.6747776952
 30
0.0
 10
142.5841099956
 20
160.6718233078
 30
0.0
  0
SPLINE
  5
455
100
AcDbEntity
  8
_1
100
AcDbSpline
 62
7
  6
CONTINUOUS
 70
0
 71
3
 72
9
 73
5
 74
0
 42
0.0000001
 43
0.0000001
 44
0.0000000001
 40
0.0
 40
0.0
 40
0.0
 40
0.0
 40
0.7481411768
 40
1.0
 40
1.0
 40
1.0
 40
1.0
 10
142.5841099956
 20
160.6718233078
 30
0.0
 10
142.5633237986
 20
160.6696376706
 30
0.0
 10
142.5359275545
 20
160.661720315
 30
0.0
 10
142.5108148198
 20
160.6494473994
 30
0.0
 10
142.5047213091
 20
160.6459293304
 30
0.0
  0
SPLINE
  5
456
100
AcDbEntity
  8
_1
100
AcDbSpline
 62
7
  6
CONTINUOUS
 70
0
 71
3
 72
10
 73
6
 74
0
 42
0.0000001
 43
0.0000001
 44
0.0000000001
 40
0.0
 40
0.0
 40
0.0
 40
0.0
 40
0.2502730721
 40
0.6229835422
 40
1.0
 40
1.0
 40
1.0
 40
1.0
 10
127.0706102974
 20
151.1072627451
 30
0.0
 10
127.0802939916
 20
151.1065817641
 30
0.0
 10
127.1046182054
 20
151.1063710861
 30
0.0
 10
127.1426213829
 20
151.1154809519
 30
0.0
 10
127.1698514937
 20
151.1262859081
 30
0.0
 10
127.1825160428
 20
151.1335977452
 30
0.0
  0
SPLINE
  5
457
100
AcDbEntity
  8
_1
100
AcDbSpline
 62
7
  6
CONTINUOUS
 70
0
 71
3
 72
11
 73
7
 74
0
 42
0.0000001
 43
0.0000001
 44
0.0000000001
 40
0.0
 40
0.0
 40
0.0
 40
0.0
 40
0.2810607377
 40
0.5402298267
 40
0.7785309663
 40
1.0
 40
1.0
 40
1.0
 40
1.0
 10
136.6636461612
 20
108.1962654758
 30
0.0
 10
136.6619152316
 20
108.0827587067
 30
0.0
 10
136.6451223152
 20
107.8644123757
 30
0.0
 10
136.5744281582
 20
107.5566140965
 30
0.0
 10
136.4599229833
 20
107.2879253715
 30
0.0
 10
136.3520239304
 20
107.1345102852
 30
0.0
 10
136.2920496947
 20
107.0681433648
 30
0.0
  0
SPLINE
  5
458
100
AcDbEntity
  8
_1
100
AcDbSpline
 62
7
  6
CONTINUOUS
 70
0
 71
3
 72
15
 73
11
 74
0
 42
0.0000001
 43
0.0000001
 44
0.0000000001
 40
0.0
 40
0.0
 40
0.0
 40
0.0
 40
0.1139344176
 40
0.2368222307
 40
0.3661451487
 40
0.4989169389
 40
0.6318389705
 40
0.7616009426
 40
0.8851816562
 40
1.0
 40
1.0
 40
1.0
 40
1.0
 10
134.5426400745
 20
139.6741404381
 30
0.0
 10
134.6861732544
 20
139.5912733928
 30
0.0
 10
134.969780109
 20
139.3928669618
 30
0.0
 10
135.3605704976
 20
139.0289636511
 30
0.0
 10
135.7213400173
 20
138.5988901058
 30
0.0
 10
136.0388763856
 20
138.1185484978
 30
0.0
 10
136.3015333419
 20
137.6054201597
 30
0.0
 10
136.4997942758
 20
137.078265155
 30
0.0
 10
136.626264535
 20
136.5564734738
 30
0.0
 10
136.6611434899
 20
136.2098512225
 30
0.0
 10
136.6636461612
 20
136.0428472504
 30
0.0
  0
SPLINE
  5
459
100
AcDbEntity
  8
_1
100
AcDbSpline
 62
7
  6
CONTINUOUS
 70
0
 71
3
 72
11
 73
7
 74
0
 42
0.0000001
 43
0.0000001
 44
0.0000000001
 40
0.0
 40
0.0
 40
0.0
 40
0.0
 40
0.2383285595
 40
0.5010926793
 40
0.7632637416
 40
1.0
 40
1.0
 40
1.0
 40
1.0
 10
130.1505113651
 20
142.6110060073
 30
0.0
 10
130.1513753906
 20
142.5533493434
 30
0.0
 10
130.1741261488
 20
142.4323379741
 30
0.0
 10
130.2502514359
 20
142.2626180245
 30
0.0
 10
130.3604142168
 20
142.113218185
 30
0.0
 10
130.454407997
 20
142.0344289317
 30
0.0
 10
130.5040123796
 20
142.005790476
 30
0.0
  0
SPLINE
  5
45A
100
AcDbEntity
  8
_1
100
AcDbSpline
 62
7
  6
CONTINUOUS
 70
0
 71
3
 72
11
 73
7
 74
0
 42
0.0000001
 43
0.0000001
 44
0.0000000001
 40
0.0
 40
0.0
 40
0.0
 40
0.0
 40
0.2175551775
 40
0.4676016754
 40
0.737916169
 40
1.0
 40
1.0
 40
1.0
 40
1.0
 10
79.7922822212
 20
129.9489161023
 30
0.0
 10
79.7907462743
 20
129.8981240062
 30
0.0
 10
79.7611757358
 20
129.7885025148
 30
0.0
 10
79.6450116634
 20
129.6542539492
 30
0.0
 10
79.4788239088
 20
129.5694250617
 30
0.0
 10
79.353650628
 20
129.5507412077
 30
0.0
 10
79.2924345614
 20
129.5507406699
 30
0.0
  0
SPLINE
  5
45B
100
AcDbEntity
  8
_1
100
AcDbSpline
 62
7
  6
CONTINUOUS
 70
0
 71
3
 72
11
 73
7
 74
0
 42
0.0000001
 43
0.0000001
 44
0.0000000001
 40
0.0
 40
0.0
 40
0.0
 40
0.0
 40
0.2268617282
 40
0.4989069633
 40
0.7715928008
 40
1.0
 40
1.0
 40
1.0
 40
1.0
 10
80.3175064231
 20
128.1221121648
 30
0.0
 10
80.3650424812
 20
128.1495573888
 30
0.0
 10
80.459440591
 20
128.2276315387
 30
0.0
 10
80.5717380041
 20
128.3786792146
 30
0.0
 10
80.6482354876
 20
128.5510569341
 30
0.0
 10
80.6701764246
 20
128.6720716207
 30
0.0
 10
80.6710044941
 20
128.7273293949
 30
0.0
  0
SPLINE
  5
45C
100
AcDbEntity
  8
_1
100
AcDbSpline
 62
7
  6
CONTINUOUS
 70
0
 71
3
 72
9
 73
5
 74
0
 42
0.0000001
 43
0.0000001
 44
0.0000000001
 40
0.0
 40
0.0
 40
0.0
 40
0.0
 40
0.25675209
 40
1.0
 40
1.0
 40
1.0
 40
1.0
 10
106.822159934
 20
127.1287507828
 30
0.0
 10
106.677876344
 20
127.1288430229
 30
0.0
 10
106.1162609989
 20
127.1487654951
 30
0.0
 10
105.5562169206
 20
127.2478250271
 30
0.0
 10
105.1574373513
 20
127.3720259122
 30
0.0
  0
SPLINE
  5
45D
100
AcDbEntity
  8
_1
100
AcDbSpline
 62
7
  6
CONTINUOUS
 70
0
 71
3
 72
11
 73
7
 74
0
 42
0.0000001
 43
0.0000001
 44
0.0000000001
 40
0.0
 40
0.0
 40
0.0
 40
0.0
 40
0.2283790841
 40
0.4746678958
 40
0.7339429384
 40
1.0
 40
1.0
 40
1.0
 40
1.0
 10
109.2967546327
 20
127.7205088699
 30
0.0
 10
109.1272985959
 20
127.622674037
 30
0.0
 10
108.7567485683
 20
127.4504281661
 30
0.0
 10
108.15363673
 20
127.2666809324
 30
0.0
 10
107.5006022099
 20
127.1542082955
 30
0.0
 10
107.0501123242
 20
127.1286682369
 30
0.0
 10
106.8221599346
 20
127.128667689
 30
0.0
  0
SPLINE
  5
45E
100
AcDbEntity
  8
_1
100
AcDbSpline
 62
7
  6
CONTINUOUS
 70
0
 71
3
 72
11
 73
7
 74
0
 42
0.0000001
 43
0.0000001
 44
0.0000000001
 40
0.0
 40
0.0
 40
0.0
 40
0.0
 40
0.2178007416
 40
0.4509173704
 40
0.7101940763
 40
1.0
 40
1.0
 40
1.0
 40
1.0
 10
124.4524434572
 20
137.3074558675
 30
0.0
 10
124.4524444186
 20
137.1741518002
 30
0.0
 10
124.4028475074
 20
136.8964040652
 30
0.0
 10
124.1926536029
 20
136.5091728403
 30
0.0
 10
123.8593835945
 20
136.1595199097
 30
0.0
 10
123.5809614795
 20
135.9674503754
 30
0.0
 10
123.4273504128
 20
135.8787634491
 30
0.0
  0
SPLINE
  5
45F
100
AcDbEntity
  8
_1
100
AcDbSpline
 62
7
  6
CONTINUOUS
 70
0
 71
3
 72
10
 73
6
 74
0
 42
0.0000001
 43
0.0000001
 44
0.0000000001
 40
0.0
 40
0.0
 40
0.0
 40
0.0
 40
0.5241783459
 40
0.7655776794
 40
1.0
 40
1.0
 40
1.0
 40
1.0
 10
124.0309147332
 20
138.2685681156
 30
0.0
 10
124.158738312
 20
138.1317710267
 30
0.0
 10
124.321170026
 20
137.9028732508
 30
0.0
 10
124.4335905023
 20
137.5616723954
 30
0.0
 10
124.4521377072
 20
137.3911851388
 30
0.0
 10
124.4522995032
 20
137.3074558502
 30
0.0
  0
SPLINE
  5
460
100
AcDbEntity
  8
_1
100
AcDbSpline
 62
7
  6
CONTINUOUS
 70
0
 71
3
 72
11
 73
7
 74
0
 42
0.0000001
 43
0.0000001
 44
0.0000000001
 40
0.0
 40
0.0
 40
0.0
 40
0.0
 40
0.2897441673
 40
0.5489355349
 40
0.7820375807
 40
1.0
 40
1.0
 40
1.0
 40
1.0
 10
123.0737472596
 20
136.4840356285
 30
0.0
 10
123.2054040206
 20
136.5595975694
 30
0.0
 10
123.4440635543
 20
136.7234105638
 30
0.0
 10
123.729794956
 20
137.0221966917
 30
0.0
 10
123.9099939074
 20
137.353592646
 30
0.0
 10
123.9524526659
 20
137.5914364118
 30
0.0
 10
123.9524518424
 20
137.7056288801
 30
0.0
  0
SPLINE
  5
461
100
AcDbEntity
  8
_1
100
AcDbSpline
 62
7
  6
CONTINUOUS
 70
0
 71
3
 72
11
 73
7
 74
0
 42
0.0000001
 43
0.0000001
 44
0.0000000001
 40
0.0
 40
0.0
 40
0.0
 40
0.0
 40
0.2659488895
 40
0.5251591846
 40
0.7714702576
 40
1.0
 40
1.0
 40
1.0
 40
1.0
 10
106.8221578529
 20
127.8155080701
 30
0.0
 10
107.0175413445
 20
127.8155085397
 30
0.0
 10
107.4037010533
 20
127.8375324267
 30
0.0
 10
107.9634683046
 20
127.9345204675
 30
0.0
 10
108.4804462765
 20
128.0929731327
 30
0.0
 10
108.7979669468
 20
128.2414632944
 30
0.0
 10
108.9431514912
 20
128.325781056
 30
0.0
  0
SPLINE
  5
462
100
AcDbEntity
  8
_1
100
AcDbSpline
 62
7
  6
CONTINUOUS
 70
0
 71
3
 72
9
 73
5
 74
0
 42
0.0000001
 43
0.0000001
 44
0.0000000001
 40
0.0
 40
0.0
 40
0.0
 40
0.0
 40
0.4898759051
 40
1.0
 40
1.0
 40
1.0
 40
1.0
 10
105.3952526908
 20
128.025259415
 30
0.0
 10
105.6205676499
 20
127.954484394
 30
0.0
 10
106.0935580223
 20
127.8500800689
 30
0.0
 10
106.576226904
 20
127.8155035417
 30
0.0
 10
106.8221578529
 20
127.8155041328
 30
0.0
  0
SPLINE
  5
463
100
AcDbEntity
  8
_1
100
AcDbSpline
 62
7
  6
CONTINUOUS
 70
0
 71
3
 72
11
 73
7
 74
0
 42
0.0000001
 43
0.0000001
 44
0.0000000001
 40
0.0
 40
0.0
 40
0.0
 40
0.0
 40
0.2567528302
 40
0.5137502114
 40
0.7634649698
 40
1.0
 40
1.0
 40
1.0
 40
1.0
 10
104.7011967921
 20
131.6698994053
 30
0.0
 10
104.7967502358
 20
131.5184252023
 30
0.0
 10
104.9788707687
 20
131.2093528275
 30
0.0
 10
105.2042565977
 20
130.7254999748
 30
0.0
 10
105.3566849794
 20
130.2278074024
 30
0.0
 10
105.3953173813
 20
129.8879931772
 30
0.0
 10
105.3953174665
 20
129.7230011919
 30
0.0
  0
SPLINE
  5
464
100
AcDbEntity
  8
_1
100
AcDbSpline
 62
7
  6
CONTINUOUS
 70
0
 71
3
 72
9
 73
5
 74
0
 42
0.0000001
 43
0.0000001
 44
0.0000000001
 40
0.0
 40
0.0
 40
0.0
 40
0.0
 40
0.4755903705
 40
1.0
 40
1.0
 40
1.0
 40
1.0
 10
103.6707022851
 20
132.6590866823
 30
0.0
 10
103.8677328339
 20
132.5448203434
 30
0.0
 10
104.2489000448
 20
132.246139028
 30
0.0
 10
104.557520313
 20
131.875886294
 30
0.0
 10
104.7011565246
 20
131.6698678315
 30
0.0
  0
SPLINE
  5
465
100
AcDbEntity
  8
_1
100
AcDbSpline
 62
7
  6
CONTINUOUS
 70
0
 71
3
 72
11
 73
7
 74
0
 42
0.0000001
 43
0.0000001
 44
0.0000000001
 40
0.0
 40
0.0
 40
0.0
 40
0.0
 40
0.2211765247
 40
0.4588867966
 40
0.7180149427
 40
1.0
 40
1.0
 40
1.0
 40
1.0
 10
90.6698105633
 20
139.7706859344
 30
0.0
 10
90.7474653245
 20
139.7907482583
 30
0.0
 10
90.914441601
 20
139.8117970045
 30
0.0
 10
91.1752668461
 20
139.7847572276
 30
0.0
 10
91.4466374824
 20
139.7014059693
 30
0.0
 10
91.6233250499
 20
139.6142548856
 30
0.0
 10
91.711981039
 20
139.5633014187
 30
0.0
  0
SPLINE
  5
466
100
AcDbEntity
  8
_1
100
AcDbSpline
 62
7
  6
CONTINUOUS
 70
0
 71
3
 72
9
 73
5
 74
0
 42
0.0000001
 43
0.0000001
 44
0.0000000001
 40
0.0
 40
0.0
 40
0.0
 40
0.0
 40
0.2558670238
 40
1.0
 40
1.0
 40
1.0
 40
1.0
 10
90.147177964
 20
138.9945312509
 30
0.0
 10
90.149236391
 20
139.0057356491
 30
0.0
 10
90.1576216001
 20
139.0494618206
 30
0.0
 10
90.1674029107
 20
139.0929245875
 30
0.0
 10
90.175575821
 20
139.1250315678
 30
0.0
  0
SPLINE
  5
467
100
AcDbEntity
  8
_1
100
AcDbSpline
 62
7
  6
CONTINUOUS
 70
0
 71
3
 72
11
 73
7
 74
0
 42
0.0000001
 43
0.0000001
 44
0.0000000001
 40
0.0
 40
0.0
 40
0.0
 40
0.0
 40
0.2801820741
 40
0.5306719922
 40
0.7639460447
 40
1.0
 40
1.0
 40
1.0
 40
1.0
 10
90.175575821
 20
139.1250315678
 30
0.0
 10
90.1950429027
 20
139.2015072885
 30
0.0
 10
90.2414153777
 20
139.3444233383
 30
0.0
 10
90.3476918736
 20
139.5336139936
 30
0.0
 10
90.4905224581
 20
139.6811788132
 30
0.0
 10
90.6080232235
 20
139.7460936328
 30
0.0
 10
90.6697260007
 20
139.7708546671
 30
0.0
  0
SPLINE
  5
468
100
AcDbEntity
  8
_1
100
AcDbSpline
 62
7
  6
CONTINUOUS
 70
0
 71
3
 72
11
 73
7
 74
0
 42
0.0000001
 43
0.0000001
 44
0.0000000001
 40
0.0
 40
0.0
 40
0.0
 40
0.0
 40
0.2268618047
 40
0.4989071808
 40
0.7715928346
 40
1.0
 40
1.0
 40
1.0
 40
1.0
 10
91.358482968
 20
138.958084188
 30
0.0
 10
91.4060192303
 20
138.985529098
 30
0.0
 10
91.5004172048
 20
139.0636036571
 30
0.0
 10
91.6127145884
 20
139.2146512712
 30
0.0
 10
91.6892119862
 20
139.3870290306
 30
0.0
 10
91.7111529696
 20
139.5080436513
 30
0.0
 10
91.711981039
 20
139.5633014187
 30
0.0
  0
SPLINE
  5
469
100
AcDbEntity
  8
_1
100
AcDbSpline
 62
7
  6
CONTINUOUS
 70
0
 71
3
 72
11
 73
7
 74
0
 42
0.0000001
 43
0.0000001
 44
0.0000000001
 40
0.0
 40
0.0
 40
0.0
 40
0.0
 40
0.258420854
 40
0.5309903099
 40
0.7843960087
 40
1.0
 40
1.0
 40
1.0
 40
1.0
 10
90.6698105633
 20
139.7706859344
 30
0.0
 10
90.695056714
 20
139.7141199132
 30
0.0
 10
90.7295420984
 20
139.5893457828
 30
0.0
 10
90.7221437165
 20
139.398073181
 30
0.0
 10
90.6526376987
 20
139.2296593996
 30
0.0
 10
90.5682802464
 20
139.1492450838
 30
0.0
 10
90.5235749639
 20
139.1233153674
 30
0.0
  0
SPLINE
  5
46A
100
AcDbEntity
  8
_1
100
AcDbSpline
 62
7
  6
CONTINUOUS
 70
0
 71
3
 72
11
 73
7
 74
0
 42
0.0000001
 43
0.0000001
 44
0.0000000001
 40
0.0
 40
0.0
 40
0.0
 40
0.0
 40
0.2284071654
 40
0.5010928192
 40
0.7731381953
 40
1.0
 40
1.0
 40
1.0
 40
1.0
 10
103.6707022851
 20
132.6590866823
 30
0.0
 10
103.6698742157
 20
132.6038289149
 30
0.0
 10
103.6479332324
 20
132.4828142942
 30
0.0
 10
103.5714358345
 20
132.3104365348
 30
0.0
 10
103.4591384509
 20
132.1593889207
 30
0.0
 10
103.3647404764
 20
132.0813143616
 30
0.0
 10
103.3172042141
 20
132.0538694516
 30
0.0
  0
SPLINE
  5
46B
100
AcDbEntity
  8
_1
100
AcDbSpline
 62
7
  6
CONTINUOUS
 70
0
 71
3
 72
10
 73
6
 74
0
 42
0.0000001
 43
0.0000001
 44
0.0000000001
 40
0.0
 40
0.0
 40
0.0
 40
0.0
 40
0.2238196104
 40
0.4853571168
 40
1.0
 40
1.0
 40
1.0
 40
1.0
 10
104.8039361268
 20
129.6749965224
 30
0.0
 10
104.8433843386
 20
129.6969632537
 30
0.0
 10
104.9356776078
 20
129.7328045052
 30
0.0
 10
105.1350932844
 20
129.7667966202
 30
0.0
 10
105.2958426512
 20
129.7529611075
 30
0.0
 10
105.3952525718
 20
129.7230207404
 30
0.0
  0
SPLINE
  5
46C
100
AcDbEntity
  8
_1
100
AcDbSpline
 62
7
  6
CONTINUOUS
 70
0
 71
3
 72
11
 73
7
 74
0
 42
0.0000001
 43
0.0000001
 44
0.0000000001
 40
0.0
 40
0.0
 40
0.0
 40
0.0
 40
0.1973124989
 40
0.4681253864
 40
0.7568555316
 40
1.0
 40
1.0
 40
1.0
 40
1.0
 10
104.7011565243
 20
131.6698678313
 30
0.0
 10
104.6689563644
 20
131.6374238222
 30
0.0
 10
104.5871039321
 20
131.5659729595
 30
0.0
 10
104.4479994126
 20
131.4591596869
 30
0.0
 10
104.2946340628
 20
131.3538428151
 30
0.0
 10
104.1895222047
 20
131.2893769732
 30
0.0
 10
104.1403959822
 20
131.2618179379
 30
0.0
  0
SPLINE
  5
46D
100
AcDbEntity
  8
_1
100
AcDbSpline
 62
7
  6
CONTINUOUS
 70
0
 71
3
 72
11
 73
7
 74
0
 42
0.0000001
 43
0.0000001
 44
0.0000000001
 40
0.0
 40
0.0
 40
0.0
 40
0.0
 40
0.2664848741
 40
0.5260163795
 40
0.7722175765
 40
1.0
 40
1.0
 40
1.0
 40
1.0
 10
93.3871700141
 20
123.8128442089
 30
0.0
 10
93.1918050224
 20
123.8128437393
 30
0.0
 10
92.8058494555
 20
123.8342000025
 30
0.0
 10
92.2463112397
 20
123.9282538312
 30
0.0
 10
91.729562663
 20
124.0819010842
 30
0.0
 10
91.4116417756
 20
124.2261017619
 30
0.0
 10
91.2661690981
 20
124.3081009339
 30
0.0
  0
SPLINE
  5
46E
100
AcDbEntity
  8
_1
100
AcDbSpline
 62
7
  6
CONTINUOUS
 70
0
 71
3
 72
11
 73
7
 74
0
 42
0.0000001
 43
0.0000001
 44
0.0000000001
 40
0.0
 40
0.0
 40
0.0
 40
0.0
 40
0.227782042
 40
0.4739830827
 40
0.7335147088
 40
1.0
 40
1.0
 40
1.0
 40
1.0
 10
95.508163617
 20
124.3081111304
 30
0.0
 10
95.3626920824
 20
124.2261112208
 30
0.0
 10
95.0447731343
 20
124.0819089564
 30
0.0
 10
94.5280267852
 20
123.9282592471
 30
0.0
 10
93.9684899412
 20
123.8342027622
 30
0.0
 10
93.5825348978
 20
123.8128446785
 30
0.0
 10
93.3871700141
 20
123.8128442089
 30
0.0
  0
SPLINE
  5
46F
100
AcDbEntity
  8
_1
100
AcDbSpline
 62
7
  6
CONTINUOUS
 70
0
 71
3
 72
11
 73
7
 74
0
 42
0.0000001
 43
0.0000001
 44
0.0000000001
 40
0.0
 40
0.0
 40
0.0
 40
0.0
 40
0.2659488895
 40
0.5251591846
 40
0.7714702576
 40
1.0
 40
1.0
 40
1.0
 40
1.0
 10
93.387170226
 20
122.1000814175
 30
0.0
 10
93.5825537176
 20
122.1000818871
 30
0.0
 10
93.9687134264
 20
122.1221057742
 30
0.0
 10
94.5284806777
 20
122.2190938149
 30
0.0
 10
95.0454586496
 20
122.3775464802
 30
0.0
 10
95.3629793199
 20
122.5260366419
 30
0.0
 10
95.5081638643
 20
122.6103544034
 30
0.0
  0
SPLINE
  5
470
100
AcDbEntity
  8
_1
100
AcDbSpline
 62
7
  6
CONTINUOUS
 70
0
 71
3
 72
11
 73
7
 74
0
 42
0.0000001
 43
0.0000001
 44
0.0000000001
 40
0.0
 40
0.0
 40
0.0
 40
0.0
 40
0.2285301133
 40
0.4748413397
 40
0.734051518
 40
1.0
 40
1.0
 40
1.0
 40
1.0
 10
91.2661692709
 20
122.6103442069
 30
0.0
 10
91.4113549606
 20
122.5260271803
 30
0.0
 10
91.7288775757
 20
122.3775386041
 30
0.0
 10
92.2458577757
 20
122.2190883973
 30
0.0
 10
92.8056263986
 20
122.1221030139
 30
0.0
 10
93.1917866279
 20
122.1000809478
 30
0.0
 10
93.387170226
 20
122.1000814175
 30
0.0
  0
SPLINE
  5
471
100
AcDbEntity
  8
_1
100
AcDbSpline
 62
7
  6
CONTINUOUS
 70
0
 71
3
 72
11
 73
7
 74
0
 42
0.0000001
 43
0.0000001
 44
0.0000000001
 40
0.0
 40
0.0
 40
0.0
 40
0.0
 40
0.2900599782
 40
0.5496767146
 40
0.7828473122
 40
1.0
 40
1.0
 40
1.0
 40
1.0
 10
80.7214518966
 20
130.395958523
 30
0.0
 10
80.5897737808
 20
130.4737810696
 30
0.0
 10
80.3512236592
 20
130.6416457861
 30
0.0
 10
80.0658988949
 20
130.9449493713
 30
0.0
 10
79.8858936396
 20
131.2788615219
 30
0.0
 10
79.8431764081
 20
131.5177861621
 30
0.0
 10
79.8431755823
 20
131.6322961403
 30
0.0
  0
SPLINE
  5
472
100
AcDbEntity
  8
_1
100
AcDbSpline
 62
7
  6
CONTINUOUS
 70
0
 71
3
 72
11
 73
7
 74
0
 42
0.0000001
 43
0.0000001
 44
0.0000000001
 40
0.0
 40
0.0
 40
0.0
 40
0.0
 40
0.217961931
 40
0.4510640069
 40
0.7102556273
 40
1.0
 40
1.0
 40
1.0
 40
1.0
 10
79.7922822212
 20
129.9489161023
 30
0.0
 10
79.7922830447
 20
129.834723451
 30
0.0
 10
79.8347453981
 20
129.5968796686
 30
0.0
 10
80.0149490818
 20
129.2654848718
 30
0.0
 10
80.3006846529
 20
128.9667002792
 30
0.0
 10
80.5393465601
 20
128.8028884104
 30
0.0
 10
80.6710044651
 20
128.727327075
 30
0.0
  0
SPLINE
  5
473
100
AcDbEntity
  8
_1
100
AcDbSpline
 62
7
  6
CONTINUOUS
 70
0
 71
3
 72
10
 73
6
 74
0
 42
0.0000001
 43
0.0000001
 44
0.0000000001
 40
0.0
 40
0.0
 40
0.0
 40
0.0
 40
0.2331014361
 40
0.4738088074
 40
1.0
 40
1.0
 40
1.0
 40
1.0
 10
79.2922906064
 20
129.550740686
 30
0.0
 10
79.2922899704
 20
129.6389226632
 30
0.0
 10
79.3132552491
 20
129.8187940809
 30
0.0
 10
79.4385010661
 20
130.1782179192
 30
0.0
 10
79.6176706891
 20
130.4167978161
 30
0.0
 10
79.7582028463
 20
130.5577750665
 30
0.0
  0
SPLINE
  5
474
100
AcDbEntity
  8
_1
100
AcDbSpline
 62
7
  6
CONTINUOUS
 70
0
 71
3
 72
11
 73
7
 74
0
 42
0.0000001
 43
0.0000001
 44
0.0000000001
 40
0.0
 40
0.0
 40
0.0
 40
0.0
 40
0.2898061268
 40
0.5490830837
 40
0.7821997432
 40
1.0
 40
1.0
 40
1.0
 40
1.0
 10
80.3174042563
 20
128.1220531957
 30
0.0
 10
80.1637918548
 20
128.2107394156
 30
0.0
 10
79.8853669702
 20
128.4028076369
 30
0.0
 10
79.5520920969
 20
128.7524587777
 30
0.0
 10
79.3418926735
 20
129.1396886534
 30
0.0
 10
79.2922915676
 20
129.4174364055
 30
0.0
 10
79.2922906064
 20
129.550740686
 30
0.0
  0
SPLINE
  5
475
100
AcDbEntity
  8
_1
100
AcDbSpline
 62
7
  6
CONTINUOUS
 70
0
 71
3
 72
11
 73
7
 74
0
 42
0.0000001
 43
0.0000001
 44
0.0000000001
 40
0.0
 40
0.0
 40
0.0
 40
0.0
 40
0.2819332822
 40
0.5404412133
 40
0.7781517533
 40
1.0
 40
1.0
 40
1.0
 40
1.0
 10
91.3584887877
 20
138.958087548
 30
0.0
 10
91.28757939
 20
138.9990261817
 30
0.0
 10
91.1460713508
 20
139.0684894999
 30
0.0
 10
90.9287229285
 20
139.1344132794
 30
0.0
 10
90.7199296187
 20
139.1563088595
 30
0.0
 10
90.5858880759
 20
139.1397160134
 30
0.0
 10
90.5235807324
 20
139.1233187172
 30
0.0
  0
SPLINE
  5
476
100
AcDbEntity
  8
_1
100
AcDbSpline
 62
7
  6
CONTINUOUS
 70
0
 71
3
 72
9
 73
5
 74
0
 42
0.0000001
 43
0.0000001
 44
0.0000000001
 40
0.0
 40
0.0
 40
0.0
 40
0.0
 40
0.5255451797
 40
1.0
 40
1.0
 40
1.0
 40
1.0
 10
93.3871616901
 20
126.5598566879
 30
0.0
 10
93.5155436713
 20
126.5598569964
 30
0.0
 10
93.7604830728
 20
126.5864223583
 30
0.0
 10
93.9938185379
 20
126.6710045785
 30
0.0
 10
94.0941923108
 20
126.7289550097
 30
0.0
  0
SPLINE
  5
477
100
AcDbEntity
  8
_1
100
AcDbSpline
 62
7
  6
CONTINUOUS
 70
0
 71
3
 72
9
 73
5
 74
0
 42
0.0000001
 43
0.0000001
 44
0.0000000001
 40
0.0
 40
0.0
 40
0.0
 40
0.0
 40
0.4744553536
 40
1.0
 40
1.0
 40
1.0
 40
1.0
 10
92.6801286305
 20
126.7289516107
 30
0.0
 10
92.7805031454
 20
126.6710017162
 30
0.0
 10
93.0138395285
 20
126.5864206557
 30
0.0
 10
93.2587795689
 20
126.5598563792
 30
0.0
 10
93.3871616901
 20
126.5598566879
 30
0.0
  0
SPLINE
  5
478
100
AcDbEntity
  8
_1
100
AcDbSpline
 62
7
  6
CONTINUOUS
 70
0
 71
3
 72
11
 73
7
 74
0
 42
0.0000001
 43
0.0000001
 44
0.0000000001
 40
0.0
 40
0.0
 40
0.0
 40
0.0
 40
0.2178002498
 40
0.4509169177
 40
0.7101938846
 40
1.0
 40
1.0
 40
1.0
 40
1.0
 10
81.8425203702
 20
133.2250076757
 30
0.0
 10
81.8425206448
 20
133.1869205486
 30
0.0
 10
81.8566924599
 20
133.10756365
 30
0.0
 10
81.9167497351
 20
132.9969259832
 30
0.0
 10
82.0119716039
 20
132.8970251532
 30
0.0
 10
82.0915219672
 20
132.8421482399
 30
0.0
 10
82.1354114422
 20
132.8168091921
 30
0.0
  0
SPLINE
  5
479
100
AcDbEntity
  8
_1
100
AcDbSpline
 62
7
  6
CONTINUOUS
 70
0
 71
3
 72
11
 73
7
 74
0
 42
0.0000001
 43
0.0000001
 44
0.0000000001
 40
0.0
 40
0.0
 40
0.0
 40
0.0
 40
0.2898059124
 40
0.5490826281
 40
0.7821992653
 40
1.0
 40
1.0
 40
1.0
 40
1.0
 10
82.1354055549
 20
133.6332075673
 30
0.0
 10
82.0915164612
 20
133.6078683177
 30
0.0
 10
82.0119668893
 20
133.5529910293
 30
0.0
 10
81.9167464105
 20
133.4530896879
 30
0.0
 10
81.8566907121
 20
133.3424516356
 30
0.0
 10
81.8425200955
 20
133.2630947419
 30
0.0
 10
81.8425203702
 20
133.2250076757
 30
0.0
  0
SPLINE
  5
47A
100
AcDbEntity
  8
_1
100
AcDbSpline
 62
7
  6
CONTINUOUS
 70
0
 71
3
 72
11
 73
7
 74
0
 42
0.0000001
 43
0.0000001
 44
0.0000000001
 40
0.0
 40
0.0
 40
0.0
 40
0.0
 40
0.2282362769
 40
0.4741950693
 40
0.7341383471
 40
1.0
 40
1.0
 40
1.0
 40
1.0
 10
104.8039069138
 20
129.6749804034
 30
0.0
 10
104.8043989411
 20
129.8077456116
 30
0.0
 10
104.7661960957
 20
130.0843925159
 30
0.0
 10
104.6162708209
 20
130.4865717437
 30
0.0
 10
104.398661652
 20
130.8803816288
 30
0.0
 10
104.22837682
 20
131.1346341128
 30
0.0
 10
104.1403613113
 20
131.2617986286
 30
0.0
  0
SPLINE
  5
47B
100
AcDbEntity
  8
_1
100
AcDbSpline
 62
7
  6
CONTINUOUS
 70
0
 71
3
 72
9
 73
5
 74
0
 42
0.0000001
 43
0.0000001
 44
0.0000000001
 40
0.0
 40
0.0
 40
0.0
 40
0.0
 40
0.5242583626
 40
1.0
 40
1.0
 40
1.0
 40
1.0
 10
104.1404018715
 20
131.2618212178
 30
0.0
 10
104.0261290175
 20
131.4269235331
 30
0.0
 10
103.7788578801
 20
131.7225627568
 30
0.0
 10
103.4750086934
 20
131.962769774
 30
0.0
 10
103.3172100338
 20
132.0538728116
 30
0.0
  0
SPLINE
  5
47C
100
AcDbEntity
  8
_1
100
AcDbSpline
 62
7
  6
CONTINUOUS
 70
0
 71
3
 72
11
 73
7
 74
0
 42
0.0000001
 43
0.0000001
 44
0.0000000001
 40
0.0
 40
0.0
 40
0.0
 40
0.0
 40
0.2284069089
 40
0.5010922881
 40
0.7731377002
 40
1.0
 40
1.0
 40
1.0
 40
1.0
 10
95.5081636137
 20
124.3081117956
 30
0.0
 10
95.5048513099
 20
124.5291427438
 30
0.0
 10
95.41708665
 20
125.013200987
 30
0.0
 10
95.1110942919
 20
125.7027108716
 30
0.0
 10
94.6619007392
 20
126.3068993257
 30
0.0
 10
94.2843059212
 20
126.6191953491
 30
0.0
 10
94.0941595559
 20
126.7289739208
 30
0.0
  0
SPLINE
  5
47D
100
AcDbEntity
  8
_1
100
AcDbSpline
 62
7
  6
CONTINUOUS
 70
0
 71
3
 72
11
 73
7
 74
0
 42
0.0000001
 43
0.0000001
 44
0.0000000001
 40
0.0
 40
0.0
 40
0.0
 40
0.0
 40
0.2268618047
 40
0.4989071808
 40
0.7715928346
 40
1.0
 40
1.0
 40
1.0
 40
1.0
 10
92.6801613851
 20
126.7289705219
 30
0.0
 10
92.4900163361
 20
126.6191908819
 30
0.0
 10
92.112424438
 20
126.3068926454
 30
0.0
 10
91.6632349038
 20
125.702702189
 30
0.0
 10
91.3572453121
 20
125.0131911514
 30
0.0
 10
91.2694813792
 20
124.5291326685
 30
0.0
 10
91.2661691014
 20
124.3081015991
 30
0.0
  0
SPLINE
  5
47E
100
AcDbEntity
  8
_1
100
AcDbSpline
 62
7
  6
CONTINUOUS
 70
0
 71
3
 72
14
 73
10
 74
0
 42
0.0000001
 43
0.0000001
 44
0.0000000001
 40
0.0
 40
0.0
 40
0.0
 40
0.0
 40
0.2603977221
 40
0.3961813353
 40
0.5303276366
 40
0.6594019791
 40
0.781122262
 40
0.89459071
 40
1.0
 40
1.0
 40
1.0
 40
1.0
 10
81.8425665218
 20
133.2250076763
 30
0.0
 10
81.6006005036
 20
133.2250070947
 30
0.0
 10
81.22904911
 20
133.1699915365
 30
0.0
 10
80.7709860474
 20
132.9834114698
 30
0.0
 10
80.4558166587
 20
132.7838606829
 30
0.0
 10
80.1944829549
 20
132.5360930962
 30
0.0
 10
80.001100605
 20
132.2550391671
 30
0.0
 10
79.8819401924
 20
131.9591231359
 30
0.0
 10
79.8491347068
 20
131.7564733748
 30
0.0
 10
79.844234034
 20
131.6586479346
 30
0.0
  0
SPLINE
  5
47F
100
AcDbEntity
  8
_1
100
AcDbSpline
 62
7
  6
CONTINUOUS
 70
0
 71
3
 72
11
 73
7
 74
0
 42
0.0000001
 43
0.0000001
 44
0.0000000001
 40
0.0
 40
0.0
 40
0.0
 40
0.0
 40
0.2284071654
 40
0.5010928192
 40
0.7731381953
 40
1.0
 40
1.0
 40
1.0
 40
1.0
 10
80.7214519131
 20
130.3959591806
 30
0.0
 10
80.7247641909
 20
130.61699025
 30
0.0
 10
80.8125281238
 20
131.1010487329
 30
0.0
 10
81.1185177155
 20
131.7905597705
 30
0.0
 10
81.5677072497
 20
132.3947502269
 30
0.0
 10
81.9452991478
 20
132.7070484634
 30
0.0
 10
82.1354441968
 20
132.8168281034
 30
0.0
  0
SPLINE
  5
480
100
AcDbEntity
  8
_1
100
AcDbSpline
 62
7
  6
CONTINUOUS
 70
0
 71
3
 72
11
 73
7
 74
0
 42
0.0000001
 43
0.0000001
 44
0.0000000001
 40
0.0
 40
0.0
 40
0.0
 40
0.0
 40
0.2714911766
 40
0.5298882831
 40
0.7712170762
 40
1.0
 40
1.0
 40
1.0
 40
1.0
 10
82.1354383098
 20
133.6331886572
 30
0.0
 10
82.0532033677
 20
133.680665949
 30
0.0
 10
81.8853210926
 20
133.7615850012
 30
0.0
 10
81.6220002351
 20
133.8296760137
 30
0.0
 10
81.36362687
 20
133.8282811939
 30
0.0
 10
81.2047357501
 20
133.7722555692
 30
0.0
 10
81.135443161
 20
133.7322365669
 30
0.0
  0
SPLINE
  5
481
100
AcDbEntity
  8
_1
100
AcDbSpline
 62
7
  6
CONTINUOUS
 70
0
 71
3
 72
11
 73
7
 74
0
 42
0.0000001
 43
0.0000001
 44
0.0000000001
 40
0.0
 40
0.0
 40
0.0
 40
0.0
 40
0.2660566522
 40
0.5253315772
 40
0.7716205429
 40
1.0
 40
1.0
 40
1.0
 40
1.0
 10
93.3871723077
 20
121.4132410364
 30
0.0
 10
93.1592197934
 20
121.4132404884
 30
0.0
 10
92.7087292998
 20
121.4387784226
 30
0.0
 10
92.0556931794
 20
121.5512479595
 30
0.0
 10
91.4525787416
 20
121.7349923253
 30
0.0
 10
91.0820264463
 20
121.9072363461
 30
0.0
 10
90.9125690737
 20
122.0050703209
 30
0.0
  0
SPLINE
  5
482
100
AcDbEntity
  8
_1
100
AcDbSpline
 62
7
  6
CONTINUOUS
 70
0
 71
3
 72
11
 73
7
 74
0
 42
0.0000001
 43
0.0000001
 44
0.0000000001
 40
0.0
 40
0.0
 40
0.0
 40
0.0
 40
0.2283790841
 40
0.4746678958
 40
0.7339429384
 40
1.0
 40
1.0
 40
1.0
 40
1.0
 10
95.8617670058
 20
122.0050822173
 30
0.0
 10
95.692310969
 20
121.9072473844
 30
0.0
 10
95.3217609414
 20
121.7350015135
 30
0.0
 10
94.7186491031
 20
121.5512542798
 30
0.0
 10
94.065614583
 20
121.4387816429
 30
0.0
 10
93.6151246973
 20
121.4132415843
 30
0.0
 10
93.3871723077
 20
121.4132410364
 30
0.0
  0
SPLINE
  5
483
100
AcDbEntity
  8
_1
100
AcDbSpline
 62
7
  6
CONTINUOUS
 70
0
 71
3
 72
9
 73
5
 74
0
 42
0.0000001
 43
0.0000001
 44
0.0000000001
 40
0.0
 40
0.0
 40
0.0
 40
0.0
 40
0.2378306777
 40
1.0
 40
1.0
 40
1.0
 40
1.0
 10
124.0309147332
 20
138.2685681156
 30
0.0
 10
124.0220931604
 20
138.2736611378
 30
0.0
 10
123.9857105679
 20
138.296297124
 30
0.0
 10
123.9521229932
 20
138.3232943903
 30
0.0
 10
123.9281879103
 20
138.3454914388
 30
0.0
  0
SPLINE
  5
484
100
AcDbEntity
  8
_1
100
AcDbSpline
 62
7
  6
CONTINUOUS
 70
0
 71
3
 72
11
 73
7
 74
0
 42
0.0000001
 43
0.0000001
 44
0.0000000001
 40
0.0
 40
0.0
 40
0.0
 40
0.0
 40
0.2175549307
 40
0.4676009444
 40
0.7379155293
 40
1.0
 40
1.0
 40
1.0
 40
1.0
 10
123.9524517732
 20
137.7056311679
 30
0.0
 10
123.9539873639
 20
137.6548390346
 30
0.0
 10
123.9835573034
 20
137.5452173199
 30
0.0
 10
124.0997211603
 20
137.4109682482
 30
0.0
 10
124.2659093768
 20
137.326139438
 30
0.0
 10
124.3910831859
 20
137.3074557031
 30
0.0
 10
124.4522995032
 20
137.3074558502
 30
0.0
  0
SPLINE
  5
485
100
AcDbEntity
  8
_1
100
AcDbSpline
 62
7
  6
CONTINUOUS
 70
0
 71
3
 72
8
 73
4
 74
0
 42
0.0000001
 43
0.0000001
 44
0.0000000001
 40
0.0
 40
0.0
 40
0.0
 40
0.0
 40
1.0
 40
1.0
 40
1.0
 40
1.0
 10
124.0309147332
 20
138.2685681156
 30
0.0
 10
123.9986806699
 20
138.2585022358
 30
0.0
 10
123.9653000186
 20
138.2514156064
 30
0.0
 10
123.9316917915
 20
138.2481226068
 30
0.0
  0
SPLINE
  5
486
100
AcDbEntity
  8
_1
100
AcDbSpline
 62
7
  6
CONTINUOUS
 70
0
 71
3
 72
11
 73
7
 74
0
 42
0.0000001
 43
0.0000001
 44
0.0000000001
 40
0.0
 40
0.0
 40
0.0
 40
0.0
 40
0.2284069427
 40
0.5010925055
 40
0.7731377767
 40
1.0
 40
1.0
 40
1.0
 40
1.0
 10
123.0737472307
 20
136.4840379485
 30
0.0
 10
123.0745753066
 20
136.4287802046
 30
0.0
 10
123.0965164255
 20
136.3077655779
 30
0.0
 10
123.1730146005
 20
136.1353881466
 30
0.0
 10
123.2853130182
 20
135.9843409713
 30
0.0
 10
123.379711858
 20
135.9062673746
 30
0.0
 10
123.4272482451
 20
135.8788224177
 30
0.0
  0
SPLINE
  5
487
100
AcDbEntity
  8
_1
100
AcDbSpline
 62
7
  6
CONTINUOUS
 70
0
 71
3
 72
11
 73
7
 74
0
 42
0.0000001
 43
0.0000001
 44
0.0000000001
 40
0.0
 40
0.0
 40
0.0
 40
0.0
 40
0.2268622233
 40
0.4989074945
 40
0.7715930573
 40
1.0
 40
1.0
 40
1.0
 40
1.0
 10
109.2966524651
 20
127.7205678385
 30
0.0
 10
109.249116078
 20
127.7480127954
 30
0.0
 10
109.1547172382
 20
127.8260863921
 30
0.0
 10
109.0424188205
 20
127.9771335674
 30
0.0
 10
108.9659206454
 20
128.1495109987
 30
0.0
 10
108.9439795266
 20
128.2705256254
 30
0.0
 10
108.9431514507
 20
128.3257833693
 30
0.0
  0
SPLINE
  5
488
100
AcDbEntity
  8
_1
100
AcDbSpline
 62
7
  6
CONTINUOUS
 70
0
 71
3
 72
11
 73
7
 74
0
 42
0.0000001
 43
0.0000001
 44
0.0000000001
 40
0.0
 40
0.0
 40
0.0
 40
0.0
 40
0.2379498705
 40
0.5198439521
 40
0.7903842031
 40
1.0
 40
1.0
 40
1.0
 40
1.0
 10
105.3952527819
 20
128.0252656615
 30
0.0
 10
105.3945530237
 20
127.9692066285
 30
0.0
 10
105.3796490998
 20
127.846894278
 30
0.0
 10
105.3292928856
 20
127.6669142585
 30
0.0
 10
105.2554860741
 20
127.5025889548
 30
0.0
 10
105.1912027498
 20
127.4080680186
 30
0.0
 10
105.1574373513
 20
127.3720259122
 30
0.0
  0
SPLINE
  5
489
100
AcDbEntity
  8
_1
100
AcDbSpline
 62
7
  6
CONTINUOUS
 70
0
 71
3
 72
11
 73
7
 74
0
 42
0.0000001
 43
0.0000001
 44
0.0000000001
 40
0.0
 40
0.0
 40
0.0
 40
0.0
 40
0.2383229435
 40
0.5010925495
 40
0.7632691273
 40
1.0
 40
1.0
 40
1.0
 40
1.0
 10
104.8039363368
 20
127.9772414435
 30
0.0
 10
104.8048003435
 20
127.9195860316
 30
0.0
 10
104.8275489366
 20
127.7985742904
 30
0.0
 10
104.9036734514
 20
127.6288518338
 30
0.0
 10
105.0138387885
 20
127.4794513511
 30
0.0
 10
105.1078340055
 20
127.4006637694
 30
0.0
 10
105.1574373513
 20
127.3720259122
 30
0.0
  0
SPLINE
  5
48A
100
AcDbEntity
  8
_1
100
AcDbSpline
 62
7
  6
CONTINUOUS
 70
0
 71
3
 72
10
 73
6
 74
0
 42
0.0000001
 43
0.0000001
 44
0.0000000001
 40
0.0
 40
0.0
 40
0.0
 40
0.0
 40
0.514645696
 40
0.7697666025
 40
1.0
 40
1.0
 40
1.0
 40
1.0
 10
105.3952527819
 20
128.0252656615
 30
0.0
 10
105.295842922
 20
128.0552062438
 30
0.0
 10
105.1363927404
 20
128.0689291601
 30
0.0
 10
104.9369919943
 20
128.035360391
 30
0.0
 10
104.8445147233
 20
127.9998375951
 30
0.0
 10
104.8039363368
 20
127.9772414435
 30
0.0
  0
SPLINE
  5
48B
100
AcDbEntity
  8
_1
100
AcDbSpline
 62
7
  6
CONTINUOUS
 70
0
 71
3
 72
11
 73
7
 74
0
 42
0.0000001
 43
0.0000001
 44
0.0000000001
 40
0.0
 40
0.0
 40
0.0
 40
0.0
 40
0.2268622233
 40
0.4989074945
 40
0.7715930573
 40
1.0
 40
1.0
 40
1.0
 40
1.0
 10
95.8616648382
 20
122.0051411859
 30
0.0
 10
95.8141284511
 20
122.0325861428
 30
0.0
 10
95.7197296113
 20
122.1106597395
 30
0.0
 10
95.6074311936
 20
122.2617069148
 30
0.0
 10
95.5309330186
 20
122.4340843461
 30
0.0
 10
95.5089918997
 20
122.5550989728
 30
0.0
 10
95.5081638238
 20
122.6103567167
 30
0.0
  0
SPLINE
  5
48C
100
AcDbEntity
  8
_1
100
AcDbSpline
 62
7
  6
CONTINUOUS
 70
0
 71
3
 72
11
 73
7
 74
0
 42
0.0000001
 43
0.0000001
 44
0.0000000001
 40
0.0
 40
0.0
 40
0.0
 40
0.0
 40
0.2284071992
 40
0.5010930367
 40
0.7731382718
 40
1.0
 40
1.0
 40
1.0
 40
1.0
 10
91.2661693114
 20
122.6103465202
 30
0.0
 10
91.265341242
 20
122.555088746
 30
0.0
 10
91.2434003049
 20
122.4340740594
 30
0.0
 10
91.1669028215
 20
122.2616963399
 30
0.0
 10
91.0546054084
 20
122.110648664
 30
0.0
 10
90.9602072986
 20
122.032574514
 30
0.0
 10
90.9126712405
 20
122.00512929
 30
0.0
  0
SPLINE
  5
48D
100
AcDbEntity
  8
_1
100
AcDbSpline
 62
7
  6
CONTINUOUS
 70
0
 71
3
 72
12
 73
8
 74
0
 42
0.0000001
 43
0.0000001
 44
0.0000000001
 40
0.0
 40
0.0
 40
0.0
 40
0.0
 40
0.2895535993
 40
0.5486499561
 40
0.7816322685
 40
0.891839594
 40
1.0
 40
1.0
 40
1.0
 40
1.0
 10
42.9706335837
 20
80.8469784017
 30
0.0
 10
42.9706335837
 20
80.6442548765
 30
0.0
 10
42.9398811241
 20
80.2587666445
 30
0.0
 10
42.7840826758
 20
79.7294002431
 30
0.0
 10
42.559997464
 20
79.3642289814
 30
0.0
 10
42.3338701094
 20
79.1416935168
 30
0.0
 10
42.207752724
 20
79.0537207373
 30
0.0
 10
42.142171922
 20
79.0158585507
 30
0.0
  0
SPLINE
  5
48E
100
AcDbEntity
  8
_1
100
AcDbSpline
 62
7
  6
CONTINUOUS
 70
0
 71
3
 72
10
 73
6
 74
0
 42
0.0000001
 43
0.0000001
 44
0.0000000001
 40
0.0
 40
0.0
 40
0.0
 40
0.0
 40
0.2325304966
 40
0.4781121817
 40
1.0
 40
1.0
 40
1.0
 40
1.0
 10
27.6263713894
 20
87.0930510679
 30
0.0
 10
27.6263713894
 20
86.579283318
 30
0.0
 10
27.685735364
 20
85.5222431669
 30
0.0
 10
28.0222974323
 20
83.336321235
 30
0.0
 10
28.5032683478
 20
81.6995910326
 30
0.0
 10
28.9085298898
 20
80.6200610495
 30
0.0
  0
SPLINE
  5
48F
100
AcDbEntity
  8
_1
100
AcDbSpline
 62
7
  6
CONTINUOUS
 70
0
 71
3
 72
10
 73
6
 74
0
 42
0.0000001
 43
0.0000001
 44
0.0000000001
 40
0.0
 40
0.0
 40
0.0
 40
0.0
 40
0.521841476
 40
0.7673851577
 40
1.0
 40
1.0
 40
1.0
 40
1.0
 10
32.939375869
 20
73.6512443654
 30
0.0
 10
33.6687653315
 20
72.7670550772
 30
0.0
 10
34.8402743111
 20
71.5412018989
 30
0.0
 10
36.5559230083
 20
70.1661921372
 30
0.0
 10
37.4367221154
 20
69.5899320524
 30
0.0
 10
37.8791998376
 20
69.3344612397
 30
0.0
  0
SPLINE
  5
490
100
AcDbEntity
  8
_1
100
AcDbSpline
 62
7
  6
CONTINUOUS
 70
0
 71
3
 72
11
 73
7
 74
0
 42
0.0000001
 43
0.0000001
 44
0.0000000001
 40
0.0
 40
0.0
 40
0.0
 40
0.0
 40
0.2781109781
 40
0.5368265607
 40
0.7766517036
 40
1.0
 40
1.0
 40
1.0
 40
1.0
 10
44.7256882391
 20
77.2209792179
 30
0.0
 10
44.7256882391
 20
76.8868518798
 30
0.0
 10
44.6903976474
 20
76.241053381
 30
0.0
 10
44.518857728
 20
75.320812341
 30
0.0
 10
44.2323544939
 20
74.4984209138
 30
0.0
 10
43.9581058038
 20
74.009682329
 30
0.0
 10
43.8032959205
 20
73.7905081818
 30
0.0
  0
SPLINE
  5
491
100
AcDbEntity
  8
_1
100
AcDbSpline
 62
7
  6
CONTINUOUS
 70
0
 71
3
 72
11
 73
7
 74
0
 42
0.0000001
 43
0.0000001
 44
0.0000000001
 40
0.0
 40
0.0
 40
0.0
 40
0.0
 40
0.2897783594
 40
0.5490668953
 40
0.7822255694
 40
1.0
 40
1.0
 40
1.0
 40
1.0
 10
51.4579392019
 20
59.0453556731
 30
0.0
 10
51.5896112898
 20
58.9693364774
 30
0.0
 10
51.8514510688
 20
58.8447081104
 30
0.0
 10
52.2539718129
 20
58.7475997314
 30
0.0
 10
52.6315960961
 20
58.7571157277
 30
0.0
 10
52.8589666841
 20
58.8396727873
 30
0.0
 10
52.9579220561
 20
58.896800924
 30
0.0
  0
SPLINE
  5
492
100
AcDbEntity
  8
_1
100
AcDbSpline
 62
7
  6
CONTINUOUS
 70
0
 71
3
 72
11
 73
7
 74
0
 42
0.0000001
 43
0.0000001
 44
0.0000000001
 40
0.0
 40
0.0
 40
0.0
 40
0.0
 40
0.2897016594
 40
0.5490895814
 40
0.7822189142
 40
1.0
 40
1.0
 40
1.0
 40
1.0
 10
29.7381709997
 20
101.1941854577
 30
0.0
 10
29.7381709997
 20
101.0801825344
 30
0.0
 10
29.7208866012
 20
100.863372023
 30
0.0
 10
29.6330855384
 20
100.5654835459
 30
0.0
 10
29.4852469378
 20
100.3237641023
 30
0.0
 10
29.3463812352
 20
100.2070295733
 30
0.0
 10
29.2721652433
 20
100.1641737286
 30
0.0
  0
SPLINE
  5
493
100
AcDbEntity
  8
_1
100
AcDbSpline
 62
7
  6
CONTINUOUS
 70
0
 71
3
 72
11
 73
7
 74
0
 42
0.0000001
 43
0.0000001
 44
0.0000000001
 40
0.0
 40
0.0
 40
0.0
 40
0.0
 40
0.2897016594
 40
0.5490895814
 40
0.7822189142
 40
1.0
 40
1.0
 40
1.0
 40
1.0
 10
52.7382667576
 20
61.357072171
 30
0.0
 10
52.7382667576
 20
61.2430692476
 30
0.0
 10
52.7209823591
 20
61.0262587362
 30
0.0
 10
52.6331812964
 20
60.7283702591
 30
0.0
 10
52.4853426958
 20
60.4866508156
 30
0.0
 10
52.3464769931
 20
60.3699162866
 30
0.0
 10
52.2722610013
 20
60.3270604419
 30
0.0
  0
SPLINE
  5
494
100
AcDbEntity
  8
_1
100
AcDbSpline
 62
7
  6
CONTINUOUS
 70
0
 71
3
 72
11
 73
7
 74
0
 42
0.0000001
 43
0.0000001
 44
0.0000000001
 40
0.0
 40
0.0
 40
0.0
 40
0.0
 40
0.2897016594
 40
0.5490895814
 40
0.7822189142
 40
1.0
 40
1.0
 40
1.0
 40
1.0
 10
52.7382667576
 20
87.9153743874
 30
0.0
 10
52.7382667576
 20
87.801371464
 30
0.0
 10
52.7209823591
 20
87.5845609526
 30
0.0
 10
52.6331812964
 20
87.2866724755
 30
0.0
 10
52.4853426958
 20
87.0449530319
 30
0.0
 10
52.3464769931
 20
86.9282185029
 30
0.0
 10
52.2722610013
 20
86.8853626582
 30
0.0
  0
SPLINE
  5
495
100
AcDbEntity
  8
_1
100
AcDbSpline
 62
7
  6
CONTINUOUS
 70
0
 71
3
 72
17
 73
13
 74
0
 42
0.0000001
 43
0.0000001
 44
0.0000000001
 40
0.0
 40
0.0
 40
0.0
 40
0.0
 40
0.0428592926
 40
0.087485474
 40
0.1353198781
 40
0.1872819044
 40
0.3045421965
 40
0.4382074305
 40
0.582548911
 40
0.7297129633
 40
0.8713059682
 40
1.0
 40
1.0
 40
1.0
 40
1.0
 10
50.0222787508
 20
64.2241672955
 30
0.0
 10
50.0777461888
 20
64.2561968332
 30
0.0
 10
50.2000340775
 20
64.3069750865
 30
0.0
 10
50.4018593775
 20
64.3365991201
 30
0.0
 10
50.6186135165
 20
64.3206291977
 30
0.0
 10
50.933552189
 20
64.2368658836
 30
0.0
 10
51.3361524214
 20
64.0167216298
 30
0.0
 10
51.7809617076
 20
63.6227969355
 30
0.0
 10
52.1741718562
 20
63.1195250039
 30
0.0
 10
52.4836233998
 20
62.5475507027
 30
0.0
 10
52.6844667877
 20
61.9537909965
 30
0.0
 10
52.7382667576
 20
61.5493986951
 30
0.0
 10
52.7382667576
 20
61.357072171
 30
0.0
  0
SPLINE
  5
496
100
AcDbEntity
  8
_1
100
AcDbSpline
 62
7
  6
CONTINUOUS
 70
0
 71
3
 72
11
 73
7
 74
0
 42
0.0000001
 43
0.0000001
 44
0.0000000001
 40
0.0
 40
0.0
 40
0.0
 40
0.0
 40
0.2887636635
 40
0.547691989
 40
0.7812571884
 40
1.0
 40
1.0
 40
1.0
 40
1.0
 10
98.8335908703
 20
86.3552032437
 30
0.0
 10
98.8313427452
 20
86.2077810718
 30
0.0
 10
98.8048336738
 20
85.9275600744
 30
0.0
 10
98.6857459405
 20
85.5431951711
 30
0.0
 10
98.4904984256
 20
85.2313038497
 30
0.0
 10
98.3092934415
 20
85.0802677517
 30
0.0
 10
98.2125676378
 20
85.0244267718
 30
0.0
  0
SPLINE
  5
497
100
AcDbEntity
  8
_1
100
AcDbSpline
 62
7
  6
CONTINUOUS
 70
0
 71
3
 72
13
 73
9
 74
0
 42
0.0000001
 43
0.0000001
 44
0.0000000001
 40
0.0
 40
0.0
 40
0.0
 40
0.0
 40
0.1140335974
 40
0.2370283843
 40
0.4989145155
 40
0.7613934164
 40
0.8850817069
 40
1.0
 40
1.0
 40
1.0
 40
1.0
 10
96.7125847836
 20
117.833078206
 30
0.0
 10
96.8561179634
 20
117.7502111607
 30
0.0
 10
97.1397610154
 20
117.5518099798
 30
0.0
 10
97.6715537986
 20
117.0563466053
 30
0.0
 10
98.235433752
 20
116.2922495213
 30
0.0
 10
98.6241052774
 20
115.4248131713
 30
0.0
 10
98.7962308358
 20
114.7154405692
 30
0.0
 10
98.8310881989
 20
114.3687889904
 30
0.0
 10
98.8335908703
 20
114.2017850183
 30
0.0
  0
SPLINE
  5
498
100
AcDbEntity
  8
_1
100
AcDbSpline
 62
7
  6
CONTINUOUS
 70
0
 71
3
 72
17
 73
13
 74
0
 42
0.0000001
 43
0.0000001
 44
0.0000000001
 40
0.0
 40
0.0
 40
0.0
 40
0.0
 40
0.0441066615
 40
0.091299225
 40
0.1422648287
 40
0.1973011347
 40
0.3190461817
 40
0.4537512618
 40
0.5958750682
 40
0.7386867463
 40
0.8753450878
 40
1.0
 40
1.0
 40
1.0
 40
1.0
 10
56.3612315668
 20
106.0659953487
 30
0.0
 10
56.31299828
 20
106.2103562747
 30
0.0
 10
56.1790002955
 20
106.4984995452
 30
0.0
 10
55.8881057289
 20
106.8970510264
 30
0.0
 10
55.5081691088
 20
107.2677488264
 30
0.0
 10
54.8714520216
 20
107.73212021
 30
0.0
 10
53.8912633786
 20
108.1960484847
 30
0.0
 10
52.5538984178
 20
108.5430368346
 30
0.0
 10
51.1059024834
 20
108.6764713306
 30
0.0
 10
49.6478469829
 20
108.5867095778
 30
0.0
 10
48.2812740985
 20
108.2806960874
 30
0.0
 10
47.444314796
 20
107.9247825112
 30
0.0
 10
47.0717799042
 20
107.709700675
 30
0.0
  0
SPLINE
  5
499
100
AcDbEntity
  8
_1
100
AcDbSpline
 62
7
  6
CONTINUOUS
 70
0
 71
3
 72
11
 73
7
 74
0
 42
0.0000001
 43
0.0000001
 44
0.0000000001
 40
0.0
 40
0.0
 40
0.0
 40
0.0
 40
0.2207921711
 40
0.4589209962
 40
0.7183024692
 40
1.0
 40
1.0
 40
1.0
 40
1.0
 10
56.8522034138
 20
104.8080617666
 30
0.0
 10
56.7942148621
 20
104.6345683389
 30
0.0
 10
56.6282305974
 20
104.2881577238
 30
0.0
 10
56.2619724799
 20
103.8146736708
 30
0.0
 10
55.7807624725
 20
103.3800808011
 30
0.0
 10
55.4056624281
 20
103.1316257332
 30
0.0
 10
55.2035417434
 20
103.014931998
 30
0.0
  0
SPLINE
  5
49A
100
AcDbEntity
  8
_1
100
AcDbSpline
 62
7
  6
CONTINUOUS
 70
0
 71
3
 72
10
 73
6
 74
0
 42
0.0000001
 43
0.0000001
 44
0.0000000001
 40
0.0
 40
0.0
 40
0.0
 40
0.0
 40
0.519141594
 40
0.7622822955
 40
1.0
 40
1.0
 40
1.0
 40
1.0
 10
94.2640693895
 20
83.0635077984
 30
0.0
 10
94.3991384503
 20
83.0429975116
 30
0.0
 10
94.6041139828
 20
83.0390190569
 30
0.0
 10
94.8605356828
 20
83.1030109715
 30
0.0
 10
94.9764227873
 20
83.1560507034
 30
0.0
 10
95.0306003703
 20
83.1873280794
 30
0.0
  0
SPLINE
  5
49B
100
AcDbEntity
  8
_1
100
AcDbSpline
 62
7
  6
CONTINUOUS
 70
0
 71
3
 72
11
 73
7
 74
0
 42
0.0000001
 43
0.0000001
 44
0.0000000001
 40
0.0
 40
0.0
 40
0.0
 40
0.0
 40
0.2177648073
 40
0.4508950352
 40
0.7103684932
 40
1.0
 40
1.0
 40
1.0
 40
1.0
 10
43.7256111436
 20
100.565446763
 30
0.0
 10
43.7255922337
 20
100.5178407148
 30
0.0
 10
43.7080740671
 20
100.418602239
 30
0.0
 10
43.632802414
 20
100.2803251398
 30
0.0
 10
43.5138566895
 20
100.1553622354
 30
0.0
 10
43.4143587079
 20
100.0868040899
 30
0.0
 10
43.3595245024
 20
100.0551457355
 30
0.0
  0
SPLINE
  5
49C
100
AcDbEntity
  8
_1
100
AcDbSpline
 62
7
  6
CONTINUOUS
 70
0
 71
3
 72
11
 73
7
 74
0
 42
0.0000001
 43
0.0000001
 44
0.0000000001
 40
0.0
 40
0.0
 40
0.0
 40
0.0
 40
0.2179909364
 40
0.4527821877
 40
0.712576751
 40
1.0
 40
1.0
 40
1.0
 40
1.0
 10
59.9844354547
 20
105.5342618537
 30
0.0
 10
59.9769909407
 20
105.6034111704
 30
0.0
 10
59.9381487651
 20
105.7452408511
 30
0.0
 10
59.8175188361
 20
105.9407849812
 30
0.0
 10
59.6397811333
 20
106.1184155102
 30
0.0
 10
59.494642869
 20
106.21717378
 30
0.0
 10
59.4152270939
 20
106.2630234619
 30
0.0
  0
SPLINE
  5
49D
100
AcDbEntity
  8
_1
100
AcDbSpline
 62
7
  6
CONTINUOUS
 70
0
 71
3
 72
11
 73
7
 74
0
 42
0.0000001
 43
0.0000001
 44
0.0000000001
 40
0.0
 40
0.0
 40
0.0
 40
0.0
 40
0.2887636635
 40
0.547691989
 40
0.7812571884
 40
1.0
 40
1.0
 40
1.0
 40
1.0
 10
57.1144644747
 20
62.2687981653
 30
0.0
 10
57.1122163496
 20
62.1213759934
 30
0.0
 10
57.0857072782
 20
61.841154996
 30
0.0
 10
56.9666195449
 20
61.4567900927
 30
0.0
 10
56.77137203
 20
61.1448987713
 30
0.0
 10
56.5901670459
 20
60.9938626733
 30
0.0
 10
56.4934412422
 20
60.9380216934
 30
0.0
  0
SPLINE
  5
49E
100
AcDbEntity
  8
_1
100
AcDbSpline
 62
7
  6
CONTINUOUS
 70
0
 71
3
 72
11
 73
7
 74
0
 42
0.0000001
 43
0.0000001
 44
0.0000000001
 40
0.0
 40
0.0
 40
0.0
 40
0.0
 40
0.2177918995
 40
0.4509504293
 40
0.7102769398
 40
1.0
 40
1.0
 40
1.0
 40
1.0
 10
67.3383961269
 20
128.7810890287
 30
0.0
 10
67.2394220903
 20
128.7239703833
 30
0.0
 10
67.0542716985
 20
128.5682721613
 30
0.0
 10
66.8571710712
 20
128.2459963848
 30
0.0
 10
66.7400571372
 20
127.8488269426
 30
0.0
 10
66.7170666443
 20
127.559761324
 30
0.0
 10
66.7170665966
 20
127.4077463681
 30
0.0
  0
SPLINE
  5
49F
100
AcDbEntity
  8
_1
100
AcDbSpline
 62
7
  6
CONTINUOUS
 70
0
 71
3
 72
11
 73
7
 74
0
 42
0.0000001
 43
0.0000001
 44
0.0000000001
 40
0.0
 40
0.0
 40
0.0
 40
0.0
 40
0.2177744306
 40
0.4509331047
 40
0.7102216406
 40
1.0
 40
1.0
 40
1.0
 40
1.0
 10
71.5911675198
 20
131.6191659479
 30
0.0
 10
71.6901228917
 20
131.6762940846
 30
0.0
 10
71.9174934798
 20
131.7588511441
 30
0.0
 10
72.295117763
 20
131.7683671405
 30
0.0
 10
72.6976385071
 20
131.6712587615
 30
0.0
 10
72.959478286
 20
131.5466303945
 30
0.0
 10
73.091150374
 20
131.4706111988
 30
0.0
  0
SPLINE
  5
4A0
100
AcDbEntity
  8
_1
100
AcDbSpline
 62
7
  6
CONTINUOUS
 70
0
 71
3
 72
10
 73
6
 74
0
 42
0.0000001
 43
0.0000001
 44
0.0000000001
 40
0.0
 40
0.0
 40
0.0
 40
0.0
 40
0.2374712526
 40
0.4804822338
 40
1.0
 40
1.0
 40
1.0
 40
1.0
 10
68.4092002523
 20
129.7820672554
 30
0.0
 10
68.3543959817
 20
129.7504280852
 30
0.0
 10
68.249360072
 20
129.6755795652
 30
0.0
 10
68.064001096
 20
129.4825070891
 30
0.0
 10
67.9646956843
 20
129.3000386989
 30
0.0
 10
67.9150760403
 20
129.1707950912
 30
0.0
  0
SPLINE
  5
4A1
100
AcDbEntity
  8
_1
100
AcDbSpline
 62
7
  6
CONTINUOUS
 70
0
 71
3
 72
17
 73
13
 74
0
 42
0.0000001
 43
0.0000001
 44
0.0000000001
 40
0.0
 40
0.0
 40
0.0
 40
0.0
 40
0.0428592926
 40
0.087485474
 40
0.1353198781
 40
0.1872819044
 40
0.3045421965
 40
0.4382074305
 40
0.582548911
 40
0.7297129633
 40
0.8713059682
 40
1.0
 40
1.0
 40
1.0
 40
1.0
 10
27.0221829929
 20
104.0612805822
 30
0.0
 10
27.0776504308
 20
104.0933101199
 30
0.0
 10
27.1999383195
 20
104.1440883733
 30
0.0
 10
27.4017636196
 20
104.1737124069
 30
0.0
 10
27.6185177586
 20
104.1577424844
 30
0.0
 10
27.9334564311
 20
104.0739791703
 30
0.0
 10
28.3360566634
 20
103.8538349165
 30
0.0
 10
28.7808659497
 20
103.4599102222
 30
0.0
 10
29.1740760983
 20
102.9566382907
 30
0.0
 10
29.4835276418
 20
102.3846639895
 30
0.0
 10
29.6843710298
 20
101.7909042833
 30
0.0
 10
29.7381709997
 20
101.3865119818
 30
0.0
 10
29.7381709997
 20
101.1941854577
 30
0.0
  0
SPLINE
  5
4A2
100
AcDbEntity
  8
_1
100
AcDbSpline
 62
7
  6
CONTINUOUS
 70
0
 71
3
 72
13
 73
9
 74
0
 42
0.0000001
 43
0.0000001
 44
0.0000000001
 40
0.0
 40
0.0
 40
0.0
 40
0.0
 40
0.1140335974
 40
0.2370283843
 40
0.4989145155
 40
0.7613934164
 40
0.8850817069
 40
1.0
 40
1.0
 40
1.0
 40
1.0
 10
54.9934583879
 20
93.7466731276
 30
0.0
 10
55.1369915678
 20
93.6638060823
 30
0.0
 10
55.4206346198
 20
93.4654049013
 30
0.0
 10
55.952427403
 20
92.9699415269
 30
0.0
 10
56.5163073564
 20
92.2058444429
 30
0.0
 10
56.9049788818
 20
91.3384080929
 30
0.0
 10
57.0771044402
 20
90.6290354908
 30
0.0
 10
57.1119618033
 20
90.282383912
 30
0.0
 10
57.1144644747
 20
90.1153799399
 30
0.0
  0
SPLINE
  5
4A3
100
AcDbEntity
  8
_1
100
AcDbSpline
 62
7
  6
CONTINUOUS
 70
0
 71
3
 72
11
 73
7
 74
0
 42
0.0000001
 43
0.0000001
 44
0.0000000001
 40
0.0
 40
0.0
 40
0.0
 40
0.0
 40
0.2187428116
 40
0.452308011
 40
0.7112363365
 40
1.0
 40
1.0
 40
1.0
 40
1.0
 10
26.3365219381
 20
105.4915401001
 30
0.0
 10
26.2397961343
 20
105.4356991202
 30
0.0
 10
26.0585911502
 20
105.2846630221
 30
0.0
 10
25.8633436353
 20
104.9727717008
 30
0.0
 10
25.7442559021
 20
104.5884067975
 30
0.0
 10
25.7177468306
 20
104.3081858
 30
0.0
 10
25.7154987056
 20
104.1607636282
 30
0.0
  0
SPLINE
  5
4A4
100
AcDbEntity
  8
_1
100
AcDbSpline
 62
7
  6
CONTINUOUS
 70
0
 71
3
 72
11
 73
7
 74
0
 42
0.0000001
 43
0.0000001
 44
0.0000000001
 40
0.0
 40
0.0
 40
0.0
 40
0.0
 40
0.2177744306
 40
0.4509331047
 40
0.7102216406
 40
1.0
 40
1.0
 40
1.0
 40
1.0
 10
29.8720411241
 20
107.5327608694
 30
0.0
 10
29.9709964961
 20
107.5898890062
 30
0.0
 10
30.1983670841
 20
107.6724460657
 30
0.0
 10
30.5759913674
 20
107.6819620621
 30
0.0
 10
30.9785121115
 20
107.5848536831
 30
0.0
 10
31.2403518904
 20
107.460225316
 30
0.0
 10
31.3720239784
 20
107.3842061204
 30
0.0
  0
SPLINE
  5
4A5
100
AcDbEntity
  8
_1
100
AcDbSpline
 62
7
  6
CONTINUOUS
 70
0
 71
3
 72
17
 73
13
 74
0
 42
0.0000001
 43
0.0000001
 44
0.0000000001
 40
0.0
 40
0.0
 40
0.0
 40
0.0
 40
0.0428592926
 40
0.087485474
 40
0.1353198781
 40
0.1872819044
 40
0.3045421965
 40
0.4382074305
 40
0.582548911
 40
0.7297129633
 40
0.8713059682
 40
1.0
 40
1.0
 40
1.0
 40
1.0
 10
50.0222787508
 20
90.7824695118
 30
0.0
 10
50.0777461888
 20
90.8144990495
 30
0.0
 10
50.2000340775
 20
90.8652773029
 30
0.0
 10
50.4018593775
 20
90.8949013365
 30
0.0
 10
50.6186135165
 20
90.878931414
 30
0.0
 10
50.933552189
 20
90.7951680999
 30
0.0
 10
51.3361524214
 20
90.5750238461
 30
0.0
 10
51.7809617076
 20
90.1810991519
 30
0.0
 10
52.1741718562
 20
89.6778272203
 30
0.0
 10
52.4836233998
 20
89.1058529191
 30
0.0
 10
52.6844667877
 20
88.5120932129
 30
0.0
 10
52.7382667576
 20
88.1077009114
 30
0.0
 10
52.7382667576
 20
87.9153743874
 30
0.0
  0
SPLINE
  5
4A6
100
AcDbEntity
  8
_1
100
AcDbSpline
 62
7
  6
CONTINUOUS
 70
0
 71
3
 72
14
 73
10
 74
0
 42
0.0000001
 43
0.0000001
 44
0.0000000001
 40
0.0
 40
0.0
 40
0.0
 40
0.0
 40
0.1080479413
 40
0.2181317363
 40
0.3321061282
 40
0.4515063698
 40
0.5774606203
 40
0.710719579
 40
1.0
 40
1.0
 40
1.0
 40
1.0
 10
30.7330478992
 20
94.3680826466
 30
0.0
 10
30.4871133591
 20
94.2260925632
 30
0.0
 10
30.0142916708
 20
93.8961202611
 30
0.0
 10
29.3895070387
 20
93.281266941
 30
0.0
 10
28.852149761
 20
92.5514932381
 30
0.0
 10
28.4073145708
 20
91.7150156087
 30
0.0
 10
28.0582149392
 20
90.780330613
 30
0.0
 10
27.715137983
 20
89.3776149162
 30
0.0
 10
27.6263684454
 20
88.2616044253
 30
0.0
 10
27.6263684454
 20
87.5012935221
 30
0.0
  0
SPLINE
  5
4A7
100
AcDbEntity
  8
_1
100
AcDbSpline
 62
7
  6
CONTINUOUS
 70
0
 71
3
 72
14
 73
10
 74
0
 42
0.0000001
 43
0.0000001
 44
0.0000000001
 40
0.0
 40
0.0
 40
0.0
 40
0.0
 40
0.2892707421
 40
0.4225372666
 40
0.5484967151
 40
0.6678940072
 40
0.7818683461
 40
0.8919523835
 40
1.0
 40
1.0
 40
1.0
 40
1.0
 10
38.232742714
 20
69.1303027611
 30
0.0
 10
38.8911728548
 20
68.7501470327
 30
0.0
 10
39.9020601301
 20
68.2690195643
 30
0.0
 10
41.2883993807
 20
67.8647331196
 30
0.0
 10
42.2724432614
 20
67.699674584
 30
0.0
 10
43.2192906047
 20
67.6666895928
 30
0.0
 10
44.1199760998
 20
67.7671554884
 30
0.0
 10
44.9648613988
 20
68.0007988974
 30
0.0
 10
45.4870438307
 20
68.2452903073
 30
0.0
 10
45.7329807461
 20
68.387281762
 30
0.0
  0
SPLINE
  5
4A8
100
AcDbEntity
  8
_1
100
AcDbSpline
 62
7
  6
CONTINUOUS
 70
0
 71
3
 72
19
 73
15
 74
0
 42
0.0000001
 43
0.0000001
 44
0.0000000001
 40
0.0
 40
0.0
 40
0.0
 40
0.0
 40
0.0450625005
 40
0.093446635
 40
0.1456160075
 40
0.2017105724
 40
0.2616012286
 40
0.3249440644
 40
0.4597109229
 40
0.6007972225
 40
0.7418958717
 40
0.8767005371
 40
0.9400850917
 40
1.0
 40
1.0
 40
1.0
 40
1.0
 10
34.4475163334
 20
89.9952887316
 30
0.0
 10
34.7141323491
 20
90.0197197276
 30
0.0
 10
35.2732378723
 20
90.013011533
 30
0.0
 10
36.1266403627
 20
89.8507469546
 30
0.0
 10
37.0074600028
 20
89.5407008761
 30
0.0
 10
37.9011762
 20
89.0888370243
 30
0.0
 10
38.7935896554
 20
88.5030664981
 30
0.0
 10
39.9863262211
 20
87.5369217386
 30
0.0
 10
41.3718308052
 20
86.0590677575
 30
0.0
 10
42.7717744808
 20
84.0044118896
 30
0.0
 10
43.8527059971
 20
81.7652260447
 30
0.0
 10
44.4414060247
 20
79.826249603
 30
0.0
 10
44.6829903255
 20
78.309971167
 30
0.0
 10
44.7256882391
 20
77.5769559071
 30
0.0
 10
44.7256882391
 20
77.2209792179
 30
0.0
  0
SPLINE
  5
4A9
100
AcDbEntity
  8
_1
100
AcDbSpline
 62
7
  6
CONTINUOUS
 70
0
 71
3
 72
9
 73
5
 74
0
 42
0.0000001
 43
0.0000001
 44
0.0000000001
 40
0.0
 40
0.0
 40
0.0
 40
0.0
 40
0.5042296085
 40
1.0
 40
1.0
 40
1.0
 40
1.0
 10
43.7815525378
 20
73.8018032971
 30
0.0
 10
43.6655112292
 20
73.6724801109
 30
0.0
 10
43.4157906243
 20
73.4327778119
 30
0.0
 10
43.1309419834
 20
73.2358494054
 30
0.0
 10
42.9829841832
 20
73.1504439629
 30
0.0
  0
SPLINE
  5
4AA
100
AcDbEntity
  8
_1
100
AcDbSpline
 62
7
  6
CONTINUOUS
 70
0
 71
3
 72
9
 73
5
 74
0
 42
0.0000001
 43
0.0000001
 44
0.0000000001
 40
0.0
 40
0.0
 40
0.0
 40
0.0
 40
0.4957671911
 40
1.0
 40
1.0
 40
1.0
 40
1.0
 10
33.4830444622
 20
89.6049204458
 30
0.0
 10
33.6311356826
 20
89.6904029022
 30
0.0
 10
33.9443848212
 20
89.8387607638
 30
0.0
 10
34.277159036
 20
89.9352120035
 30
0.0
 10
34.4473476108
 20
89.9710054002
 30
0.0
  0
SPLINE
  5
4AB
100
AcDbEntity
  8
_1
100
AcDbSpline
 62
7
  6
CONTINUOUS
 70
0
 71
3
 72
11
 73
7
 74
0
 42
0.0000001
 43
0.0000001
 44
0.0000000001
 40
0.0
 40
0.0
 40
0.0
 40
0.0
 40
0.2276981608
 40
0.475367978
 40
0.7357062494
 40
1.0
 40
1.0
 40
1.0
 40
1.0
 10
66.7170553183
 20
127.4077398566
 30
0.0
 10
66.7170552565
 20
127.2110135495
 30
0.0
 10
66.7593699626
 20
126.7998755282
 30
0.0
 10
66.9244681071
 20
126.1838732332
 30
0.0
 10
67.185908632
 20
125.5678280733
 30
0.0
 10
67.4168173299
 20
125.1760046906
 30
0.0
 10
67.5455425953
 20
124.987402363
 30
0.0
  0
SPLINE
  5
4AC
100
AcDbEntity
  8
_1
100
AcDbSpline
 62
7
  6
CONTINUOUS
 70
0
 71
3
 72
18
 73
14
 74
0
 42
0.0000001
 43
0.0000001
 44
0.0000000001
 40
0.0
 40
0.0
 40
0.0
 40
0.0
 40
0.0428471015
 40
0.0874651601
 40
0.1352871894
 40
0.1872370055
 40
0.2437294067
 40
0.3047357141
 40
0.4383688114
 40
0.5826750711
 40
0.7297918983
 40
0.8713417943
 40
1.0
 40
1.0
 40
1.0
 40
1.0
 10
38.1422174443
 20
85.9440242888
 30
0.0
 10
38.2408294176
 20
86.0009565742
 30
0.0
 10
38.4581999097
 20
86.0913207392
 30
0.0
 10
38.8170376773
 20
86.1439124573
 30
0.0
 10
39.2023674353
 20
86.115520007
 30
0.0
 10
39.6056447669
 20
86.0084087688
 30
0.0
 10
40.0189675818
 20
85.8257480251
 30
0.0
 10
40.5895264663
 20
85.4765053458
 30
0.0
 10
41.2692386175
 20
84.8745411429
 30
0.0
 10
41.9677526185
 20
83.9802679478
 30
0.0
 10
42.5179925996
 20
82.9633078853
 30
0.0
 10
42.8749752768
 20
81.9077967211
 30
0.0
 10
42.9706335837
 20
81.1888889178
 30
0.0
 10
42.9706335837
 20
80.8469784017
 30
0.0
  0
SPLINE
  5
4AD
100
AcDbEntity
  8
_1
100
AcDbSpline
 62
7
  6
CONTINUOUS
 70
0
 71
3
 72
12
 73
8
 74
0
 42
0.0000001
 43
0.0000001
 44
0.0000000001
 40
0.0
 40
0.0
 40
0.0
 40
0.0
 40
0.2873657996
 40
0.5468416914
 40
0.7815287733
 40
0.8921759201
 40
1.0
 40
1.0
 40
1.0
 40
1.0
 10
40.3852166612
 20
105.0382503568
 30
0.0
 10
40.1027069337
 20
104.8751442632
 30
0.0
 10
39.5865217711
 20
104.5240003314
 30
0.0
 10
38.954726987
 20
103.8927569315
 30
0.0
 10
38.5903539978
 20
103.3006382924
 30
0.0
 10
38.4201740397
 20
102.813475582
 30
0.0
 10
38.3742164848
 20
102.5685710439
 30
0.0
 10
38.3611425908
 20
102.446870883
 30
0.0
  0
SPLINE
  5
4AE
100
AcDbEntity
  8
_1
100
AcDbSpline
 62
7
  6
CONTINUOUS
 70
0
 71
3
 72
11
 73
7
 74
0
 42
0.0000001
 43
0.0000001
 44
0.0000000001
 40
0.0
 40
0.0
 40
0.0
 40
0.0
 40
0.2372405738
 40
0.5000004574
 40
0.7627600882
 40
1.0
 40
1.0
 40
1.0
 40
1.0
 10
52.3441298424
 20
110.3454310071
 30
0.0
 10
52.1477416771
 20
110.4588132022
 30
0.0
 10
51.6910451066
 20
110.6242638972
 30
0.0
 10
50.9608461868
 20
110.7035309402
 30
0.0
 10
50.2306482629
 20
110.6242606275
 30
0.0
 10
49.7739533447
 20
110.458807652
 30
0.0
 10
49.577566545
 20
110.3454243571
 30
0.0
  0
SPLINE
  5
4AF
100
AcDbEntity
  8
_1
100
AcDbSpline
 62
7
  6
CONTINUOUS
 70
0
 71
3
 72
16
 73
12
 74
0
 42
0.0000001
 43
0.0000001
 44
0.0000000001
 40
0.0
 40
0.0
 40
0.0
 40
0.0
 40
0.1287443602
 40
0.2703971121
 40
0.4176139114
 40
0.5620190713
 40
0.6957499754
 40
0.8130650626
 40
0.9124721117
 40
0.9571211941
 40
1.0
 40
1.0
 40
1.0
 40
1.0
 10
43.3595245024
 20
100.0551457355
 30
0.0
 10
43.2669953913
 20
100.0017243472
 30
0.0
 10
43.0574915905
 20
99.9152855561
 30
0.0
 10
42.7160535089
 20
99.8469640748
 30
0.0
 10
42.3548927689
 20
99.8369921039
 30
0.0
 10
42.0036082028
 20
99.8862734074
 30
0.0
 10
41.6902588415
 20
99.9911527843
 30
0.0
 10
41.4391935468
 20
100.1435221675
 30
0.0
 10
41.2929349163
 20
100.3114776923
 30
0.0
 10
41.2351714997
 20
100.4569125307
 30
0.0
 10
41.2256494134
 20
100.5298620389
 30
0.0
 10
41.2256635482
 20
100.5654465943
 30
0.0
  0
SPLINE
  5
4B0
100
AcDbEntity
  8
_1
100
AcDbSpline
 62
7
  6
CONTINUOUS
 70
0
 71
3
 72
18
 73
14
 74
0
 42
0.0000001
 43
0.0000001
 44
0.0000000001
 40
0.0
 40
0.0
 40
0.0
 40
0.0
 40
0.1246297778
 40
0.2612628224
 40
0.404046921
 40
0.5461472596
 40
0.68083177
 40
0.7436615706
 40
0.8027344718
 40
0.8577623244
 40
0.9087169015
 40
0.9559008792
 40
1.0
 40
1.0
 40
1.0
 40
1.0
 10
55.2035417434
 20
103.014931998
 30
0.0
 10
54.7971485806
 20
102.7803021967
 30
0.0
 10
53.8841040371
 20
102.3920461803
 30
0.0
 10
52.3933641163
 20
102.058170716
 30
0.0
 10
50.8026013234
 20
101.9602942679
 30
0.0
 10
49.2235220555
 20
102.1057717963
 30
0.0
 10
47.978511336
 20
102.4286170925
 30
0.0
 10
47.0872016784
 20
102.8052595745
 30
0.0
 10
46.5036779646
 20
103.1297398262
 30
0.0
 10
46.0001699162
 20
103.4970656805
 30
0.0
 10
45.5857478082
 20
103.9014816221
 30
0.0
 10
45.2683833711
 20
104.3362439944
 30
0.0
 10
45.1221950111
 20
104.6505789605
 30
0.0
 10
45.0695677804
 20
104.8080622582
 30
0.0
  0
SPLINE
  5
4B1
100
AcDbEntity
  8
_1
100
AcDbSpline
 62
7
  6
CONTINUOUS
 70
0
 71
3
 72
11
 73
7
 74
0
 42
0.0000001
 43
0.0000001
 44
0.0000000001
 40
0.0
 40
0.0
 40
0.0
 40
0.0
 40
0.281674696
 40
0.5410848328
 40
0.7792113282
 40
1.0
 40
1.0
 40
1.0
 40
1.0
 10
47.0717799042
 20
107.709700675
 30
0.0
 10
46.8865179591
 20
107.6027402796
 30
0.0
 10
46.5426829344
 20
107.3749727125
 30
0.0
 10
46.1015616225
 20
106.9766139899
 30
0.0
 10
45.7657840936
 20
106.5425858914
 30
0.0
 10
45.6136971077
 20
106.2250223621
 30
0.0
 10
45.5605200703
 20
106.0659968131
 30
0.0
  0
SPLINE
  5
4B2
100
AcDbEntity
  8
_1
100
AcDbSpline
 62
7
  6
CONTINUOUS
 70
0
 71
3
 72
16
 73
12
 74
0
 42
0.0000001
 43
0.0000001
 44
0.0000000001
 40
0.0
 40
0.0
 40
0.0
 40
0.0
 40
0.1461473535
 40
0.2952914132
 40
0.4416404016
 40
0.5797518823
 40
0.7052647663
 40
0.8158117345
 40
0.9121883976
 40
0.9567076569
 40
1.0
 40
1.0
 40
1.0
 40
1.0
 10
90.399545011
 20
85.6056116188
 30
0.0
 10
90.4706166155
 20
85.3796563485
 30
0.0
 10
90.6498667065
 20
84.9337346426
 30
0.0
 10
91.0073364772
 20
84.3111464297
 30
0.0
 10
91.4397624789
 20
83.754084307
 30
0.0
 10
91.9228687404
 20
83.2938095321
 30
0.0
 10
92.4309551568
 20
82.9558147924
 30
0.0
 10
92.9379202093
 20
82.7587056808
 30
0.0
 10
93.3528218308
 20
82.725487234
 30
0.0
 10
93.6464697515
 20
82.7885319235
 30
0.0
 10
93.7776985033
 20
82.8467364973
 30
0.0
 10
93.8384706817
 20
82.8818085681
 30
0.0
  0
SPLINE
  5
4B3
100
AcDbEntity
  8
_1
100
AcDbSpline
 62
7
  6
CONTINUOUS
 70
0
 71
3
 72
21
 73
17
 74
0
 42
0.0000001
 43
0.0000001
 44
0.0000000001
 40
0.0
 40
0.0
 40
0.0
 40
0.0
 40
0.0629720702
 40
0.1300458399
 40
0.2004232937
 40
0.2731992271
 40
0.4215044101
 40
0.5662289862
 40
0.6346982392
 40
0.6993590952
 40
0.7596046053
 40
0.8151338585
 40
0.8660487963
 40
0.9129583425
 40
0.9570457378
 40
1.0
 40
1.0
 40
1.0
 40
1.0
 10
50.2538207708
 20
98.932486804
 30
0.0
 10
49.9955365327
 20
98.7833672197
 30
0.0
 10
49.4409947035
 20
98.5112012589
 30
0.0
 10
48.5456683813
 20
98.1910143793
 30
0.0
 10
47.5775007452
 20
97.9517526779
 30
0.0
 10
46.21082088
 20
97.7465576888
 30
0.0
 10
44.469525055
 20
97.7177161579
 30
0.0
 10
42.7677973381
 20
97.9834947055
 30
0.0
 10
41.5095446478
 20
98.3758928498
 30
0.0
 10
40.6678170097
 20
98.7419439394
 30
0.0
 10
39.9294900185
 20
99.1770684233
 30
0.0
 10
39.3107875709
 20
99.6724938612
 30
0.0
 10
38.8257935334
 20
100.218644097
 30
0.0
 10
38.4870206042
 20
100.8054790439
 30
0.0
 10
38.3058631328
 20
101.4201372569
 30
0.0
 10
38.2957554833
 20
101.8379110491
 30
0.0
 10
38.3174840794
 20
102.0401819647
 30
0.0
  0
SPLINE
  5
4B4
100
AcDbEntity
  8
_1
100
AcDbSpline
 62
7
  6
CONTINUOUS
 70
0
 71
3
 72
11
 73
7
 74
0
 42
0.0000001
 43
0.0000001
 44
0.0000000001
 40
0.0
 40
0.0
 40
0.0
 40
0.0
 40
0.2897783594
 40
0.5490668953
 40
0.7822255694
 40
1.0
 40
1.0
 40
1.0
 40
1.0
 10
27.8365047923
 20
105.342985351
 30
0.0
 10
27.7048327043
 20
105.4190045467
 30
0.0
 10
27.4429929254
 20
105.5436329137
 30
0.0
 10
27.0404721813
 20
105.6407412927
 30
0.0
 10
26.6628478981
 20
105.6312252963
 30
0.0
 10
26.4354773101
 20
105.5486682368
 30
0.0
 10
26.3365219381
 20
105.4915401001
 30
0.0
  0
SPLINE
  5
4B5
100
AcDbEntity
  8
_1
100
AcDbSpline
 62
7
  6
CONTINUOUS
 70
0
 71
3
 72
13
 73
9
 74
0
 42
0.0000001
 43
0.0000001
 44
0.0000000001
 40
0.0
 40
0.0
 40
0.0
 40
0.0
 40
0.1149182931
 40
0.2386065836
 40
0.5010854845
 40
0.7629716157
 40
0.8859664026
 40
1.0
 40
1.0
 40
1.0
 40
1.0
 10
53.5789452886
 20
88.0741591705
 30
0.0
 10
53.5764426172
 20
88.2411631426
 30
0.0
 10
53.5415852541
 20
88.5878147215
 30
0.0
 10
53.3694596957
 20
89.2971873235
 30
0.0
 10
52.9807881703
 20
90.1646236736
 30
0.0
 10
52.4169082169
 20
90.9287207576
 30
0.0
 10
51.8851154337
 20
91.424184132
 30
0.0
 10
51.6014723817
 20
91.6225853129
 30
0.0
 10
51.4579392019
 20
91.7054523582
 30
0.0
  0
SPLINE
  5
4B6
100
AcDbEntity
  8
_1
100
AcDbSpline
 62
7
  6
CONTINUOUS
 70
0
 71
3
 72
17
 73
13
 74
0
 42
0.0000001
 43
0.0000001
 44
0.0000000001
 40
0.0
 40
0.0
 40
0.0
 40
0.0
 40
0.0428592926
 40
0.087485474
 40
0.1353198781
 40
0.1872819044
 40
0.3045421965
 40
0.4382074305
 40
0.582548911
 40
0.7297129633
 40
0.8713059682
 40
1.0
 40
1.0
 40
1.0
 40
1.0
 10
52.2722610013
 20
60.3270604419
 30
0.0
 10
52.2167935633
 20
60.2950309042
 30
0.0
 10
52.0945056747
 20
60.2442526508
 30
0.0
 10
51.8926803746
 20
60.2146286172
 30
0.0
 10
51.6759262356
 20
60.2305985397
 30
0.0
 10
51.3609875631
 20
60.3143618538
 30
0.0
 10
50.9583873307
 20
60.5345061076
 30
0.0
 10
50.5135780445
 20
60.9284308018
 30
0.0
 10
50.1203678959
 20
61.4317027334
 30
0.0
 10
49.8109163523
 20
62.0036770346
 30
0.0
 10
49.6100729644
 20
62.5974367408
 30
0.0
 10
49.5562729945
 20
63.0018290423
 30
0.0
 10
49.5562729945
 20
63.1941555663
 30
0.0
  0
SPLINE
  5
4B7
100
AcDbEntity
  8
_1
100
AcDbSpline
 62
7
  6
CONTINUOUS
 70
0
 71
3
 72
11
 73
7
 74
0
 42
0.0000001
 43
0.0000001
 44
0.0000000001
 40
0.0
 40
0.0
 40
0.0
 40
0.0
 40
0.2177529248
 40
0.4508871647
 40
0.7104416951
 40
1.0
 40
1.0
 40
1.0
 40
1.0
 10
72.5395603915
 20
127.8757248053
 30
0.0
 10
72.5725434687
 20
127.8947616174
 30
0.0
 10
72.6482933755
 20
127.9223501131
 30
0.0
 10
72.7742217966
 20
127.9255099289
 30
0.0
 10
72.9083673288
 20
127.8930513435
 30
0.0
 10
72.9956759913
 20
127.8515653215
 30
0.0
 10
73.0395322504
 20
127.8262454714
 30
0.0
  0
SPLINE
  5
4B8
100
AcDbEntity
  8
_1
100
AcDbSpline
 62
7
  6
CONTINUOUS
 70
0
 71
3
 72
9
 73
5
 74
0
 42
0.0000001
 43
0.0000001
 44
0.0000000001
 40
0.0
 40
0.0
 40
0.0
 40
0.0
 40
0.2563907324
 40
1.0
 40
1.0
 40
1.0
 40
1.0
 10
95.185026668
 20
108.8858819055
 30
0.0
 10
95.2645388134
 20
108.4163550563
 30
0.0
 10
95.5484317543
 20
106.5807878205
 30
0.0
 10
95.7253033324
 20
104.7281077647
 30
0.0
 10
95.7867401712
 20
103.3483193244
 30
0.0
  0
SPLINE
  5
4B9
100
AcDbEntity
  8
_1
100
AcDbSpline
 62
7
  6
CONTINUOUS
 70
0
 71
3
 72
11
 73
7
 74
0
 42
0.0000001
 43
0.0000001
 44
0.0000000001
 40
0.0
 40
0.0
 40
0.0
 40
0.0
 40
0.231907802
 40
0.4882319641
 40
0.7508146335
 40
1.0
 40
1.0
 40
1.0
 40
1.0
 10
94.4939615356
 20
109.9284138513
 30
0.0
 10
94.5799402612
 20
109.878775134
 30
0.0
 10
94.7450719528
 20
109.7463464727
 30
0.0
 10
94.9481894867
 20
109.494794636
 30
0.0
 10
95.1035185173
 20
109.2028385308
 30
0.0
 10
95.1672152521
 20
108.9910600253
 30
0.0
 10
95.185026668
 20
108.8858819055
 30
0.0
  0
SPLINE
  5
4BA
100
AcDbEntity
  8
_1
100
AcDbSpline
 62
7
  6
CONTINUOUS
 70
0
 71
3
 72
13
 73
9
 74
0
 42
0.0000001
 43
0.0000001
 44
0.0000000001
 40
0.0
 40
0.0
 40
0.0
 40
0.0
 40
0.1152269845
 40
0.2391409732
 40
0.5016194636
 40
0.7632145934
 40
0.886093839
 40
1.0
 40
1.0
 40
1.0
 40
1.0
 10
91.1690102805
 20
113.8358541148
 30
0.0
 10
91.172118077
 20
113.6970173366
 30
0.0
 10
91.2028914543
 20
113.409143151
 30
0.0
 10
91.3484321001
 20
112.8209675569
 30
0.0
 10
91.6728313916
 20
112.1028143895
 30
0.0
 10
92.1412740033
 20
111.470526407
 30
0.0
 10
92.5822781653
 20
111.0606721852
 30
0.0
 10
92.8172904406
 20
110.8964184602
 30
0.0
 10
92.9361788213
 20
110.8277797744
 30
0.0
  0
SPLINE
  5
4BB
100
AcDbEntity
  8
_1
100
AcDbSpline
 62
7
  6
CONTINUOUS
 70
0
 71
3
 72
11
 73
7
 74
0
 42
0.0000001
 43
0.0000001
 44
0.0000000001
 40
0.0
 40
0.0
 40
0.0
 40
0.0
 40
0.2364837348
 40
0.4983703288
 40
0.7611405499
 40
1.0
 40
1.0
 40
1.0
 40
1.0
 10
90.4002683723
 20
117.8032465486
 30
0.0
 10
90.4988847835
 20
117.7463116251
 30
0.0
 10
90.6858699609
 20
117.589878227
 30
0.0
 10
90.905517161
 20
117.2931933054
 30
0.0
 10
91.0580676596
 20
116.9557850929
 30
0.0
 10
91.1045618598
 20
116.7150037428
 30
0.0
 10
91.1071357886
 20
116.6000168124
 30
0.0
  0
SPLINE
  5
4BC
100
AcDbEntity
  8
_1
100
AcDbSpline
 62
7
  6
CONTINUOUS
 70
0
 71
3
 72
13
 73
9
 74
0
 42
0.0000001
 43
0.0000001
 44
0.0000000001
 40
0.0
 40
0.0
 40
0.0
 40
0.0
 40
0.1149182931
 40
0.2386065836
 40
0.5010854845
 40
0.7629716157
 40
0.8859664026
 40
1.0
 40
1.0
 40
1.0
 40
1.0
 10
95.6516236028
 20
112.3646863259
 30
0.0
 10
95.6491209315
 20
112.531690298
 30
0.0
 10
95.6142635684
 20
112.8783418768
 30
0.0
 10
95.4421380099
 20
113.5877144789
 30
0.0
 10
95.0534664846
 20
114.4551508289
 30
0.0
 10
94.4895865311
 20
115.2192479129
 30
0.0
 10
93.9577937479
 20
115.7147112873
 30
0.0
 10
93.674150696
 20
115.9131124683
 30
0.0
 10
93.5306175161
 20
115.9959795136
 30
0.0
  0
SPLINE
  5
4BD
100
AcDbEntity
  8
_1
100
AcDbSpline
 62
7
  6
CONTINUOUS
 70
0
 71
3
 72
11
 73
7
 74
0
 42
0.0000001
 43
0.0000001
 44
0.0000000001
 40
0.0
 40
0.0
 40
0.0
 40
0.0
 40
0.2334848557
 40
0.491256449
 40
0.7536798801
 40
1.0
 40
1.0
 40
1.0
 40
1.0
 10
58.2365705923
 20
88.2077087074
 30
0.0
 10
58.3244209695
 20
88.1570865574
 30
0.0
 10
58.4945247842
 20
88.0242700774
 30
0.0
 10
58.7047754277
 20
87.7708871249
 30
0.0
 10
58.8675021882
 20
87.4784684484
 30
0.0
 10
58.9358066212
 20
87.2661079
 30
0.0
 10
58.9553170989
 20
87.1609367674
 30
0.0
  0
SPLINE
  5
4BE
100
AcDbEntity
  8
_1
100
AcDbSpline
 62
7
  6
CONTINUOUS
 70
0
 71
3
 72
13
 73
9
 74
0
 42
0.0000001
 43
0.0000001
 44
0.0000000001
 40
0.0
 40
0.0
 40
0.0
 40
0.0
 40
0.1145304789
 40
0.2271181227
 40
0.3406446487
 40
0.4578782128
 40
0.7113710785
 40
1.0
 40
1.0
 40
1.0
 40
1.0
 10
56.440157998
 20
105.8298372855
 30
0.0
 10
56.479532304
 20
105.7119939218
 30
0.0
 10
56.5366024172
 20
105.470494767
 30
0.0
 10
56.5495674532
 20
105.0988335849
 30
0.0
 10
56.4885951366
 20
104.7289349504
 30
0.0
 10
56.3056473706
 20
104.2334673574
 30
0.0
 10
55.8821263317
 20
103.641308291
 30
0.0
 10
55.4196237977
 20
103.2686735725
 30
0.0
 10
55.1581941098
 20
103.0963472033
 30
0.0
  0
SPLINE
  5
4BF
100
AcDbEntity
  8
_1
100
AcDbSpline
 62
7
  6
CONTINUOUS
 70
0
 71
3
 72
23
 73
19
 74
0
 42
0.0000001
 43
0.0000001
 44
0.0000000001
 40
0.0
 40
0.0
 40
0.0
 40
0.0
 40
0.044136684
 40
0.0878417066
 40
0.1332567931
 40
0.1821422927
 40
0.2082914113
 40
0.2356684469
 40
0.2941745787
 40
0.3576183299
 40
0.4254791186
 40
0.4969243912
 40
0.5709034393
 40
0.7214724448
 40
0.7957017591
 40
0.8675388498
 40
0.9359459051
 40
1.0
 40
1.0
 40
1.0
 40
1.0
 10
45.5605200703
 20
106.0659968131
 30
0.0
 10
45.506494992
 20
105.9044352037
 30
0.0
 10
45.4396732878
 20
105.5670337143
 30
0.0
 10
45.4842239182
 20
105.0481283419
 30
0.0
 10
45.6724807204
 20
104.5435659675
 30
0.0
 10
45.9357700219
 20
104.1556650098
 30
0.0
 10
46.2035042202
 20
103.8643057258
 30
0.0
 10
46.5243638546
 20
103.5735904682
 30
0.0
 10
46.9992544646
 20
103.2425910668
 30
0.0
 10
47.6543329062
 20
102.910312403
 30
0.0
 10
48.3911830505
 20
102.6418739506
 30
0.0
 10
49.1917443627
 20
102.4437317494
 30
0.0
 10
50.32356342
 20
102.2789687875
 30
0.0
 10
51.4846083573
 20
102.2721279956
 30
0.0
 10
52.6208000898
 20
102.4231515558
 30
0.0
 10
53.4284282557
 20
102.6116304095
 30
0.0
 10
54.1745889216
 20
102.8711368551
 30
0.0
 10
54.6358785148
 20
103.0954375904
 30
0.0
 10
54.8499868808
 20
103.2190523753
 30
0.0
  0
SPLINE
  5
4C0
100
AcDbEntity
  8
_1
100
AcDbSpline
 62
7
  6
CONTINUOUS
 70
0
 71
3
 72
14
 73
10
 74
0
 42
0.0000001
 43
0.0000001
 44
0.0000000001
 40
0.0
 40
0.0
 40
0.0
 40
0.0
 40
0.1080479413
 40
0.2181317363
 40
0.3321061282
 40
0.4515063698
 40
0.5774606203
 40
0.710719579
 40
1.0
 40
1.0
 40
1.0
 40
1.0
 10
45.7329807461
 20
68.387281762
 30
0.0
 10
45.9789152862
 20
68.5292718454
 30
0.0
 10
46.4517369745
 20
68.8592441475
 30
0.0
 10
47.0765216066
 20
69.4740974676
 30
0.0
 10
47.6138788843
 20
70.2038711705
 30
0.0
 10
48.0587140745
 20
71.0403487999
 30
0.0
 10
48.4078137061
 20
71.9750337956
 30
0.0
 10
48.7508906623
 20
73.3777494924
 30
0.0
 10
48.8396601999
 20
74.4937599833
 30
0.0
 10
48.8396601999
 20
75.2540708865
 30
0.0
  0
SPLINE
  5
4C1
100
AcDbEntity
  8
_1
100
AcDbSpline
 62
7
  6
CONTINUOUS
 70
0
 71
3
 72
11
 73
7
 74
0
 42
0.0000001
 43
0.0000001
 44
0.0000000001
 40
0.0
 40
0.0
 40
0.0
 40
0.0
 40
0.2897016594
 40
0.5490895814
 40
0.7822189142
 40
1.0
 40
1.0
 40
1.0
 40
1.0
 10
26.5561772365
 20
103.0312688531
 30
0.0
 10
26.5561772365
 20
103.1452717765
 30
0.0
 10
26.5734616351
 20
103.3620822879
 30
0.0
 10
26.6612626978
 20
103.659970765
 30
0.0
 10
26.8091012984
 20
103.9016902085
 30
0.0
 10
26.9479670011
 20
104.0184247375
 30
0.0
 10
27.0221829929
 20
104.0612805822
 30
0.0
  0
SPLINE
  5
4C2
100
AcDbEntity
  8
_1
100
AcDbSpline
 62
7
  6
CONTINUOUS
 70
0
 71
3
 72
9
 73
5
 74
0
 42
0.0000001
 43
0.0000001
 44
0.0000000001
 40
0.0
 40
0.0
 40
0.0
 40
0.0
 40
0.532150345
 40
1.0
 40
1.0
 40
1.0
 40
1.0
 10
95.185026668
 20
88.535676515
 30
0.0
 10
95.1719172171
 20
88.473401097
 30
0.0
 10
95.1306558504
 20
88.3579428725
 30
0.0
 10
95.0424210351
 20
88.2695383541
 30
0.0
 10
94.9939536057
 20
88.2415853945
 30
0.0
  0
SPLINE
  5
4C3
100
AcDbEntity
  8
_1
100
AcDbSpline
 62
7
  6
CONTINUOUS
 70
0
 71
3
 72
11
 73
7
 74
0
 42
0.0000001
 43
0.0000001
 44
0.0000000001
 40
0.0
 40
0.0
 40
0.0
 40
0.0
 40
0.240031334
 40
0.5039081204
 40
0.7656610775
 40
1.0
 40
1.0
 40
1.0
 40
1.0
 10
54.1674558185
 20
95.9264244981
 30
0.0
 10
54.1648749857
 20
96.0417198563
 30
0.0
 10
54.1201471471
 20
96.283101918
 30
0.0
 10
53.9731945826
 20
96.6230291583
 30
0.0
 10
53.7617987173
 20
96.9236966514
 30
0.0
 10
53.5810080994
 20
97.0846426213
 30
0.0
 10
53.4852810123
 20
97.1439104342
 30
0.0
  0
SPLINE
  5
4C4
100
AcDbEntity
  8
_1
100
AcDbSpline
 62
7
  6
CONTINUOUS
 70
0
 71
3
 72
11
 73
7
 74
0
 42
0.0000001
 43
0.0000001
 44
0.0000000001
 40
0.0
 40
0.0
 40
0.0
 40
0.0
 40
0.2400269588
 40
0.5039043856
 40
0.7656595663
 40
1.0
 40
1.0
 40
1.0
 40
1.0
 10
62.8229836938
 20
100.270198018
 30
0.0
 10
62.8204028161
 20
100.3854953818
 30
0.0
 10
62.7756876291
 20
100.6268857995
 30
0.0
 10
62.62873719
 20
100.9668292879
 30
0.0
 10
62.4173342597
 20
101.2675098632
 30
0.0
 10
62.2365386084
 20
101.4284662873
 30
0.0
 10
62.1408074938
 20
101.4877365937
 30
0.0
  0
SPLINE
  5
4C5
100
AcDbEntity
  8
_1
100
AcDbSpline
 62
7
  6
CONTINUOUS
 70
0
 71
3
 72
10
 73
6
 74
0
 42
0.0000001
 43
0.0000001
 44
0.0000000001
 40
0.0
 40
0.0
 40
0.0
 40
0.0
 40
0.4887601211
 40
0.7518870026
 40
1.0
 40
1.0
 40
1.0
 40
1.0
 10
66.2098080085
 20
93.5986476742
 30
0.0
 10
66.3905957273
 20
93.4944690751
 30
0.0
 10
66.6244072856
 20
93.2552662893
 30
0.0
 10
66.8347022132
 20
92.8833951856
 30
0.0
 10
66.9046829512
 20
92.6742146739
 30
0.0
 10
66.9255657895
 20
92.5703719506
 30
0.0
  0
SPLINE
  5
4C6
100
AcDbEntity
  8
_1
100
AcDbSpline
 62
7
  6
CONTINUOUS
 70
0
 71
3
 72
13
 73
9
 74
0
 42
0.0000001
 43
0.0000001
 44
0.0000000001
 40
0.0
 40
0.0
 40
0.0
 40
0.0
 40
0.1139046608
 40
0.2367824768
 40
0.4983804491
 40
0.760861856
 40
0.8847744832
 40
1.0
 40
1.0
 40
1.0
 40
1.0
 10
64.6520253327
 20
94.4980136195
 30
0.0
 10
64.5331384056
 20
94.5666514662
 30
0.0
 10
64.2981270907
 20
94.7309006923
 30
0.0
 10
63.8571207864
 20
95.1407533913
 30
0.0
 10
63.388669985
 20
95.7730432944
 30
0.0
 10
63.0642728941
 20
96.4912046031
 30
0.0
 10
62.9187345468
 20
97.0793815252
 30
0.0
 10
62.8879645518
 20
97.367252819
 30
0.0
 10
62.884856792
 20
97.50608796
 30
0.0
  0
SPLINE
  5
4C7
100
AcDbEntity
  8
_1
100
AcDbSpline
 62
7
  6
CONTINUOUS
 70
0
 71
3
 72
17
 73
13
 74
0
 42
0.0000001
 43
0.0000001
 44
0.0000000001
 40
0.0
 40
0.0
 40
0.0
 40
0.0
 40
0.0428592926
 40
0.087485474
 40
0.1353198781
 40
0.1872819044
 40
0.3045421965
 40
0.4382074305
 40
0.582548911
 40
0.7297129633
 40
0.8713059682
 40
1.0
 40
1.0
 40
1.0
 40
1.0
 10
52.2722610013
 20
86.8853626582
 30
0.0
 10
52.2167935633
 20
86.8533331205
 30
0.0
 10
52.0945056747
 20
86.8025548672
 30
0.0
 10
51.8926803746
 20
86.7729308336
 30
0.0
 10
51.6759262356
 20
86.788900756
 30
0.0
 10
51.3609875631
 20
86.8726640701
 30
0.0
 10
50.9583873307
 20
87.0928083239
 30
0.0
 10
50.5135780445
 20
87.4867330182
 30
0.0
 10
50.1203678959
 20
87.9900049498
 30
0.0
 10
49.8109163523
 20
88.561979251
 30
0.0
 10
49.6100729644
 20
89.1557389572
 30
0.0
 10
49.5562729945
 20
89.5601312586
 30
0.0
 10
49.5562729945
 20
89.7524577827
 30
0.0
  0
SPLINE
  5
4C8
100
AcDbEntity
  8
_1
100
AcDbSpline
 62
7
  6
CONTINUOUS
 70
0
 71
3
 72
11
 73
7
 74
0
 42
0.0000001
 43
0.0000001
 44
0.0000000001
 40
0.0
 40
0.0
 40
0.0
 40
0.0
 40
0.2187428116
 40
0.452308011
 40
0.7112363365
 40
1.0
 40
1.0
 40
1.0
 40
1.0
 10
52.9579220561
 20
58.896800924
 30
0.0
 10
53.0546478598
 20
58.9526419039
 30
0.0
 10
53.2358528439
 20
59.103678002
 30
0.0
 10
53.4311003588
 20
59.4155693233
 30
0.0
 10
53.5501880921
 20
59.7999342266
 30
0.0
 10
53.5766971635
 20
60.080155224
 30
0.0
 10
53.5789452886
 20
60.2275773959
 30
0.0
  0
SPLINE
  5
4C9
100
AcDbEntity
  8
_1
100
AcDbSpline
 62
7
  6
CONTINUOUS
 70
0
 71
3
 72
9
 73
5
 74
0
 42
0.0000001
 43
0.0000001
 44
0.0000000001
 40
0.0
 40
0.0
 40
0.0
 40
0.0
 40
0.2584514624
 40
1.0
 40
1.0
 40
1.0
 40
1.0
 10
95.7867401712
 20
93.3784559081
 30
0.0
 10
95.7670161062
 20
92.9582549146
 30
0.0
 10
95.6611837973
 20
91.3340703637
 30
0.0
 10
95.4336534991
 20
89.7167587709
 30
0.0
 10
95.185026668
 20
88.535676515
 30
0.0
  0
SPLINE
  5
4CA
100
AcDbEntity
  8
_1
100
AcDbSpline
 62
7
  6
CONTINUOUS
 70
0
 71
3
 72
9
 73
5
 74
0
 42
0.0000001
 43
0.0000001
 44
0.0000000001
 40
0.0
 40
0.0
 40
0.0
 40
0.0
 40
0.4707767023
 40
1.0
 40
1.0
 40
1.0
 40
1.0
 10
66.7356842945
 20
71.927232471
 30
0.0
 10
66.782630068
 20
71.9574089972
 30
0.0
 10
66.8674194822
 20
72.0462250907
 30
0.0
 10
66.9108702842
 20
72.1591755125
 30
0.0
 10
66.9255657895
 20
72.2201665601
 30
0.0
  0
SPLINE
  5
4CB
100
AcDbEntity
  8
_1
100
AcDbSpline
 62
7
  6
CONTINUOUS
 70
0
 71
3
 72
9
 73
5
 74
0
 42
0.0000001
 43
0.0000001
 44
0.0000000001
 40
0.0
 40
0.0
 40
0.0
 40
0.0
 40
0.4693609795
 40
1.0
 40
1.0
 40
1.0
 40
1.0
 10
58.7683946639
 20
67.8466431392
 30
0.0
 10
58.8155944601
 20
67.8783943129
 30
0.0
 10
58.900055141
 20
67.97135588
 30
0.0
 10
58.9416511703
 20
68.0878331839
 30
0.0
 10
58.9553170989
 20
68.1506766911
 30
0.0
  0
SPLINE
  5
4CC
100
AcDbEntity
  8
_1
100
AcDbSpline
 62
7
  6
CONTINUOUS
 70
0
 71
3
 72
11
 73
7
 74
0
 42
0.0000001
 43
0.0000001
 44
0.0000000001
 40
0.0
 40
0.0
 40
0.0
 40
0.0
 40
0.2897783594
 40
0.5490668953
 40
0.7822255694
 40
1.0
 40
1.0
 40
1.0
 40
1.0
 10
69.9091831065
 20
129.6335125064
 30
0.0
 10
69.7775110186
 20
129.709531702
 30
0.0
 10
69.5156712396
 20
129.8341600691
 30
0.0
 10
69.1131504955
 20
129.9312684481
 30
0.0
 10
68.7355262123
 20
129.9217524517
 30
0.0
 10
68.5081556243
 20
129.8391953922
 30
0.0
 10
68.4092002523
 20
129.7820672554
 30
0.0
  0
SPLINE
  5
4CD
100
AcDbEntity
  8
_1
100
AcDbSpline
 62
7
  6
CONTINUOUS
 70
0
 71
3
 72
11
 73
7
 74
0
 42
0.0000001
 43
0.0000001
 44
0.0000000001
 40
0.0
 40
0.0
 40
0.0
 40
0.0
 40
0.2897455992
 40
0.5490777152
 40
0.7822210891
 40
1.0
 40
1.0
 40
1.0
 40
1.0
 10
95.5912784066
 20
84.9084066595
 30
0.0
 10
95.5912784066
 20
84.7563794183
 30
0.0
 10
95.5682673774
 20
84.4672995292
 30
0.0
 10
95.4511513839
 20
84.0701232929
 30
0.0
 10
95.2540459635
 20
83.7478614306
 30
0.0
 10
95.0689017157
 20
83.5921802394
 30
0.0
 10
94.9699337737
 20
83.5350639771
 30
0.0
  0
SPLINE
  5
4CE
100
AcDbEntity
  8
_1
100
AcDbSpline
 62
7
  6
CONTINUOUS
 70
0
 71
3
 72
11
 73
7
 74
0
 42
0.0000001
 43
0.0000001
 44
0.0000000001
 40
0.0
 40
0.0
 40
0.0
 40
0.0
 40
0.2870567164
 40
0.5463196537
 40
0.7807248723
 40
1.0
 40
1.0
 40
1.0
 40
1.0
 10
44.7800713719
 20
111.5107355165
 30
0.0
 10
44.7345277609
 20
111.5352545012
 30
0.0
 10
44.6438016348
 20
111.5750717362
 30
0.0
 10
44.5050569443
 20
111.6046823579
 30
0.0
 10
44.3750742991
 20
111.5989093365
 30
0.0
 10
44.2968473151
 20
111.5698884166
 30
0.0
 10
44.2626273902
 20
111.5501374134
 30
0.0
  0
SPLINE
  5
4CF
100
AcDbEntity
  8
_1
100
AcDbSpline
 62
7
  6
CONTINUOUS
 70
0
 71
3
 72
9
 73
5
 74
0
 42
0.0000001
 43
0.0000001
 44
0.0000000001
 40
0.0
 40
0.0
 40
0.0
 40
0.0
 40
0.5403169315
 40
1.0
 40
1.0
 40
1.0
 40
1.0
 10
37.2563082777
 20
106.5135002428
 30
0.0
 10
37.1867897273
 20
106.5509264423
 30
0.0
 10
37.0488491433
 20
106.6057527268
 30
0.0
 10
36.8973919305
 20
106.60736329
 30
0.0
 10
36.8323066958
 20
106.5907570105
 30
0.0
  0
SPLINE
  5
4D0
100
AcDbEntity
  8
_1
100
AcDbSpline
 62
7
  6
CONTINUOUS
 70
0
 71
3
 72
9
 73
5
 74
0
 42
0.0000001
 43
0.0000001
 44
0.0000000001
 40
0.0
 40
0.0
 40
0.0
 40
0.0
 40
0.2534188941
 40
1.0
 40
1.0
 40
1.0
 40
1.0
 10
36.8323066958
 20
106.5907570105
 30
0.0
 10
36.8240401103
 20
106.5886478189
 30
0.0
 10
36.7917033665
 20
106.579256077
 30
0.0
 10
36.7606326113
 20
106.5654665283
 30
0.0
 10
36.7388644107
 20
106.5529024232
 30
0.0
  0
SPLINE
  5
4D1
100
AcDbEntity
  8
_1
100
AcDbSpline
 62
7
  6
CONTINUOUS
 70
0
 71
3
 72
11
 73
7
 74
0
 42
0.0000001
 43
0.0000001
 44
0.0000000001
 40
0.0
 40
0.0
 40
0.0
 40
0.0
 40
0.2468228697
 40
0.4926605222
 40
0.7422544143
 40
1.0
 40
1.0
 40
1.0
 40
1.0
 10
56.8384208842
 20
104.8127578423
 30
0.0
 10
56.8614008482
 20
104.9234942534
 30
0.0
 10
56.889031763
 20
105.1488292767
 30
0.0
 10
56.8716407804
 20
105.4901182915
 30
0.0
 10
56.7956930686
 20
105.8283661539
 30
0.0
 10
56.7083424889
 20
106.0449839989
 30
0.0
 10
56.6563107198
 20
106.1510048897
 30
0.0
  0
SPLINE
  5
4D2
100
AcDbEntity
  8
_1
100
AcDbSpline
 62
7
  6
CONTINUOUS
 70
0
 71
3
 72
11
 73
7
 74
0
 42
0.0000001
 43
0.0000001
 44
0.0000000001
 40
0.0
 40
0.0
 40
0.0
 40
0.0
 40
0.2178452021
 40
0.4560684472
 40
0.7168921536
 40
1.0
 40
1.0
 40
1.0
 40
1.0
 10
56.6563107198
 20
106.1510048897
 30
0.0
 10
56.567051475
 20
106.3328811704
 30
0.0
 10
56.3318618
 20
106.6908991621
 30
0.0
 10
55.8581233198
 20
107.1649856297
 30
0.0
 10
55.2628925931
 20
107.5880370028
 30
0.0
 10
54.8119292062
 20
107.8208603249
 30
0.0
 10
54.5713234061
 20
107.927782659
 30
0.0
  0
SPLINE
  5
4D3
100
AcDbEntity
  8
_1
100
AcDbSpline
 62
7
  6
CONTINUOUS
 70
0
 71
3
 72
9
 73
5
 74
0
 42
0.0000001
 43
0.0000001
 44
0.0000000001
 40
0.0
 40
0.0
 40
0.0
 40
0.0
 40
0.2413762489
 40
1.0
 40
1.0
 40
1.0
 40
1.0
 10
54.3179906169
 20
108.0343176163
 30
0.0
 10
54.1955433568
 20
108.0829975431
 30
0.0
 10
53.6826939651
 20
108.2705635361
 30
0.0
 10
53.1506520416
 20
108.4041872858
 30
0.0
 10
52.7432275809
 20
108.4784545157
 30
0.0
  0
SPLINE
  5
4D4
100
AcDbEntity
  8
_1
100
AcDbSpline
 62
7
  6
CONTINUOUS
 70
0
 71
3
 72
9
 73
5
 74
0
 42
0.0000001
 43
0.0000001
 44
0.0000000001
 40
0.0
 40
0.0
 40
0.0
 40
0.0
 40
0.2556634112
 40
1.0
 40
1.0
 40
1.0
 40
1.0
 10
49.5097340974
 20
108.532769771
 30
0.0
 10
49.3903303772
 20
108.5153329007
 30
0.0
 10
48.9246430961
 20
108.4383876255
 30
0.0
 10
48.4645626492
 20
108.3261358459
 30
0.0
 10
48.1294225108
 20
108.2207526099
 30
0.0
  0
SPLINE
  5
4D5
100
AcDbEntity
  8
_1
100
AcDbSpline
 62
7
  6
CONTINUOUS
 70
0
 71
3
 72
9
 73
5
 74
0
 42
0.0000001
 43
0.0000001
 44
0.0000000001
 40
0.0
 40
0.0
 40
0.0
 40
0.0
 40
0.2542879577
 40
1.0
 40
1.0
 40
1.0
 40
1.0
 10
48.1294225108
 20
108.2207526099
 30
0.0
 10
48.0751662014
 20
108.2036919692
 30
0.0
 10
47.8625243704
 20
108.1343298768
 30
0.0
 10
47.6528640869
 20
108.0557483932
 30
0.0
 10
47.4988884882
 20
107.9916359273
 30
0.0
  0
SPLINE
  5
4D6
100
AcDbEntity
  8
_1
100
AcDbSpline
 62
7
  6
CONTINUOUS
 70
0
 71
3
 72
9
 73
5
 74
0
 42
0.0000001
 43
0.0000001
 44
0.0000000001
 40
0.0
 40
0.0
 40
0.0
 40
0.0
 40
0.2543338612
 40
1.0
 40
1.0
 40
1.0
 40
1.0
 10
47.4988884882
 20
107.9916359273
 30
0.0
 10
47.45757778
 20
107.9744349461
 30
0.0
 10
47.2958088718
 20
107.9052383706
 30
0.0
 10
47.1367280484
 20
107.8297192479
 30
0.0
 10
47.0200882741
 20
107.7696561327
 30
0.0
  0
SPLINE
  5
4D7
100
AcDbEntity
  8
_1
100
AcDbSpline
 62
7
  6
CONTINUOUS
 70
0
 71
3
 72
14
 73
10
 74
0
 42
0.0000001
 43
0.0000001
 44
0.0000000001
 40
0.0
 40
0.0
 40
0.0
 40
0.0
 40
0.112468543
 40
0.2231085318
 40
0.3351747959
 40
0.4517272305
 40
0.7065769124
 40
0.848423342
 40
1.0
 40
1.0
 40
1.0
 40
1.0
 10
45.0695677804
 20
104.8080622582
 30
0.0
 10
45.02420745
 20
104.9437998661
 30
0.0
 10
44.9602822805
 20
105.2228265421
 30
0.0
 10
44.9545367874
 20
105.6524140429
 30
0.0
 10
45.0406129687
 20
106.0787125533
 30
0.0
 10
45.2816842003
 20
106.6485420327
 30
0.0
 10
45.6998333742
 20
107.1674741949
 30
0.0
 10
46.2368670179
 20
107.6137567836
 30
0.0
 10
46.5511846683
 20
107.8173808234
 30
0.0
 10
46.7182250416
 20
107.9138210523
 30
0.0
  0
SPLINE
  5
4D8
100
AcDbEntity
  8
_1
100
AcDbSpline
 62
7
  6
CONTINUOUS
 70
0
 71
3
 72
11
 73
7
 74
0
 42
0.0000001
 43
0.0000001
 44
0.0000000001
 40
0.0
 40
0.0
 40
0.0
 40
0.0
 40
0.215198119
 40
0.4475928011
 40
0.7075380476
 40
1.0
 40
1.0
 40
1.0
 40
1.0
 10
62.6425145652
 20
69.4438228404
 30
0.0
 10
62.6731267548
 20
69.4615129548
 30
0.0
 10
62.7305667755
 20
69.5100183871
 30
0.0
 10
62.7920504888
 20
69.6105000055
 30
0.0
 10
62.8292418434
 20
69.7351275261
 30
0.0
 10
62.8373976528
 20
69.8260210248
 30
0.0
 10
62.8384616202
 20
69.8740593059
 30
0.0
  0
SPLINE
  5
4D9
100
AcDbEntity
  8
_1
100
AcDbSpline
 62
7
  6
CONTINUOUS
 70
0
 71
3
 72
11
 73
7
 74
0
 42
0.0000001
 43
0.0000001
 44
0.0000000001
 40
0.0
 40
0.0
 40
0.0
 40
0.0
 40
0.2177648073
 40
0.4508950352
 40
0.7103684932
 40
1.0
 40
1.0
 40
1.0
 40
1.0
 10
41.2256635482
 20
100.5654465943
 30
0.0
 10
41.2256824582
 20
100.6130526426
 30
0.0
 10
41.2432006247
 20
100.7122911184
 30
0.0
 10
41.3184722779
 20
100.8505682175
 30
0.0
 10
41.4374180023
 20
100.975531122
 30
0.0
 10
41.536915984
 20
101.0440892675
 30
0.0
 10
41.5917501895
 20
101.0757476218
 30
0.0
  0
SPLINE
  5
4DA
100
AcDbEntity
  8
_1
100
AcDbSpline
 62
7
  6
CONTINUOUS
 70
0
 71
3
 72
11
 73
7
 74
0
 42
0.0000001
 43
0.0000001
 44
0.0000000001
 40
0.0
 40
0.0
 40
0.0
 40
0.0
 40
0.2184018267
 40
0.449863435
 40
0.7084588259
 40
1.0
 40
1.0
 40
1.0
 40
1.0
 10
60.0280954693
 20
105.1275729895
 30
0.0
 10
60.0368232333
 20
105.0465040169
 30
0.0
 10
60.0230337933
 20
104.874567697
 30
0.0
 10
59.9080421841
 20
104.6312680625
 30
0.0
 10
59.7102322809
 20
104.4124310972
 30
0.0
 10
59.540431628
 20
104.2940820778
 30
0.0
 10
59.4461706546
 20
104.2396608043
 30
0.0
  0
SPLINE
  5
4DB
100
AcDbEntity
  8
_1
100
AcDbSpline
 62
7
  6
CONTINUOUS
 70
0
 71
3
 72
11
 73
7
 74
0
 42
0.0000001
 43
0.0000001
 44
0.0000000001
 40
0.0
 40
0.0
 40
0.0
 40
0.0
 40
0.2897016594
 40
0.5490895814
 40
0.7822189142
 40
1.0
 40
1.0
 40
1.0
 40
1.0
 10
49.5562729945
 20
63.1941555663
 30
0.0
 10
49.5562729945
 20
63.3081584897
 30
0.0
 10
49.573557393
 20
63.5249690011
 30
0.0
 10
49.6613584557
 20
63.8228574782
 30
0.0
 10
49.8091970563
 20
64.0645769218
 30
0.0
 10
49.948062759
 20
64.1813114508
 30
0.0
 10
50.0222787508
 20
64.2241672955
 30
0.0
  0
SPLINE
  5
4DC
100
AcDbEntity
  8
_1
100
AcDbSpline
 62
7
  6
CONTINUOUS
 70
0
 71
3
 72
14
 73
10
 74
0
 42
0.0000001
 43
0.0000001
 44
0.0000000001
 40
0.0
 40
0.0
 40
0.0
 40
0.0
 40
0.2892773651
 40
0.4225497643
 40
0.5484949734
 40
0.6678903079
 40
0.7818687797
 40
0.8919533323
 40
1.0
 40
1.0
 40
1.0
 40
1.0
 10
31.5154719338
 20
85.2559693722
 30
0.0
 10
31.5154719338
 20
85.7374940415
 30
0.0
 10
31.5716828806
 20
86.4443207089
 30
0.0
 10
31.7889891326
 20
87.3326999912
 30
0.0
 10
32.0100499566
 20
87.9246824986
 30
0.0
 10
32.291844077
 20
88.4543952987
 30
0.0
 10
32.6321117649
 20
88.9166252008
 30
0.0
 10
33.0278292693
 20
89.3060228009
 30
0.0
 10
33.3272797716
 20
89.5150086445
 30
0.0
 10
33.4830444622
 20
89.6049204458
 30
0.0
  0
SPLINE
  5
4DD
100
AcDbEntity
  8
_1
100
AcDbSpline
 62
7
  6
CONTINUOUS
 70
0
 71
3
 72
21
 73
17
 74
0
 42
0.0000001
 43
0.0000001
 44
0.0000000001
 40
0.0
 40
0.0
 40
0.0
 40
0.0
 40
0.0429543467
 40
0.0870421195
 40
0.1339522365
 40
0.184867771
 40
0.2403973744
 40
0.3006428517
 40
0.365303215
 40
0.4337714526
 40
0.5784935074
 40
0.7267977902
 40
0.7995741686
 40
0.8699522457
 40
0.9370273816
 40
1.0
 40
1.0
 40
1.0
 40
1.0
 10
38.3611425908
 20
102.446870883
 30
0.0
 10
38.3395489726
 20
102.2458636854
 30
0.0
 10
38.3495967395
 20
101.8306982483
 30
0.0
 10
38.5296246105
 20
101.2198771819
 30
0.0
 10
38.866285204
 20
100.6367034839
 30
0.0
 10
39.3482565008
 20
100.0939636951
 30
0.0
 10
39.9630983249
 20
99.601634696
 30
0.0
 10
40.6968123794
 20
99.1692327591
 30
0.0
 10
41.5332743666
 20
98.8054748833
 30
0.0
 10
42.7836460956
 20
98.415535526
 30
0.0
 10
44.4747182688
 20
98.1514208467
 30
0.0
 10
46.2051182105
 20
98.1800762413
 30
0.0
 10
47.5632589525
 20
98.3839840563
 30
0.0
 10
48.5253883516
 20
98.6217501037
 30
0.0
 10
49.4151308305
 20
98.939940126
 30
0.0
 10
49.9662163248
 20
99.2104072348
 30
0.0
 10
50.2228887284
 20
99.3585962315
 30
0.0
  0
SPLINE
  5
4DE
100
AcDbEntity
  8
_1
100
AcDbSpline
 62
7
  6
CONTINUOUS
 70
0
 71
3
 72
11
 73
7
 74
0
 42
0.0000001
 43
0.0000001
 44
0.0000000001
 40
0.0
 40
0.0
 40
0.0
 40
0.0
 40
0.2187428116
 40
0.452308011
 40
0.7112363365
 40
1.0
 40
1.0
 40
1.0
 40
1.0
 10
95.0306003703
 20
83.1873280794
 30
0.0
 10
95.127326174
 20
83.2431690593
 30
0.0
 10
95.3085311581
 20
83.3942051573
 30
0.0
 10
95.503778673
 20
83.7060964787
 30
0.0
 10
95.6228664063
 20
84.0904613819
 30
0.0
 10
95.6493754778
 20
84.3706823794
 30
0.0
 10
95.6516236028
 20
84.5181045512
 30
0.0
  0
SPLINE
  5
4DF
100
AcDbEntity
  8
_1
100
AcDbSpline
 62
7
  6
CONTINUOUS
 70
0
 71
3
 72
11
 73
7
 74
0
 42
0.0000001
 43
0.0000001
 44
0.0000000001
 40
0.0
 40
0.0
 40
0.0
 40
0.0
 40
0.2897016594
 40
0.5490895814
 40
0.7822189142
 40
1.0
 40
1.0
 40
1.0
 40
1.0
 10
49.5562729945
 20
89.7524577827
 30
0.0
 10
49.5562729945
 20
89.8664607061
 30
0.0
 10
49.573557393
 20
90.0832712175
 30
0.0
 10
49.6613584557
 20
90.3811596946
 30
0.0
 10
49.8091970563
 20
90.6228791381
 30
0.0
 10
49.948062759
 20
90.7396136671
 30
0.0
 10
50.0222787508
 20
90.7824695118
 30
0.0
  0
SPLINE
  5
4E0
100
AcDbEntity
  8
_1
100
AcDbSpline
 62
7
  6
CONTINUOUS
 70
0
 71
3
 72
24
 73
20
 74
0
 42
0.0000001
 43
0.0000001
 44
0.0000000001
 40
0.0
 40
0.0
 40
0.0
 40
0.0
 40
0.0213341907
 40
0.0428968475
 40
0.0874756483
 40
0.1352550037
 40
0.1871601529
 40
0.2436020486
 40
0.3045542678
 40
0.3696465527
 40
0.4382485943
 40
0.5095400306
 40
0.5825693547
 40
0.6563065763
 40
0.7296880559
 40
0.801669372
 40
0.8712651928
 40
0.9376135942
 40
1.0
 40
1.0
 40
1.0
 40
1.0
 10
32.1472686061
 20
95.1845487546
 30
0.0
 10
32.3315506652
 20
95.2909612878
 30
0.0
 10
32.7163107705
 20
95.48134278
 30
0.0
 10
33.5427331241
 20
95.7671786016
 30
0.0
 10
34.6783501234
 20
95.9343477859
 30
0.0
 10
36.1228438343
 20
95.8276298174
 30
0.0
 10
37.6352975347
 20
95.425920239
 30
0.0
 10
39.1851287706
 20
94.7409101704
 30
0.0
 10
40.7417557346
 20
93.7885932671
 30
0.0
 10
42.2734790641
 20
92.5894258183
 30
0.0
 10
43.7485181767
 20
91.168831973
 30
0.0
 10
45.1358228997
 20
89.5569203104
 30
0.0
 10
46.4059728376
 20
87.7879587179
 30
0.0
 10
47.531888251
 20
85.8996497514
 30
0.0
 10
48.489598894
 20
83.9322825517
 30
0.0
 10
49.2585987588
 20
81.9278243461
 30
0.0
 10
49.8226607747
 20
79.9287273425
 30
0.0
 10
50.169536683
 20
77.9777643113
 30
0.0
 10
50.2538678743
 20
76.6928362781
 30
0.0
 10
50.2538678743
 20
76.0705591942
 30
0.0
  0
SPLINE
  5
4E1
100
AcDbEntity
  8
_1
100
AcDbSpline
 62
7
  6
CONTINUOUS
 70
0
 71
3
 72
14
 73
10
 74
0
 42
0.0000001
 43
0.0000001
 44
0.0000000001
 40
0.0
 40
0.0
 40
0.0
 40
0.0
 40
0.2892797075
 40
0.4225411852
 40
0.5484924278
 40
0.6678929491
 40
0.7818661599
 40
0.891950097
 40
1.0
 40
1.0
 40
1.0
 40
1.0
 10
50.2538678743
 20
76.0705591942
 30
0.0
 10
50.2538678743
 20
75.3102510831
 30
0.0
 10
50.1650987955
 20
74.194237406
 30
0.0
 10
49.8220177037
 20
72.7915263703
 30
0.0
 10
49.4729053277
 20
71.8568500565
 30
0.0
 10
49.0280931922
 20
71.0203700582
 30
0.0
 10
48.4907094085
 20
70.2906251755
 30
0.0
 10
47.8659736143
 20
69.6757133078
 30
0.0
 10
47.3931040101
 20
69.3458022285
 30
0.0
 10
47.147175388
 20
69.2037922694
 30
0.0
  0
SPLINE
  5
4E2
100
AcDbEntity
  8
_1
100
AcDbSpline
 62
7
  6
CONTINUOUS
 70
0
 71
3
 72
21
 73
17
 74
0
 42
0.0000001
 43
0.0000001
 44
0.0000000001
 40
0.0
 40
0.0
 40
0.0
 40
0.0
 40
0.1427233754
 40
0.2085355442
 40
0.2708472764
 40
0.3300651708
 40
0.3867889227
 40
0.4417941928
 40
0.4959963204
 40
0.5503805181
 40
0.6059151916
 40
0.6634722999
 40
0.7237677214
 40
0.7873211034
 40
0.8544848607
 40
1.0
 40
1.0
 40
1.0
 40
1.0
 10
38.240238922
 20
69.1333446498
 30
0.0
 10
38.8619581398
 20
68.7996566589
 30
0.0
 10
39.8144815832
 20
68.3832902379
 30
0.0
 10
41.114358843
 20
68.0522148276
 30
0.0
 10
42.0351365832
 20
67.9311281652
 30
0.0
 10
42.919220892
 20
67.9326214461
 30
0.0
 10
43.7584163689
 20
68.0572559453
 30
0.0
 10
44.5443056975
 20
68.3047622881
 30
0.0
 10
45.2685431197
 20
68.6731497619
 30
0.0
 10
45.9233940807
 20
69.1585379219
 30
0.0
 10
46.5020058724
 20
69.7556516294
 30
0.0
 10
46.9991688457
 20
70.4577755706
 30
0.0
 10
47.4105656218
 20
71.2577021748
 30
0.0
 10
47.7333187972
 20
72.1476868736
 30
0.0
 10
48.0502632473
 20
73.4783192036
 30
0.0
 10
48.1325534187
 20
74.5346591624
 30
0.0
 10
48.1325534187
 20
75.2540691868
 30
0.0
  0
SPLINE
  5
4E3
100
AcDbEntity
  8
_1
100
AcDbSpline
 62
7
  6
CONTINUOUS
 70
0
 71
3
 72
29
 73
25
 74
0
 42
0.0000001
 43
0.0000001
 44
0.0000000001
 40
0.0
 40
0.0
 40
0.0
 40
0.0
 40
0.0665113577
 40
0.1382289507
 40
0.2137205157
 40
0.2912213312
 40
0.3688131152
 40
0.444567917
 40
0.5167028288
 40
0.5837412199
 40
0.6447040451
 40
0.6728355552
 40
0.6994376673
 40
0.7246441525
 40
0.7486688081
 40
0.7718045835
 40
0.7944151768
 40
0.8169090446
 40
0.8397047919
 40
0.863194982
 40
0.8877151138
 40
0.9135209999
 40
0.9407904214
 40
1.0
 40
1.0
 40
1.0
 40
1.0
 10
48.1325534187
 20
75.2540691868
 30
0.0
 10
48.1325534187
 20
76.0549476421
 30
0.0
 10
47.9876421852
 20
77.7209347757
 30
0.0
 10
47.4089793314
 20
80.235262185
 30
0.0
 10
46.4814271283
 20
82.7839395274
 30
0.0
 10
45.2387477155
 20
85.2732589002
 30
0.0
 10
43.7264705937
 20
87.6124765541
 30
0.0
 10
41.9999643565
 20
89.7158452326
 30
0.0
 10
40.1216953733
 20
91.5068582312
 30
0.0
 10
38.1596711043
 20
92.9202457829
 30
0.0
 10
36.4659119914
 20
93.7629288992
 30
0.0
 10
35.1354927974
 20
94.1844950557
 30
0.0
 10
34.1885780399
 20
94.3699849326
 30
0.0
 10
33.2747863948
 20
94.4310658645
 30
0.0
 10
32.4026248091
 20
94.3664280791
 30
0.0
 10
31.5807831686
 20
94.1756576424
 30
0.0
 10
30.8179024486
 20
93.8601819758
 30
0.0
 10
30.1225034022
 20
93.4228010949
 30
0.0
 10
29.5020506318
 20
92.8685973642
 30
0.0
 10
28.962759201
 20
92.2038430276
 30
0.0
 10
28.5095321952
 20
91.4358230801
 30
0.0
 10
28.1457317911
 20
90.5723826657
 30
0.0
 10
27.7739377556
 20
89.2699097687
 30
0.0
 10
27.655586489
 20
88.2264042615
 30
0.0
 10
27.6329859356
 20
87.5138065032
 30
0.0
  0
SPLINE
  5
4E4
100
AcDbEntity
  8
_1
100
AcDbSpline
 62
7
  6
CONTINUOUS
 70
0
 71
3
 72
9
 73
5
 74
0
 42
0.0000001
 43
0.0000001
 44
0.0000000001
 40
0.0
 40
0.0
 40
0.0
 40
0.0
 40
0.2558613731
 40
1.0
 40
1.0
 40
1.0
 40
1.0
 10
43.8032959205
 20
73.7905081818
 30
0.0
 10
43.754527765
 20
73.7214640182
 30
0.0
 10
43.5552367336
 20
73.4579089196
 30
0.0
 10
43.319870472
 20
73.2212171674
 30
0.0
 10
43.1280223958
 20
73.0674816416
 30
0.0
  0
SPLINE
  5
4E5
100
AcDbEntity
  8
_1
100
AcDbSpline
 62
7
  6
CONTINUOUS
 70
0
 71
3
 72
15
 73
11
 74
0
 42
0.0000001
 43
0.0000001
 44
0.0000000001
 40
0.0
 40
0.0
 40
0.0
 40
0.0
 40
0.0993680196
 40
0.2011224283
 40
0.3092130495
 40
0.4264417501
 40
0.5542879053
 40
0.6930482925
 40
0.8420744936
 40
1.0
 40
1.0
 40
1.0
 40
1.0
 10
43.0463896558
 20
73.0041473326
 30
0.0
 10
42.8216496803
 20
72.8353889965
 30
0.0
 10
42.3194555425
 20
72.552000339
 30
0.0
 10
41.4635778618
 20
72.3329112829
 30
0.0
 10
40.5309010533
 20
72.3214986476
 30
0.0
 10
39.5447337804
 20
72.5132676358
 30
0.0
 10
38.5257510971
 20
72.9003684781
 30
0.0
 10
37.4950145738
 20
73.4727849048
 30
0.0
 10
36.4743724242
 20
74.2172557118
 30
0.0
 10
35.8311027388
 20
74.802944779
 30
0.0
 10
35.5156033563
 20
75.1191286823
 30
0.0
  0
SPLINE
  5
4E6
100
AcDbEntity
  8
_1
100
AcDbSpline
 62
7
  6
CONTINUOUS
 70
0
 71
3
 72
9
 73
5
 74
0
 42
0.0000001
 43
0.0000001
 44
0.0000000001
 40
0.0
 40
0.0
 40
0.0
 40
0.0
 40
0.5178275804
 40
1.0
 40
1.0
 40
1.0
 40
1.0
 10
31.4693446065
 20
82.0979884721
 30
0.0
 10
31.3296903916
 20
82.6084697214
 30
0.0
 10
31.1153146351
 20
83.6105568597
 30
0.0
 10
31.033236569
 20
84.6333425062
 30
0.0
 10
31.033236569
 20
85.1261410368
 30
0.0
  0
SPLINE
  5
4E7
100
AcDbEntity
  8
_1
100
AcDbSpline
 62
7
  6
CONTINUOUS
 70
0
 71
3
 72
15
 73
11
 74
0
 42
0.0000001
 43
0.0000001
 44
0.0000000001
 40
0.0
 40
0.0
 40
0.0
 40
0.0
 40
0.0988222024
 40
0.2014076992
 40
0.3108583849
 40
0.4292538859
 40
0.557616615
 40
0.6960490351
 40
0.8439123457
 40
1.0
 40
1.0
 40
1.0
 40
1.0
 10
42.9829841832
 20
73.1504439629
 30
0.0
 10
42.7585631947
 20
73.0209017974
 30
0.0
 10
42.2663429972
 20
72.8130337107
 30
0.0
 10
41.4551863131
 20
72.6814849251
 30
0.0
 10
40.5842119108
 20
72.7264851518
 30
0.0
 10
39.6714150604
 20
72.9440545542
 30
0.0
 10
38.7334640793
 20
73.3278115618
 30
0.0
 10
37.7875781537
 20
73.8695025379
 30
0.0
 10
36.8515049019
 20
74.5582015677
 30
0.0
 10
36.2595248868
 20
75.0940025227
 30
0.0
 10
35.9687810142
 20
75.382066334
 30
0.0
  0
SPLINE
  5
4E8
100
AcDbEntity
  8
_1
100
AcDbSpline
 62
7
  6
CONTINUOUS
 70
0
 71
3
 72
9
 73
5
 74
0
 42
0.0000001
 43
0.0000001
 44
0.0000000001
 40
0.0
 40
0.0
 40
0.0
 40
0.0
 40
0.517493259
 40
1.0
 40
1.0
 40
1.0
 40
1.0
 10
31.920670996
 20
82.3687932058
 30
0.0
 10
31.7908012813
 20
82.8557375172
 30
0.0
 10
31.5915155091
 20
83.8115260604
 30
0.0
 10
31.5154719338
 20
84.786076106
 30
0.0
 10
31.5154719338
 20
85.2559693722
 30
0.0
  0
SPLINE
  5
4E9
100
AcDbEntity
  8
_1
100
AcDbSpline
 62
7
  6
CONTINUOUS
 70
0
 71
3
 72
11
 73
7
 74
0
 42
0.0000001
 43
0.0000001
 44
0.0000000001
 40
0.0
 40
0.0
 40
0.0
 40
0.0
 40
0.2212191853
 40
0.4596731099
 40
0.7189373776
 40
1.0
 40
1.0
 40
1.0
 40
1.0
 10
34.5299874623
 20
89.9828622635
 30
0.0
 10
34.345672213
 20
89.765747635
 30
0.0
 10
34.0165647866
 20
89.2670693206
 30
0.0
 10
33.6725131555
 20
88.4023448079
 30
0.0
 10
33.466608735
 20
87.4168525395
 30
0.0
 10
33.4246522942
 20
86.7200713111
 30
0.0
 10
33.4246522942
 20
86.3582285877
 30
0.0
  0
SPLINE
  5
4EA
100
AcDbEntity
  8
_1
100
AcDbSpline
 62
7
  6
CONTINUOUS
 70
0
 71
3
 72
15
 73
11
 74
0
 42
0.0000001
 43
0.0000001
 44
0.0000000001
 40
0.0
 40
0.0
 40
0.0
 40
0.0
 40
0.08919972
 40
0.1857130354
 40
0.2942858054
 40
0.4164932673
 40
0.5513761685
 40
0.6962310894
 40
0.8472411741
 40
1.0
 40
1.0
 40
1.0
 40
1.0
 10
68.4698668489
 20
129.4343313577
 30
0.0
 10
68.5772948356
 20
129.4963300711
 30
0.0
 10
68.8277556115
 20
129.5828862804
 30
0.0
 10
69.2431783389
 20
129.576960378
 30
0.0
 10
69.6839143622
 20
129.4470456046
 30
0.0
 10
70.1331041192
 20
129.2025174196
 30
0.0
 10
70.5735856261
 20
128.8548744028
 30
0.0
 10
70.987151885
 20
128.4190744158
 30
0.0
 10
71.356038801
 20
127.914115219
 30
0.0
 10
71.5624956002
 20
127.5441753432
 30
0.0
 10
71.6543103379
 20
127.3526280172
 30
0.0
  0
SPLINE
  5
4EB
100
AcDbEntity
  8
_1
100
AcDbSpline
 62
7
  6
CONTINUOUS
 70
0
 71
3
 72
15
 73
11
 74
0
 42
0.0000001
 43
0.0000001
 44
0.0000000001
 40
0.0
 40
0.0
 40
0.0
 40
0.0
 40
0.1527596753
 40
0.3037727228
 40
0.4486281692
 40
0.5835075983
 40
0.7057098992
 40
0.8142800403
 40
0.9107949055
 40
1.0
 40
1.0
 40
1.0
 40
1.0
 10
70.5229423773
 20
126.6991866734
 30
0.0
 10
70.4311313828
 20
126.8907500683
 30
0.0
 10
70.2246716911
 20
127.2607214075
 30
0.0
 10
69.8557784666
 20
127.7657260265
 30
0.0
 10
69.4422011776
 20
128.2015614592
 30
0.0
 10
69.0017135478
 20
128.5492281514
 30
0.0
 10
68.552519789
 20
128.7937749584
 30
0.0
 10
68.1117742009
 20
128.9237112073
 30
0.0
 10
67.6963212673
 20
128.9296607611
 30
0.0
 10
67.4458370326
 20
128.8430939666
 30
0.0
 10
67.3383961269
 20
128.7810890287
 30
0.0
  0
SPLINE
  5
4EC
100
AcDbEntity
  8
_1
100
AcDbSpline
 62
7
  6
CONTINUOUS
 70
0
 71
3
 72
14
 73
10
 74
0
 42
0.0000001
 43
0.0000001
 44
0.0000000001
 40
0.0
 40
0.0
 40
0.0
 40
0.0
 40
0.2912482822
 40
0.4243275757
 40
0.549503869
 40
0.6678498763
 40
0.7809387565
 40
0.8908524863
 40
1.0
 40
1.0
 40
1.0
 40
1.0
 10
31.033236569
 20
85.1261410368
 30
0.0
 10
31.033236569
 20
85.6605452259
 30
0.0
 10
31.1009044848
 20
86.4439523173
 30
0.0
 10
31.3663822521
 20
87.4189372616
 30
0.0
 10
31.6356371871
 20
88.0579032195
 30
0.0
 10
31.978235115
 20
88.6185596314
 30
0.0
 10
32.3912358201
 20
89.0937063623
 30
0.0
 10
32.8696765559
 20
89.4765704711
 30
0.0
 10
33.2272937557
 20
89.6660486587
 30
0.0
 10
33.4121351985
 20
89.7431364808
 30
0.0
  0
SPLINE
  5
4ED
100
AcDbEntity
  8
_1
100
AcDbSpline
 62
7
  6
CONTINUOUS
 70
0
 71
3
 72
9
 73
5
 74
0
 42
0.0000001
 43
0.0000001
 44
0.0000000001
 40
0.0
 40
0.0
 40
0.0
 40
0.0
 40
0.4928104351
 40
1.0
 40
1.0
 40
1.0
 40
1.0
 10
33.4121351985
 20
89.7431364808
 30
0.0
 10
33.57417
 20
89.8107128303
 30
0.0
 10
33.9145431898
 20
89.9213860468
 30
0.0
 10
34.267586167
 20
89.9788010755
 30
0.0
 10
34.4475163334
 20
89.9952887316
 30
0.0
  0
SPLINE
  5
4EE
100
AcDbEntity
  8
_1
100
AcDbSpline
 62
7
  6
CONTINUOUS
 70
0
 71
3
 72
11
 73
7
 74
0
 42
0.0000001
 43
0.0000001
 44
0.0000000001
 40
0.0
 40
0.0
 40
0.0
 40
0.0
 40
0.2576489539
 40
0.5195049185
 40
0.7711350534
 40
1.0
 40
1.0
 40
1.0
 40
1.0
 10
94.3196513577
 20
87.8869612662
 30
0.0
 10
94.5121575723
 20
87.6786143861
 30
0.0
 10
94.8619036102
 20
87.2218154437
 30
0.0
 10
95.2624713897
 20
86.4690466491
 30
0.0
 10
95.5220044234
 20
85.6899987162
 30
0.0
 10
95.5912784066
 20
85.1603831238
 30
0.0
 10
95.5912784066
 20
84.9084066595
 30
0.0
  0
SPLINE
  5
4EF
100
AcDbEntity
  8
_1
100
AcDbSpline
 62
7
  6
CONTINUOUS
 70
0
 71
3
 72
11
 73
7
 74
0
 42
0.0000001
 43
0.0000001
 44
0.0000000001
 40
0.0
 40
0.0
 40
0.0
 40
0.0
 40
0.2915411606
 40
0.550136488
 40
0.7815981297
 40
1.0
 40
1.0
 40
1.0
 40
1.0
 10
59.4152386122
 20
104.6657702319
 30
0.0
 10
59.5074378901
 20
104.719001192
 30
0.0
 10
59.6735246334
 20
104.8347616209
 30
0.0
 10
59.8670079751
 20
105.0488121509
 30
0.0
 10
59.9794845112
 20
105.2867902844
 30
0.0
 10
59.9929723279
 20
105.4549660193
 30
0.0
 10
59.9844354547
 20
105.5342618537
 30
0.0
  0
SPLINE
  5
4F0
100
AcDbEntity
  8
_1
100
AcDbSpline
 62
7
  6
CONTINUOUS
 70
0
 71
3
 72
11
 73
7
 74
0
 42
0.0000001
 43
0.0000001
 44
0.0000000001
 40
0.0
 40
0.0
 40
0.0
 40
0.0
 40
0.2177910666
 40
0.4509473456
 40
0.7102746088
 40
1.0
 40
1.0
 40
1.0
 40
1.0
 10
93.8384706817
 20
82.8818085681
 30
0.0
 10
93.9374448301
 20
82.9389272766
 30
0.0
 10
94.1225952251
 20
83.0946249018
 30
0.0
 10
94.3196949316
 20
83.4169022243
 30
0.0
 10
94.4368096124
 20
83.8140729539
 30
0.0
 10
94.459811476
 20
84.1031409099
 30
0.0
 10
94.4598115088
 20
84.2551578409
 30
0.0
  0
SPLINE
  5
4F1
100
AcDbEntity
  8
_1
100
AcDbSpline
 62
7
  6
CONTINUOUS
 70
0
 71
3
 72
16
 73
12
 74
0
 42
0.0000001
 43
0.0000001
 44
0.0000000001
 40
0.0
 40
0.0
 40
0.0
 40
0.0
 40
0.1287443602
 40
0.2703971121
 40
0.4176139114
 40
0.5620190713
 40
0.6957499754
 40
0.8130650626
 40
0.9124721117
 40
0.9571211941
 40
1.0
 40
1.0
 40
1.0
 40
1.0
 10
41.5917501895
 20
101.0757476218
 30
0.0
 10
41.6842793006
 20
101.1291690102
 30
0.0
 10
41.8937831014
 20
101.2156078013
 30
0.0
 10
42.235221183
 20
101.2839292825
 30
0.0
 10
42.596381923
 20
101.2939012535
 30
0.0
 10
42.9476664891
 20
101.24461995
 30
0.0
 10
43.2610158504
 20
101.139740573
 30
0.0
 10
43.5120811451
 20
100.9873711898
 30
0.0
 10
43.6583397756
 20
100.8194156651
 30
0.0
 10
43.7161031922
 20
100.6739808266
 30
0.0
 10
43.7256252784
 20
100.6010313185
 30
0.0
 10
43.7256111436
 20
100.565446763
 30
0.0
  0
SPLINE
  5
4F2
100
AcDbEntity
  8
_1
100
AcDbSpline
 62
7
  6
CONTINUOUS
 70
0
 71
3
 72
23
 73
19
 74
0
 42
0.0000001
 43
0.0000001
 44
0.0000000001
 40
0.0
 40
0.0
 40
0.0
 40
0.0
 40
0.0640577261
 40
0.1324570126
 40
0.204295366
 40
0.278523317
 40
0.4290931211
 40
0.5030732495
 40
0.5745191577
 40
0.642380985
 40
0.705826444
 40
0.7643331449
 40
0.7917090292
 40
0.8178580106
 40
0.8667425178
 40
0.912157536
 40
0.9558632048
 40
1.0
 40
1.0
 40
1.0
 40
1.0
 10
46.7182250416
 20
107.9138210523
 30
0.0
 10
46.9518112237
 20
108.0486812924
 30
0.0
 10
47.4550121734
 20
108.293385011
 30
0.0
 10
48.2690044836
 20
108.576452646
 30
0.0
 10
49.1500182397
 20
108.782070911
 30
0.0
 10
50.3895047604
 20
108.9468154851
 30
0.0
 10
51.6561027248
 20
108.9393989832
 30
0.0
 10
52.8908248637
 20
108.7596363515
 30
0.0
 10
53.7641709465
 20
108.5434597904
 30
0.0
 10
54.5680251888
 20
108.2506251701
 30
0.0
 10
55.2826795655
 20
107.8881552266
 30
0.0
 10
55.8007561313
 20
107.5270701492
 30
0.0
 10
56.1507574847
 20
107.2099002744
 30
0.0
 10
56.4428216252
 20
106.8920578149
 30
0.0
 10
56.7300274092
 20
106.4688876925
 30
0.0
 10
56.935430183
 20
105.9184739447
 30
0.0
 10
56.9840523228
 20
105.3523842953
 30
0.0
 10
56.9111158928
 20
104.9843194518
 30
0.0
 10
56.8522034138
 20
104.8080617666
 30
0.0
  0
SPLINE
  5
4F3
100
AcDbEntity
  8
_1
100
AcDbSpline
 62
7
  6
CONTINUOUS
 70
0
 71
3
 72
10
 73
6
 74
0
 42
0.0000001
 43
0.0000001
 44
0.0000000001
 40
0.0
 40
0.0
 40
0.0
 40
0.0
 40
0.2776774712
 40
0.5366935984
 40
1.0
 40
1.0
 40
1.0
 40
1.0
 10
46.7750658856
 20
107.636053993
 30
0.0
 10
46.6033299754
 20
107.5369028109
 30
0.0
 10
46.2810119445
 20
107.3270881811
 30
0.0
 10
45.7349943935
 20
106.866120776
 30
0.0
 10
45.4113588847
 20
106.4482117729
 30
0.0
 10
45.2655562805
 20
106.151198965
 30
0.0
  0
SPLINE
  5
4F4
100
AcDbEntity
  8
_1
100
AcDbSpline
 62
7
  6
CONTINUOUS
 70
0
 71
3
 72
11
 73
7
 74
0
 42
0.0000001
 43
0.0000001
 44
0.0000000001
 40
0.0
 40
0.0
 40
0.0
 40
0.0
 40
0.2577543201
 40
0.5073418538
 40
0.7531734164
 40
1.0
 40
1.0
 40
1.0
 40
1.0
 10
45.2655562805
 20
106.151198965
 30
0.0
 10
45.2135030067
 20
106.0451618396
 30
0.0
 10
45.1261100291
 20
105.8285170762
 30
0.0
 10
45.0501253867
 20
105.4902173057
 30
0.0
 10
45.0327341803
 20
105.1488733287
 30
0.0
 10
45.0603730756
 20
104.9235017948
 30
0.0
 10
45.0833576457
 20
104.8127449955
 30
0.0
  0
SPLINE
  5
4F5
100
AcDbEntity
  8
_1
100
AcDbSpline
 62
7
  6
CONTINUOUS
 70
0
 71
3
 72
9
 73
5
 74
0
 42
0.0000001
 43
0.0000001
 44
0.0000000001
 40
0.0
 40
0.0
 40
0.0
 40
0.0
 40
0.2447083443
 40
1.0
 40
1.0
 40
1.0
 40
1.0
 10
54.9068277248
 20
102.941285316
 30
0.0
 10
54.8687818691
 20
102.9193196621
 30
0.0
 10
54.712178194
 20
102.8315213835
 30
0.0
 10
54.5512890745
 20
102.7514185087
 30
0.0
 10
54.4280001703
 20
102.6949764418
 30
0.0
  0
SPLINE
  5
4F6
100
AcDbEntity
  8
_1
100
AcDbSpline
 62
7
  6
CONTINUOUS
 70
0
 71
3
 72
9
 73
5
 74
0
 42
0.0000001
 43
0.0000001
 44
0.0000000001
 40
0.0
 40
0.0
 40
0.0
 40
0.0
 40
0.245033134
 40
1.0
 40
1.0
 40
1.0
 40
1.0
 10
54.4280001703
 20
102.6949764418
 30
0.0
 10
54.3791286168
 20
102.6726028835
 30
0.0
 10
54.1784999467
 20
102.5838856297
 30
0.0
 10
53.973388988
 20
102.505376228
 30
0.0
 10
53.8167850181
 20
102.4515181873
 30
0.0
  0
SPLINE
  5
4F7
100
AcDbEntity
  8
_1
100
AcDbSpline
 62
7
  6
CONTINUOUS
 70
0
 71
3
 72
9
 73
5
 74
0
 42
0.0000001
 43
0.0000001
 44
0.0000000001
 40
0.0
 40
0.0
 40
0.0
 40
0.0
 40
0.2430883603
 40
1.0
 40
1.0
 40
1.0
 40
1.0
 10
53.8167850181
 20
102.4515181873
 30
0.0
 10
53.7085613023
 20
102.4142987138
 30
0.0
 10
53.2597605406
 20
102.2717513142
 30
0.0
 10
52.7982803426
 20
102.1700160339
 30
0.0
 10
52.4463738901
 20
102.1139104186
 30
0.0
  0
SPLINE
  5
4F8
100
AcDbEntity
  8
_1
100
AcDbSpline
 62
7
  6
CONTINUOUS
 70
0
 71
3
 72
9
 73
5
 74
0
 42
0.0000001
 43
0.0000001
 44
0.0000000001
 40
0.0
 40
0.0
 40
0.0
 40
0.0
 40
0.2592588274
 40
1.0
 40
1.0
 40
1.0
 40
1.0
 10
49.1686764368
 20
102.1683311433
 30
0.0
 10
49.0308649274
 20
102.195319455
 30
0.0
 10
48.5019974867
 20
102.3122508642
 30
0.0
 10
47.9839356979
 20
102.4814892743
 30
0.0
 10
47.6156536322
 20
102.6407115939
 30
0.0
  0
SPLINE
  5
4F9
100
AcDbEntity
  8
_1
100
AcDbSpline
 62
7
  6
CONTINUOUS
 70
0
 71
3
 72
14
 73
10
 74
0
 42
0.0000001
 43
0.0000001
 44
0.0000000001
 40
0.0
 40
0.0
 40
0.0
 40
0.0
 40
0.297897602
 40
0.4315573422
 40
0.5555028314
 40
0.6713683383
 40
0.7817535575
 40
0.8900503241
 40
1.0
 40
1.0
 40
1.0
 40
1.0
 10
47.3526027175
 20
102.7617651471
 30
0.0
 10
47.001840697
 20
102.9334406329
 30
0.0
 10
46.5134316713
 20
103.2337285415
 30
0.0
 10
45.9859566802
 20
103.7391998019
 30
0.0
 10
45.6902115638
 20
104.1325647296
 30
0.0
 10
45.4863683885
 20
104.5473182655
 30
0.0
 10
45.3796753677
 20
104.9765065398
 30
0.0
 10
45.3737002078
 20
105.4110053975
 30
0.0
 10
45.4358840206
 20
105.6931433648
 30
0.0
 10
45.481594586
 20
105.8298386385
 30
0.0
  0
SPLINE
  5
4FA
100
AcDbEntity
  8
_1
100
AcDbSpline
 62
7
  6
CONTINUOUS
 70
0
 71
3
 72
9
 73
5
 74
0
 42
0.0000001
 43
0.0000001
 44
0.0000000001
 40
0.0
 40
0.0
 40
0.0
 40
0.0
 40
0.4825058227
 40
1.0
 40
1.0
 40
1.0
 40
1.0
 10
33.4246522942
 20
86.3582285877
 30
0.0
 10
33.4246522942
 20
85.888340237
 30
0.0
 10
33.5006945838
 20
84.9137985259
 30
0.0
 10
33.6999778892
 20
83.9580179984
 30
0.0
 10
33.8298462359
 20
83.4710768604
 30
0.0
  0
SPLINE
  5
4FB
100
AcDbEntity
  8
_1
100
AcDbSpline
 62
7
  6
CONTINUOUS
 70
0
 71
3
 72
14
 73
10
 74
0
 42
0.0000001
 43
0.0000001
 44
0.0000000001
 40
0.0
 40
0.0
 40
0.0
 40
0.0
 40
0.293323967
 40
0.429956135
 40
0.5589545011
 40
0.6800588276
 40
0.7934202038
 40
0.8996755206
 40
1.0
 40
1.0
 40
1.0
 40
1.0
 10
37.8779601671
 20
76.4843388385
 30
0.0
 10
38.3437540329
 20
76.022838957
 30
0.0
 10
39.0774677518
 20
75.3930530862
 30
0.0
 10
40.128249531
 20
74.7142365961
 30
0.0
 10
40.8987692835
 20
74.3185642253
 30
0.0
 10
41.6602724089
 20
74.0298559567
 30
0.0
 10
42.4033964757
 20
73.8521986121
 30
0.0
 10
43.1184714953
 20
73.7884709478
 30
0.0
 10
43.5816976653
 20
73.8244155478
 30
0.0
 10
43.8026815508
 20
73.8626521385
 30
0.0
  0
SPLINE
  5
4FC
100
AcDbEntity
  8
_1
100
AcDbSpline
 62
7
  6
CONTINUOUS
 70
0
 71
3
 72
14
 73
10
 74
0
 42
0.0000001
 43
0.0000001
 44
0.0000000001
 40
0.0
 40
0.0
 40
0.0
 40
0.0
 40
0.1515593006
 40
0.293420215
 40
0.5482678871
 40
0.6648206154
 40
0.7768879257
 40
0.8875282235
 40
1.0
 40
1.0
 40
1.0
 40
1.0
 10
54.8499868808
 20
103.2190523753
 30
0.0
 10
55.0030897411
 20
103.3074458253
 30
0.0
 10
55.2912003428
 20
103.4941146723
 30
0.0
 10
55.7835034616
 20
103.9031720909
 30
0.0
 10
56.1668042862
 20
104.3788820879
 30
0.0
 10
56.3877947853
 20
104.9012246263
 30
0.0
 10
56.4666726543
 20
105.2919998374
 30
0.0
 10
56.4614805018
 20
105.6858002977
 30
0.0
 10
56.4028062913
 20
105.9415633201
 30
0.0
 10
56.3612315668
 20
106.0659953487
 30
0.0
  0
SPLINE
  5
4FD
100
AcDbEntity
  8
_1
100
AcDbSpline
 62
7
  6
CONTINUOUS
 70
0
 71
3
 72
17
 73
13
 74
0
 42
0.0000001
 43
0.0000001
 44
0.0000000001
 40
0.0
 40
0.0
 40
0.0
 40
0.0
 40
0.0428592926
 40
0.087485474
 40
0.1353198781
 40
0.1872819044
 40
0.3045421965
 40
0.4382074305
 40
0.582548911
 40
0.7297129633
 40
0.8713059682
 40
1.0
 40
1.0
 40
1.0
 40
1.0
 10
29.2721652433
 20
100.1641737286
 30
0.0
 10
29.2166978054
 20
100.1321441909
 30
0.0
 10
29.0944099167
 20
100.0813659376
 30
0.0
 10
28.8925846167
 20
100.0517419039
 30
0.0
 10
28.6758304776
 20
100.0677118264
 30
0.0
 10
28.3608918052
 20
100.1514751405
 30
0.0
 10
27.9582915728
 20
100.3716193943
 30
0.0
 10
27.5134822866
 20
100.7655440886
 30
0.0
 10
27.120272138
 20
101.2688160202
 30
0.0
 10
26.8108205944
 20
101.8407903214
 30
0.0
 10
26.6099772064
 20
102.4345500275
 30
0.0
 10
26.5561772365
 20
102.838942329
 30
0.0
 10
26.5561772365
 20
103.0312688531
 30
0.0
  0
SPLINE
  5
4FE
100
AcDbEntity
  8
_1
100
AcDbSpline
 62
7
  6
CONTINUOUS
 70
0
 71
3
 72
23
 73
19
 74
0
 42
0.0000001
 43
0.0000001
 44
0.0000000001
 40
0.0
 40
0.0
 40
0.0
 40
0.0
 40
0.0623925111
 40
0.1287436188
 40
0.1983464651
 40
0.2703348638
 40
0.3437235067
 40
0.4174667559
 40
0.490502575
 40
0.5618003315
 40
0.6304084598
 40
0.6955065035
 40
0.7564640745
 40
0.8129108001
 40
0.8648201887
 40
0.9126032492
 40
0.9571854024
 40
1.0
 40
1.0
 40
1.0
 40
1.0
 10
48.8396601999
 20
75.2540708865
 30
0.0
 10
48.8396601999
 20
75.8763563327
 30
0.0
 10
48.7553468316
 20
77.161265466
 30
0.0
 10
48.4084545475
 20
79.1122159706
 30
0.0
 10
47.8444284917
 20
81.1113153031
 30
0.0
 10
47.0753995488
 20
83.1157966235
 30
0.0
 10
46.1176887452
 20
85.083183065
 30
0.0
 10
44.9917524537
 20
86.9714929393
 30
0.0
 10
43.7215937436
 20
88.7404532016
 30
0.0
 10
42.3342753525
 20
90.3523654535
 30
0.0
 10
40.8592278944
 20
91.7729622524
 30
0.0
 10
39.327494141
 20
92.972131253
 30
0.0
 10
37.7708781074
 20
93.9244619362
 30
0.0
 10
36.2209979326
 20
94.6094423487
 30
0.0
 10
34.7087050279
 20
95.011249234
 30
0.0
 10
33.2636959389
 20
95.117622172
 30
0.0
 10
31.9180469455
 20
94.9204112438
 30
0.0
 10
31.102858962
 20
94.5815927278
 30
0.0
 10
30.7330478992
 20
94.3680826466
 30
0.0
  0
SPLINE
  5
4FF
100
AcDbEntity
  8
_1
100
AcDbSpline
 62
7
  6
CONTINUOUS
 70
0
 71
3
 72
11
 73
7
 74
0
 42
0.0000001
 43
0.0000001
 44
0.0000000001
 40
0.0
 40
0.0
 40
0.0
 40
0.0
 40
0.2288489358
 40
0.4804798883
 40
0.742344065
 40
1.0
 40
1.0
 40
1.0
 40
1.0
 10
94.4598207781
 20
84.2551631925
 30
0.0
 10
94.4598208324
 20
84.507138884
 30
0.0
 10
94.3905262826
 20
85.0367707071
 30
0.0
 10
94.1309867574
 20
85.8158652154
 30
0.0
 10
93.7303666141
 20
86.5686926956
 30
0.0
 10
93.3805722405
 20
87.0255248496
 30
0.0
 10
93.1880382394
 20
87.233882357
 30
0.0
  0
ELLIPSE
  5
500
100
AcDbEntity
  8
_1
100
AcDbEllipse
 62
7
  6
CONTINUOUS
 10
126.0217686898
 20
141.8177410284
 30
0.0
 11
3.0411449419
 21
1.3009143743
 31
0.0
 40
0.7117215449
 41
1.1032414322
 42
1.2752583056
  0
ELLIPSE
  5
501
100
AcDbEntity
  8
_1
100
AcDbEllipse
 62
7
  6
CONTINUOUS
 10
93.2058102458
 20
141.1219487338
 30
0.0
 11
12.549738081
 21
29.3383535156
 31
0.0
 40
0.2280935929
 41
0.9355079442
 42
0.9835333213
  0
ELLIPSE
  5
502
100
AcDbEntity
  8
_1
100
AcDbEllipse
 62
7
  6
CONTINUOUS
 10
100.0051744502
 20
175.1002577887
 30
0.0
 11
6.2748690405
 21
14.6691767578
 31
0.0
 40
0.2280935929
 41
-2.7899717648
 42
-2.5638172456
  0
ELLIPSE
  5
503
100
AcDbEntity
  8
_1
100
AcDbEllipse
 62
7
  6
CONTINUOUS
 10
136.6624489426
 20
159.1898511314
 30
0.0
 11
11.8014029102
 21
-2.5023331815
 31
0.0
 40
0.0804922864
 41
0.7446872145
 42
0.8394071495
  0
ELLIPSE
  5
504
100
AcDbEntity
  8
_1
100
AcDbEllipse
 62
7
  6
CONTINUOUS
 10
93.4902587113
 20
150.2676950964
 30
0.0
 11
5.6473821365
 21
13.202259082
 31
0.0
 40
0.2280935929
 41
0.2955303376
 42
0.577775408
  0
ELLIPSE
  5
505
100
AcDbEntity
  8
_1
100
AcDbEllipse
 62
7
  6
CONTINUOUS
 10
114.5893130547
 20
132.4045044037
 30
0.0
 11
20.2742996127
 21
8.6727624952
 31
0.0
 40
0.7117215449
 41
1.0179876659
 42
1.187991843
  0
ELLIPSE
  5
506
100
AcDbEntity
  8
_1
100
AcDbEllipse
 62
7
  6
CONTINUOUS
 10
107.6324532143
 20
142.102880006
 30
0.0
 11
19.0627685095
 21
4.289192816
 31
0.0
 40
0.36817193
 41
-0.082651315
 42
0.9850005705
  0
ELLIPSE
  5
507
100
AcDbEntity
  8
_1
100
AcDbEllipse
 62
7
  6
CONTINUOUS
 10
108.6951235213
 20
141.8999139691
 30
0.0
 11
18.0037258145
 21
4.0509043262
 31
0.0
 40
0.36817193
 41
-0.2295645664
 42
-0.082651315
  0
ELLIPSE
  5
508
100
AcDbEntity
  8
_1
100
AcDbEllipse
 62
7
  6
CONTINUOUS
 10
140.0967810349
 20
161.1726518537
 30
0.0
 11
-4.5722757882
 21
7.0256935128
 31
0.0
 40
0.6097682468
 41
-1.5996187431
 42
-0.9529488772
  0
ELLIPSE
  5
509
100
AcDbEntity
  8
_1
100
AcDbEllipse
 62
7
  6
CONTINUOUS
 10
140.0967810349
 20
161.1726518537
 30
0.0
 11
-4.1491696705
 21
6.3755547101
 31
0.0
 40
0.6097682468
 41
-1.7067317425
 42
-0.9141328548
  0
ELLIPSE
  5
50A
100
AcDbEntity
  8
_1
100
AcDbEllipse
 62
7
  6
CONTINUOUS
 10
106.8220865324
 20
162.0795931075
 30
0.0
 11
-9.1217548607
 21
15.799164163
 31
0.0
 40
0.5773470039
 41
-4.2148692823
 42
-4.2075467854
  0
ELLIPSE
  5
50B
100
AcDbEntity
  8
_1
100
AcDbEllipse
 62
7
  6
CONTINUOUS
 10
127.1036990746
 20
159.455271239
 30
0.0
 11
21.1808538995
 21
4.7657697956
 31
0.0
 40
0.36817193
 41
-2.3827466023
 42
-2.1565920831
  0
ELLIPSE
  5
50C
100
AcDbEntity
  8
_1
100
AcDbEllipse
 62
7
  6
CONTINUOUS
 10
126.5202743121
 20
169.0108743405
 30
0.0
 11
-4.5722757882
 21
7.0256935128
 31
0.0
 40
0.6097682468
 41
-1.5996187431
 42
-0.9529488772
  0
ELLIPSE
  5
50D
100
AcDbEntity
  8
_1
100
AcDbEllipse
 62
7
  6
CONTINUOUS
 10
126.5202743121
 20
169.0108743405
 30
0.0
 11
-4.1491696705
 21
6.3755547101
 31
0.0
 40
0.6097682468
 41
-1.7067317425
 42
-0.9141328548
  0
ELLIPSE
  5
50E
100
AcDbEntity
  8
_1
100
AcDbEllipse
 62
7
  6
CONTINUOUS
 10
106.7823169686
 20
133.283726247
 30
0.0
 11
42.3617077989
 21
9.5315395911
 31
0.0
 40
0.36817193
 41
1.3427331067
 42
1.3907584837
  0
ELLIPSE
  5
50F
100
AcDbEntity
  8
_1
100
AcDbEllipse
 62
7
  6
CONTINUOUS
 10
106.8221448438
 20
133.7120856874
 30
0.0
 11
3.0
 21
-0.0000000066
 31
0.0
 40
0.5775178928
 41
-2.356038031
 42
-0.7855462907
  0
ELLIPSE
  5
510
100
AcDbEntity
  8
_1
100
AcDbEllipse
 62
7
  6
CONTINUOUS
 10
120.8278073403
 20
141.7982104323
 30
0.0
 11
3.0009138987
 21
0.0000000066
 31
0.0
 40
0.5771661917
 41
-0.7852417093
 42
0.7200629763
  0
ELLIPSE
  5
511
100
AcDbEntity
  8
_1
100
AcDbEllipse
 62
7
  6
CONTINUOUS
 10
92.8163657245
 20
141.798143101
 30
0.0
 11
3.0009138987
 21
0.0000000066
 31
0.0
 40
0.5771661917
 41
8.7047143662
 42
10.2100279918
  0
ENDSEC
  0
SECTION
  2
OBJECTS
  0
DICTIONARY
  5
C
100
AcDbDictionary
280
0
281
1
  3
ACAD_GROUP
350
D
  3
ACAD_MLINESTYLE
350
17
  3
ACAD_LAYOUT
350
1A
  3
ACAD_PLOTSETTINGS
350
19
  3
ACAD_PLOTSTYLENAME
350
E
  0
DICTIONARY
  5
D
102
{ACAD_REACTORS
330
C
102
}
100
AcDbDictionary
280
0
281
1
  0
ACDBDICTIONARYWDFLT
  5
E
102
{ACAD_REACTORS
330
C
102
}
100
AcDbDictionary
281
1
  3
Normal
350
F
100
AcDbDictionaryWithDefault
340
F
  0
DICTIONARY
  5
17
102
{ACAD_REACTORS
330
C
102
}
100
AcDbDictionary
280
0
281
1
  3
Standard
350
18
  0
DICTIONARY
  5
19
102
{ACAD_REACTORS
330
C
102
}
100
AcDbDictionary
281
1
  0
DICTIONARY
  5
1A
102
{ACAD_REACTORS
330
C
102
}
100
AcDbDictionary
281
1
  3
Model
350
512
  3
Layout1
350
513
  0
ACDBPLACEHOLDER
  5
F
102
{ACAD_REACTORS
330
E
102
}
  0
MLINESTYLE
  5
18
102
{ACAD_REACTORS
330
17
102
}
100
AcDbMlineStyle
  2
STANDARD
 70
0
  3

 62
256
 51
90.0
 52
90.0
 71
2
 49
0.5
 62
256
  6
BYLAYER
 49
-0.5
 62
256
  6
BYLAYER
  0
LAYOUT
  5
512
102
{ACAD_REACTORS
330
1A
102
}
100
AcDbPlotSettings
  1

  2
none_device
  4

  6

 40
0.0
 41
0.0
 42
0.0
 43
0.0
 44
210.0
 45
297.0
 46
0.0
 47
0.0
 48
0.0
 49
0.0
140
0.0
141
0.0
142
1.0
143
1.0
 70
1024
 72
1
 73
0
 74
0
  7

 75
0
147
1.0
148
0.0
149
0.0
100
AcDbLayout
  1
Model
 70
0
 71
0
 10
0.0
 20
0.0
 11
210.0
 21
297.0
 12
0.0
 22
0.0
 32
0.0
 14
0.0
 24
0.0
 34
0.0
 15
0.0
 25
0.0
 35
0.0
146
0.0
 13
0.0
 23
0.0
 33
0.0
 16
1.0
 26
0.0
 36
0.0
 17
0.0
 27
1.0
 37
0.0
 76
0
330
211
345
0
346
0
  0
LAYOUT
  5
513
102
{ACAD_REACTORS
330
1A
102
}
100
AcDbPlotSettings
  1

  2
none_device
  4

  6

 40
0.0
 41
0.0
 42
0.0
 43
0.0
 44
210.0
 45
297.0
 46
0.0
 47
0.0
 48
0.0
 49
0.0
140
0.0
141
0.0
142
1.0
143
1.0
 70
0
 72
1
 73
0
 74
0
  7

 75
0
147
1.0
148
0.0
149
0.0
100
AcDbLayout
  1
Layout1
 70
0
 71
1
 10
0.0
 20
0.0
 11
210.0
 21
297.0
 12
0.0
 22
0.0
 32
0.0
 14
0.0
 24
0.0
 34
0.0
 15
0.0
 25
0.0
 35
0.0
146
0.0
 13
0.0
 23
0.0
 33
0.0
 16
1.0
 26
0.0
 36
0.0
 17
0.0
 27
1.0
 37
0.0
 76
0
330
212
345
0
346
0
  0
ENDSEC
  0
EOF
