999
DXF file: C:\Users\sesa63760\Dev\_Creo\CAD\MCADID0000245_3D-CAD\drw0001_1.dxf
999
Pro/ENGINEER 2019471 by Parametric Technology Corporation
  0
SECTION
  2
HEADER
  9
$ACADVER
  1
AC1024
  9
$DWGCODEPAGE
  3
ANSI_1252
  9
$EXTMAX
 10
379.6752318409
 20
536.9692564607
 30
0.0
  9
$EXTMIN
 10
0.0
 20
0.0
 30
0.0
  9
$LIMMIN
 10
0.0
 20
0.0
  9
$LIMMAX
 10
379.6752318409
 20
536.9692564607
  9
$VIEWCTR
 10
189.8376159204
 20
268.4846282303
  9
$VIEWSIZE
 40
536.9692564607
  9
$CLAYER
  8
0
  9
$LTSCALE
 40
35.0024404211
  9
$CELTYPE
  6
BYLAYER
  9
$DIMSCALE
 40
1.0
  9
$DIMASZ
 40
4.5199432362
  9
$DIMEXO
 40
1.0
  9
$DIMDLI
 40
24.183504291
  9
$DIMEXE
 40
1.0
  9
$DIMCEN
 40
5.7276720689
  9
$DIMLFAC
 40
1.0
  9
$DIMBLK
  1
_FILLED
  9
$DIMALT
 70
0
  9
$DIMALTF
 40
0.0393700787
  9
$DIMTXT
 40
6.3279205307
  9
$DIMTOL
 70
1
  9
$DIMLIM
 70
0
  9
$DIMTFAC
 40
1.0
  9
$DIMTP
 40
0.01
  9
$DIMTM
 40
0.01
  9
$DIMGAP
 40
0.625
  9
$DIMDSEP
 70
46
  9
$AUNITS
 70
0
  9
$PDMODE
 70
3
  9
$PDSIZE
 40
0.3125
  9
$HANDSEED
  5
2DE
  9
$TILEMODE
 70
1
  9
$MEASUREMENT
 70
1
  9
$INSUNITS
 70
4
  0
ENDSEC
  0
SECTION
  2
CLASSES
  0
CLASS
  1
ACDBDICTIONARYWDFLT
  2
AcDbDictionaryWithDefault
  3
AutoCAD 2000
 90
0
 91
1
280
0
281
0
  0
CLASS
  1
ACDBPLACEHOLDER
  2
AcDbPlaceHolder
  3
AutoCAD 2000
 90
0
 91
1
280
0
281
0
  0
CLASS
  1
LAYOUT
  2
AcDbLayout
  3
AutoCAD 2000
 90
0
 91
0
280
0
281
0
  0
ENDSEC
  0
SECTION
  2
TABLES
  0
TABLE
  2
VPORT
  5
8
100
AcDbSymbolTable
 70
2
  0
VPORT
  5
1F4
100
AcDbSymbolTableRecord
100
AcDbViewportTableRecord
  2
*ACTIVE
 70
0
 10
0.0
 20
0.0
 11
1.0
 21
1.0
 12
189.8376159204
 22
268.4846282303
 13
0.0
 23
0.0
 14
1.0
 24
1.0
 15
0.0
 25
0.0
 16
0.0
 26
0.0
 36
1.0
 17
0.0
 27
0.0
 37
0.0
 40
536.9692564607
 41
0.7070707071
 42
50.0
 43
0.0
 44
0.0
 50
0.0
 51
0.0
 71
0
 72
100
 73
1
 74
1
 75
0
 76
0
 77
0
 78
0
  0
ENDTAB
  0
TABLE
  2
LTYPE
  5
5
100
AcDbSymbolTable
 70
6
  0
LTYPE
  5
14
100
AcDbSymbolTableRecord
100
AcDbLinetypeTableRecord
  2
BYBLOCK
 70
0
  3

 72
65
 73
0
 40
0.0
  0
LTYPE
  5
15
100
AcDbSymbolTableRecord
100
AcDbLinetypeTableRecord
  2
BYLAYER
 70
0
  3

 72
65
 73
0
 40
0.0
  0
LTYPE
  5
16
100
AcDbSymbolTableRecord
100
AcDbLinetypeTableRecord
  2
CONTINUOUS
 70
64
  3
Solid line
 72
65
 73
0
 40
0.0
  0
LTYPE
  5
1F5
100
AcDbSymbolTableRecord
100
AcDbLinetypeTableRecord
  2
CENTER
 70
64
  3
____ _ ____ _ ____ _ ____ _ ____ _ ____ _ ____
 72
65
 73
4
 40
0.6
 49
0.375
 74
0
 49
-0.075
 74
0
 49
0.075
 74
0
 49
-0.075
 74
0
  0
LTYPE
  5
1F6
100
AcDbSymbolTableRecord
100
AcDbLinetypeTableRecord
  2
HIDDEN
 70
64
  3
- - - - - - - - - - - - - - - - - - - -
 72
65
 73
2
 40
0.2
 49
0.1
 74
0
 49
-0.1
 74
0
  0
LTYPE
  5
1F7
100
AcDbSymbolTableRecord
100
AcDbLinetypeTableRecord
  2
PHANTOM
 70
64
  3
_____ _ _ _____ _ _ _____ _ _ _____
 72
65
 73
6
 40
0.8
 49
0.45
 74
0
 49
-0.05
 74
0
 49
0.1
 74
0
 49
-0.05
 74
0
 49
0.1
 74
0
 49
-0.05
 74
0
  0
LTYPE
  5
1F8
100
AcDbSymbolTableRecord
100
AcDbLinetypeTableRecord
  2
DOT
 70
64
  3
. . . . . . . . . . . . . . . . . . . .
 72
65
 73
2
 40
0.2
 49
0.1
 74
0
 49
-0.1
 74
0
  0
LTYPE
  5
1F9
100
AcDbSymbolTableRecord
100
AcDbLinetypeTableRecord
  2
DASHED
 70
64
  3
- - - - - - - - - - - - - - - - - - - -
 72
65
 73
2
 40
0.2
 49
0.1
 74
0
 49
-0.1
 74
0
  0
ENDTAB
  0
TABLE
  2
LAYER
  5
2
100
AcDbSymbolTable
 70
36
  0
LAYER
  5
10
100
AcDbSymbolTableRecord
100
AcDbLayerTableRecord
  2
0
 70
0
 62
7
  6
CONTINUOUS
370
-3
390
F
  0
LAYER
  5
1FA
100
AcDbSymbolTableRecord
100
AcDbLayerTableRecord
  2
DEFAULT_1
 70
0
 62
7
  6
CENTER
370
-3
390
F
  0
LAYER
  5
1FB
100
AcDbSymbolTableRecord
100
AcDbLayerTableRecord
  2
DEFAULT_2
 70
0
 62
8
  6
HIDDEN
370
-3
390
F
  0
LAYER
  5
1FC
100
AcDbSymbolTableRecord
100
AcDbLayerTableRecord
  2
DEFAULT_3
 70
0
 62
7
  6
PHANTOM
370
-3
390
F
  0
LAYER
  5
1FD
100
AcDbSymbolTableRecord
100
AcDbLayerTableRecord
  2
00_COMPONENTS
 70
0
 62
7
  6
CONTINUOUS
370
-3
390
F
  0
LAYER
  5
1FE
100
AcDbSymbolTableRecord
100
AcDbLayerTableRecord
  2
01_1_DEFAULT_DATUMS
 70
0
 62
7
  6
CONTINUOUS
370
-3
390
F
  0
LAYER
  5
1FF
100
AcDbSymbolTableRecord
100
AcDbLayerTableRecord
  2
01_PLANES
 70
0
 62
7
  6
CONTINUOUS
370
-3
390
F
  0
LAYER
  5
200
100
AcDbSymbolTableRecord
100
AcDbLayerTableRecord
  2
02_COORD_SYS
 70
0
 62
7
  6
CONTINUOUS
370
-3
390
F
  0
LAYER
  5
201
100
AcDbSymbolTableRecord
100
AcDbLayerTableRecord
  2
03_AXES
 70
0
 62
7
  6
CONTINUOUS
370
-3
390
F
  0
LAYER
  5
202
100
AcDbSymbolTableRecord
100
AcDbLayerTableRecord
  2
04_POINTS
 70
0
 62
7
  6
CONTINUOUS
370
-3
390
F
  0
LAYER
  5
203
100
AcDbSymbolTableRecord
100
AcDbLayerTableRecord
  2
05_CURVES
 70
0
 62
7
  6
CONTINUOUS
370
-3
390
F
  0
LAYER
  5
204
100
AcDbSymbolTableRecord
100
AcDbLayerTableRecord
  2
06_SURFS
 70
0
 62
7
  6
CONTINUOUS
370
-3
390
F
  0
LAYER
  5
205
100
AcDbSymbolTableRecord
100
AcDbLayerTableRecord
  2
07_COSMETICS
 70
0
 62
7
  6
CONTINUOUS
370
-3
390
F
  0
LAYER
  5
206
100
AcDbSymbolTableRecord
100
AcDbLayerTableRecord
  2
10_NOTES
 70
0
 62
7
  6
CONTINUOUS
370
-3
390
F
  0
LAYER
  5
207
100
AcDbSymbolTableRecord
100
AcDbLayerTableRecord
  2
11_NOTES_PUB
 70
0
 62
7
  6
CONTINUOUS
370
-3
390
F
  0
LAYER
  5
208
100
AcDbSymbolTableRecord
100
AcDbLayerTableRecord
  2
13_REF_GTOL
 70
0
 62
7
  6
CONTINUOUS
370
-3
390
F
  0
LAYER
  5
209
100
AcDbSymbolTableRecord
100
AcDbLayerTableRecord
  2
16_MISC
 70
0
 62
7
  6
CONTINUOUS
370
-3
390
F
  0
LAYER
  5
20A
100
AcDbSymbolTableRecord
100
AcDbLayerTableRecord
  2
17_NO_PRINT
 70
0
 62
7
  6
CONTINUOUS
370
-3
390
F
  0
LAYER
  5
20B
100
AcDbSymbolTableRecord
100
AcDbLayerTableRecord
  2
18_DATUM_CAMS_JOINTS
 70
0
 62
7
  6
CONTINUOUS
370
-3
390
F
  0
LAYER
  5
20C
100
AcDbSymbolTableRecord
100
AcDbLayerTableRecord
  2
19_DATUM_FUNCTIONAL
 70
0
 62
7
  6
CONTINUOUS
370
-3
390
F
  0
LAYER
  5
20D
100
AcDbSymbolTableRecord
100
AcDbLayerTableRecord
  2
20_DATUM_KINEMATIC_SCHEME
 70
0
 62
7
  6
CONTINUOUS
370
-3
390
F
  0
ENDTAB
  0
TABLE
  2
STYLE
  5
3
100
AcDbSymbolTable
 70
1
  0
STYLE
  5
11
100
AcDbSymbolTableRecord
100
AcDbTextStyleTableRecord
  2
STANDARD
 70
0
 40
0.0
 41
0.8
 50
0.0
 71
0
 42
0.2
  3
txt
  4

  0
STYLE
  5
20E
100
AcDbSymbolTableRecord
100
AcDbTextStyleTableRecord
  2
TEXTSTYLE_1
 70
0
 40
0.0
 41
0.8
 50
0.0
 71
0
 42
0.2
  3
gdt
  4

  0
ENDTAB
  0
TABLE
  2
VIEW
  5
6
100
AcDbSymbolTable
 70
0
  0
ENDTAB
  0
TABLE
  2
UCS
  5
7
100
AcDbSymbolTable
 70
0
  0
ENDTAB
  0
TABLE
  2
APPID
  5
9
100
AcDbSymbolTable
 70
1
  0
APPID
  5
20F
100
AcDbSymbolTableRecord
100
AcDbRegAppTableRecord
  2
ACAD
 70
0
  0
ENDTAB
  0
TABLE
  2
BLOCK_RECORD
  5
1
100
AcDbSymbolTable
 70
0
  0
BLOCK_RECORD
  5
210
100
AcDbSymbolTableRecord
100
AcDbBlockTableRecord
  2
*Model_Space
  0
BLOCK_RECORD
  5
211
100
AcDbSymbolTableRecord
100
AcDbBlockTableRecord
  2
*Paper_Space
  0
BLOCK_RECORD
  5
212
100
AcDbSymbolTableRecord
100
AcDbBlockTableRecord
  2
_FILLED
  0
ENDTAB
  0
TABLE
  2
DIMSTYLE
  5
A
100
AcDbSymbolTable
 70
1
100
AcDbDimStyleTable
 71
0
  0
DIMSTYLE
105
213
100
AcDbSymbolTableRecord
100
AcDbDimStyleTableRecord
  2
STANDARD
 70
0
  3

  4

 40
1.0
 41
4.5199432362
 42
1.0
 43
0.38
 44
1.0
 45
0.0
 46
0.0
 47
0.01
 48
0.01
140
6.3279205307
141
0.09
142
0.0
143
25.4
144
1.0
145
0.0
146
1.0
147
0.625
 71
1
 72
0
 73
0
 74
0
 75
0
 76
0
 77
1
 78
8
 79
2
170
0
171
1
172
0
173
0
174
0
175
0
176
0
177
0
178
0
270
2
179
2
271
2
272
2
273
2
274
2
275
0
280
0
281
0
282
0
283
1
284
8
285
0
286
0
287
3
288
0
340
11
278
46
341
212
342
212
343
212
344
212
  0
ENDTAB
  0
ENDSEC
  0
SECTION
  2
BLOCKS
  0
BLOCK
  5
20
100
AcDbEntity
  8
0
100
AcDbBlockBegin
  2
*Model_Space
 70
0
 10
0.0
 20
0.0
 30
0.0
  3
*Model_Space
  1

  0
ENDBLK
  5
21
100
AcDbEntity
  8
0
100
AcDbBlockEnd
  0
BLOCK
  5
1C
100
AcDbEntity
  8
0
100
AcDbBlockBegin
  2
*Paper_Space
 70
0
 10
0.0
 20
0.0
 30
0.0
  3
*Paper_Space
  1

  0
ENDBLK
  5
1D
100
AcDbEntity
  8
0
100
AcDbBlockEnd
  0
BLOCK
  5
214
100
AcDbEntity
  8
0
100
AcDbBlockBegin
  2
_FILLED
 70
64
 10
0.0
 20
0.0
  3
_FILLED
  1

  0
SOLID
  5
215
100
AcDbEntity
  8
0
  6
BYBLOCK
 62
0
100
AcDbTrace
 10
0.0
 20
0.0
 11
-1.0
 21
0.25
 12
-1.0
 22
-0.25
 13
-1.0
 23
-0.25
  0
ENDBLK
  5
216
100
AcDbEntity
  8
0
  6
BYBLOCK
 62
0
100
AcDbBlockEnd
  0
ENDSEC
  0
SECTION
  2
ENTITIES
  0
LINE
  5
217
100
AcDbEntity
  8
0
100
AcDbLine
 62
7
  6
CONTINUOUS
 10
44.0466951608
 20
204.9943152638
 11
44.0466951608
 21
270.3145086342
  0
LINE
  5
218
100
AcDbEntity
  8
0
100
AcDbLine
 62
7
  6
CONTINUOUS
 10
58.6837445912
 20
278.7651626193
 11
58.6837445912
 21
285.1338814729
  0
LINE
  5
219
100
AcDbEntity
  8
0
100
AcDbLine
 62
7
  6
CONTINUOUS
 10
61.51215994
 20
287.0934590553
 11
61.51215994
 21
286.7668580884
  0
LINE
  5
21A
100
AcDbEntity
  8
0
100
AcDbLine
 62
7
  6
CONTINUOUS
 10
65.0477085657
 20
285.0522552827
 11
65.0477085657
 21
284.7256543158
  0
LINE
  5
21B
100
AcDbEntity
  8
0
100
AcDbLine
 62
7
  6
CONTINUOUS
 10
113.2238777402
 20
173.4652959104
 11
127.3795755493
 21
166.1493235871
  0
LINE
  5
21C
100
AcDbEntity
  8
0
100
AcDbLine
 62
7
  6
CONTINUOUS
 10
97.787034272
 20
173.9680179203
 11
44.0466951608
 21
204.9943152638
  0
LINE
  5
21D
100
AcDbEntity
  8
0
100
AcDbLine
 62
7
  6
CONTINUOUS
 10
113.2238777402
 20
173.4652959104
 11
105.0700154807
 21
178.1728239823
  0
LINE
  5
21E
100
AcDbEntity
  8
0
100
AcDbLine
 62
7
  6
CONTINUOUS
 10
92.6250113982
 20
253.8624765934
 11
92.6250113982
 21
259.1696064024
  0
LINE
  5
21F
100
AcDbEntity
  8
0
100
AcDbLine
 62
7
  6
CONTINUOUS
 10
97.787034272
 20
239.2882112907
 11
97.787034272
 21
173.9680179203
  0
LINE
  5
220
100
AcDbEntity
  8
0
100
AcDbLine
 62
7
  6
CONTINUOUS
 10
98.4936906263
 20
308.4446283028
 11
103.12522076
 21
316.4667183428
  0
LINE
  5
221
100
AcDbEntity
  8
0
100
AcDbLine
 62
7
  6
CONTINUOUS
 10
110.8680372172
 20
321.7127566677
 11
102.029239252
 21
306.4034245302
  0
LINE
  5
222
100
AcDbEntity
  8
0
100
AcDbLine
 62
7
  6
CONTINUOUS
 10
103.12522076
 20
316.4667183428
 11
107.8863905217
 21
323.4341722463
  0
LINE
  5
223
100
AcDbEntity
  8
0
100
AcDbLine
 62
7
  6
CONTINUOUS
 10
107.8279087604
 20
245.0852782756
 11
107.8279087604
 21
179.7650849053
  0
LINE
  5
224
100
AcDbEntity
  8
0
100
AcDbLine
 62
7
  6
CONTINUOUS
 10
112.9893663926
 20
320.4880344041
 11
104.1505684275
 21
305.1787022666
  0
LINE
  5
225
100
AcDbEntity
  8
0
100
AcDbLine
 62
7
  6
CONTINUOUS
 10
153.911150577
 20
350.0064212387
 11
107.8863905217
 21
323.4341722463
  0
LINE
  5
226
100
AcDbEntity
  8
0
100
AcDbLine
 62
7
  6
CONTINUOUS
 10
156.8927972725
 20
348.28500566
 11
110.8680372172
 21
321.7127566677
  0
LINE
  5
227
100
AcDbEntity
  8
0
100
AcDbLine
 62
7
  6
CONTINUOUS
 10
117.7423545871
 20
324.8651618717
 11
156.8426959682
 21
347.4396197422
  0
LINE
  5
228
100
AcDbEntity
  8
0
100
AcDbLine
 62
7
  6
CONTINUOUS
 10
159.0141264479
 20
347.0602833965
 11
158.256939857
 21
346.6231241239
  0
LINE
  5
229
100
AcDbEntity
  8
0
100
AcDbLine
 62
7
  6
CONTINUOUS
 10
117.7423545871
 20
323.2321570375
 11
112.9893663926
 21
320.4880344041
  0
LINE
  5
22A
100
AcDbEntity
  8
0
100
AcDbLine
 62
7
  6
CONTINUOUS
 10
120.8285146692
 20
324.8705450434
 11
156.8333976059
 21
345.6578498156
  0
LINE
  5
22B
100
AcDbEntity
  8
0
100
AcDbLine
 62
7
  6
CONTINUOUS
 10
169.0589859547
 20
354.5333681994
 11
153.911150577
 21
350.0064212387
  0
LINE
  5
22C
100
AcDbEntity
  8
0
100
AcDbLine
 62
7
  6
CONTINUOUS
 10
117.7423545871
 20
324.8651618717
 11
117.7423545871
 21
308.9433647377
  0
LINE
  5
22D
100
AcDbEntity
  8
0
100
AcDbLine
 62
7
  6
CONTINUOUS
 10
98.4936906263
 20
308.4446283028
 11
61.51215994
 21
287.0934590553
  0
LINE
  5
22E
100
AcDbEntity
  8
0
100
AcDbLine
 62
7
  6
CONTINUOUS
 10
58.6837445912
 20
285.1338814729
 11
61.51215994
 21
286.7668580884
  0
LINE
  5
22F
100
AcDbEntity
  8
0
100
AcDbLine
 62
7
  6
CONTINUOUS
 10
162.1366626798
 20
344.3832157813
 11
163.2538867426
 21
345.0282415444
  0
LINE
  5
230
100
AcDbEntity
  8
0
100
AcDbLine
 62
7
  6
CONTINUOUS
 10
162.3660639975
 20
342.4636356478
 11
126.3611810608
 21
321.6763308756
  0
LINE
  5
231
100
AcDbEntity
  8
0
100
AcDbLine
 62
7
  6
CONTINUOUS
 10
102.029239252
 20
306.4034245302
 11
65.0477085657
 21
285.0522552827
  0
LINE
  5
232
100
AcDbEntity
  8
0
100
AcDbLine
 62
7
  6
CONTINUOUS
 10
203.64003122
 20
365.0680218978
 11
199.5388289642
 21
362.7002058054
  0
LINE
  5
233
100
AcDbEntity
  8
0
100
AcDbLine
 62
7
  6
CONTINUOUS
 10
167.0803850666
 20
342.8190616853
 11
126.8628196227
 21
319.5995780517
  0
LINE
  5
234
100
AcDbEntity
  8
0
100
AcDbLine
 62
7
  6
CONTINUOUS
 10
69.99745309
 20
285.4605096346
 11
104.1505684275
 21
305.1787022666
  0
LINE
  5
235
100
AcDbEntity
  8
0
100
AcDbLine
 62
7
  6
CONTINUOUS
 10
44.0466951608
 20
270.3145086342
 11
58.6837445912
 21
278.7651626193
  0
LINE
  5
236
100
AcDbEntity
  8
0
100
AcDbLine
 62
7
  6
CONTINUOUS
 10
207.1755798457
 20
363.0268181252
 11
203.0743775899
 21
360.6590020328
  0
LINE
  5
237
100
AcDbEntity
  8
0
100
AcDbLine
 62
7
  6
CONTINUOUS
 10
73.533062812
 20
283.4192705889
 11
117.7423545871
 21
308.9433647377
  0
LINE
  5
238
100
AcDbEntity
  8
0
100
AcDbLine
 62
7
  6
CONTINUOUS
 10
167.0803850666
 20
337.4285198829
 11
205.1957067653
 21
359.4342797692
  0
LINE
  5
239
100
AcDbEntity
  8
0
100
AcDbLine
 62
7
  6
CONTINUOUS
 10
44.0466951608
 20
270.3145086342
 11
97.787034272
 21
239.2882112907
  0
LINE
  5
23A
100
AcDbEntity
  8
0
100
AcDbLine
 62
7
  6
CONTINUOUS
 10
96.3461237157
 20
259.307476574
 11
85.0323681133
 21
269.921840732
  0
LINE
  5
23B
100
AcDbEntity
  8
0
100
AcDbLine
 62
7
  6
CONTINUOUS
 10
128.6876073807
 20
217.144760149
 11
127.2889352296
 21
230.2198058192
  0
LINE
  5
23C
100
AcDbEntity
  8
0
100
AcDbLine
 62
7
  6
CONTINUOUS
 10
126.8628196227
 20
319.5995780517
 11
126.8628196227
 21
303.6777809177
  0
LINE
  5
23D
100
AcDbEntity
  8
0
100
AcDbLine
 62
7
  6
CONTINUOUS
 10
128.6876073807
 20
240.6355346898
 11
128.6876073807
 21
229.4123003444
  0
LINE
  5
23E
100
AcDbEntity
  8
0
100
AcDbLine
 62
7
  6
CONTINUOUS
 10
128.6876073807
 20
217.144760149
 11
128.6876073807
 21
176.866695912
  0
LINE
  5
23F
100
AcDbEntity
  8
0
100
AcDbLine
 62
7
  6
CONTINUOUS
 10
131.5160227296
 20
242.5951122721
 11
131.5160227296
 21
231.0452769599
  0
LINE
  5
240
100
AcDbEntity
  8
0
100
AcDbLine
 62
7
  6
CONTINUOUS
 10
167.0803850666
 20
326.8972645513
 11
126.8628196227
 21
303.6777809177
  0
LINE
  5
241
100
AcDbEntity
  8
0
100
AcDbLine
 62
7
  6
CONTINUOUS
 10
231.8870507897
 20
362.3371467937
 11
233.3385807968
 21
362.954520091
  0
LINE
  5
242
100
AcDbEntity
  8
0
100
AcDbLine
 62
7
  6
CONTINUOUS
 10
235.4599511878
 20
356.7668655462
 11
238.9581480412
 21
358.2547392485
  0
LINE
  5
243
100
AcDbEntity
  8
0
100
AcDbLine
 62
7
  6
CONTINUOUS
 10
128.6876073807
 20
229.4123003444
 11
127.2889352296
 21
230.2198058192
  0
LINE
  5
244
100
AcDbEntity
  8
0
100
AcDbLine
 62
7
  6
CONTINUOUS
 10
54.0875696493
 20
276.1115756192
 11
107.8279087604
 21
245.0852782756
  0
LINE
  5
245
100
AcDbEntity
  8
0
100
AcDbLine
 62
7
  6
CONTINUOUS
 10
92.6250113982
 20
259.1696064024
 11
58.6837445912
 21
278.7651626193
  0
LINE
  5
246
100
AcDbEntity
  8
0
100
AcDbLine
 62
7
  6
CONTINUOUS
 10
87.8607834622
 20
271.5548173475
 11
99.1745390645
 21
260.9404531895
  0
LINE
  5
247
100
AcDbEntity
  8
0
100
AcDbLine
 62
7
  6
CONTINUOUS
 10
99.2223215821
 20
261.2394675311
 11
87.9085659797
 21
271.853831689
  0
LINE
  5
248
100
AcDbEntity
  8
0
100
AcDbLine
 62
7
  6
CONTINUOUS
 10
90.7369813286
 20
273.4868083045
 11
102.050736931
 21
262.8724441466
  0
LINE
  5
249
100
AcDbEntity
  8
0
100
AcDbLine
 62
7
  6
CONTINUOUS
 10
127.3795755493
 20
166.1493235871
 11
128.6876073807
 21
176.866695912
  0
LINE
  5
24A
100
AcDbEntity
  8
0
100
AcDbLine
 62
7
  6
CONTINUOUS
 10
229.5909304596
 20
353.9230652764
 11
226.2675424247
 21
352.0043177532
  0
LINE
  5
24B
100
AcDbEntity
  8
0
100
AcDbLine
 62
7
  6
CONTINUOUS
 10
87.9085659797
 20
271.853831689
 11
90.7369813286
 21
273.4868083045
  0
LINE
  5
24C
100
AcDbEntity
  8
0
100
AcDbLine
 62
7
  6
CONTINUOUS
 10
85.0323681133
 20
269.921840732
 11
87.8607834622
 21
271.5548173475
  0
LINE
  5
24D
100
AcDbEntity
  8
0
100
AcDbLine
 62
7
  6
CONTINUOUS
 10
253.4538974067
 20
349.8858037809
 11
249.9557005533
 21
348.3979300785
  0
LINE
  5
24E
100
AcDbEntity
  8
0
100
AcDbLine
 62
7
  6
CONTINUOUS
 10
96.3461237157
 20
259.307476574
 11
128.6876073807
 21
240.6355346898
  0
LINE
  5
24F
100
AcDbEntity
  8
0
100
AcDbLine
 62
7
  6
CONTINUOUS
 10
99.1745390645
 20
260.9404531895
 11
131.5160227296
 21
242.2685113053
  0
LINE
  5
250
100
AcDbEntity
  8
0
100
AcDbLine
 62
7
  6
CONTINUOUS
 10
99.2223215821
 20
261.2394675311
 11
131.5160227296
 21
242.5951122721
  0
LINE
  5
251
100
AcDbEntity
  8
0
100
AcDbLine
 62
7
  6
CONTINUOUS
 10
58.6837445912
 20
285.1338814729
 11
85.0323681133
 21
269.921840732
  0
LINE
  5
252
100
AcDbEntity
  8
0
100
AcDbLine
 62
7
  6
CONTINUOUS
 10
61.51215994
 20
286.7668580884
 11
87.8607834622
 21
271.5548173475
  0
LINE
  5
253
100
AcDbEntity
  8
0
100
AcDbLine
 62
7
  6
CONTINUOUS
 10
61.51215994
 20
287.0934590553
 11
87.9085659797
 21
271.853831689
  0
LINE
  5
254
100
AcDbEntity
  8
0
100
AcDbLine
 62
7
  6
CONTINUOUS
 10
69.99745309
 20
285.4605096346
 11
90.7369813286
 21
273.4868083045
  0
LINE
  5
255
100
AcDbEntity
  8
0
100
AcDbLine
 62
7
  6
CONTINUOUS
 10
156.8333976059
 20
339.2693682845
 11
156.8333976059
 21
345.6578498156
  0
LINE
  5
256
100
AcDbEntity
  8
0
100
AcDbLine
 62
7
  6
CONTINUOUS
 10
92.6250113982
 20
259.1696064024
 11
88.0288364563
 21
256.5160194022
  0
LINE
  5
257
100
AcDbEntity
  8
0
100
AcDbLine
 62
7
  6
CONTINUOUS
 10
284.9571461918
 20
368.6603377522
 11
290.9675288082
 21
372.1304130601
  0
LINE
  5
258
100
AcDbEntity
  8
0
100
AcDbLine
 62
7
  6
CONTINUOUS
 10
99.2223215821
 20
261.2394675311
 11
102.050736931
 21
262.8724441466
  0
LINE
  5
259
100
AcDbEntity
  8
0
100
AcDbLine
 62
7
  6
CONTINUOUS
 10
96.3461237157
 20
259.307476574
 11
99.1745390645
 21
260.9404531895
  0
LINE
  5
25A
100
AcDbEntity
  8
0
100
AcDbLine
 62
7
  6
CONTINUOUS
 10
261.9765246653
 20
346.4207695329
 11
260.5249946582
 21
345.8033962357
  0
LINE
  5
25B
100
AcDbEntity
  8
0
100
AcDbLine
 62
7
  6
CONTINUOUS
 10
167.0803850666
 20
342.8190616853
 11
167.0803850666
 21
326.8972645513
  0
LINE
  5
25C
100
AcDbEntity
  8
0
100
AcDbLine
 62
7
  6
CONTINUOUS
 10
248.1879409603
 20
339.7570968172
 11
251.1577770766
 21
341.4717222635
  0
LINE
  5
25D
100
AcDbEntity
  8
0
100
AcDbLine
 62
7
  6
CONTINUOUS
 10
287.4773406385
 20
360.7115567744
 11
290.2273758482
 21
362.2992808656
  0
LINE
  5
25E
100
AcDbEntity
  8
0
100
AcDbLine
 62
7
  6
CONTINUOUS
 10
261.9765246653
 20
345.5946892307
 11
293.4424628952
 21
363.7614486971
  0
LINE
  5
25F
100
AcDbEntity
  8
0
100
AcDbLine
 62
7
  6
CONTINUOUS
 10
254.9054862932
 20
335.4705671951
 11
258.2288743281
 21
337.3893147183
  0
LINE
  5
260
100
AcDbEntity
  8
0
100
AcDbLine
 62
7
  6
CONTINUOUS
 10
226.4387309948
 20
223.8329553103
 11
226.4482044688
 21
223.8289260756
  0
LINE
  5
261
100
AcDbEntity
  8
0
100
AcDbLine
 62
7
  6
CONTINUOUS
 10
178.3631256554
 20
258.0923029959
 11
179.5990836601
 21
246.5383392277
  0
LINE
  5
262
100
AcDbEntity
  8
0
100
AcDbLine
 62
7
  6
CONTINUOUS
 10
179.5990836601
 20
246.5388383135
 11
179.5990836601
 21
206.2602749907
  0
LINE
  5
263
100
AcDbEntity
  8
0
100
AcDbLine
 62
7
  6
CONTINUOUS
 10
261.7110594747
 20
331.5414565751
 11
261.9765246653
 21
331.7132937363
  0
LINE
  5
264
100
AcDbEntity
  8
0
100
AcDbLine
 62
7
  6
CONTINUOUS
 10
97.787034272
 20
239.2882112907
 11
107.8279087604
 21
245.0852782756
  0
LINE
  5
265
100
AcDbEntity
  8
0
100
AcDbLine
 62
7
  6
CONTINUOUS
 10
98.4936906263
 20
308.4446283028
 11
104.1505684275
 21
305.1787022666
  0
LINE
  5
266
100
AcDbEntity
  8
0
100
AcDbLine
 62
7
  6
CONTINUOUS
 10
179.5990836601
 20
206.2602749907
 11
178.2910518287
 21
195.5429026659
  0
LINE
  5
267
100
AcDbEntity
  8
0
100
AcDbLine
 62
7
  6
CONTINUOUS
 10
273.6438940095
 20
324.6521872003
 11
131.5160227296
 21
242.5951122721
  0
LINE
  5
268
100
AcDbEntity
  8
0
100
AcDbLine
 62
7
  6
CONTINUOUS
 10
128.6876073807
 20
240.6355346898
 11
131.5160227296
 21
242.2685113053
  0
LINE
  5
269
100
AcDbEntity
  8
0
100
AcDbLine
 62
7
  6
CONTINUOUS
 10
263.2241397772
 20
309.573022002
 11
325.2624005268
 21
345.3906147437
  0
LINE
  5
26A
100
AcDbEntity
  8
0
100
AcDbLine
 62
7
  6
CONTINUOUS
 10
126.8628196227
 20
303.6777809177
 11
117.7423545871
 21
308.9433647377
  0
LINE
  5
26B
100
AcDbEntity
  8
0
100
AcDbLine
 62
7
  6
CONTINUOUS
 10
233.7701036738
 20
351.6066827464
 11
235.4599511878
 21
356.7668655462
  0
LINE
  5
26C
100
AcDbEntity
  8
0
100
AcDbLine
 62
7
  6
CONTINUOUS
 10
227.6821445907
 20
286.5664818864
 11
273.6438940095
 21
316.3177894942
  0
LINE
  5
26D
100
AcDbEntity
  8
0
100
AcDbLine
 62
7
  6
CONTINUOUS
 10
128.6876073807
 20
229.4123003444
 11
227.6821445907
 21
286.5664818864
  0
LINE
  5
26E
100
AcDbEntity
  8
0
100
AcDbLine
 62
7
  6
CONTINUOUS
 10
326.7275040483
 20
339.2056858068
 11
328.4775113342
 21
340.2160818722
  0
LINE
  5
26F
100
AcDbEntity
  8
0
100
AcDbLine
 62
7
  6
CONTINUOUS
 10
231.3837285211
 20
283.4731360698
 11
226.9732054753
 21
280.926734602
  0
LINE
  5
270
100
AcDbEntity
  8
0
100
AcDbLine
 62
7
  6
CONTINUOUS
 10
333.747717227
 20
340.4917256903
 11
339.7580998433
 21
343.9618009982
  0
LINE
  5
271
100
AcDbEntity
  8
0
100
AcDbLine
 62
7
  6
CONTINUOUS
 10
231.6435052253
 20
281.0446954452
 11
325.3395361904
 21
335.1398012409
  0
LINE
  5
272
100
AcDbEntity
  8
0
100
AcDbLine
 62
7
  6
CONTINUOUS
 10
331.2275227835
 20
335.4529487619
 11
329.4775154976
 21
334.4425526964
  0
LINE
  5
273
100
AcDbEntity
  8
0
100
AcDbLine
 62
7
  6
CONTINUOUS
 10
179.5990836601
 20
246.5388383135
 11
227.6821445906
 21
274.2994407768
  0
LINE
  5
274
100
AcDbEntity
  8
0
100
AcDbLine
 62
7
  6
CONTINUOUS
 10
128.6876073807
 20
217.144760149
 11
179.5990836601
 21
246.5383392277
  0
LINE
  5
275
100
AcDbEntity
  8
0
100
AcDbLine
 62
7
  6
CONTINUOUS
 10
107.8863905217
 20
323.4341722463
 11
112.9893663926
 21
320.4880344041
  0
LINE
  5
276
100
AcDbEntity
  8
0
100
AcDbLine
 62
7
  6
CONTINUOUS
 10
126.8628196227
 20
319.5995780517
 11
117.7423545871
 21
324.8651618717
  0
LINE
  5
277
100
AcDbEntity
  8
0
100
AcDbLine
 62
7
  6
CONTINUOUS
 10
126.3611810608
 20
321.6763308756
 11
120.8285146692
 21
324.8705450434
  0
LINE
  5
278
100
AcDbEntity
  8
0
100
AcDbLine
 62
7
  6
CONTINUOUS
 10
340.0759137747
 20
335.6536601719
 11
339.8616765598
 21
335.5299709965
  0
LINE
  5
279
100
AcDbEntity
  8
0
100
AcDbLine
 62
7
  6
CONTINUOUS
 10
232.4806855507
 20
273.2185790975
 11
227.6821445906
 21
270.4481567196
  0
LINE
  5
27A
100
AcDbEntity
  8
0
100
AcDbLine
 62
7
  6
CONTINUOUS
 10
332.8670225819
 20
330.7939032638
 11
232.4835506641
 21
272.8378246808
  0
LINE
  5
27B
100
AcDbEntity
  8
0
100
AcDbLine
 62
7
  6
CONTINUOUS
 10
226.446236869
 20
285.8529344899
 11
227.6821445906
 21
274.2994407768
  0
LINE
  5
27C
100
AcDbEntity
  8
0
100
AcDbLine
 62
7
  6
CONTINUOUS
 10
227.6821445906
 20
274.2994407768
 11
227.6821445906
 21
234.020877454
  0
LINE
  5
27D
100
AcDbEntity
  8
0
100
AcDbLine
 62
7
  6
CONTINUOUS
 10
227.5499657729
 20
232.8562187035
 11
227.550626667
 21
232.9432839877
  0
LINE
  5
27E
100
AcDbEntity
  8
0
100
AcDbLine
 62
7
  6
CONTINUOUS
 10
231.7822012038
 20
357.6530879931
 11
231.8870507897
 21
362.3371467937
  0
LINE
  5
27F
100
AcDbEntity
  8
0
100
AcDbLine
 62
7
  6
CONTINUOUS
 10
249.9557005533
 20
348.3979300785
 11
248.2658530393
 21
343.2377472787
  0
LINE
  5
280
100
AcDbEntity
  8
0
100
AcDbLine
 62
7
  6
CONTINUOUS
 10
232.5676190108
 20
261.6657039948
 11
334.0370196507
 21
320.2487400754
  0
LINE
  5
281
100
AcDbEntity
  8
0
100
AcDbLine
 62
7
  6
CONTINUOUS
 10
227.6821445908
 20
250.269275555
 11
340.1116547059
 21
315.1800960215
  0
LINE
  5
282
100
AcDbEntity
  8
0
100
AcDbLine
 62
7
  6
CONTINUOUS
 10
97.787034272
 20
173.9680179203
 11
107.8279087604
 21
179.7650849053
  0
LINE
  5
283
100
AcDbEntity
  8
0
100
AcDbLine
 62
7
  6
CONTINUOUS
 10
240.5899718258
 20
277.5180411835
 11
233.0624854342
 21
281.8639391606
  0
LINE
  5
284
100
AcDbEntity
  8
0
100
AcDbLine
 62
7
  6
CONTINUOUS
 10
227.3809514871
 20
286.392589005
 11
231.383728521
 21
283.4731360697
  0
LINE
  5
285
100
AcDbEntity
  8
0
100
AcDbLine
 62
7
  6
CONTINUOUS
 10
231.383728521
 20
283.4731360697
 11
232.4806855506
 21
273.2185790973
  0
LINE
  5
286
100
AcDbEntity
  8
0
100
AcDbLine
 62
7
  6
CONTINUOUS
 10
232.4806855506
 20
273.2185790973
 11
232.5676190107
 21
261.6657039946
  0
LINE
  5
287
100
AcDbEntity
  8
0
100
AcDbLine
 62
7
  6
CONTINUOUS
 10
233.0011912077
 20
290.0095316851
 11
233.0624854341
 21
281.8639391606
  0
LINE
  5
288
100
AcDbEntity
  8
0
100
AcDbLine
 62
7
  6
CONTINUOUS
 10
241.7599688945
 20
266.972877995
 11
241.8242213349
 21
258.4341586322
  0
LINE
  5
289
100
AcDbEntity
  8
0
100
AcDbLine
 62
7
  6
CONTINUOUS
 10
232.5676190107
 20
244.6624559184
 11
232.4996926334
 21
235.7139277806
  0
LINE
  5
28A
100
AcDbEntity
  8
0
100
AcDbLine
 62
7
  6
CONTINUOUS
 10
232.9962168839
 20
236.3912021232
 11
232.9955671293
 21
236.3056043465
  0
LINE
  5
28B
100
AcDbEntity
  8
0
100
AcDbLine
 62
7
  6
CONTINUOUS
 10
241.8242213349
 20
258.4341586322
 11
241.7599688945
 21
249.9696299188
  0
LINE
  5
28C
100
AcDbEntity
  8
0
100
AcDbLine
 62
7
  6
CONTINUOUS
 10
233.6921915948
 20
348.1260322849
 11
233.7701036738
 21
351.6066827464
  0
LINE
  5
28D
100
AcDbEntity
  8
0
100
AcDbLine
 62
7
  6
CONTINUOUS
 10
227.6821445906
 20
234.020877454
 11
226.3741127592
 21
223.3035051291
  0
LINE
  5
28E
100
AcDbEntity
  8
0
100
AcDbLine
 62
7
  6
CONTINUOUS
 10
226.4482044688
 20
223.8289260756
 11
227.5499657729
 21
232.8562187035
  0
LINE
  5
28F
100
AcDbEntity
  8
0
100
AcDbLine
 62
7
  6
CONTINUOUS
 10
232.4996926334
 20
235.7139277806
 11
231.3979313293
 21
226.6866351527
  0
LINE
  5
290
100
AcDbEntity
  8
0
100
AcDbLine
 62
7
  6
CONTINUOUS
 10
334.0370196507
 20
303.2454919991
 11
232.5676190108
 21
244.6624559185
  0
LINE
  5
291
100
AcDbEntity
  8
0
100
AcDbLine
 62
7
  6
CONTINUOUS
 10
128.6876073807
 20
176.866695912
 11
227.6821445906
 21
234.020877454
  0
LINE
  5
292
100
AcDbEntity
  8
0
100
AcDbLine
 62
7
  6
CONTINUOUS
 10
232.5026707045
 20
236.1062548046
 11
332.8670225819
 21
294.051294493
  0
LINE
  5
293
100
AcDbEntity
  8
0
100
AcDbLine
 62
7
  6
CONTINUOUS
 10
325.2726178856
 20
289.5814664269
 11
232.50202095
 21
236.020657028
  0
LINE
  5
294
100
AcDbEntity
  8
0
100
AcDbLine
 62
7
  6
CONTINUOUS
 10
232.4996926335
 20
235.7139277807
 11
227.549965773
 21
232.8562187035
  0
LINE
  5
295
100
AcDbEntity
  8
0
100
AcDbLine
 62
7
  6
CONTINUOUS
 10
156.8333976059
 20
345.6578498156
 11
162.3660639975
 21
342.4636356478
  0
LINE
  5
296
100
AcDbEntity
  8
0
100
AcDbLine
 62
7
  6
CONTINUOUS
 10
156.8426959682
 20
347.4396197422
 11
162.1366626798
 21
344.3832157813
  0
LINE
  5
297
100
AcDbEntity
  8
0
100
AcDbLine
 62
7
  6
CONTINUOUS
 10
248.2658530393
 20
343.2377472787
 11
248.1879409603
 21
339.7570968172
  0
LINE
  5
298
100
AcDbEntity
  8
0
100
AcDbLine
 62
7
  6
CONTINUOUS
 10
253.3490478208
 20
345.2017449802
 11
253.4538974067
 21
349.8858037809
  0
LINE
  5
299
100
AcDbEntity
  8
0
100
AcDbLine
 62
7
  6
CONTINUOUS
 10
331.227546544
 20
291.2852963165
 11
328.4775113342
 21
289.6975722253
  0
LINE
  5
29A
100
AcDbEntity
  8
0
100
AcDbLine
 62
7
  6
CONTINUOUS
 10
231.3979313294
 20
226.6866351528
 11
226.4482044689
 21
223.8289260757
  0
LINE
  5
29B
100
AcDbEntity
  8
0
100
AcDbLine
 62
7
  6
CONTINUOUS
 10
127.3795755493
 20
166.1493235871
 11
226.3741127592
 21
223.3035051291
  0
LINE
  5
29C
100
AcDbEntity
  8
0
100
AcDbLine
 62
7
  6
CONTINUOUS
 10
333.747717227
 20
283.3365564913
 11
339.7580998433
 21
286.8066317992
  0
LINE
  5
29D
100
AcDbEntity
  8
0
100
AcDbLine
 62
7
  6
CONTINUOUS
 10
153.911150577
 20
350.0064212387
 11
159.0141264479
 21
347.0602833965
  0
LINE
  5
29E
100
AcDbEntity
  8
0
100
AcDbLine
 62
7
  6
CONTINUOUS
 10
163.2538867426
 20
345.0282415444
 11
167.0803850666
 21
342.8190616853
  0
LINE
  5
29F
100
AcDbEntity
  8
0
100
AcDbLine
 62
7
  6
CONTINUOUS
 10
261.9765246653
 20
346.4207695329
 11
261.9765246653
 21
331.7132937363
  0
LINE
  5
2A0
100
AcDbEntity
  8
0
100
AcDbLine
 62
7
  6
CONTINUOUS
 10
260.5249946582
 20
345.8033962357
 11
260.4201450723
 21
341.119337435
  0
LINE
  5
2A1
100
AcDbEntity
  8
0
100
AcDbLine
 62
7
  6
CONTINUOUS
 10
273.6438940095
 20
316.3177894942
 11
273.6438940095
 21
324.6521872003
  0
LINE
  5
2A2
100
AcDbEntity
  8
0
100
AcDbLine
 62
7
  6
CONTINUOUS
 10
205.1957067653
 20
359.4342797692
 11
159.0141264479
 21
347.0602833965
  0
LINE
  5
2A3
100
AcDbEntity
  8
0
100
AcDbLine
 62
7
  6
CONTINUOUS
 10
203.0743775899
 20
360.6590020328
 11
156.8927972725
 21
348.28500566
  0
LINE
  5
2A4
100
AcDbEntity
  8
0
100
AcDbLine
 62
7
  6
CONTINUOUS
 10
333.747717227
 20
283.3365564913
 11
324.1018043059
 21
288.9055009265
  0
LINE
  5
2A5
100
AcDbEntity
  8
0
100
AcDbLine
 62
7
  6
CONTINUOUS
 10
199.5388289642
 20
362.7002058054
 11
205.1957067653
 21
359.4342797692
  0
LINE
  5
2A6
100
AcDbEntity
  8
0
100
AcDbLine
 62
7
  6
CONTINUOUS
 10
284.9571461918
 20
368.6603377522
 11
284.8341727433
 21
358.7914797273
  0
LINE
  5
2A7
100
AcDbEntity
  8
0
100
AcDbLine
 62
7
  6
CONTINUOUS
 10
169.0589859547
 20
354.5333681994
 11
199.5388289642
 21
362.7002058054
  0
LINE
  5
2A8
100
AcDbEntity
  8
0
100
AcDbLine
 62
7
  6
CONTINUOUS
 10
273.6438940095
 20
324.6521872003
 11
254.9054862932
 21
335.4705671951
  0
LINE
  5
2A9
100
AcDbEntity
  8
0
100
AcDbLine
 62
7
  6
CONTINUOUS
 10
203.64003122
 20
365.0680218978
 11
226.2675424247
 21
352.0043177532
  0
LINE
  5
2AA
100
AcDbEntity
  8
0
100
AcDbLine
 62
7
  6
CONTINUOUS
 10
248.1879409603
 20
339.7570968172
 11
233.6921915948
 21
348.1260322849
  0
LINE
  5
2AB
100
AcDbEntity
  8
0
100
AcDbLine
 62
7
  6
CONTINUOUS
 10
229.5909304596
 20
353.9230652764
 11
233.7679731402
 21
351.5115031171
  0
LINE
  5
2AC
100
AcDbEntity
  8
0
100
AcDbLine
 62
7
  6
CONTINUOUS
 10
251.1577770766
 20
341.4717222635
 11
258.2288743281
 21
337.3893147183
  0
LINE
  5
2AD
100
AcDbEntity
  8
0
100
AcDbLine
 62
7
  6
CONTINUOUS
 10
248.2658530393
 20
343.2377472787
 11
233.7701036738
 21
351.6066827463
  0
LINE
  5
2AE
100
AcDbEntity
  8
0
100
AcDbLine
 62
7
  6
CONTINUOUS
 10
260.4201450723
 20
341.1193374348
 11
253.3490478208
 21
345.20174498
  0
LINE
  5
2AF
100
AcDbEntity
  8
0
100
AcDbLine
 62
7
  6
CONTINUOUS
 10
235.1192494902
 20
355.726485852
 11
231.7822012038
 21
357.6530879929
  0
LINE
  5
2B0
100
AcDbEntity
  8
0
100
AcDbLine
 62
7
  6
CONTINUOUS
 10
249.9557005533
 20
348.3979300785
 11
235.4599511878
 21
356.7668655462
  0
LINE
  5
2B1
100
AcDbEntity
  8
0
100
AcDbLine
 62
7
  6
CONTINUOUS
 10
238.9581480412
 20
358.2547392485
 11
231.8870507897
 21
362.3371467937
  0
LINE
  5
2B2
100
AcDbEntity
  8
0
100
AcDbLine
 62
7
  6
CONTINUOUS
 10
253.4538974067
 20
349.8858037809
 11
260.5249946582
 21
345.8033962357
  0
LINE
  5
2B3
100
AcDbEntity
  8
0
100
AcDbLine
 62
7
  6
CONTINUOUS
 10
261.9765246653
 20
346.4207695329
 11
233.3385807968
 21
362.954520091
  0
LINE
  5
2B4
100
AcDbEntity
  8
0
100
AcDbLine
 62
7
  6
CONTINUOUS
 10
325.2624005268
 20
345.3906147437
 11
325.3395361904
 21
335.1398012409
  0
LINE
  5
2B5
100
AcDbEntity
  8
0
100
AcDbLine
 62
7
  6
CONTINUOUS
 10
325.2732676401
 20
289.6670642035
 11
325.2726178856
 21
289.5814664269
  0
LINE
  5
2B6
100
AcDbEntity
  8
0
100
AcDbLine
 62
7
  6
CONTINUOUS
 10
325.3395361904
 20
335.1398012409
 11
332.8670225819
 21
330.7939032638
  0
LINE
  5
2B7
100
AcDbEntity
  8
0
100
AcDbLine
 62
7
  6
CONTINUOUS
 10
284.9571461918
 20
368.6603377522
 11
293.4424628952
 21
363.7614486971
  0
LINE
  5
2B8
100
AcDbEntity
  8
0
100
AcDbLine
 62
7
  6
CONTINUOUS
 10
325.2624005268
 20
345.3906147437
 11
333.747717227
 21
340.4917256903
  0
LINE
  5
2B9
100
AcDbEntity
  8
0
100
AcDbLine
 62
7
  6
CONTINUOUS
 10
328.4775113342
 20
289.6975722253
 11
327.6896610974
 21
291.062161289
  0
LINE
  5
2BA
100
AcDbEntity
  8
0
100
AcDbLine
 62
7
  6
CONTINUOUS
 10
287.647971324
 20
360.4160173982
 11
287.4773406385
 21
360.7115567744
  0
LINE
  5
2BB
100
AcDbEntity
  8
0
100
AcDbLine
 62
7
  6
CONTINUOUS
 10
290.2273520878
 20
362.2993220201
 11
290.398006534
 21
362.0037414895
  0
LINE
  5
2BC
100
AcDbEntity
  8
0
100
AcDbLine
 62
7
  6
CONTINUOUS
 10
330.4396963074
 20
292.6498853803
 11
331.2275227836
 21
291.2853374709
  0
LINE
  5
2BD
100
AcDbEntity
  8
0
100
AcDbLine
 62
7
  6
CONTINUOUS
 10
333.9827931739
 20
321.3549883156
 11
333.747717227
 21
340.4917256903
  0
LINE
  5
2BE
100
AcDbEntity
  8
0
100
AcDbLine
 62
7
  6
CONTINUOUS
 10
334.0370196507
 20
320.2487400752
 11
334.1012720914
 21
311.7100207125
  0
LINE
  5
2BF
100
AcDbEntity
  8
0
100
AcDbLine
 62
7
  6
CONTINUOUS
 10
334.1012720914
 20
311.7100207126
 11
334.0370196507
 21
303.2454919992
  0
LINE
  5
2C0
100
AcDbEntity
  8
0
100
AcDbLine
 62
7
  6
CONTINUOUS
 10
333.747717227
 20
283.3365564913
 11
333.9827931739
 21
302.2018576843
  0
LINE
  5
2C1
100
AcDbEntity
  8
0
100
AcDbLine
 62
7
  6
CONTINUOUS
 10
290.9675288082
 20
372.1304130601
 11
339.7580998433
 21
343.9618009982
  0
LINE
  5
2C2
100
AcDbEntity
  8
0
100
AcDbLine
 62
7
  6
CONTINUOUS
 10
339.7580998433
 20
343.9618009982
 11
340.1116547059
 21
315.1800960215
  0
LINE
  5
2C3
100
AcDbEntity
  8
0
100
AcDbLine
 62
7
  6
CONTINUOUS
 10
340.1116547059
 20
315.1800960215
 11
339.7580998433
 21
286.8066317992
  0
ARC
  5
2C4
100
AcDbEntity
  8
0
100
AcDbCircle
 62
7
  6
CONTINUOUS
 10
262.288266314
 20
317.2861868738
 40
71.8098901743
100
AcDbArc
 50
2.3644372953
 51
3.2481607937
  0
ARC
  5
2C5
100
AcDbEntity
  8
0
100
AcDbCircle
 62
7
  6
CONTINUOUS
 10
273.772592912
 20
305.8535616558
 40
60.3208351855
100
AcDbArc
 50
356.5293047753
 51
357.521951068
  0
SPLINE
  5
2C6
100
AcDbEntity
  8
0
100
AcDbSpline
 62
7
  6
CONTINUOUS
 70
0
 71
3
 72
11
 73
7
 74
0
 42
0.0000001
 43
0.0000001
 44
0.0000000001
 40
0.0
 40
0.0
 40
0.0
 40
0.0
 40
0.2898056483
 40
0.5490477631
 40
0.782229959
 40
1.0
 40
1.0
 40
1.0
 40
1.0
 10
341.5256975198
 20
338.8581617632
 30
0.0
 10
341.5256975198
 20
338.5033537782
 30
0.0
 10
341.4721245401
 20
337.8288327282
 30
0.0
 10
341.1986333442
 20
336.9021591176
 30
0.0
 10
340.7389663728
 20
336.1501181832
 30
0.0
 10
340.3068122248
 20
335.7869627043
 30
0.0
 10
340.0759038514
 20
335.6536776273
 30
0.0
  0
SPLINE
  5
2C7
100
AcDbEntity
  8
0
100
AcDbSpline
 62
7
  6
CONTINUOUS
 70
0
 71
3
 72
15
 73
11
 74
0
 42
0.0000001
 43
0.0000001
 44
0.0000000001
 40
0.0
 40
0.0
 40
0.0
 40
0.0
 40
0.0914701255
 40
0.1892589702
 40
0.2974767996
 40
0.4179386669
 40
0.5504919849
 40
0.6935324641
 40
0.8444523753
 40
1.0
 40
1.0
 40
1.0
 40
1.0
 10
333.1195829245
 20
347.8025796388
 30
0.0
 10
333.3440476797
 20
347.9258074664
 30
0.0
 10
333.8547604198
 20
348.103234986
 30
0.0
 10
334.6976575267
 20
348.1251205295
 30
0.0
 10
335.595930031
 20
347.9183771301
 30
0.0
 10
336.5208488822
 20
347.4962097387
 30
0.0
 10
337.4443227093
 20
346.8752129581
 30
0.0
 10
338.3365200238
 20
346.0767391924
 30
0.0
 10
339.1675097559
 20
345.1281923971
 30
0.0
 10
339.6584793017
 20
344.4221512089
 30
0.0
 10
339.8875322463
 20
344.0518153044
 30
0.0
  0
SPLINE
  5
2C8
100
AcDbEntity
  8
0
100
AcDbSpline
 62
7
  6
CONTINUOUS
 70
0
 71
3
 72
11
 73
7
 74
0
 42
0.0000001
 43
0.0000001
 44
0.0000000001
 40
0.0
 40
0.0
 40
0.0
 40
0.0
 40
0.2654850572
 40
0.5252206863
 40
0.7720187788
 40
1.0
 40
1.0
 40
1.0
 40
1.0
 10
339.8875322463
 20
344.0518153044
 30
0.0
 10
340.1439204109
 20
343.6372834461
 30
0.0
 10
340.6023453328
 20
342.785844172
 30
0.0
 10
341.119354293
 20
341.4622230941
 30
0.0
 10
341.4436687413
 20
340.1492425276
 30
0.0
 10
341.5256975198
 20
339.2767203074
 30
0.0
 10
341.5256975198
 20
338.8581617632
 30
0.0
  0
SPLINE
  5
2C9
100
AcDbEntity
  8
0
100
AcDbSpline
 62
7
  6
CONTINUOUS
 70
0
 71
3
 72
9
 73
5
 74
0
 42
0.0000001
 43
0.0000001
 44
0.0000000001
 40
0.0
 40
0.0
 40
0.0
 40
0.0
 40
0.2569077522
 40
1.0
 40
1.0
 40
1.0
 40
1.0
 10
240.5899718256
 20
277.5180411835
 30
0.0
 10
240.7480655714
 20
276.6229374836
 30
0.0
 10
241.3096548274
 20
273.1296828737
 30
0.0
 10
241.6515934048
 20
269.5997562654
 30
0.0
 10
241.7599688945
 20
266.972877995
 30
0.0
  0
SPLINE
  5
2CA
100
AcDbEntity
  8
0
100
AcDbSpline
 62
7
  6
CONTINUOUS
 70
0
 71
3
 72
9
 73
5
 74
0
 42
0.0000001
 43
0.0000001
 44
0.0000000001
 40
0.0
 40
0.0
 40
0.0
 40
0.0
 40
0.2592031195
 40
1.0
 40
1.0
 40
1.0
 40
1.0
 10
241.7599688945
 20
249.9696299188
 30
0.0
 10
241.725286737
 20
249.169026976
 30
0.0
 10
241.5308959618
 20
246.0835770633
 30
0.0
 10
241.086042947
 20
243.0113140204
 30
0.0
 10
240.5899718256
 20
240.7754324126
 30
0.0
  0
SPLINE
  5
2CB
100
AcDbEntity
  8
0
100
AcDbSpline
 62
7
  6
CONTINUOUS
 70
0
 71
3
 72
13
 73
9
 74
0
 42
0.0000001
 43
0.0000001
 44
0.0000000001
 40
0.0
 40
0.0
 40
0.0
 40
0.0
 40
0.0908571933
 40
0.1881376289
 40
0.2963011756
 40
0.41721079
 40
0.6936635604
 40
1.0
 40
1.0
 40
1.0
 40
1.0
 10
287.4773922937
 20
363.8869443969
 30
0.0
 10
287.5680807803
 20
363.9393457142
 30
0.0
 10
287.7765282245
 20
364.015007322
 30
0.0
 10
288.1226373909
 20
364.0237525207
 30
0.0
 10
288.4917302401
 20
363.9347061212
 30
0.0
 10
289.0206633432
 20
363.6825595094
 30
0.0
 10
289.6504173054
 20
363.1520338959
 30
0.0
 10
290.0507806712
 20
362.605150987
 30
0.0
 10
290.2273520878
 20
362.2993220201
 30
0.0
  0
SPLINE
  5
2CC
100
AcDbEntity
  8
0
100
AcDbSpline
 62
7
  6
CONTINUOUS
 70
0
 71
3
 72
11
 73
7
 74
0
 42
0.0000001
 43
0.0000001
 44
0.0000000001
 40
0.0
 40
0.0
 40
0.0
 40
0.0
 40
0.2896099679
 40
0.5491110935
 40
0.7822392383
 40
1.0
 40
1.0
 40
1.0
 40
1.0
 10
331.797068803
 20
289.3687927732
 30
0.0
 10
331.797068803
 20
289.229501224
 30
0.0
 10
331.7758704166
 20
288.9645099298
 30
0.0
 10
331.6686506673
 20
288.6004083899
 30
0.0
 10
331.4879825442
 20
288.3048679397
 30
0.0
 10
331.3181557821
 20
288.162348951
 30
0.0
 10
331.2274711283
 20
288.1099498484
 30
0.0
  0
SPLINE
  5
2CD
100
AcDbEntity
  8
0
100
AcDbSpline
 62
7
  6
CONTINUOUS
 70
0
 71
3
 72
9
 73
5
 74
0
 42
0.0000001
 43
0.0000001
 44
0.0000000001
 40
0.0
 40
0.0
 40
0.0
 40
0.0
 40
0.5255647459
 40
1.0
 40
1.0
 40
1.0
 40
1.0
 10
331.2275227836
 20
291.2853374709
 30
0.0
 10
331.4040742531
 20
290.979543053
 30
0.0
 10
331.6776605534
 20
290.359623275
 30
0.0
 10
331.797068803
 20
289.6875428159
 30
0.0
 10
331.797068803
 20
289.3687927732
 30
0.0
  0
SPLINE
  5
2CE
100
AcDbEntity
  8
0
100
AcDbSpline
 62
7
  6
CONTINUOUS
 70
0
 71
3
 72
11
 73
7
 74
0
 42
0.0000001
 43
0.0000001
 44
0.0000000001
 40
0.0
 40
0.0
 40
0.0
 40
0.0
 40
0.2897041239
 40
0.5490570377
 40
0.7822824085
 40
1.0
 40
1.0
 40
1.0
 40
1.0
 10
331.797068803
 20
336.7118532421
 30
0.0
 10
331.797068803
 20
336.5725168807
 30
0.0
 10
331.7759072221
 20
336.3075564792
 30
0.0
 10
331.6686862118
 20
335.9434050497
 30
0.0
 10
331.4878832109
 20
335.6480480299
 30
0.0
 10
331.3182068187
 20
335.5053067109
 30
0.0
 10
331.2275227835
 20
335.4529487619
 30
0.0
  0
SPLINE
  5
2CF
100
AcDbEntity
  8
0
100
AcDbSpline
 62
7
  6
CONTINUOUS
 70
0
 71
3
 72
15
 73
11
 74
0
 42
0.0000001
 43
0.0000001
 44
0.0000000001
 40
0.0
 40
0.0
 40
0.0
 40
0.0
 40
0.0869374527
 40
0.1864110066
 40
0.303802345
 40
0.4376151342
 40
0.5821146496
 40
0.7294277984
 40
0.8711761549
 40
1.0
 40
1.0
 40
1.0
 40
1.0
 10
328.4775113342
 20
340.2160818722
 30
0.0
 10
328.6148832098
 20
340.2953958292
 30
0.0
 10
328.9600150543
 20
340.3840829228
 30
0.0
 10
329.5155285084
 20
340.2728173637
 30
0.0
 10
330.083037369
 20
339.9628124059
 30
0.0
 10
330.6272154162
 20
339.4809421616
 30
0.0
 10
331.1076192594
 20
338.8659333961
 30
0.0
 10
331.4858934282
 20
338.1668352448
 30
0.0
 10
331.7312967928
 20
337.4411465797
 30
0.0
 10
331.797068803
 20
336.9469029129
 30
0.0
 10
331.797068803
 20
336.7118532421
 30
0.0
  0
SPLINE
  5
2D0
100
AcDbEntity
  8
0
100
AcDbSpline
 62
7
  6
CONTINUOUS
 70
0
 71
3
 72
9
 73
5
 74
0
 42
0.0000001
 43
0.0000001
 44
0.0000000001
 40
0.0
 40
0.0
 40
0.0
 40
0.0
 40
0.2582483467
 40
1.0
 40
1.0
 40
1.0
 40
1.0
 10
333.9827931739
 20
302.2018576843
 30
0.0
 10
333.9398672095
 20
301.4945892799
 30
0.0
 10
333.7247089098
 20
298.759281499
 30
0.0
 10
333.3078457008
 20
296.0381634348
 30
0.0
 10
332.8670225819
 20
294.051294493
 30
0.0
  0
SPLINE
  5
2D1
100
AcDbEntity
  8
0
100
AcDbSpline
 62
7
  6
CONTINUOUS
 70
0
 71
3
 72
13
 73
9
 74
0
 42
0.0000001
 43
0.0000001
 44
0.0000000001
 40
0.0
 40
0.0
 40
0.0
 40
0.0
 40
0.0908571933
 40
0.1881376289
 40
0.2963011756
 40
0.41721079
 40
0.6936635604
 40
1.0
 40
1.0
 40
1.0
 40
1.0
 10
331.2274711283
 20
288.1099498484
 30
0.0
 10
331.1367826417
 20
288.0575485312
 30
0.0
 10
330.9283351975
 20
287.9818869234
 30
0.0
 10
330.5822260311
 20
287.9731417246
 30
0.0
 10
330.2131331819
 20
288.0621881241
 30
0.0
 10
329.6842000788
 20
288.3143347359
 30
0.0
 10
329.0544461166
 20
288.8448603495
 30
0.0
 10
328.6540827508
 20
289.3917432584
 30
0.0
 10
328.4775113342
 20
289.6975722253
 30
0.0
  0
SPLINE
  5
2D2
100
AcDbEntity
  8
0
100
AcDbSpline
 62
7
  6
CONTINUOUS
 70
0
 71
3
 72
9
 73
5
 74
0
 42
0.0000001
 43
0.0000001
 44
0.0000000001
 40
0.0
 40
0.0
 40
0.0
 40
0.0
 40
0.2430260424
 40
1.0
 40
1.0
 40
1.0
 40
1.0
 10
241.7599688943
 20
266.9728779951
 30
0.0
 10
241.7245244748
 20
267.8320037584
 30
0.0
 10
241.514313314
 20
271.3643281039
 30
0.0
 10
241.0557993319
 20
274.8805938739
 30
0.0
 10
240.5899718255
 20
277.5180411836
 30
0.0
  0
SPLINE
  5
2D3
100
AcDbEntity
  8
0
100
AcDbSpline
 62
7
  6
CONTINUOUS
 70
0
 71
3
 72
9
 73
5
 74
0
 42
0.0000001
 43
0.0000001
 44
0.0000000001
 40
0.0
 40
0.0
 40
0.0
 40
0.0
 40
0.2410299492
 40
1.0
 40
1.0
 40
1.0
 40
1.0
 10
240.5899718255
 20
240.7754324128
 30
0.0
 10
240.7513819949
 20
241.5029370258
 30
0.0
 10
241.347347156
 20
244.5374482418
 30
0.0
 10
241.6584128902
 20
247.6253110632
 30
0.0
 10
241.7599688943
 20
249.9696299189
 30
0.0
  0
SPLINE
  5
2D4
100
AcDbEntity
  8
0
100
AcDbSpline
 62
7
  6
CONTINUOUS
 70
0
 71
3
 72
11
 73
7
 74
0
 42
0.0000001
 43
0.0000001
 44
0.0000000001
 40
0.0
 40
0.0
 40
0.0
 40
0.0
 40
0.2896099679
 40
0.5491110935
 40
0.7822392383
 40
1.0
 40
1.0
 40
1.0
 40
1.0
 10
286.907794619
 20
362.6281014722
 30
0.0
 10
286.907794619
 20
362.7673930213
 30
0.0
 10
286.9289930054
 20
363.0323843155
 30
0.0
 10
287.0362127547
 20
363.3964858554
 30
0.0
 10
287.2168808778
 20
363.6920263056
 30
0.0
 10
287.3867076399
 20
363.8345452944
 30
0.0
 10
287.4773922937
 20
363.8869443969
 30
0.0
  0
SPLINE
  5
2D5
100
AcDbEntity
  8
0
100
AcDbSpline
 62
7
  6
CONTINUOUS
 70
0
 71
3
 72
9
 73
5
 74
0
 42
0.0000001
 43
0.0000001
 44
0.0000000001
 40
0.0
 40
0.0
 40
0.0
 40
0.0
 40
0.5255647459
 40
1.0
 40
1.0
 40
1.0
 40
1.0
 10
287.4773406385
 20
360.7115567744
 30
0.0
 10
287.3007891689
 20
361.0173511923
 30
0.0
 10
287.0272028686
 20
361.6372709703
 30
0.0
 10
286.907794619
 20
362.3093514295
 30
0.0
 10
286.907794619
 20
362.6281014722
 30
0.0
  0
SPLINE
  5
2D6
100
AcDbEntity
  8
0
100
AcDbSpline
 62
7
  6
CONTINUOUS
 70
0
 71
3
 72
9
 73
5
 74
0
 42
0.0000001
 43
0.0000001
 44
0.0000000001
 40
0.0
 40
0.0
 40
0.0
 40
0.0
 40
0.256081437
 40
1.0
 40
1.0
 40
1.0
 40
1.0
 10
332.8670225819
 20
330.7939032638
 30
0.0
 10
333.0081796451
 20
329.9946925869
 30
0.0
 10
333.5163966873
 20
326.8664336766
 30
0.0
 10
333.8492871101
 20
323.7088531288
 30
0.0
 10
333.9827931739
 20
321.3549883156
 30
0.0
  0
SPLINE
  5
2D7
100
AcDbEntity
  8
0
100
AcDbSpline
 62
7
  6
CONTINUOUS
 70
0
 71
3
 72
15
 73
11
 74
0
 42
0.0000001
 43
0.0000001
 44
0.0000000001
 40
0.0
 40
0.0
 40
0.0
 40
0.0
 40
0.0869374527
 40
0.1864110066
 40
0.303802345
 40
0.4376151342
 40
0.5821146496
 40
0.7294277984
 40
0.8711761549
 40
1.0
 40
1.0
 40
1.0
 40
1.0
 10
329.4775154976
 20
334.4425526964
 30
0.0
 10
329.340143622
 20
334.3632387394
 30
0.0
 10
328.9950117775
 20
334.2745516458
 30
0.0
 10
328.4394983234
 20
334.385817205
 30
0.0
 10
327.8719894628
 20
334.6958221628
 30
0.0
 10
327.3278114156
 20
335.1776924071
 30
0.0
 10
326.8474075725
 20
335.7927011725
 30
0.0
 10
326.4691334036
 20
336.4917993239
 30
0.0
 10
326.2237300391
 20
337.217487989
 30
0.0
 10
326.1579580288
 20
337.7117316558
 30
0.0
 10
326.1579580288
 20
337.9467813265
 30
0.0
  0
SPLINE
  5
2D8
100
AcDbEntity
  8
0
100
AcDbSpline
 62
7
  6
CONTINUOUS
 70
0
 71
3
 72
11
 73
7
 74
0
 42
0.0000001
 43
0.0000001
 44
0.0000000001
 40
0.0
 40
0.0
 40
0.0
 40
0.0
 40
0.2897041239
 40
0.5490570377
 40
0.7822824085
 40
1.0
 40
1.0
 40
1.0
 40
1.0
 10
326.1579580288
 20
337.9467813265
 30
0.0
 10
326.1579580288
 20
338.086117688
 30
0.0
 10
326.1791196097
 20
338.3510780895
 30
0.0
 10
326.28634062
 20
338.715229519
 30
0.0
 10
326.4671436209
 20
339.0105865388
 30
0.0
 10
326.6368200132
 20
339.1533278578
 30
0.0
 10
326.7275040483
 20
339.2056858068
 30
0.0
  0
SPLINE
  5
2D9
100
AcDbEntity
  8
0
100
AcDbSpline
 62
7
  6
CONTINUOUS
 70
0
 71
3
 72
11
 73
7
 74
0
 42
0.0000001
 43
0.0000001
 44
0.0000000001
 40
0.0
 40
0.0
 40
0.0
 40
0.0
 40
0.23648323
 40
0.498369795
 40
0.761140276
 40
1.0
 40
1.0
 40
1.0
 40
1.0
 10
229.5909304596
 20
353.9230652764
 30
0.0
 10
229.8966392317
 20
354.0995652647
 30
0.0
 10
230.4762887485
 20
354.5845121773
 30
0.0
 10
231.1571889722
 20
355.5042384209
 30
0.0
 10
231.6300912723
 20
356.5502057333
 30
0.0
 10
231.7742220874
 20
357.2966283054
 30
0.0
 10
231.7822012038
 20
357.6530879931
 30
0.0
  0
SPLINE
  5
2DA
100
AcDbEntity
  8
0
100
AcDbSpline
 62
7
  6
CONTINUOUS
 70
0
 71
3
 72
11
 73
7
 74
0
 42
0.0000001
 43
0.0000001
 44
0.0000000001
 40
0.0
 40
0.0
 40
0.0
 40
0.0
 40
0.2388599541
 40
0.5016305173
 40
0.7635169984
 40
1.0
 40
1.0
 40
1.0
 40
1.0
 10
260.4201450723
 20
341.119337435
 30
0.0
 10
260.4121659482
 20
340.762877404
 30
0.0
 10
260.2680349283
 20
340.0164543699
 30
0.0
 10
259.7951322487
 20
338.9704868542
 30
0.0
 10
259.1142320178
 20
338.0507610432
 30
0.0
 10
258.5345828048
 20
337.5658145361
 30
0.0
 10
258.2288743281
 20
337.3893147183
 30
0.0
  0
SPLINE
  5
2DB
100
AcDbEntity
  8
0
100
AcDbSpline
 62
7
  6
CONTINUOUS
 70
0
 71
3
 72
11
 73
7
 74
0
 42
0.0000001
 43
0.0000001
 44
0.0000000001
 40
0.0
 40
0.0
 40
0.0
 40
0.0
 40
0.23648323
 40
0.498369795
 40
0.761140276
 40
1.0
 40
1.0
 40
1.0
 40
1.0
 10
251.1577770766
 20
341.4717222635
 30
0.0
 10
251.4634858487
 20
341.6482222518
 30
0.0
 10
252.0431353655
 20
342.1331691644
 30
0.0
 10
252.7240355892
 20
343.052895408
 30
0.0
 10
253.1969378893
 20
344.0988627204
 30
0.0
 10
253.3410687044
 20
344.8452852926
 30
0.0
 10
253.3490478208
 20
345.2017449802
 30
0.0
  0
ENDSEC
  0
SECTION
  2
OBJECTS
  0
DICTIONARY
  5
C
100
AcDbDictionary
280
0
281
1
  3
ACAD_GROUP
350
D
  3
ACAD_MLINESTYLE
350
17
  3
ACAD_LAYOUT
350
1A
  3
ACAD_PLOTSETTINGS
350
19
  3
ACAD_PLOTSTYLENAME
350
E
  0
DICTIONARY
  5
D
102
{ACAD_REACTORS
330
C
102
}
100
AcDbDictionary
280
0
281
1
  0
ACDBDICTIONARYWDFLT
  5
E
102
{ACAD_REACTORS
330
C
102
}
100
AcDbDictionary
281
1
  3
Normal
350
F
100
AcDbDictionaryWithDefault
340
F
  0
DICTIONARY
  5
17
102
{ACAD_REACTORS
330
C
102
}
100
AcDbDictionary
280
0
281
1
  3
Standard
350
18
  0
DICTIONARY
  5
19
102
{ACAD_REACTORS
330
C
102
}
100
AcDbDictionary
281
1
  0
DICTIONARY
  5
1A
102
{ACAD_REACTORS
330
C
102
}
100
AcDbDictionary
281
1
  3
Model
350
2DC
  3
Layout1
350
2DD
  0
ACDBPLACEHOLDER
  5
F
102
{ACAD_REACTORS
330
E
102
}
  0
MLINESTYLE
  5
18
102
{ACAD_REACTORS
330
17
102
}
100
AcDbMlineStyle
  2
STANDARD
 70
0
  3

 62
256
 51
90.0
 52
90.0
 71
2
 49
0.5
 62
256
  6
BYLAYER
 49
-0.5
 62
256
  6
BYLAYER
  0
LAYOUT
  5
2DC
102
{ACAD_REACTORS
330
1A
102
}
100
AcDbPlotSettings
  1

  2
none_device
  4

  6

 40
0.0
 41
0.0
 42
0.0
 43
0.0
 44
210.0
 45
297.0
 46
0.0
 47
0.0
 48
0.0
 49
0.0
140
0.0
141
0.0
142
1.0
143
1.0
 70
1024
 72
1
 73
0
 74
0
  7

 75
0
147
1.0
148
0.0
149
0.0
100
AcDbLayout
  1
Model
 70
0
 71
0
 10
0.0
 20
0.0
 11
210.0
 21
297.0
 12
0.0
 22
0.0
 32
0.0
 14
0.0
 24
0.0
 34
0.0
 15
0.0
 25
0.0
 35
0.0
146
0.0
 13
0.0
 23
0.0
 33
0.0
 16
1.0
 26
0.0
 36
0.0
 17
0.0
 27
1.0
 37
0.0
 76
0
330
210
345
0
346
0
  0
LAYOUT
  5
2DD
102
{ACAD_REACTORS
330
1A
102
}
100
AcDbPlotSettings
  1

  2
none_device
  4

  6

 40
0.0
 41
0.0
 42
0.0
 43
0.0
 44
210.0
 45
297.0
 46
0.0
 47
0.0
 48
0.0
 49
0.0
140
0.0
141
0.0
142
1.0
143
1.0
 70
0
 72
1
 73
0
 74
0
  7

 75
0
147
1.0
148
0.0
149
0.0
100
AcDbLayout
  1
Layout1
 70
0
 71
1
 10
0.0
 20
0.0
 11
210.0
 21
297.0
 12
0.0
 22
0.0
 32
0.0
 14
0.0
 24
0.0
 34
0.0
 15
0.0
 25
0.0
 35
0.0
146
0.0
 13
0.0
 23
0.0
 33
0.0
 16
1.0
 26
0.0
 36
0.0
 17
0.0
 27
1.0
 37
0.0
 76
0
330
211
345
0
346
0
  0
ENDSEC
  0
EOF
