999
DXF file: C:\Users\sesa63760\Dev\_Creo\CAD\MCADID0000864_3D-CAD\drw0001_1.dxf
999
Pro/ENGINEER 2019471 by Parametric Technology Corporation
  0
SECTION
  2
HEADER
  9
$ACADVER
  1
AC1024
  9
$DWGCODEPAGE
  3
ANSI_1252
  9
$EXTMAX
 10
173.5150123623
 20
245.3998031981
 30
0.0
  9
$EXTMIN
 10
0.0
 20
0.0
 30
0.0
  9
$LIMMIN
 10
0.0
 20
0.0
  9
$LIMMAX
 10
173.5150123623
 20
245.3998031981
  9
$VIEWCTR
 10
86.7575061812
 20
122.6999015991
  9
$VIEWSIZE
 40
245.3998031981
  9
$CLAYER
  8
0
  9
$LTSCALE
 40
15.9964316159
  9
$CELTYPE
  6
BYLAYER
  9
$DIMSCALE
 40
1.0
  9
$DIMASZ
 40
2.0656549091
  9
$DIMEXO
 40
1.0
  9
$DIMDLI
 40
11.0520800255
  9
$DIMEXE
 40
1.0
  9
$DIMCEN
 40
2.6175979008
  9
$DIMLFAC
 40
1.0
  9
$DIMBLK
  1
_FILLED
  9
$DIMALT
 70
0
  9
$DIMALTF
 40
0.0393700787
  9
$DIMTXT
 40
2.8919168727
  9
$DIMTOL
 70
1
  9
$DIMLIM
 70
0
  9
$DIMTFAC
 40
1.0
  9
$DIMTP
 40
0.01
  9
$DIMTM
 40
0.01
  9
$DIMGAP
 40
0.625
  9
$DIMDSEP
 70
46
  9
$AUNITS
 70
0
  9
$PDMODE
 70
3
  9
$PDSIZE
 40
0.3125
  9
$HANDSEED
  5
262
  9
$TILEMODE
 70
1
  9
$MEASUREMENT
 70
1
  9
$INSUNITS
 70
4
  0
ENDSEC
  0
SECTION
  2
CLASSES
  0
CLASS
  1
ACDBDICTIONARYWDFLT
  2
AcDbDictionaryWithDefault
  3
AutoCAD 2000
 90
0
 91
1
280
0
281
0
  0
CLASS
  1
ACDBPLACEHOLDER
  2
AcDbPlaceHolder
  3
AutoCAD 2000
 90
0
 91
1
280
0
281
0
  0
CLASS
  1
LAYOUT
  2
AcDbLayout
  3
AutoCAD 2000
 90
0
 91
0
280
0
281
0
  0
ENDSEC
  0
SECTION
  2
TABLES
  0
TABLE
  2
VPORT
  5
8
100
AcDbSymbolTable
 70
2
  0
VPORT
  5
1F4
100
AcDbSymbolTableRecord
100
AcDbViewportTableRecord
  2
*ACTIVE
 70
0
 10
0.0
 20
0.0
 11
1.0
 21
1.0
 12
86.7575061812
 22
122.6999015991
 13
0.0
 23
0.0
 14
1.0
 24
1.0
 15
0.0
 25
0.0
 16
0.0
 26
0.0
 36
1.0
 17
0.0
 27
0.0
 37
0.0
 40
245.3998031981
 41
0.7070707071
 42
50.0
 43
0.0
 44
0.0
 50
0.0
 51
0.0
 71
0
 72
100
 73
1
 74
1
 75
0
 76
0
 77
0
 78
0
  0
ENDTAB
  0
TABLE
  2
LTYPE
  5
5
100
AcDbSymbolTable
 70
6
  0
LTYPE
  5
14
100
AcDbSymbolTableRecord
100
AcDbLinetypeTableRecord
  2
BYBLOCK
 70
0
  3

 72
65
 73
0
 40
0.0
  0
LTYPE
  5
15
100
AcDbSymbolTableRecord
100
AcDbLinetypeTableRecord
  2
BYLAYER
 70
0
  3

 72
65
 73
0
 40
0.0
  0
LTYPE
  5
16
100
AcDbSymbolTableRecord
100
AcDbLinetypeTableRecord
  2
CONTINUOUS
 70
64
  3
Solid line
 72
65
 73
0
 40
0.0
  0
LTYPE
  5
1F5
100
AcDbSymbolTableRecord
100
AcDbLinetypeTableRecord
  2
CENTER
 70
64
  3
____ _ ____ _ ____ _ ____ _ ____ _ ____ _ ____
 72
65
 73
4
 40
0.6
 49
0.375
 74
0
 49
-0.075
 74
0
 49
0.075
 74
0
 49
-0.075
 74
0
  0
LTYPE
  5
1F6
100
AcDbSymbolTableRecord
100
AcDbLinetypeTableRecord
  2
HIDDEN
 70
64
  3
- - - - - - - - - - - - - - - - - - - -
 72
65
 73
2
 40
0.2
 49
0.1
 74
0
 49
-0.1
 74
0
  0
LTYPE
  5
1F7
100
AcDbSymbolTableRecord
100
AcDbLinetypeTableRecord
  2
PHANTOM
 70
64
  3
_____ _ _ _____ _ _ _____ _ _ _____
 72
65
 73
6
 40
0.8
 49
0.45
 74
0
 49
-0.05
 74
0
 49
0.1
 74
0
 49
-0.05
 74
0
 49
0.1
 74
0
 49
-0.05
 74
0
  0
LTYPE
  5
1F8
100
AcDbSymbolTableRecord
100
AcDbLinetypeTableRecord
  2
DOT
 70
64
  3
. . . . . . . . . . . . . . . . . . . .
 72
65
 73
2
 40
0.2
 49
0.1
 74
0
 49
-0.1
 74
0
  0
LTYPE
  5
1F9
100
AcDbSymbolTableRecord
100
AcDbLinetypeTableRecord
  2
DASHED
 70
64
  3
- - - - - - - - - - - - - - - - - - - -
 72
65
 73
2
 40
0.2
 49
0.1
 74
0
 49
-0.1
 74
0
  0
ENDTAB
  0
TABLE
  2
LAYER
  5
2
100
AcDbSymbolTable
 70
36
  0
LAYER
  5
10
100
AcDbSymbolTableRecord
100
AcDbLayerTableRecord
  2
0
 70
0
 62
7
  6
CONTINUOUS
370
-3
390
F
  0
LAYER
  5
1FA
100
AcDbSymbolTableRecord
100
AcDbLayerTableRecord
  2
DEFAULT_1
 70
0
 62
7
  6
CENTER
370
-3
390
F
  0
LAYER
  5
1FB
100
AcDbSymbolTableRecord
100
AcDbLayerTableRecord
  2
DEFAULT_2
 70
0
 62
8
  6
HIDDEN
370
-3
390
F
  0
LAYER
  5
1FC
100
AcDbSymbolTableRecord
100
AcDbLayerTableRecord
  2
DEFAULT_3
 70
0
 62
7
  6
PHANTOM
370
-3
390
F
  0
LAYER
  5
1FD
100
AcDbSymbolTableRecord
100
AcDbLayerTableRecord
  2
00_COMPONENTS
 70
0
 62
7
  6
CONTINUOUS
370
-3
390
F
  0
LAYER
  5
1FE
100
AcDbSymbolTableRecord
100
AcDbLayerTableRecord
  2
01_1_DEFAULT_DATUMS
 70
0
 62
7
  6
CONTINUOUS
370
-3
390
F
  0
LAYER
  5
1FF
100
AcDbSymbolTableRecord
100
AcDbLayerTableRecord
  2
01_PLANES
 70
0
 62
7
  6
CONTINUOUS
370
-3
390
F
  0
LAYER
  5
200
100
AcDbSymbolTableRecord
100
AcDbLayerTableRecord
  2
02_COORD_SYS
 70
0
 62
7
  6
CONTINUOUS
370
-3
390
F
  0
LAYER
  5
201
100
AcDbSymbolTableRecord
100
AcDbLayerTableRecord
  2
03_AXES
 70
0
 62
7
  6
CONTINUOUS
370
-3
390
F
  0
LAYER
  5
202
100
AcDbSymbolTableRecord
100
AcDbLayerTableRecord
  2
04_POINTS
 70
0
 62
7
  6
CONTINUOUS
370
-3
390
F
  0
LAYER
  5
203
100
AcDbSymbolTableRecord
100
AcDbLayerTableRecord
  2
05_CURVES
 70
0
 62
7
  6
CONTINUOUS
370
-3
390
F
  0
LAYER
  5
204
100
AcDbSymbolTableRecord
100
AcDbLayerTableRecord
  2
06_SURFS
 70
0
 62
7
  6
CONTINUOUS
370
-3
390
F
  0
LAYER
  5
205
100
AcDbSymbolTableRecord
100
AcDbLayerTableRecord
  2
07_COSMETICS
 70
0
 62
7
  6
CONTINUOUS
370
-3
390
F
  0
LAYER
  5
206
100
AcDbSymbolTableRecord
100
AcDbLayerTableRecord
  2
10_NOTES
 70
0
 62
7
  6
CONTINUOUS
370
-3
390
F
  0
LAYER
  5
207
100
AcDbSymbolTableRecord
100
AcDbLayerTableRecord
  2
11_NOTES_PUB
 70
0
 62
7
  6
CONTINUOUS
370
-3
390
F
  0
LAYER
  5
208
100
AcDbSymbolTableRecord
100
AcDbLayerTableRecord
  2
13_REF_GTOL
 70
0
 62
7
  6
CONTINUOUS
370
-3
390
F
  0
LAYER
  5
209
100
AcDbSymbolTableRecord
100
AcDbLayerTableRecord
  2
16_MISC
 70
0
 62
7
  6
CONTINUOUS
370
-3
390
F
  0
LAYER
  5
20A
100
AcDbSymbolTableRecord
100
AcDbLayerTableRecord
  2
17_NO_PRINT
 70
0
 62
7
  6
CONTINUOUS
370
-3
390
F
  0
LAYER
  5
20B
100
AcDbSymbolTableRecord
100
AcDbLayerTableRecord
  2
18_DATUM_CAMS_JOINTS
 70
0
 62
7
  6
CONTINUOUS
370
-3
390
F
  0
LAYER
  5
20C
100
AcDbSymbolTableRecord
100
AcDbLayerTableRecord
  2
19_DATUM_FUNCTIONAL
 70
0
 62
7
  6
CONTINUOUS
370
-3
390
F
  0
LAYER
  5
20D
100
AcDbSymbolTableRecord
100
AcDbLayerTableRecord
  2
20_DATUM_KINEMATIC_SCHEME
 70
0
 62
7
  6
CONTINUOUS
370
-3
390
F
  0
ENDTAB
  0
TABLE
  2
STYLE
  5
3
100
AcDbSymbolTable
 70
1
  0
STYLE
  5
11
100
AcDbSymbolTableRecord
100
AcDbTextStyleTableRecord
  2
STANDARD
 70
0
 40
0.0
 41
0.8
 50
0.0
 71
0
 42
0.2
  3
txt
  4

  0
STYLE
  5
20E
100
AcDbSymbolTableRecord
100
AcDbTextStyleTableRecord
  2
TEXTSTYLE_1
 70
0
 40
0.0
 41
0.8
 50
0.0
 71
0
 42
0.2
  3
gdt
  4

  0
ENDTAB
  0
TABLE
  2
VIEW
  5
6
100
AcDbSymbolTable
 70
0
  0
ENDTAB
  0
TABLE
  2
UCS
  5
7
100
AcDbSymbolTable
 70
0
  0
ENDTAB
  0
TABLE
  2
APPID
  5
9
100
AcDbSymbolTable
 70
1
  0
APPID
  5
20F
100
AcDbSymbolTableRecord
100
AcDbRegAppTableRecord
  2
ACAD
 70
0
  0
ENDTAB
  0
TABLE
  2
BLOCK_RECORD
  5
1
100
AcDbSymbolTable
 70
0
  0
BLOCK_RECORD
  5
210
100
AcDbSymbolTableRecord
100
AcDbBlockTableRecord
  2
*Model_Space
  0
BLOCK_RECORD
  5
211
100
AcDbSymbolTableRecord
100
AcDbBlockTableRecord
  2
*Paper_Space
  0
BLOCK_RECORD
  5
212
100
AcDbSymbolTableRecord
100
AcDbBlockTableRecord
  2
_FILLED
  0
ENDTAB
  0
TABLE
  2
DIMSTYLE
  5
A
100
AcDbSymbolTable
 70
1
100
AcDbDimStyleTable
 71
0
  0
DIMSTYLE
105
213
100
AcDbSymbolTableRecord
100
AcDbDimStyleTableRecord
  2
STANDARD
 70
0
  3

  4

 40
1.0
 41
2.0656549091
 42
1.0
 43
0.38
 44
1.0
 45
0.0
 46
0.0
 47
0.01
 48
0.01
140
2.8919168727
141
0.09
142
0.0
143
25.4
144
1.0
145
0.0
146
1.0
147
0.625
 71
1
 72
0
 73
0
 74
0
 75
0
 76
0
 77
1
 78
8
 79
2
170
0
171
1
172
0
173
0
174
0
175
0
176
0
177
0
178
0
270
2
179
2
271
2
272
2
273
2
274
2
275
0
280
0
281
0
282
0
283
1
284
8
285
0
286
0
287
3
288
0
340
11
278
46
341
212
342
212
343
212
344
212
  0
ENDTAB
  0
ENDSEC
  0
SECTION
  2
BLOCKS
  0
BLOCK
  5
20
100
AcDbEntity
  8
0
100
AcDbBlockBegin
  2
*Model_Space
 70
0
 10
0.0
 20
0.0
 30
0.0
  3
*Model_Space
  1

  0
ENDBLK
  5
21
100
AcDbEntity
  8
0
100
AcDbBlockEnd
  0
BLOCK
  5
1C
100
AcDbEntity
  8
0
100
AcDbBlockBegin
  2
*Paper_Space
 70
0
 10
0.0
 20
0.0
 30
0.0
  3
*Paper_Space
  1

  0
ENDBLK
  5
1D
100
AcDbEntity
  8
0
100
AcDbBlockEnd
  0
BLOCK
  5
214
100
AcDbEntity
  8
0
100
AcDbBlockBegin
  2
_FILLED
 70
64
 10
0.0
 20
0.0
  3
_FILLED
  1

  0
SOLID
  5
215
100
AcDbEntity
  8
0
  6
BYBLOCK
 62
0
100
AcDbTrace
 10
0.0
 20
0.0
 11
-1.0
 21
0.25
 12
-1.0
 22
-0.25
 13
-1.0
 23
-0.25
  0
ENDBLK
  5
216
100
AcDbEntity
  8
0
  6
BYBLOCK
 62
0
100
AcDbBlockEnd
  0
ENDSEC
  0
SECTION
  2
ENTITIES
  0
LINE
  5
217
100
AcDbEntity
  8
0
100
AcDbLine
 62
7
  6
CONTINUOUS
 10
76.3183993208
 20
206.1656900932
 11
81.8338092511
 21
209.3499944934
  0
LINE
  5
218
100
AcDbEntity
  8
0
100
AcDbLine
 62
7
  6
CONTINUOUS
 10
26.4704756085
 20
71.2407961147
 11
49.4515416757
 21
57.9729715928
  0
LINE
  5
219
100
AcDbEntity
  8
0
100
AcDbLine
 62
7
  6
CONTINUOUS
 10
23.6429252478
 20
96.5319224213
 11
23.6409485229
 21
96.5514114998
  0
LINE
  5
21A
100
AcDbEntity
  8
0
100
AcDbLine
 62
7
  6
CONTINUOUS
 10
23.6428317918
 20
96.5318570944
 11
23.6409485229
 21
96.5514114998
  0
LINE
  5
21B
100
AcDbEntity
  8
0
100
AcDbLine
 62
7
  6
CONTINUOUS
 10
20.1297378804
 20
164.9580431506
 11
76.3183993208
 21
197.3983883159
  0
LINE
  5
21C
100
AcDbEntity
  8
0
100
AcDbLine
 62
7
  6
CONTINUOUS
 10
28.5414432374
 20
168.7840654543
 11
84.8036217486
 21
201.2668554668
  0
LINE
  5
21D
100
AcDbEntity
  8
0
100
AcDbLine
 62
7
  6
CONTINUOUS
 10
28.5732930368
 20
163.9037032645
 11
25.2646631307
 21
161.9934763001
  0
LINE
  5
21E
100
AcDbEntity
  8
0
100
AcDbLine
 62
7
  6
CONTINUOUS
 10
55.649769221
 20
61.5515379421
 11
98.7836400879
 21
36.6487493623
  0
LINE
  5
21F
100
AcDbEntity
  8
0
100
AcDbLine
 62
7
  6
CONTINUOUS
 10
55.649769221
 20
61.7144842954
 11
98.7836400879
 21
36.8116957156
  0
LINE
  5
220
100
AcDbEntity
  8
0
100
AcDbLine
 62
7
  6
CONTINUOUS
 10
88.9054658562
 20
48.5004009139
 11
37.640010783
 21
78.0978556166
  0
LINE
  5
221
100
AcDbEntity
  8
0
100
AcDbLine
 62
7
  6
CONTINUOUS
 10
37.640010783
 20
78.0982408921
 11
37.640010783
 21
157.2989753537
  0
LINE
  5
222
100
AcDbEntity
  8
0
100
AcDbLine
 62
7
  6
CONTINUOUS
 10
37.640010783
 20
157.2989753537
 11
43.0372848492
 21
160.4150743881
  0
LINE
  5
223
100
AcDbEntity
  8
0
100
AcDbLine
 62
7
  6
CONTINUOUS
 10
23.6250585987
 20
96.5422375026
 11
37.640010783
 21
88.4508841372
  0
LINE
  5
224
100
AcDbEntity
  8
0
100
AcDbLine
 62
7
  6
CONTINUOUS
 10
45.7578770144
 20
91.9203383294
 11
81.1499242091
 21
71.4875433009
  0
LINE
  5
225
100
AcDbEntity
  8
0
100
AcDbLine
 62
7
  6
CONTINUOUS
 10
130.9072800488
 20
47.0308447016
 11
123.8366472658
 21
51.1129840919
  0
LINE
  5
226
100
AcDbEntity
  8
0
100
AcDbLine
 62
7
  6
CONTINUOUS
 10
55.649769221
 20
61.7144842954
 11
55.649769221
 21
61.5515379421
  0
LINE
  5
227
100
AcDbEntity
  8
0
100
AcDbLine
 62
7
  6
CONTINUOUS
 10
142.4333362549
 20
61.8497233961
 11
144.554420452
 21
60.6251425677
  0
LINE
  5
228
100
AcDbEntity
  8
0
100
AcDbLine
 62
7
  6
CONTINUOUS
 10
148.0897857627
 20
58.5840446297
 11
150.5649204612
 21
57.1550572732
  0
LINE
  5
229
100
AcDbEntity
  8
0
100
AcDbLine
 62
7
  6
CONTINUOUS
 10
76.3183993208
 20
206.1656900932
 11
76.3183993208
 21
197.3983883159
  0
LINE
  5
22A
100
AcDbEntity
  8
0
100
AcDbLine
 62
7
  6
CONTINUOUS
 10
88.9054658562
 20
127.701520651
 11
88.9054658562
 21
48.5007861894
  0
LINE
  5
22B
100
AcDbEntity
  8
0
100
AcDbLine
 62
7
  6
CONTINUOUS
 10
81.7169262617
 20
73.3223185257
 11
84.693396869
 21
128.8523846809
  0
LINE
  5
22C
100
AcDbEntity
  8
0
100
AcDbLine
 62
7
  6
CONTINUOUS
 10
88.9054658562
 20
127.701520651
 11
156.0803303915
 21
166.4847152688
  0
LINE
  5
22D
100
AcDbEntity
  8
0
100
AcDbLine
 62
7
  6
CONTINUOUS
 10
25.2646631307
 20
161.9934763001
 11
20.1297378804
 21
164.9580431506
  0
LINE
  5
22E
100
AcDbEntity
  8
0
100
AcDbLine
 62
7
  6
CONTINUOUS
 10
44.4859801184
 20
151.8739372934
 11
79.7713903718
 21
131.5023655278
  0
LINE
  5
22F
100
AcDbEntity
  8
0
100
AcDbLine
 62
7
  6
CONTINUOUS
 10
37.640010783
 20
157.2989753537
 11
88.9054658562
 21
127.701520651
  0
LINE
  5
230
100
AcDbEntity
  8
0
100
AcDbLine
 62
7
  6
CONTINUOUS
 10
98.7836400879
 20
36.6487493623
 11
98.7836400879
 21
36.8116957156
  0
LINE
  5
231
100
AcDbEntity
  8
0
100
AcDbLine
 62
7
  6
CONTINUOUS
 10
43.037288217
 20
160.4150763325
 11
28.5414445775
 21
168.784066228
  0
LINE
  5
232
100
AcDbEntity
  8
0
100
AcDbLine
 62
7
  6
CONTINUOUS
 10
49.4515416757
 20
57.9730109613
 11
55.649769221
 21
61.5515379421
  0
LINE
  5
233
100
AcDbEntity
  8
0
100
AcDbLine
 62
7
  6
CONTINUOUS
 10
130.9072800488
 20
55.1951914651
 11
130.9072800488
 21
47.0308447016
  0
LINE
  5
234
100
AcDbEntity
  8
0
100
AcDbLine
 62
7
  6
CONTINUOUS
 10
137.6245100358
 20
50.9090160932
 11
137.6245100358
 21
59.0733628567
  0
LINE
  5
235
100
AcDbEntity
  8
0
100
AcDbLine
 62
7
  6
CONTINUOUS
 10
142.4333362549
 20
62.9506226902
 11
142.4333362549
 21
61.8497233961
  0
LINE
  5
236
100
AcDbEntity
  8
0
100
AcDbLine
 62
7
  6
CONTINUOUS
 10
144.554420452
 20
60.6251425677
 11
144.5540155052
 21
64.1749901177
  0
LINE
  5
237
100
AcDbEntity
  8
0
100
AcDbLine
 62
7
  6
CONTINUOUS
 10
76.3183993208
 20
197.3983883159
 11
77.210809671
 21
196.883169537
  0
LINE
  5
238
100
AcDbEntity
  8
0
100
AcDbLine
 62
7
  6
CONTINUOUS
 10
150.5649204612
 20
57.1550572732
 11
150.5649204612
 21
67.6453669968
  0
LINE
  5
239
100
AcDbEntity
  8
0
100
AcDbLine
 62
7
  6
CONTINUOUS
 10
148.090459714
 20
64.1287787838
 11
148.0897857627
 21
58.5840446297
  0
LINE
  5
23A
100
AcDbEntity
  8
0
100
AcDbLine
 62
7
  6
CONTINUOUS
 10
105.2749196877
 20
57.9512530761
 11
88.9054658562
 21
48.5004009139
  0
LINE
  5
23B
100
AcDbEntity
  8
0
100
AcDbLine
 62
7
  6
CONTINUOUS
 10
84.8036217486
 20
201.2668554668
 11
76.3183993208
 21
206.1656900932
  0
LINE
  5
23C
100
AcDbEntity
  8
0
100
AcDbLine
 62
7
  6
CONTINUOUS
 10
156.0803303915
 20
166.4847152688
 11
156.0803303915
 21
60.3393616734
  0
LINE
  5
23D
100
AcDbEntity
  8
0
100
AcDbLine
 62
7
  6
CONTINUOUS
 10
81.8338092511
 20
209.3499944934
 11
156.0803303915
 21
166.4847152688
  0
LINE
  5
23E
100
AcDbEntity
  8
0
100
AcDbLine
 62
7
  6
CONTINUOUS
 10
97.8844030402
 20
42.253406257
 11
100.987755243
 21
44.0451167916
  0
LINE
  5
23F
100
AcDbEntity
  8
0
100
AcDbLine
 62
7
  6
CONTINUOUS
 10
105.5543889956
 20
41.6586796584
 11
150.5649204612
 21
67.6453669968
  0
LINE
  5
240
100
AcDbEntity
  8
0
100
AcDbLine
 62
7
  6
CONTINUOUS
 10
98.7836400879
 20
36.6487099938
 11
142.4333362549
 21
61.8497233961
  0
LINE
  5
241
100
AcDbEntity
  8
0
100
AcDbLine
 62
7
  6
CONTINUOUS
 10
144.554420452
 20
60.6251425677
 11
148.0902819844
 21
62.6665609896
  0
LINE
  5
242
100
AcDbEntity
  8
0
100
AcDbLine
 62
7
  6
CONTINUOUS
 10
130.9072800488
 20
47.0308447016
 11
137.6245100358
 21
50.9090160932
  0
LINE
  5
243
100
AcDbEntity
  8
0
100
AcDbLine
 62
7
  6
CONTINUOUS
 10
150.5649204612
 20
57.1550572732
 11
156.0803303915
 21
60.3393616734
  0
ARC
  5
244
100
AcDbEntity
  8
0
100
AcDbCircle
 62
7
  6
CONTINUOUS
 10
980.4651758699
 20
172.4386167738
 40
951.9307477408
100
AcDbArc
 50
180.2199644055
 51
180.5137311411
  0
ARC
  5
245
100
AcDbEntity
  8
0
100
AcDbCircle
 62
7
  6
CONTINUOUS
 10
839.9255002197
 20
174.9921501857
 40
820.0447624172
100
AcDbArc
 50
185.4903476442
 51
187.2684896091
  0
ARC
  5
246
100
AcDbEntity
  8
0
100
AcDbCircle
 62
7
  6
CONTINUOUS
 10
859.2810438541
 20
161.2637430082
 40
816.39010156
100
AcDbArc
 50
186.2599585471
 51
187.2686170801
  0
ARC
  5
247
100
AcDbEntity
  8
0
100
AcDbCircle
 62
7
  6
CONTINUOUS
 10
229.756909083
 20
51.5617253924
 40
124.6458850963
100
AcDbArc
 50
177.0614706193
 51
179.9674220962
  0
ARC
  5
248
100
AcDbEntity
  8
0
100
AcDbCircle
 62
7
  6
CONTINUOUS
 10
187.4504968393
 20
54.2589565003
 40
90.3671311654
100
AcDbArc
 50
187.6344912385
 51
191.1320512697
  0
ARC
  5
249
100
AcDbEntity
  8
0
100
AcDbCircle
 62
7
  6
CONTINUOUS
 10
143.5961207552
 20
79.0559354653
 40
89.63976058
100
AcDbArc
 50
186.8982751808
 51
191.1546077299
  0
ARC
  5
24A
100
AcDbEntity
  8
0
100
AcDbCircle
 62
7
  6
CONTINUOUS
 10
145.8554083502
 20
64.2925320029
 40
2.2410421048
100
AcDbArc
 50
355.8096558895
 51
0.0220734471
  0
SPLINE
  5
24B
100
AcDbEntity
  8
0
100
AcDbSpline
 62
7
  6
CONTINUOUS
 70
0
 71
3
 72
11
 73
7
 74
0
 42
0.0000001
 43
0.0000001
 44
0.0000000001
 40
0.0
 40
0.0
 40
0.0
 40
0.0
 40
0.2908576265
 40
0.5504618709
 40
0.7830386064
 40
1.0
 40
1.0
 40
1.0
 40
1.0
 10
28.5726748974
 20
163.9047739198
 30
0.0
 10
28.574746054
 20
163.6661760468
 30
0.0
 10
28.5429992541
 20
163.2127745843
 30
0.0
 10
28.3657331392
 20
162.5893422708
 30
0.0
 10
28.0616490029
 20
162.0838427632
 30
0.0
 10
27.773479156
 20
161.8403166331
 30
0.0
 10
27.619335941
 20
161.7513292571
 30
0.0
  0
SPLINE
  5
24C
100
AcDbEntity
  8
0
100
AcDbSpline
 62
7
  6
CONTINUOUS
 70
0
 71
3
 72
9
 73
5
 74
0
 42
0.0000001
 43
0.0000001
 44
0.0000000001
 40
0.0
 40
0.0
 40
0.0
 40
0.0
 40
0.2458370698
 40
1.0
 40
1.0
 40
1.0
 40
1.0
 10
23.6250585987
 20
96.5422375026
 30
0.0
 10
23.1160306973
 20
102.1336108293
 30
0.0
 10
21.2779798197
 20
124.898617121
 30
0.0
 10
20.3542300995
 20
147.7357216057
 30
0.0
 10
20.1297378804
 20
164.9580431506
 30
0.0
  0
SPLINE
  5
24D
100
AcDbEntity
  8
0
100
AcDbSpline
 62
7
  6
CONTINUOUS
 70
0
 71
3
 72
12
 73
8
 74
0
 42
0.0000001
 43
0.0000001
 44
0.0000000001
 40
0.0
 40
0.0
 40
0.0
 40
0.0
 40
0.2495336871
 40
0.4372503777
 40
0.6254196236
 40
0.8128266962
 40
1.0
 40
1.0
 40
1.0
 40
1.0
 10
100.7969516678
 20
44.145427354
 30
0.0
 10
101.192653778
 20
43.9385580447
 30
0.0
 10
101.8835424823
 20
43.5713264727
 30
0.0
 10
102.8764161851
 20
43.0549358562
 30
0.0
 10
103.7735570231
 20
42.5954528907
 30
0.0
 10
104.6650455956
 20
42.1271775092
 30
0.0
 10
105.2575556296
 20
41.8138119998
 30
0.0
 10
105.5543889956
 20
41.6586796584
 30
0.0
  0
SPLINE
  5
24E
100
AcDbEntity
  8
0
100
AcDbSpline
 62
7
  6
CONTINUOUS
 70
0
 71
3
 72
9
 73
5
 74
0
 42
0.0000001
 43
0.0000001
 44
0.0000000001
 40
0.0
 40
0.0
 40
0.0
 40
0.0
 40
0.5254042058
 40
1.0
 40
1.0
 40
1.0
 40
1.0
 10
147.629280226
 20
65.9470923876
 30
0.0
 10
147.7744651744
 20
65.6809353955
 30
0.0
 10
147.9993807624
 20
65.1446028727
 30
0.0
 10
148.0964502887
 20
64.5672569659
 30
0.0
 10
148.0964502887
 20
64.293395374
 30
0.0
  0
SPLINE
  5
24F
100
AcDbEntity
  8
0
100
AcDbSpline
 62
7
  6
CONTINUOUS
 70
0
 71
3
 72
11
 73
7
 74
0
 42
0.0000001
 43
0.0000001
 44
0.0000000001
 40
0.0
 40
0.0
 40
0.0
 40
0.0
 40
0.2086319484
 40
0.4393628964
 40
0.7021362611
 40
1.0
 40
1.0
 40
1.0
 40
1.0
 10
98.6021271347
 20
44.3479551354
 30
0.0
 10
98.7400666254
 20
44.4275452028
 30
0.0
 10
99.0638460433
 20
44.5409488574
 30
0.0
 10
99.6061141603
 20
44.5531073805
 30
0.0
 10
100.2000001986
 20
44.420271786
 30
0.0
 10
100.5949896683
 20
44.2498319596
 30
0.0
 10
100.7969553304
 20
44.1454018161
 30
0.0
  0
SPLINE
  5
250
100
AcDbEntity
  8
0
100
AcDbSpline
 62
7
  6
CONTINUOUS
 70
0
 71
3
 72
14
 73
10
 74
0
 42
0.0000001
 43
0.0000001
 44
0.0000000001
 40
0.0
 40
0.0
 40
0.0
 40
0.0
 40
0.0878643031
 40
0.1842341987
 40
0.2941801182
 40
0.4187485073
 40
0.5560118017
 40
0.7021359174
 40
1.0
 40
1.0
 40
1.0
 40
1.0
 10
79.3111146161
 20
201.7987111596
 30
0.0
 10
79.4095218388
 20
201.8555286631
 30
0.0
 10
79.6432985714
 20
201.9311425646
 30
0.0
 10
80.0295478777
 20
201.9069328184
 30
0.0
 10
80.4361722098
 20
201.7603324377
 30
0.0
 10
80.8454440885
 20
201.5025782222
 30
0.0
 10
81.238770798
 20
201.1474148284
 30
0.0
 10
81.7174758055
 20
200.5657560229
 30
0.0
 10
81.9913936896
 20
200.0504173677
 30
0.0
 10
82.122838032
 20
199.6883194864
 30
0.0
  0
SPLINE
  5
251
100
AcDbEntity
  8
0
100
AcDbSpline
 62
7
  6
CONTINUOUS
 70
0
 71
3
 72
10
 73
6
 74
0
 42
0.0000001
 43
0.0000001
 44
0.0000000001
 40
0.0
 40
0.0
 40
0.0
 40
0.0
 40
0.2490965791
 40
0.4989613243
 40
1.0
 40
1.0
 40
1.0
 40
1.0
 10
45.1631405172
 20
94.7909406094
 30
0.0
 10
44.8623317448
 20
99.6503745307
 30
0.0
 10
44.3098449169
 20
109.3873215833
 30
0.0
 10
43.310181907
 20
128.9073447572
 30
0.0
 10
42.6378479976
 20
143.5688809537
 30
0.0
 10
42.2071316869
 20
153.3524925367
 30
0.0
  0
SPLINE
  5
252
100
AcDbEntity
  8
0
100
AcDbSpline
 62
7
  6
CONTINUOUS
 70
0
 71
3
 72
10
 73
6
 74
0
 42
0.0000001
 43
0.0000001
 44
0.0000000001
 40
0.0
 40
0.0
 40
0.0
 40
0.0
 40
0.5207513672
 40
0.7714636056
 40
1.0
 40
1.0
 40
1.0
 40
1.0
 10
79.7345625333
 20
198.3065522333
 30
0.0
 10
79.447280319
 20
198.647827551
 30
0.0
 10
79.1005082888
 20
199.2277480233
 30
0.0
 10
78.8436478262
 20
200.0473703621
 30
0.0
 10
78.7932833588
 20
200.4585629979
 30
0.0
 10
78.7932833588
 20
200.6543353667
 30
0.0
  0
SPLINE
  5
253
100
AcDbEntity
  8
0
100
AcDbSpline
 62
7
  6
CONTINUOUS
 70
0
 71
3
 72
11
 73
7
 74
0
 42
0.0000001
 43
0.0000001
 44
0.0000000001
 40
0.0
 40
0.0
 40
0.0
 40
0.0
 40
0.2980047885
 40
0.5576432494
 40
0.7862128593
 40
1.0
 40
1.0
 40
1.0
 40
1.0
 10
97.8844037365
 20
42.2534010727
 30
0.0
 10
97.8544060419
 20
42.4839184129
 30
0.0
 10
97.8323744516
 20
42.921446785
 30
0.0
 10
97.9386788
 20
43.532191926
 30
0.0
 10
98.1910333916
 20
44.0295631503
 30
0.0
 10
98.4576808835
 20
44.2646107153
 30
0.0
 10
98.6021271347
 20
44.3479551354
 30
0.0
  0
LINE
  5
254
100
AcDbEntity
  8
0
100
AcDbLine
 62
7
  6
CONTINUOUS
 10
42.2071316869
 20
153.3524925367
 11
42.1488924586
 21
154.6958301956
  0
SPLINE
  5
255
100
AcDbEntity
  8
0
100
AcDbSpline
 62
7
  6
CONTINUOUS
 70
0
 71
3
 72
26
 73
22
 74
0
 42
0.0000001
 43
0.0000001
 44
0.0000000001
 40
0.0
 40
0.0
 40
0.0
 40
0.0
 40
0.1284170698
 40
0.2561587679
 40
0.3830153841
 40
0.5086460821
 40
0.5708280964
 40
0.6324321178
 40
0.6932623399
 40
0.7529857808
 40
0.7822560636
 40
0.8109632163
 40
0.8388833419
 40
0.8656248635
 40
0.8783846814
 40
0.8906689986
 40
0.9029442959
 40
0.9179027786
 40
0.9375227405
 40
0.9585217421
 40
1.0
 40
1.0
 40
1.0
 40
1.0
 10
81.7169262617
 20
73.3223185257
 30
0.0
 10
81.7056557372
 20
73.2242142147
 30
0.0
 10
81.6824578249
 20
73.0286027106
 30
0.0
 10
81.6450565357
 20
72.736451848
 30
0.0
 10
81.604374801
 20
72.4469009419
 30
0.0
 10
81.5666535695
 20
72.2078647478
 30
0.0
 10
81.5330533816
 20
72.0190291752
 30
0.0
 10
81.5057980559
 20
71.8796940698
 30
0.0
 10
81.4757110884
 20
71.742875898
 30
0.0
 10
81.447191344
 20
71.6312034303
 30
0.0
 10
81.4210766076
 20
71.544530695
 30
0.0
 10
81.3995258324
 20
71.4820561821
 30
0.0
 10
81.3750256766
 20
71.4227892588
 30
0.0
 10
81.3506480296
 20
71.3767814565
 30
0.0
 10
81.3264873732
 20
71.3449465482
 30
0.0
 10
81.3052825439
 20
71.3253777944
 30
0.0
 10
81.2754874127
 20
71.3134691079
 30
0.0
 10
81.2389321133
 20
71.3267246895
 30
0.0
 10
81.2104617743
 20
71.3595231089
 30
0.0
 10
81.177926157
 20
71.4136791438
 30
0.0
 10
81.1597650334
 20
71.458428473
 30
0.0
 10
81.1486016271
 20
71.4883068636
 30
0.0
  0
LINE
  5
256
100
AcDbEntity
  8
0
100
AcDbLine
 62
7
  6
CONTINUOUS
 10
84.750231304
 20
130.1004921663
 11
84.693396869
 21
128.8523846809
  0
SPLINE
  5
257
100
AcDbEntity
  8
0
100
AcDbSpline
 62
7
  6
CONTINUOUS
 70
0
 71
3
 72
11
 73
7
 74
0
 42
0.0000001
 43
0.0000001
 44
0.0000000001
 40
0.0
 40
0.0
 40
0.0
 40
0.0
 40
0.216366996
 40
0.4489907643
 40
0.7089032739
 40
1.0
 40
1.0
 40
1.0
 40
1.0
 10
27.619335941
 20
161.7513292571
 30
0.0
 10
27.4648997211
 20
161.6621727283
 30
0.0
 10
27.1087275624
 20
161.5340686477
 30
0.0
 10
26.5165884709
 20
161.521958874
 30
0.0
 10
25.8838686761
 20
161.6772883368
 30
0.0
 10
25.4714319961
 20
161.8741709069
 30
0.0
 10
25.2636251387
 20
161.9940672929
 30
0.0
  0
SPLINE
  5
258
100
AcDbEntity
  8
0
100
AcDbSpline
 62
7
  6
CONTINUOUS
 70
0
 71
3
 72
9
 73
5
 74
0
 42
0.0000001
 43
0.0000001
 44
0.0000000001
 40
0.0
 40
0.0
 40
0.0
 40
0.0
 40
0.2549248881
 40
1.0
 40
1.0
 40
1.0
 40
1.0
 10
105.1110441355
 20
51.6325980024
 30
0.0
 10
105.1110441355
 20
50.7840646345
 30
0.0
 10
105.1468519059
 20
47.4556510353
 30
0.0
 10
105.3284505293
 20
44.1283952773
 30
0.0
 10
105.5543889956
 20
41.6586796584
 30
0.0
  0
SPLINE
  5
259
100
AcDbEntity
  8
0
100
AcDbSpline
 62
7
  6
CONTINUOUS
 70
0
 71
3
 72
9
 73
5
 74
0
 42
0.0000001
 43
0.0000001
 44
0.0000000001
 40
0.0
 40
0.0
 40
0.0
 40
0.0
 40
0.5000026586
 40
1.0
 40
1.0
 40
1.0
 40
1.0
 10
45.7578770144
 20
91.9203383294
 30
0.0
 10
45.5477705612
 20
101.9126976087
 30
0.0
 10
45.1196764895
 20
121.8971432154
 30
0.0
 10
44.6995359519
 20
141.881757449
 30
0.0
 10
44.4859801184
 20
151.8739372934
 30
0.0
  0
SPLINE
  5
25A
100
AcDbEntity
  8
0
100
AcDbSpline
 62
7
  6
CONTINUOUS
 70
0
 71
3
 72
24
 73
20
 74
0
 42
0.0000001
 43
0.0000001
 44
0.0000000001
 40
0.0
 40
0.0
 40
0.0
 40
0.0
 40
0.2462094957
 40
0.3701390608
 40
0.4948721272
 40
0.5576446505
 40
0.6207762659
 40
0.6843736483
 40
0.7486074117
 40
0.7810500421
 40
0.8137844352
 40
0.8469018842
 40
0.8805480599
 40
0.9149621521
 40
0.9325554485
 40
0.9503073403
 40
0.96703723
 40
0.9796168804
 40
1.0
 40
1.0
 40
1.0
 40
1.0
 10
45.1631405172
 20
94.7909406094
 30
0.0
 10
45.1873795186
 20
94.5411362892
 30
0.0
 10
45.2257580105
 20
94.1657701731
 30
0.0
 10
45.2833676038
 20
93.6646087316
 30
0.0
 10
45.3232100055
 20
93.349640631
 30
0.0
 10
45.3584018927
 20
93.0965816278
 30
0.0
 10
45.3870014836
 20
92.9055343289
 30
0.0
 10
45.4184218197
 20
92.713419245
 30
0.0
 10
45.4477571437
 20
92.5526805257
 30
0.0
 10
45.4741157427
 20
92.4234185617
 30
0.0
 10
45.4958911526
 20
92.3256084508
 30
0.0
 10
45.5203007785
 20
92.2271502795
 30
0.0
 10
45.5485801344
 20
92.1279381097
 30
0.0
 10
45.5771444497
 20
92.0453454809
 30
0.0
 10
45.6058890584
 20
91.9801758196
 30
0.0
 10
45.632335042
 20
91.9341523244
 30
0.0
 10
45.6629809361
 20
91.896221175
 30
0.0
 10
45.7153356793
 20
91.8775586953
 30
0.0
 10
45.7453989938
 20
91.9039679499
 30
0.0
 10
45.7589497934
 20
91.9197189848
 30
0.0
  0
SPLINE
  5
25B
100
AcDbEntity
  8
0
100
AcDbSpline
 62
7
  6
CONTINUOUS
 70
0
 71
3
 72
10
 73
6
 74
0
 42
0.0000001
 43
0.0000001
 44
0.0000000001
 40
0.0
 40
0.0
 40
0.0
 40
0.0
 40
0.2273167442
 40
0.4732333065
 40
1.0
 40
1.0
 40
1.0
 40
1.0
 10
79.7713903718
 20
131.5023655278
 30
0.0
 10
80.1085813676
 20
131.2962777182
 30
0.0
 10
80.847288541
 20
130.9257547555
 30
0.0
 10
82.494107396
 20
130.3592145429
 30
0.0
 10
83.8357137371
 20
130.1498777238
 30
0.0
 10
84.7500810636
 20
130.0992415178
 30
0.0
  0
SPLINE
  5
25C
100
AcDbEntity
  8
0
100
AcDbSpline
 62
7
  6
CONTINUOUS
 70
0
 71
3
 72
11
 73
7
 74
0
 42
0.0000001
 43
0.0000001
 44
0.0000000001
 40
0.0
 40
0.0
 40
0.0
 40
0.0
 40
0.2133699264
 40
0.4468605068
 40
0.708274957
 40
1.0
 40
1.0
 40
1.0
 40
1.0
 10
42.1489650559
 20
154.6944508946
 30
0.0
 10
42.1815032452
 20
154.4267924999
 30
0.0
 10
42.347101333
 20
153.8754125578
 30
0.0
 10
42.845527386
 20
153.1206159766
 30
0.0
 10
43.573034385
 20
152.4332348873
 30
0.0
 10
44.1630456896
 20
152.0517338753
 30
0.0
 10
44.4859801184
 20
151.8739372934
 30
0.0
  0
SPLINE
  5
25D
100
AcDbEntity
  8
0
100
AcDbSpline
 62
7
  6
CONTINUOUS
 70
0
 71
3
 72
10
 73
6
 74
0
 42
0.0000001
 43
0.0000001
 44
0.0000000001
 40
0.0
 40
0.0
 40
0.0
 40
0.0
 40
0.2488187365
 40
0.4986477297
 40
1.0
 40
1.0
 40
1.0
 40
1.0
 10
81.7169262617
 20
73.3223185257
 30
0.0
 10
81.9088568383
 20
77.9306264816
 30
0.0
 10
82.3442015862
 20
87.1638331893
 30
0.0
 10
83.3231539323
 20
105.6747937784
 30
0.0
 10
84.1346835549
 20
119.5757279247
 30
0.0
 10
84.693396869
 20
128.8523846809
 30
0.0
  0
SPLINE
  5
25E
100
AcDbEntity
  8
0
100
AcDbSpline
 62
7
  6
CONTINUOUS
 70
0
 71
3
 72
9
 73
5
 74
0
 42
0.0000001
 43
0.0000001
 44
0.0000000001
 40
0.0
 40
0.0
 40
0.0
 40
0.0
 40
0.5000031997
 40
1.0
 40
1.0
 40
1.0
 40
1.0
 10
79.7713903718
 20
131.5023655278
 30
0.0
 10
79.9992260185
 20
121.4997871944
 30
0.0
 10
80.4634035782
 20
101.4949534922
 30
0.0
 10
80.9178671791
 20
81.4898965003
 30
0.0
 10
81.1499242091
 20
71.4875433009
 30
0.0
  0
SPLINE
  5
25F
100
AcDbEntity
  8
0
100
AcDbSpline
 62
7
  6
CONTINUOUS
 70
0
 71
3
 72
11
 73
7
 74
0
 42
0.0000001
 43
0.0000001
 44
0.0000000001
 40
0.0
 40
0.0
 40
0.0
 40
0.0
 40
0.2895453772
 40
0.5491366158
 40
0.7822776227
 40
1.0
 40
1.0
 40
1.0
 40
1.0
 10
78.7932833588
 20
200.6543353667
 30
0.0
 10
78.7932833588
 20
200.7809349323
 30
0.0
 10
78.8126143536
 20
201.0218349908
 30
0.0
 10
78.909999803
 20
201.3528782473
 30
0.0
 10
79.0742876268
 20
201.621560303
 30
0.0
 10
79.2286732216
 20
201.7511118666
 30
0.0
 10
79.3111146161
 20
201.7987111596
 30
0.0
  0
ENDSEC
  0
SECTION
  2
OBJECTS
  0
DICTIONARY
  5
C
100
AcDbDictionary
280
0
281
1
  3
ACAD_GROUP
350
D
  3
ACAD_MLINESTYLE
350
17
  3
ACAD_LAYOUT
350
1A
  3
ACAD_PLOTSETTINGS
350
19
  3
ACAD_PLOTSTYLENAME
350
E
  0
DICTIONARY
  5
D
102
{ACAD_REACTORS
330
C
102
}
100
AcDbDictionary
280
0
281
1
  0
ACDBDICTIONARYWDFLT
  5
E
102
{ACAD_REACTORS
330
C
102
}
100
AcDbDictionary
281
1
  3
Normal
350
F
100
AcDbDictionaryWithDefault
340
F
  0
DICTIONARY
  5
17
102
{ACAD_REACTORS
330
C
102
}
100
AcDbDictionary
280
0
281
1
  3
Standard
350
18
  0
DICTIONARY
  5
19
102
{ACAD_REACTORS
330
C
102
}
100
AcDbDictionary
281
1
  0
DICTIONARY
  5
1A
102
{ACAD_REACTORS
330
C
102
}
100
AcDbDictionary
281
1
  3
Model
350
260
  3
Layout1
350
261
  0
ACDBPLACEHOLDER
  5
F
102
{ACAD_REACTORS
330
E
102
}
  0
MLINESTYLE
  5
18
102
{ACAD_REACTORS
330
17
102
}
100
AcDbMlineStyle
  2
STANDARD
 70
0
  3

 62
256
 51
90.0
 52
90.0
 71
2
 49
0.5
 62
256
  6
BYLAYER
 49
-0.5
 62
256
  6
BYLAYER
  0
LAYOUT
  5
260
102
{ACAD_REACTORS
330
1A
102
}
100
AcDbPlotSettings
  1

  2
none_device
  4

  6

 40
0.0
 41
0.0
 42
0.0
 43
0.0
 44
210.0
 45
297.0
 46
0.0
 47
0.0
 48
0.0
 49
0.0
140
0.0
141
0.0
142
1.0
143
1.0
 70
1024
 72
1
 73
0
 74
0
  7

 75
0
147
1.0
148
0.0
149
0.0
100
AcDbLayout
  1
Model
 70
0
 71
0
 10
0.0
 20
0.0
 11
210.0
 21
297.0
 12
0.0
 22
0.0
 32
0.0
 14
0.0
 24
0.0
 34
0.0
 15
0.0
 25
0.0
 35
0.0
146
0.0
 13
0.0
 23
0.0
 33
0.0
 16
1.0
 26
0.0
 36
0.0
 17
0.0
 27
1.0
 37
0.0
 76
0
330
210
345
0
346
0
  0
LAYOUT
  5
261
102
{ACAD_REACTORS
330
1A
102
}
100
AcDbPlotSettings
  1

  2
none_device
  4

  6

 40
0.0
 41
0.0
 42
0.0
 43
0.0
 44
210.0
 45
297.0
 46
0.0
 47
0.0
 48
0.0
 49
0.0
140
0.0
141
0.0
142
1.0
143
1.0
 70
0
 72
1
 73
0
 74
0
  7

 75
0
147
1.0
148
0.0
149
0.0
100
AcDbLayout
  1
Layout1
 70
0
 71
1
 10
0.0
 20
0.0
 11
210.0
 21
297.0
 12
0.0
 22
0.0
 32
0.0
 14
0.0
 24
0.0
 34
0.0
 15
0.0
 25
0.0
 35
0.0
146
0.0
 13
0.0
 23
0.0
 33
0.0
 16
1.0
 26
0.0
 36
0.0
 17
0.0
 27
1.0
 37
0.0
 76
0
330
211
345
0
346
0
  0
ENDSEC
  0
EOF
