999
DXF file: C:\Users\sesa63760\Dev\_Creo\CAD\MCADPE0010612_3D-CAD\drw0001_1.dxf
999
Pro/ENGINEER 2019471 by Parametric Technology Corporation
  0
SECTION
  2
HEADER
  9
$ACADVER
  1
AC1024
  9
$DWGCODEPAGE
  3
ANSI_1252
  9
$EXTMAX
 10
48.4076488179
 20
68.4622461853
 30
0.0
  9
$EXTMIN
 10
0.0
 20
0.0
 30
0.0
  9
$LIMMIN
 10
0.0
 20
0.0
  9
$LIMMAX
 10
48.4076488179
 20
68.4622461853
  9
$VIEWCTR
 10
24.2038244089
 20
34.2311230926
  9
$VIEWSIZE
 40
68.4622461853
  9
$CLAYER
  8
0
  9
$LTSCALE
 40
4.4627241958
  9
$CELTYPE
  6
BYLAYER
  9
$DIMSCALE
 40
1.0
  9
$DIMASZ
 40
0.5762815335
  9
$DIMEXO
 40
1.0
  9
$DIMDLI
 40
3.0833367171
  9
$DIMEXE
 40
1.0
  9
$DIMCEN
 40
0.7302639593
  9
$DIMLFAC
 40
1.0
  9
$DIMBLK
  1
_FILLED
  9
$DIMALT
 70
0
  9
$DIMALTF
 40
0.0393700787
  9
$DIMTXT
 40
0.806794147
  9
$DIMTOL
 70
1
  9
$DIMLIM
 70
0
  9
$DIMTFAC
 40
1.0
  9
$DIMTP
 40
0.01
  9
$DIMTM
 40
0.01
  9
$DIMGAP
 40
0.625
  9
$DIMDSEP
 70
46
  9
$AUNITS
 70
0
  9
$PDMODE
 70
3
  9
$PDSIZE
 40
0.3125
  9
$HANDSEED
  5
365
  9
$TILEMODE
 70
1
  9
$MEASUREMENT
 70
1
  9
$INSUNITS
 70
4
  0
ENDSEC
  0
SECTION
  2
CLASSES
  0
CLASS
  1
ACDBDICTIONARYWDFLT
  2
AcDbDictionaryWithDefault
  3
AutoCAD 2000
 90
0
 91
1
280
0
281
0
  0
CLASS
  1
ACDBPLACEHOLDER
  2
AcDbPlaceHolder
  3
AutoCAD 2000
 90
0
 91
1
280
0
281
0
  0
CLASS
  1
LAYOUT
  2
AcDbLayout
  3
AutoCAD 2000
 90
0
 91
0
280
0
281
0
  0
ENDSEC
  0
SECTION
  2
TABLES
  0
TABLE
  2
VPORT
  5
8
100
AcDbSymbolTable
 70
2
  0
VPORT
  5
1F4
100
AcDbSymbolTableRecord
100
AcDbViewportTableRecord
  2
*ACTIVE
 70
0
 10
0.0
 20
0.0
 11
1.0
 21
1.0
 12
24.2038244089
 22
34.2311230926
 13
0.0
 23
0.0
 14
1.0
 24
1.0
 15
0.0
 25
0.0
 16
0.0
 26
0.0
 36
1.0
 17
0.0
 27
0.0
 37
0.0
 40
68.4622461853
 41
0.7070707071
 42
50.0
 43
0.0
 44
0.0
 50
0.0
 51
0.0
 71
0
 72
100
 73
1
 74
1
 75
0
 76
0
 77
0
 78
0
  0
ENDTAB
  0
TABLE
  2
LTYPE
  5
5
100
AcDbSymbolTable
 70
6
  0
LTYPE
  5
14
100
AcDbSymbolTableRecord
100
AcDbLinetypeTableRecord
  2
BYBLOCK
 70
0
  3

 72
65
 73
0
 40
0.0
  0
LTYPE
  5
15
100
AcDbSymbolTableRecord
100
AcDbLinetypeTableRecord
  2
BYLAYER
 70
0
  3

 72
65
 73
0
 40
0.0
  0
LTYPE
  5
16
100
AcDbSymbolTableRecord
100
AcDbLinetypeTableRecord
  2
CONTINUOUS
 70
64
  3
Solid line
 72
65
 73
0
 40
0.0
  0
LTYPE
  5
1F5
100
AcDbSymbolTableRecord
100
AcDbLinetypeTableRecord
  2
CENTER
 70
64
  3
____ _ ____ _ ____ _ ____ _ ____ _ ____ _ ____
 72
65
 73
4
 40
0.6
 49
0.375
 74
0
 49
-0.075
 74
0
 49
0.075
 74
0
 49
-0.075
 74
0
  0
LTYPE
  5
1F6
100
AcDbSymbolTableRecord
100
AcDbLinetypeTableRecord
  2
HIDDEN
 70
64
  3
- - - - - - - - - - - - - - - - - - - -
 72
65
 73
2
 40
0.2
 49
0.1
 74
0
 49
-0.1
 74
0
  0
LTYPE
  5
1F7
100
AcDbSymbolTableRecord
100
AcDbLinetypeTableRecord
  2
PHANTOM
 70
64
  3
_____ _ _ _____ _ _ _____ _ _ _____
 72
65
 73
6
 40
0.8
 49
0.45
 74
0
 49
-0.05
 74
0
 49
0.1
 74
0
 49
-0.05
 74
0
 49
0.1
 74
0
 49
-0.05
 74
0
  0
LTYPE
  5
1F8
100
AcDbSymbolTableRecord
100
AcDbLinetypeTableRecord
  2
DOT
 70
64
  3
. . . . . . . . . . . . . . . . . . . .
 72
65
 73
2
 40
0.2
 49
0.1
 74
0
 49
-0.1
 74
0
  0
LTYPE
  5
1F9
100
AcDbSymbolTableRecord
100
AcDbLinetypeTableRecord
  2
DASHED
 70
64
  3
- - - - - - - - - - - - - - - - - - - -
 72
65
 73
2
 40
0.2
 49
0.1
 74
0
 49
-0.1
 74
0
  0
ENDTAB
  0
TABLE
  2
LAYER
  5
2
100
AcDbSymbolTable
 70
36
  0
LAYER
  5
10
100
AcDbSymbolTableRecord
100
AcDbLayerTableRecord
  2
0
 70
0
 62
7
  6
CONTINUOUS
370
-3
390
F
  0
LAYER
  5
1FA
100
AcDbSymbolTableRecord
100
AcDbLayerTableRecord
  2
DEFAULT_1
 70
0
 62
7
  6
CENTER
370
-3
390
F
  0
LAYER
  5
1FB
100
AcDbSymbolTableRecord
100
AcDbLayerTableRecord
  2
DEFAULT_2
 70
0
 62
7
  6
HIDDEN
370
-3
390
F
  0
LAYER
  5
1FC
100
AcDbSymbolTableRecord
100
AcDbLayerTableRecord
  2
DEFAULT_3
 70
0
 62
7
  6
PHANTOM
370
-3
390
F
  0
LAYER
  5
1FD
100
AcDbSymbolTableRecord
100
AcDbLayerTableRecord
  2
00_COMPONENTS
 70
0
 62
7
  6
CONTINUOUS
370
-3
390
F
  0
LAYER
  5
1FE
100
AcDbSymbolTableRecord
100
AcDbLayerTableRecord
  2
01_1_DEFAULT_DATUMS
 70
0
 62
7
  6
CONTINUOUS
370
-3
390
F
  0
LAYER
  5
1FF
100
AcDbSymbolTableRecord
100
AcDbLayerTableRecord
  2
01_PLANES
 70
0
 62
7
  6
CONTINUOUS
370
-3
390
F
  0
LAYER
  5
200
100
AcDbSymbolTableRecord
100
AcDbLayerTableRecord
  2
02_COORD_SYS
 70
0
 62
7
  6
CONTINUOUS
370
-3
390
F
  0
LAYER
  5
201
100
AcDbSymbolTableRecord
100
AcDbLayerTableRecord
  2
03_AXES
 70
0
 62
7
  6
CONTINUOUS
370
-3
390
F
  0
LAYER
  5
202
100
AcDbSymbolTableRecord
100
AcDbLayerTableRecord
  2
04_POINTS
 70
0
 62
7
  6
CONTINUOUS
370
-3
390
F
  0
LAYER
  5
203
100
AcDbSymbolTableRecord
100
AcDbLayerTableRecord
  2
05_CURVES
 70
0
 62
7
  6
CONTINUOUS
370
-3
390
F
  0
LAYER
  5
204
100
AcDbSymbolTableRecord
100
AcDbLayerTableRecord
  2
06_SURFS
 70
0
 62
7
  6
CONTINUOUS
370
-3
390
F
  0
LAYER
  5
205
100
AcDbSymbolTableRecord
100
AcDbLayerTableRecord
  2
07_COSMETICS
 70
0
 62
7
  6
CONTINUOUS
370
-3
390
F
  0
LAYER
  5
206
100
AcDbSymbolTableRecord
100
AcDbLayerTableRecord
  2
10_NOTES
 70
0
 62
7
  6
CONTINUOUS
370
-3
390
F
  0
LAYER
  5
207
100
AcDbSymbolTableRecord
100
AcDbLayerTableRecord
  2
11_NOTES_PUB
 70
0
 62
7
  6
CONTINUOUS
370
-3
390
F
  0
LAYER
  5
208
100
AcDbSymbolTableRecord
100
AcDbLayerTableRecord
  2
13_REF_GTOL
 70
0
 62
7
  6
CONTINUOUS
370
-3
390
F
  0
LAYER
  5
209
100
AcDbSymbolTableRecord
100
AcDbLayerTableRecord
  2
16_MISC
 70
0
 62
7
  6
CONTINUOUS
370
-3
390
F
  0
LAYER
  5
20A
100
AcDbSymbolTableRecord
100
AcDbLayerTableRecord
  2
17_NO_PRINT
 70
0
 62
7
  6
CONTINUOUS
370
-3
390
F
  0
LAYER
  5
20B
100
AcDbSymbolTableRecord
100
AcDbLayerTableRecord
  2
18_DATUM_CAMS_JOINTS
 70
0
 62
7
  6
CONTINUOUS
370
-3
390
F
  0
LAYER
  5
20C
100
AcDbSymbolTableRecord
100
AcDbLayerTableRecord
  2
19_DATUM_FUNCTIONAL
 70
0
 62
7
  6
CONTINUOUS
370
-3
390
F
  0
LAYER
  5
20D
100
AcDbSymbolTableRecord
100
AcDbLayerTableRecord
  2
20_DATUM_KINEMATIC_SCHEME
 70
0
 62
7
  6
CONTINUOUS
370
-3
390
F
  0
ENDTAB
  0
TABLE
  2
STYLE
  5
3
100
AcDbSymbolTable
 70
1
  0
STYLE
  5
11
100
AcDbSymbolTableRecord
100
AcDbTextStyleTableRecord
  2
STANDARD
 70
0
 40
0.0
 41
1.0
 50
0.0
 71
0
 42
0.2
  3
ARIAL.TTF
  4

  0
STYLE
  5
20E
100
AcDbSymbolTableRecord
100
AcDbTextStyleTableRecord
  2
TEXTSTYLE_1
 70
0
 40
0.0
 41
0.8
 50
0.0
 71
0
 42
0.2
  3
gdt
  4

  0
ENDTAB
  0
TABLE
  2
VIEW
  5
6
100
AcDbSymbolTable
 70
0
  0
ENDTAB
  0
TABLE
  2
UCS
  5
7
100
AcDbSymbolTable
 70
0
  0
ENDTAB
  0
TABLE
  2
APPID
  5
9
100
AcDbSymbolTable
 70
1
  0
APPID
  5
20F
100
AcDbSymbolTableRecord
100
AcDbRegAppTableRecord
  2
ACAD
 70
0
  0
ENDTAB
  0
TABLE
  2
BLOCK_RECORD
  5
1
100
AcDbSymbolTable
 70
0
  0
BLOCK_RECORD
  5
210
100
AcDbSymbolTableRecord
100
AcDbBlockTableRecord
  2
*Model_Space
  0
BLOCK_RECORD
  5
211
100
AcDbSymbolTableRecord
100
AcDbBlockTableRecord
  2
*Paper_Space
  0
BLOCK_RECORD
  5
212
100
AcDbSymbolTableRecord
100
AcDbBlockTableRecord
  2
_FILLED
  0
ENDTAB
  0
TABLE
  2
DIMSTYLE
  5
A
100
AcDbSymbolTable
 70
1
100
AcDbDimStyleTable
 71
0
  0
DIMSTYLE
105
213
100
AcDbSymbolTableRecord
100
AcDbDimStyleTableRecord
  2
STANDARD
 70
0
  3

  4

 40
1.0
 41
0.5762815335
 42
1.0
 43
0.38
 44
1.0
 45
0.0
 46
0.0
 47
0.01
 48
0.01
140
0.806794147
141
0.09
142
0.0
143
25.4
144
1.0
145
0.0
146
1.0
147
0.625
 71
1
 72
0
 73
0
 74
0
 75
0
 76
0
 77
1
 78
8
 79
2
170
0
171
1
172
0
173
0
174
0
175
0
176
0
177
0
178
0
270
2
179
2
271
2
272
2
273
2
274
2
275
0
280
0
281
0
282
0
283
1
284
8
285
0
286
0
287
3
288
0
340
11
278
46
341
212
342
212
343
212
344
212
  0
ENDTAB
  0
ENDSEC
  0
SECTION
  2
BLOCKS
  0
BLOCK
  5
20
100
AcDbEntity
  8
0
100
AcDbBlockBegin
  2
*Model_Space
 70
0
 10
0.0
 20
0.0
 30
0.0
  3
*Model_Space
  1

  0
ENDBLK
  5
21
100
AcDbEntity
  8
0
100
AcDbBlockEnd
  0
BLOCK
  5
1C
100
AcDbEntity
  8
0
100
AcDbBlockBegin
  2
*Paper_Space
 70
0
 10
0.0
 20
0.0
 30
0.0
  3
*Paper_Space
  1

  0
ENDBLK
  5
1D
100
AcDbEntity
  8
0
100
AcDbBlockEnd
  0
BLOCK
  5
214
100
AcDbEntity
  8
0
100
AcDbBlockBegin
  2
_FILLED
 70
64
 10
0.0
 20
0.0
  3
_FILLED
  1

  0
SOLID
  5
215
100
AcDbEntity
  8
0
  6
BYBLOCK
 62
0
100
AcDbTrace
 10
0.0
 20
0.0
 11
-1.0
 21
0.25
 12
-1.0
 22
-0.25
 13
-1.0
 23
-0.25
  0
ENDBLK
  5
216
100
AcDbEntity
  8
0
  6
BYBLOCK
 62
0
100
AcDbBlockEnd
  0
ENDSEC
  0
SECTION
  2
ENTITIES
  0
LINE
  5
217
100
AcDbEntity
  8
0
100
AcDbLine
 62
7
  6
BYLAYER
 10
6.152150174
 20
11.2939390924
 11
16.4884654887
 21
5.3262226222
  0
LINE
  5
218
100
AcDbEntity
  8
0
100
AcDbLine
 62
7
  6
BYLAYER
 10
10.1902161053
 20
9.4699321297
 11
5.8414912956
 21
11.98061277
  0
LINE
  5
219
100
AcDbEntity
  8
0
100
AcDbLine
 62
7
  6
BYLAYER
 10
15.7375332932
 20
6.4499316066
 11
12.4405036616
 21
8.353429489
  0
LINE
  5
21A
100
AcDbEntity
  8
0
100
AcDbLine
 62
7
  6
BYLAYER
 10
13.3537880142
 20
9.2913860357
 11
16.093176877
 21
7.7098349178
  0
LINE
  5
21B
100
AcDbEntity
  8
0
100
AcDbLine
 62
7
  6
BYLAYER
 10
16.4239401517
 20
7.7941394153
 11
13.2614533184
 21
9.6200542444
  0
LINE
  5
21C
100
AcDbEntity
  8
0
100
AcDbLine
 62
7
  6
BYLAYER
 10
13.796451091
 20
10.5467027124
 11
16.9589379242
 21
8.7207878832
  0
LINE
  5
21D
100
AcDbEntity
  8
0
100
AcDbLine
 62
7
  6
BYLAYER
 10
5.8414912956
 20
17.2295605207
 11
10.1902161053
 21
14.7188798804
  0
LINE
  5
21E
100
AcDbEntity
  8
0
100
AcDbLine
 62
7
  6
BYLAYER
 10
10.422846146
 20
15.2368187434
 11
6.0741213364
 21
17.7474993837
  0
LINE
  5
21F
100
AcDbEntity
  8
0
100
AcDbLine
 62
7
  6
BYLAYER
 10
27.7697645528
 20
62.019234259
 11
29.8306550353
 21
63.2090828314
  0
LINE
  5
220
100
AcDbEntity
  8
0
100
AcDbLine
 62
7
  6
BYLAYER
 10
12.6397385974
 20
52.3041589428
 11
12.9724222192
 21
52.4962327749
  0
LINE
  5
221
100
AcDbEntity
  8
0
100
AcDbLine
 62
7
  6
BYLAYER
 10
18.5961370838
 20
54.8857391469
 11
15.1475085191
 21
52.8946844017
  0
LINE
  5
222
100
AcDbEntity
  8
0
100
AcDbLine
 62
7
  6
BYLAYER
 10
8.0556312157
 20
19.7243095223
 11
12.4043560253
 21
17.213628882
  0
LINE
  5
223
100
AcDbEntity
  8
0
100
AcDbLine
 62
7
  6
BYLAYER
 10
12.6461997811
 20
17.402497727
 11
8.2974749714
 21
19.9131783673
  0
LINE
  5
224
100
AcDbEntity
  8
0
100
AcDbLine
 62
7
  6
BYLAYER
 10
5.8414912956
 20
40.360080662
 11
5.8414912956
 21
26.2929068063
  0
LINE
  5
225
100
AcDbEntity
  8
0
100
AcDbLine
 62
7
  6
BYLAYER
 10
5.8414912956
 20
11.98061277
 11
5.8414912956
 21
17.2295605207
  0
LINE
  5
226
100
AcDbEntity
  8
0
100
AcDbLine
 62
7
  6
BYLAYER
 10
6.152150174
 20
41.4054701724
 11
7.3352350765
 21
43.4546447085
  0
LINE
  5
227
100
AcDbEntity
  8
0
100
AcDbLine
 62
7
  6
BYLAYER
 10
11.5477175382
 20
50.7509188606
 11
12.139740679
 21
51.776338712
  0
LINE
  5
228
100
AcDbEntity
  8
0
100
AcDbLine
 62
7
  6
BYLAYER
 10
16.5263724831
 20
52.0986149303
 11
19.9750010479
 21
54.0896696755
  0
LINE
  5
229
100
AcDbEntity
  8
0
100
AcDbLine
 62
7
  6
BYLAYER
 10
39.4714287397
 20
16.6555715103
 11
39.6714208849
 21
16.6753749266
  0
LINE
  5
22A
100
AcDbEntity
  8
0
100
AcDbLine
 62
7
  6
BYLAYER
 10
10.4376662375
 20
21.1488109951
 11
10.8972875589
 21
20.8834545047
  0
LINE
  5
22B
100
AcDbEntity
  8
0
100
AcDbLine
 62
7
  6
BYLAYER
 10
14.3267697258
 20
18.9034868453
 11
14.7863910472
 21
18.6381303548
  0
LINE
  5
22C
100
AcDbEntity
  8
0
100
AcDbLine
 62
7
  6
BYLAYER
 10
9.6664833088
 20
43.8263070918
 11
12.3914719635
 21
48.5461520923
  0
LINE
  5
22D
100
AcDbEntity
  8
0
100
AcDbLine
 62
7
  6
BYLAYER
 10
32.1184893624
 20
59.5085536187
 11
34.179379845
 21
60.6984021911
  0
LINE
  5
22E
100
AcDbEntity
  8
0
100
AcDbLine
 62
7
  6
BYLAYER
 10
16.988463407
 20
49.7934783025
 11
17.3211470288
 21
49.9855521346
  0
LINE
  5
22F
100
AcDbEntity
  8
0
100
AcDbLine
 62
7
  6
BYLAYER
 10
27.0511993075
 20
12.9746149632
 11
27.7583090327
 21
12.5663742086
  0
LINE
  5
230
100
AcDbEntity
  8
0
100
AcDbLine
 62
7
  6
BYLAYER
 10
27.6174468353
 20
12.7173408224
 11
26.9103371101
 21
13.125581577
  0
LINE
  5
231
100
AcDbEntity
  8
0
100
AcDbLine
 62
7
  6
BYLAYER
 10
5.945047456
 20
26.0640137324
 11
10.2937722656
 21
23.5533330921
  0
LINE
  5
232
100
AcDbEntity
  8
0
100
AcDbLine
 62
7
  6
BYLAYER
 10
10.1902161053
 20
23.782226166
 11
5.8414912956
 21
26.2929068063
  0
LINE
  5
233
100
AcDbEntity
  8
0
100
AcDbLine
 62
7
  6
BYLAYER
 10
10.8972875589
 20
23.4554371186
 11
14.3267697258
 21
21.4754694592
  0
LINE
  5
234
100
AcDbEntity
  8
0
100
AcDbLine
 62
7
  6
BYLAYER
 10
10.1902161053
 20
37.8494000217
 11
10.1902161053
 21
23.782226166
  0
LINE
  5
235
100
AcDbEntity
  8
0
100
AcDbLine
 62
7
  6
BYLAYER
 10
10.1902161053
 20
9.4699321297
 11
10.1902161053
 21
14.7188798804
  0
LINE
  5
236
100
AcDbEntity
  8
0
100
AcDbLine
 62
7
  6
BYLAYER
 10
10.4376662375
 20
23.5329037328
 11
10.4376662375
 21
21.1488109951
  0
LINE
  5
237
100
AcDbEntity
  8
0
100
AcDbLine
 62
7
  6
BYLAYER
 10
10.8972875589
 20
20.8834545047
 11
10.8972875589
 21
23.4554371186
  0
LINE
  5
238
100
AcDbEntity
  8
0
100
AcDbLine
 62
7
  6
BYLAYER
 10
16.4884654887
 20
49.2656580718
 11
15.8964423478
 21
48.2402382203
  0
LINE
  5
239
100
AcDbEntity
  8
0
100
AcDbLine
 62
7
  6
BYLAYER
 10
11.6839598862
 20
40.9439640682
 11
10.5008749837
 21
38.8947895321
  0
LINE
  5
23A
100
AcDbEntity
  8
0
100
AcDbLine
 62
7
  6
BYLAYER
 10
7.2837621057
 20
39.7820750918
 11
7.0949614252
 21
39.6364057169
  0
LINE
  5
23B
100
AcDbEntity
  8
0
100
AcDbLine
 62
7
  6
BYLAYER
 10
19.5169939903
 20
48.748814975
 11
20.1264626021
 21
49.1006897417
  0
LINE
  5
23C
100
AcDbEntity
  8
0
100
AcDbLine
 62
7
  6
BYLAYER
 10
20.0934143931
 20
47.9115345304
 11
21.230172746
 21
48.5678383539
  0
LINE
  5
23D
100
AcDbEntity
  8
0
100
AcDbLine
 62
7
  6
BYLAYER
 10
35.2775879527
 20
18.7614457389
 11
35.1413147617
 21
18.780727705
  0
LINE
  5
23E
100
AcDbEntity
  8
0
100
AcDbLine
 62
7
  6
BYLAYER
 10
25.6324526695
 20
16.0844019441
 11
25.9368794119
 21
15.9086450586
  0
LINE
  5
23F
100
AcDbEntity
  8
0
100
AcDbLine
 62
7
  6
BYLAYER
 10
14.3267697258
 20
22.8635235683
 11
12.5520486724
 21
23.8881360664
  0
LINE
  5
240
100
AcDbEntity
  8
0
100
AcDbLine
 62
7
  6
BYLAYER
 10
13.2614533184
 20
41.2456160016
 11
13.3952027616
 21
41.4772781186
  0
LINE
  5
241
100
AcDbEntity
  8
0
100
AcDbLine
 62
7
  6
BYLAYER
 10
16.2901907085
 20
46.491572165
 11
16.4239401517
 21
46.723234282
  0
LINE
  5
242
100
AcDbEntity
  8
0
100
AcDbLine
 62
7
  6
BYLAYER
 10
16.9589379242
 20
46.4143443425
 11
13.9367047137
 21
41.1796538112
  0
LINE
  5
243
100
AcDbEntity
  8
0
100
AcDbLine
 62
7
  6
BYLAYER
 10
21.9372824712
 20
48.1595975994
 11
20.8005241183
 21
47.5032937759
  0
LINE
  5
244
100
AcDbEntity
  8
0
100
AcDbLine
 62
7
  6
BYLAYER
 10
13.9367047137
 20
41.1796538112
 11
13.6561974683
 21
41.0177038442
  0
LINE
  5
245
100
AcDbEntity
  8
0
100
AcDbLine
 62
7
  6
BYLAYER
 10
10.2937988165
 20
23.5533790248
 11
10.422846146
 21
23.5329037328
  0
LINE
  5
246
100
AcDbEntity
  8
0
100
AcDbLine
 62
7
  6
BYLAYER
 10
25.7959727749
 20
16.0595346281
 11
25.9368794119
 21
15.9086450586
  0
LINE
  5
247
100
AcDbEntity
  8
0
100
AcDbLine
 62
7
  6
BYLAYER
 10
14.3267697258
 20
24.9047887822
 11
14.3267697258
 21
22.8635235683
  0
LINE
  5
248
100
AcDbEntity
  8
0
100
AcDbLine
 62
7
  6
BYLAYER
 10
14.3267697258
 20
21.4754694592
 11
14.3267697258
 21
18.9034868453
  0
LINE
  5
249
100
AcDbEntity
  8
0
100
AcDbLine
 62
7
  6
BYLAYER
 10
14.7863910472
 20
25.1701496918
 11
14.7863910472
 21
18.6381303548
  0
LINE
  5
24A
100
AcDbEntity
  8
0
100
AcDbLine
 62
7
  6
BYLAYER
 10
26.4712819571
 20
46.6287963968
 11
27.2920054626
 21
47.1026385051
  0
LINE
  5
24B
100
AcDbEntity
  8
0
100
AcDbLine
 62
7
  6
BYLAYER
 10
35.9401275721
 20
20.8611257012
 11
35.8555877037
 21
20.884443866
  0
LINE
  5
24C
100
AcDbEntity
  8
0
100
AcDbLine
 62
7
  6
BYLAYER
 10
20.1264626021
 20
49.1006897417
 11
21.3144436448
 21
54.9061115153
  0
LINE
  5
24D
100
AcDbEntity
  8
0
100
AcDbLine
 62
7
  6
BYLAYER
 10
21.8737154891
 20
49.4127974373
 11
23.0674082723
 21
53.0579032335
  0
LINE
  5
24E
100
AcDbEntity
  8
0
100
AcDbLine
 62
7
  6
BYLAYER
 10
27.9046776989
 20
45.9182032031
 11
26.7564328015
 21
45.2552676596
  0
LINE
  5
24F
100
AcDbEntity
  8
0
100
AcDbLine
 62
7
  6
BYLAYER
 10
28.6117874241
 20
45.5099624485
 11
27.4635425266
 21
44.8470269051
  0
LINE
  5
250
100
AcDbEntity
  8
0
100
AcDbLine
 62
7
  6
BYLAYER
 10
10.422846146
 20
23.5329037328
 11
12.4043560253
 21
23.8441304609
  0
LINE
  5
251
100
AcDbEntity
  8
0
100
AcDbLine
 62
7
  6
BYLAYER
 10
35.0816069343
 20
18.8745928729
 11
35.2775879527
 21
18.7614457389
  0
LINE
  5
252
100
AcDbEntity
  8
0
100
AcDbLine
 62
7
  6
BYLAYER
 10
36.6047866096
 20
18.310580361
 11
39.4714242783
 21
16.6555637728
  0
LINE
  5
253
100
AcDbEntity
  8
0
100
AcDbLine
 62
7
  6
BYLAYER
 10
39.4714217175
 20
17.117448768
 11
37.1186652936
 21
18.4757825931
  0
LINE
  5
254
100
AcDbEntity
  8
0
100
AcDbLine
 62
7
  6
BYLAYER
 10
26.9103371101
 20
13.125581577
 11
25.3713484325
 21
16.0480356351
  0
LINE
  5
255
100
AcDbEntity
  8
0
100
AcDbLine
 62
7
  6
BYLAYER
 10
25.9368794119
 20
15.9086450586
 11
27.6174468353
 21
12.7173408224
  0
LINE
  5
256
100
AcDbEntity
  8
0
100
AcDbLine
 62
7
  6
BYLAYER
 10
23.7745179974
 20
52.649662479
 11
22.5808252143
 21
49.0045566829
  0
LINE
  5
257
100
AcDbEntity
  8
0
100
AcDbLine
 62
7
  6
BYLAYER
 10
39.1814734311
 20
50.2773556317
 11
38.4743695938
 21
49.8691114778
  0
LINE
  5
258
100
AcDbEntity
  8
0
100
AcDbLine
 62
7
  6
BYLAYER
 10
41.1750837025
 20
49.2646287826
 11
40.6007063377
 21
48.9330138359
  0
LINE
  5
259
100
AcDbEntity
  8
0
100
AcDbLine
 62
7
  6
BYLAYER
 10
42.3154078735
 20
22.9001519536
 11
42.4335580382
 21
22.8584997407
  0
LINE
  5
25A
100
AcDbEntity
  8
0
100
AcDbLine
 62
7
  6
BYLAYER
 10
35.9401275721
 20
20.8611257012
 11
35.807167525
 21
20.9378884836
  0
LINE
  5
25B
100
AcDbEntity
  8
0
100
AcDbLine
 62
7
  6
BYLAYER
 10
39.460658274
 20
19.3602197971
 11
40.4398807058
 21
18.7948782523
  0
LINE
  5
25C
100
AcDbEntity
  8
0
100
AcDbLine
 62
7
  6
BYLAYER
 10
11.7444520673
 20
48.9362891682
 11
11.3888084835
 21
49.7855330931
  0
LINE
  5
25D
100
AcDbEntity
  8
0
100
AcDbLine
 62
7
  6
BYLAYER
 10
42.9037732598
 20
23.5416677523
 11
42.7240636555
 21
23.6135001896
  0
LINE
  5
25E
100
AcDbEntity
  8
0
100
AcDbLine
 62
7
  6
BYLAYER
 10
5.8414912956
 20
40.360080662
 11
7.0949614252
 21
39.6364057169
  0
LINE
  5
25F
100
AcDbEntity
  8
0
100
AcDbLine
 62
7
  6
BYLAYER
 10
9.6085002145
 20
38.1852462499
 11
10.1902161053
 21
37.8494000217
  0
LINE
  5
260
100
AcDbEntity
  8
0
100
AcDbLine
 62
7
  6
BYLAYER
 10
38.686500745
 20
21.6589508496
 11
37.9134654247
 21
22.1052529031
  0
LINE
  5
261
100
AcDbEntity
  8
0
100
AcDbLine
 62
7
  6
BYLAYER
 10
38.4072564439
 20
22.5227334298
 11
39.2949481092
 21
22.0102360022
  0
LINE
  5
262
100
AcDbEntity
  8
0
100
AcDbLine
 62
7
  6
BYLAYER
 10
10.5008749837
 20
38.8947895321
 11
6.152150174
 21
41.4054701724
  0
LINE
  5
263
100
AcDbEntity
  8
0
100
AcDbLine
 62
7
  6
BYLAYER
 10
39.4358307279
 20
22.2691071929
 11
38.4743695938
 21
22.8241944797
  0
LINE
  5
264
100
AcDbEntity
  8
0
100
AcDbLine
 62
7
  6
BYLAYER
 10
38.4743695938
 20
23.211254746
 11
39.4036928825
 21
22.6747218332
  0
LINE
  5
265
100
AcDbEntity
  8
0
100
AcDbLine
 62
7
  6
BYLAYER
 10
39.5093548465
 20
22.8688752262
 11
38.4743695938
 21
23.4664107224
  0
LINE
  5
266
100
AcDbEntity
  8
0
100
AcDbLine
 62
7
  6
BYLAYER
 10
40.563578469
 20
22.4469173571
 11
42.28712372
 21
21.4518505539
  0
LINE
  5
267
100
AcDbEntity
  8
0
100
AcDbLine
 62
7
  6
BYLAYER
 10
38.4743695938
 20
23.7870999373
 11
39.7870838237
 21
23.0292211688
  0
LINE
  5
268
100
AcDbEntity
  8
0
100
AcDbLine
 62
7
  6
BYLAYER
 10
15.7375332932
 20
47.2748524527
 11
16.093176877
 21
46.4256085279
  0
LINE
  5
269
100
AcDbEntity
  8
0
100
AcDbLine
 62
7
  6
BYLAYER
 10
16.093176877
 20
7.7098349178
 11
15.7375332932
 21
6.4499316066
  0
LINE
  5
26A
100
AcDbEntity
  8
0
100
AcDbLine
 62
7
  6
BYLAYER
 10
28.5455314128
 20
46.7596316436
 11
29.2816494118
 21
49.0074696322
  0
LINE
  5
26B
100
AcDbEntity
  8
0
100
AcDbLine
 62
7
  6
BYLAYER
 10
6.0741213363
 20
17.7474993837
 11
8.0556312158
 21
19.7243095224
  0
LINE
  5
26C
100
AcDbEntity
  8
0
100
AcDbLine
 62
7
  6
BYLAYER
 10
42.6406756386
 20
22.0642238394
 11
41.1993729015
 21
22.8963415376
  0
LINE
  5
26D
100
AcDbEntity
  8
0
100
AcDbLine
 62
7
  6
BYLAYER
 10
41.7066198738
 20
22.9399878914
 11
42.6406756386
 21
22.400722744
  0
LINE
  5
26E
100
AcDbEntity
  8
0
100
AcDbLine
 62
7
  6
BYLAYER
 10
7.3352350765
 20
43.4546447085
 11
11.6839598862
 21
40.9439640682
  0
LINE
  5
26F
100
AcDbEntity
  8
0
100
AcDbLine
 62
7
  6
BYLAYER
 10
42.4727382953
 20
23.6652925382
 11
38.4743695938
 21
25.9736995611
  0
LINE
  5
270
100
AcDbEntity
  8
0
100
AcDbLine
 62
7
  6
BYLAYER
 10
42.7240636555
 20
23.6135001896
 11
38.4743695938
 21
26.0670066943
  0
LINE
  5
271
100
AcDbEntity
  8
0
100
AcDbLine
 62
7
  6
BYLAYER
 10
38.5550814276
 20
26.0524055744
 11
42.9038062373
 21
23.5417249341
  0
LINE
  5
272
100
AcDbEntity
  8
0
100
AcDbLine
 62
7
  6
BYLAYER
 10
12.4405458743
 20
41.5642710312
 11
8.0918210646
 21
44.0749516715
  0
LINE
  5
273
100
AcDbEntity
  8
0
100
AcDbLine
 62
7
  6
BYLAYER
 10
26.4712819571
 20
53.7805593111
 11
26.4712819571
 21
45.5738822111
  0
LINE
  5
274
100
AcDbEntity
  8
0
100
AcDbLine
 62
7
  6
BYLAYER
 10
27.2920054626
 20
47.1026385051
 11
29.0955974092
 21
61.1910156433
  0
LINE
  5
275
100
AcDbEntity
  8
0
100
AcDbLine
 62
7
  6
BYLAYER
 10
29.9880626984
 20
48.5971022064
 11
29.252641138
 21
46.3513908891
  0
LINE
  5
276
100
AcDbEntity
  8
0
100
AcDbLine
 62
7
  6
BYLAYER
 10
13.2614533184
 20
9.6200542444
 11
13.796451091
 21
10.5467027124
  0
LINE
  5
277
100
AcDbEntity
  8
0
100
AcDbLine
 62
7
  6
BYLAYER
 10
13.6561974683
 20
41.0177038442
 11
13.2614533184
 21
41.2456160016
  0
LINE
  5
278
100
AcDbEntity
  8
0
100
AcDbLine
 62
7
  6
BYLAYER
 10
13.9367047137
 20
41.1796538112
 11
13.4017000081
 21
41.4885319342
  0
LINE
  5
279
100
AcDbEntity
  8
0
100
AcDbLine
 62
7
  6
BYLAYER
 10
9.0050982777
 20
44.191562886
 11
13.3538230873
 21
41.6808822457
  0
LINE
  5
27A
100
AcDbEntity
  8
0
100
AcDbLine
 62
7
  6
BYLAYER
 10
9.0464779519
 20
44.1842592536
 11
13.3952027616
 21
41.6735786133
  0
LINE
  5
27B
100
AcDbEntity
  8
0
100
AcDbLine
 62
7
  6
BYLAYER
 10
29.3412683985
 20
49.2753841549
 11
30.3610140728
 21
58.2558048512
  0
LINE
  5
27C
100
AcDbEntity
  8
0
100
AcDbLine
 62
7
  6
BYLAYER
 10
31.068123798
 20
57.8475640966
 11
30.0481491327
 21
48.8651267853
  0
LINE
  5
27D
100
AcDbEntity
  8
0
100
AcDbLine
 62
7
  6
BYLAYER
 10
12.4043560254
 20
17.2136288821
 11
10.422846146
 21
15.2368187434
  0
LINE
  5
27E
100
AcDbEntity
  8
0
100
AcDbLine
 62
7
  6
BYLAYER
 10
12.6461997811
 20
23.934517064
 11
14.7863910472
 21
25.1701496918
  0
LINE
  5
27F
100
AcDbEntity
  8
0
100
AcDbLine
 62
7
  6
BYLAYER
 10
8.2974749714
 20
19.9131783672
 11
10.4376662375
 21
21.1488109951
  0
LINE
  5
280
100
AcDbEntity
  8
0
100
AcDbLine
 62
7
  6
BYLAYER
 10
10.8972875589
 20
20.8834545047
 11
13.1247216837
 21
22.1694565198
  0
LINE
  5
281
100
AcDbEntity
  8
0
100
AcDbLine
 62
7
  6
BYLAYER
 10
20.1654737466
 20
47.5940621965
 11
19.0130027479
 21
49.6462759702
  0
LINE
  5
282
100
AcDbEntity
  8
0
100
AcDbLine
 62
7
  6
BYLAYER
 10
22.0632450511
 20
10.4509194097
 11
23.3640997407
 21
14.4232588894
  0
LINE
  5
283
100
AcDbEntity
  8
0
100
AcDbLine
 62
7
  6
BYLAYER
 10
16.9589379242
 20
8.7207878832
 11
16.4239401517
 21
7.7941394153
  0
LINE
  5
284
100
AcDbEntity
  8
0
100
AcDbLine
 62
7
  6
BYLAYER
 10
41.9862399006
 20
50.0282728224
 11
43.0165051406
 21
51.4561029842
  0
LINE
  5
285
100
AcDbEntity
  8
0
100
AcDbLine
 62
7
  6
BYLAYER
 10
11.7714666066
 20
48.904104254
 11
16.1201914163
 21
46.3934236137
  0
LINE
  5
286
100
AcDbEntity
  8
0
100
AcDbLine
 62
7
  6
BYLAYER
 10
16.093176877
 20
46.4256085279
 11
11.7444520673
 21
48.9362891682
  0
LINE
  5
287
100
AcDbEntity
  8
0
100
AcDbLine
 62
7
  6
BYLAYER
 10
16.4239401517
 20
46.723234282
 11
16.9589379242
 21
46.4143443425
  0
LINE
  5
288
100
AcDbEntity
  8
0
100
AcDbLine
 62
7
  6
BYLAYER
 10
11.3888084835
 20
49.7855330931
 11
15.7375332932
 21
47.2748524528
  0
LINE
  5
289
100
AcDbEntity
  8
0
100
AcDbLine
 62
7
  6
BYLAYER
 10
20.3005690256
 20
47.4538290539
 11
20.1654737466
 21
47.5940621965
  0
LINE
  5
28A
100
AcDbEntity
  8
0
100
AcDbLine
 62
7
  6
BYLAYER
 10
26.828492155
 20
44.9377953257
 11
26.4712819571
 21
45.5738822111
  0
LINE
  5
28B
100
AcDbEntity
  8
0
100
AcDbLine
 62
7
  6
BYLAYER
 10
12.4405458743
 20
8.3535026054
 11
13.3538230873
 21
9.2914467855
  0
LINE
  5
28C
100
AcDbEntity
  8
0
100
AcDbLine
 62
7
  6
BYLAYER
 10
12.6461997811
 20
17.402497727
 11
14.7863910472
 21
18.6381303548
  0
LINE
  5
28D
100
AcDbEntity
  8
0
100
AcDbLine
 62
7
  6
BYLAYER
 10
13.3538230874
 20
41.6808822457
 11
12.4405458743
 21
41.5642710312
  0
LINE
  5
28E
100
AcDbEntity
  8
0
100
AcDbLine
 62
7
  6
BYLAYER
 10
15.8964423478
 20
48.2402382203
 11
11.5477175382
 21
50.7509188606
  0
LINE
  5
28F
100
AcDbEntity
  8
0
100
AcDbLine
 62
7
  6
BYLAYER
 10
12.1397406791
 20
51.7763387121
 11
16.4884654887
 21
49.2656580718
  0
LINE
  5
290
100
AcDbEntity
  8
0
100
AcDbLine
 62
7
  6
BYLAYER
 10
26.963587434
 20
44.7975621831
 11
26.828492155
 21
44.9377953257
  0
LINE
  5
291
100
AcDbEntity
  8
0
100
AcDbLine
 62
7
  6
BYLAYER
 10
34.2317465706
 20
15.5760522865
 11
34.2317465706
 21
16.514812041
  0
LINE
  5
292
100
AcDbEntity
  8
0
100
AcDbLine
 62
7
  6
BYLAYER
 10
17.5440960123
 20
5.69653953
 11
18.3358825213
 21
6.7938653597
  0
LINE
  5
293
100
AcDbEntity
  8
0
100
AcDbLine
 62
7
  6
BYLAYER
 10
8.0918210647
 20
44.0749516715
 11
9.0050982777
 21
44.191562886
  0
LINE
  5
294
100
AcDbEntity
  8
0
100
AcDbLine
 62
7
  6
BYLAYER
 10
20.8005241183
 20
47.5032937759
 11
20.0934143931
 21
47.9115345304
  0
LINE
  5
295
100
AcDbEntity
  8
0
100
AcDbLine
 62
7
  6
BYLAYER
 10
16.988463407
 20
49.7934783025
 11
12.6397385974
 21
52.3041589428
  0
LINE
  5
296
100
AcDbEntity
  8
0
100
AcDbLine
 62
7
  6
BYLAYER
 10
12.9724222192
 20
52.4962327749
 11
17.3211470288
 21
49.9855521346
  0
LINE
  5
297
100
AcDbEntity
  8
0
100
AcDbLine
 62
7
  6
BYLAYER
 10
14.7568642823
 20
51.7866597375
 11
13.3780003182
 21
52.5827292088
  0
LINE
  5
298
100
AcDbEntity
  8
0
100
AcDbLine
 62
7
  6
BYLAYER
 10
17.7780293087
 20
50.0560049963
 11
17.0709195835
 21
50.4642457508
  0
LINE
  5
299
100
AcDbEntity
  8
0
100
AcDbLine
 62
7
  6
BYLAYER
 10
14.8512776997
 20
51.7496911881
 11
17.0823702493
 21
50.4615984446
  0
LINE
  5
29A
100
AcDbEntity
  8
0
100
AcDbLine
 62
7
  6
BYLAYER
 10
13.5251961227
 20
52.5486986658
 11
14.9040600868
 21
51.7526291945
  0
LINE
  5
29B
100
AcDbEntity
  8
0
100
AcDbLine
 62
7
  6
BYLAYER
 10
18.0764207502
 20
50.2317815792
 11
18.7835304754
 21
49.8235408247
  0
LINE
  5
29C
100
AcDbEntity
  8
0
100
AcDbLine
 62
7
  6
BYLAYER
 10
18.8779438928
 20
49.7865722753
 11
18.1708341676
 21
50.1948130298
  0
LINE
  5
29D
100
AcDbEntity
  8
0
100
AcDbLine
 62
7
  6
BYLAYER
 10
27.4635425266
 20
44.8470269051
 11
26.7564328015
 21
45.2552676596
  0
LINE
  5
29E
100
AcDbEntity
  8
0
100
AcDbLine
 62
7
  6
BYLAYER
 10
21.1397917046
 20
48.5156571468
 11
20.1264626021
 21
49.1006897417
  0
LINE
  5
29F
100
AcDbEntity
  8
0
100
AcDbLine
 62
7
  6
BYLAYER
 10
21.2301727461
 20
48.5678383539
 11
21.9372824712
 21
48.1595975994
  0
LINE
  5
2A0
100
AcDbEntity
  8
0
100
AcDbLine
 62
7
  6
BYLAYER
 10
16.5263724831
 20
52.0986149303
 11
15.1475085191
 21
52.8946844017
  0
LINE
  5
2A1
100
AcDbEntity
  8
0
100
AcDbLine
 62
7
  6
BYLAYER
 10
27.9046776989
 20
45.9182032031
 11
28.6117874241
 21
45.5099624485
  0
LINE
  5
2A2
100
AcDbEntity
  8
0
100
AcDbLine
 62
7
  6
BYLAYER
 10
22.5808252143
 20
49.0045566828
 11
21.8737154891
 21
49.4127974373
  0
LINE
  5
2A3
100
AcDbEntity
  8
0
100
AcDbLine
 62
7
  6
BYLAYER
 10
39.4036928825
 20
22.6747218332
 11
39.4358307279
 21
22.2691071928
  0
LINE
  5
2A4
100
AcDbEntity
  8
0
100
AcDbLine
 62
7
  6
BYLAYER
 10
38.4743695938
 20
49.8691114778
 11
38.4743695938
 21
22.7997887542
  0
LINE
  5
2A5
100
AcDbEntity
  8
0
100
AcDbLine
 62
7
  6
BYLAYER
 10
18.7835304753
 20
49.8235408247
 11
17.7780293098
 21
50.056004996
  0
LINE
  5
2A6
100
AcDbEntity
  8
0
100
AcDbLine
 62
7
  6
BYLAYER
 10
17.0709195835
 20
50.4642457508
 11
18.0764207502
 21
50.2317815792
  0
LINE
  5
2A7
100
AcDbEntity
  8
0
100
AcDbLine
 62
7
  6
BYLAYER
 10
18.8779434178
 20
49.7865714528
 11
18.7835304753
 21
49.8235408247
  0
LINE
  5
2A8
100
AcDbEntity
  8
0
100
AcDbLine
 62
7
  6
BYLAYER
 10
18.0764207502
 20
50.2317815792
 11
18.1708336927
 21
50.1948122073
  0
LINE
  5
2A9
100
AcDbEntity
  8
0
100
AcDbLine
 62
7
  6
BYLAYER
 10
14.7568642823
 20
51.7866597375
 11
14.8512769542
 21
51.7496898971
  0
LINE
  5
2AA
100
AcDbEntity
  8
0
100
AcDbLine
 62
7
  6
BYLAYER
 10
27.2920054626
 20
47.1026385051
 11
28.3914862771
 21
46.4678673213
  0
LINE
  5
2AB
100
AcDbEntity
  8
0
100
AcDbLine
 62
7
  6
BYLAYER
 10
29.252641138
 20
46.3513908891
 11
28.5455314128
 21
46.7596316436
  0
LINE
  5
2AC
100
AcDbEntity
  8
0
100
AcDbLine
 62
7
  6
BYLAYER
 10
25.296025698
 20
16.0100837878
 11
24.0049534546
 21
15.26468733
  0
LINE
  5
2AD
100
AcDbEntity
  8
0
100
AcDbLine
 62
7
  6
BYLAYER
 10
14.9040600867
 20
51.7526291945
 11
14.7568642823
 21
51.7866597375
  0
LINE
  5
2AE
100
AcDbEntity
  8
0
100
AcDbLine
 62
7
  6
BYLAYER
 10
13.3780003183
 20
52.5827292088
 11
13.5251961227
 21
52.5486986658
  0
LINE
  5
2AF
100
AcDbEntity
  8
0
100
AcDbLine
 62
7
  6
BYLAYER
 10
18.5961370838
 20
54.8857391469
 11
19.9750010479
 21
54.0896696755
  0
LINE
  5
2B0
100
AcDbEntity
  8
0
100
AcDbLine
 62
7
  6
BYLAYER
 10
29.2816494118
 20
49.0074696324
 11
29.988759137
 21
48.5992288779
  0
LINE
  5
2B1
100
AcDbEntity
  8
0
100
AcDbLine
 62
7
  6
BYLAYER
 10
30.0481491327
 20
48.8651267853
 11
29.3410394076
 21
49.2733675398
  0
LINE
  5
2B2
100
AcDbEntity
  8
0
100
AcDbLine
 62
7
  6
BYLAYER
 10
23.0674082723
 20
53.0579032335
 11
23.7745179974
 21
52.6496624789
  0
LINE
  5
2B3
100
AcDbEntity
  8
0
100
AcDbLine
 62
7
  6
BYLAYER
 10
24.0782769854
 20
53.060299624
 11
23.3711672602
 21
53.4685403785
  0
LINE
  5
2B4
100
AcDbEntity
  8
0
100
AcDbLine
 62
7
  6
BYLAYER
 10
21.3144436449
 20
54.9061115153
 11
23.5771947653
 21
53.5997411009
  0
LINE
  5
2B5
100
AcDbEntity
  8
0
100
AcDbLine
 62
7
  6
BYLAYER
 10
42.6406756386
 20
22.0642238394
 11
42.6406756386
 21
22.400722744
  0
LINE
  5
2B6
100
AcDbEntity
  8
0
100
AcDbLine
 62
7
  6
BYLAYER
 10
39.5093548465
 20
22.8688752262
 11
39.7870838237
 21
23.0292211688
  0
LINE
  5
2B7
100
AcDbEntity
  8
0
100
AcDbLine
 62
7
  6
BYLAYER
 10
38.686500745
 20
21.6589508496
 11
39.2949481092
 21
22.0102360022
  0
LWPOLYLINE
  5
2B8
100
AcDbEntity
  8
0
100
AcDbPolyline
 62
7
  6
BYLAYER
 90
3
 70
0
 10
23.0929128875
 20
13.5951523746
 10
23.7168050255
 20
13.876177629
 10
26.2679989157
 20
14.3453461472
  0
LINE
  5
2B9
100
AcDbEntity
  8
0
100
AcDbLine
 62
7
  6
BYLAYER
 10
24.412944109
 20
54.1529988111
 11
22.1501929885
 21
55.4593692256
  0
LINE
  5
2BA
100
AcDbEntity
  8
0
100
AcDbLine
 62
7
  6
BYLAYER
 10
25.6836262277
 20
54.1369958867
 11
24.9765165026
 21
54.5452366412
  0
LINE
  5
2BB
100
AcDbEntity
  8
0
100
AcDbLine
 62
7
  6
BYLAYER
 10
25.5570599113
 20
54.6465862134
 11
26.2641696364
 21
54.2383454589
  0
LINE
  5
2BC
100
AcDbEntity
  8
0
100
AcDbLine
 62
7
  6
BYLAYER
 10
39.3134208041
 20
50.0896372972
 11
39.4735419357
 21
49.4920487413
  0
LINE
  5
2BD
100
AcDbEntity
  8
0
100
AcDbLine
 62
7
  6
BYLAYER
 10
43.3180308788
 20
52.4090277986
 11
43.3180308788
 21
52.2990275353
  0
LINE
  5
2BE
100
AcDbEntity
  8
0
100
AcDbLine
 62
7
  6
BYLAYER
 10
43.3180308788
 20
22.6261526384
 11
43.3180308788
 21
20.0054872466
  0
LINE
  5
2BF
100
AcDbEntity
  8
0
100
AcDbLine
 62
7
  6
BYLAYER
 10
40.0337463769
 20
21.5588364898
 11
40.4533325643
 21
22.2855851188
  0
LINE
  5
2C0
100
AcDbEntity
  8
0
100
AcDbLine
 62
7
  6
BYLAYER
 10
21.4223913372
 20
9.6094909692
 11
21.1749292148
 21
9.4666194991
  0
LINE
  5
2C1
100
AcDbEntity
  8
0
100
AcDbLine
 62
7
  6
BYLAYER
 10
38.5804099559
 20
49.9303335439
 11
40.3507073786
 21
48.9082517417
  0
LINE
  5
2C2
100
AcDbEntity
  8
0
100
AcDbLine
 62
7
  6
BYLAYER
 10
39.4735419343
 20
49.4920487471
 11
38.6474010322
 21
49.969010629
  0
LINE
  5
2C3
100
AcDbEntity
  8
0
100
AcDbLine
 62
7
  6
BYLAYER
 10
39.0848753977
 20
50.221585064
 11
39.3134208041
 21
50.0896372972
  0
LINE
  5
2C4
100
AcDbEntity
  8
0
100
AcDbLine
 62
7
  6
BYLAYER
 10
40.4398807058
 20
18.7948782523
 11
39.4714217175
 21
17.1174487681
  0
LINE
  5
2C5
100
AcDbEntity
  8
0
100
AcDbLine
 62
7
  6
BYLAYER
 10
16.988463407
 20
5.3757468107
 11
17.5440960123
 21
5.69653953
  0
LINE
  5
2C6
100
AcDbEntity
  8
0
100
AcDbLine
 62
7
  6
BYLAYER
 10
33.1710908147
 20
13.73893243
 11
32.1057781753
 21
13.1238775622
  0
LINE
  5
2C7
100
AcDbEntity
  8
0
100
AcDbLine
 62
7
  6
BYLAYER
 10
42.2573751229
 20
18.1683673901
 11
39.6714208849
 21
16.6753749266
  0
LINE
  5
2C8
100
AcDbEntity
  8
0
100
AcDbLine
 62
7
  6
BYLAYER
 10
39.1814734311
 20
50.2773556317
 11
39.3134208041
 21
50.0896372972
  0
LINE
  5
2C9
100
AcDbEntity
  8
0
100
AcDbLine
 62
7
  6
BYLAYER
 10
43.1106764754
 20
52.8669535745
 11
38.7984170976
 21
55.3517632996
  0
LINE
  5
2CA
100
AcDbEntity
  8
0
100
AcDbLine
 62
7
  6
BYLAYER
 10
30.3610140728
 20
58.2558048512
 11
31.068123798
 21
57.8475640967
  0
LINE
  5
2CB
100
AcDbEntity
  8
0
100
AcDbLine
 62
7
  6
BYLAYER
 10
26.6439909474
 20
61.1337429013
 11
28.0228549115
 21
60.33767343
  0
LINE
  5
2CC
100
AcDbEntity
  8
0
100
AcDbLine
 62
7
  6
BYLAYER
 10
27.6999051834
 20
61.9762417295
 11
29.0787691474
 21
61.1801722582
  0
LINE
  5
2CD
100
AcDbEntity
  8
0
100
AcDbLine
 62
7
  6
BYLAYER
 10
29.0955974092
 20
61.1910156433
 11
31.3583485297
 21
59.8846452288
  0
LINE
  5
2CE
100
AcDbEntity
  8
0
100
AcDbLine
 62
7
  6
BYLAYER
 10
32.1184893624
 20
59.5085536187
 11
27.7697645528
 21
62.019234259
  0
LINE
  5
2CF
100
AcDbEntity
  8
0
100
AcDbLine
 62
7
  6
BYLAYER
 10
38.7984170976
 20
55.3517632996
 11
35.0979346742
 21
60.6163500906
  0
LINE
  5
2D0
100
AcDbEntity
  8
0
100
AcDbLine
 62
7
  6
BYLAYER
 10
29.8306550353
 20
63.2090828314
 11
34.179379845
 21
60.6984021911
  0
LINE
  5
2D1
100
AcDbEntity
  8
0
100
AcDbLine
 62
7
  6
BYLAYER
 10
35.0979346742
 20
60.6163500906
 11
34.9293549425
 21
60.7726729035
  0
LINE
  5
2D2
100
AcDbEntity
  8
0
100
AcDbLine
 62
7
  6
BYLAYER
 10
30.5806423101
 20
63.2833746583
 11
34.9293671197
 21
60.772694018
  0
ARC
  5
2D3
100
AcDbEntity
  8
0
100
AcDbCircle
 62
7
  6
BYLAYER
 10
3.5778367983
 20
84.6901437761
 40
36.9678092299
100
AcDbArc
 50
304.3052230546
 51
305.3694385897
  0
ARC
  5
2D4
100
AcDbEntity
  8
0
100
AcDbCircle
 62
7
  6
BYLAYER
 10
4.6894569517
 20
83.7040746705
 40
36.2624777339
100
AcDbArc
 50
302.3222094863
 51
305.3767401734
  0
ARC
  5
2D5
100
AcDbEntity
  8
0
100
AcDbCircle
 62
7
  6
BYLAYER
 10
4.9316688101
 20
82.6518731575
 40
34.5207476046
100
AcDbArc
 50
302.2867582396
 51
302.692162654
  0
ARC
  5
2D6
100
AcDbEntity
  8
0
100
AcDbCircle
 62
7
  6
BYLAYER
 10
3.1479967031
 20
83.2027639763
 40
33.6261852576
100
AcDbArc
 50
300.0273750562
 51
302.7004572888
  0
ARC
  5
2D7
100
AcDbEntity
  8
0
100
AcDbCircle
 62
7
  6
BYLAYER
 10
23.12127693
 20
25.782409427
 40
13.6286901256
100
AcDbArc
 50
331.7644632089
 51
332.4064684378
  0
ARC
  5
2D8
100
AcDbEntity
  8
0
100
AcDbCircle
 62
7
  6
BYLAYER
 10
41.8932557554
 20
20.2176384907
 40
3.4960146517
100
AcDbArc
 50
76.2524542818
 51
80.4588927574
  0
ARC
  5
2D9
100
AcDbEntity
  8
0
100
AcDbCircle
 62
7
  6
BYLAYER
 10
29.920550809
 20
59.8922591696
 40
1.5386086214
100
AcDbArc
 50
122.4231875657
 51
123.1686826919
  0
ARC
  5
2DA
100
AcDbEntity
  8
0
100
AcDbCircle
 62
7
  6
BYLAYER
 10
28.5187294347
 20
60.7239729747
 40
1.4962119465
100
AcDbArc
 50
120.0379864778
 51
123.1795739121
  0
ARC
  5
2DB
100
AcDbEntity
  8
0
100
AcDbCircle
 62
7
  6
BYLAYER
 10
38.2184375522
 20
25.4685937278
 40
0.673887231
100
AcDbArc
 50
60.0309268136
 51
67.3880100056
  0
ARC
  5
2DC
100
AcDbEntity
  8
0
100
AcDbCircle
 62
7
  6
BYLAYER
 10
40.368556286
 20
19.1079126875
 40
0.5984211063
100
AcDbArc
 50
113.5442173457
 51
115.3316402192
  0
SPLINE
  5
2DD
100
AcDbEntity
  8
0
100
AcDbSpline
 62
7
  6
BYLAYER
 70
0
 71
3
 72
16
 73
12
 74
0
 42
0.0000001
 43
0.0000001
 44
0.0000000001
 40
0.0
 40
0.0
 40
0.0
 40
0.0
 40
0.1568162488
 40
0.3075611465
 40
0.449392662
 40
0.5804897032
 40
0.6998339238
 40
0.8077839694
 40
0.9064297312
 40
0.9535629651
 40
1.0
 40
1.0
 40
1.0
 40
1.0
 10
9.6085002145
 20
38.1852462499
 30
0.0
 10
9.6594770638
 20
38.0723655103
 30
0.0
 10
9.7483082805
 20
37.8457075378
 30
0.0
 10
9.8416182559
 20
37.5024947815
 30
0.0
 10
9.8902852595
 20
37.1704990714
 30
0.0
 10
9.8928726744
 20
36.8595450879
 30
0.0
 10
9.8488145035
 20
36.5783623954
 30
0.0
 10
9.7586567056
 20
36.3350838684
 30
0.0
 10
9.6437391105
 20
36.1676199366
 30
0.0
 10
9.5322530773
 20
36.0638642099
 30
0.0
 10
9.4709785022
 20
36.0219427007
 30
0.0
 10
9.4392184329
 20
36.003598382
 30
0.0
  0
SPLINE
  5
2DE
100
AcDbEntity
  8
0
100
AcDbSpline
 62
7
  6
BYLAYER
 70
0
 71
3
 72
22
 73
18
 74
0
 42
0.0000001
 43
0.0000001
 44
0.0000000001
 40
0.0
 40
0.0
 40
0.0
 40
0.0
 40
0.0623739225
 40
0.1287732928
 40
0.1983830174
 40
0.2703757297
 40
0.4173936088
 40
0.4904355776
 40
0.5617436159
 40
0.630359848
 40
0.695467735
 40
0.7564326853
 40
0.8128857704
 40
0.8648035566
 40
0.9125915059
 40
0.9571797606
 40
1.0
 40
1.0
 40
1.0
 40
1.0
 10
8.3517308199
 20
33.1923046151
 30
0.0
 10
8.4298402966
 20
33.1472091079
 30
0.0
 10
8.5850676043
 20
33.0434168426
 30
0.0
 10
8.8049588387
 20
32.8584646597
 30
0.0
 10
9.0151423359
 20
32.6426396147
 30
0.0
 10
9.2780521622
 20
32.3179858498
 30
0.0
 10
9.5005127078
 20
31.956119114
 30
0.0
 10
9.674201558
 20
31.5718516198
 30
0.0
 10
9.7760550459
 20
31.2807600148
 30
0.0
 10
9.8474764111
 20
30.9925389506
 30
0.0
 10
9.8870340995
 20
30.7132567108
 30
0.0
 10
9.8937521782
 20
30.4487416958
 30
0.0
 10
9.8673921849
 20
30.2044611147
 30
0.0
 10
9.8082364708
 20
29.9854159381
 30
0.0
 10
9.7167910233
 20
29.7962704375
 30
0.0
 10
9.5944998882
 20
29.641565407
 30
0.0
 10
9.4928367803
 20
29.5637830519
 30
0.0
 10
9.4392195603
 20
29.5328148727
 30
0.0
  0
SPLINE
  5
2DF
100
AcDbEntity
  8
0
100
AcDbSpline
 62
7
  6
BYLAYER
 70
0
 71
3
 72
11
 73
7
 74
0
 42
0.0000001
 43
0.0000001
 44
0.0000000001
 40
0.0
 40
0.0
 40
0.0
 40
0.0
 40
0.2607452905
 40
0.5183297464
 40
0.7678768864
 40
1.0
 40
1.0
 40
1.0
 40
1.0
 10
8.5753808537
 20
39.7922099074
 30
0.0
 10
8.4741769309
 20
39.8506386976
 30
0.0
 10
8.2534340012
 20
39.9355927231
 30
0.0
 10
7.9068344409
 20
39.9644444711
 30
0.0
 10
7.5767614991
 20
39.9144901196
 30
0.0
 10
7.3735166335
 20
39.8339435733
 30
0.0
 10
7.2834520185
 20
39.7818764672
 30
0.0
  0
SPLINE
  5
2E0
100
AcDbEntity
  8
0
100
AcDbSpline
 62
7
  6
BYLAYER
 70
0
 71
3
 72
14
 73
10
 74
0
 42
0.0000001
 43
0.0000001
 44
0.0000000001
 40
0.0
 40
0.0
 40
0.0
 40
0.0
 40
0.2706333158
 40
0.4030326246
 40
0.5313297028
 40
0.6548683544
 40
0.773619205
 40
0.8883367177
 40
1.0
 40
1.0
 40
1.0
 40
1.0
 10
9.6085002145
 20
38.1852462499
 30
0.0
 10
9.5363961003
 20
38.3449102123
 30
0.0
 10
9.4346676661
 20
38.5851943208
 30
0.0
 10
9.2911698334
 20
38.8978256168
 30
0.0
 10
9.1780093281
 20
39.1194594568
 30
0.0
 10
9.0543791166
 20
39.3253442674
 30
0.0
 10
8.9159012433
 20
39.5110757144
 30
0.0
 10
8.7580050229
 20
39.6703288679
 30
0.0
 10
8.6379804989
 20
39.756068803
 30
0.0
 10
8.5753808537
 20
39.7922099074
 30
0.0
  0
SPLINE
  5
2E1
100
AcDbEntity
  8
0
100
AcDbSpline
 62
7
  6
BYLAYER
 70
0
 71
3
 72
10
 73
6
 74
0
 42
0.0000001
 43
0.0000001
 44
0.0000000001
 40
0.0
 40
0.0
 40
0.0
 40
0.0
 40
0.5178826406
 40
0.7655637713
 40
1.0
 40
1.0
 40
1.0
 40
1.0
 10
7.3352350765
 20
43.4546447085
 30
0.0
 10
7.3897489761
 20
43.5490660764
 30
0.0
 10
7.4836817927
 20
43.6817414956
 30
0.0
 10
7.6304221405
 20
43.8330701179
 30
0.0
 10
7.7089887548
 20
43.8978109841
 30
0.0
 10
7.7490587145
 20
43.926626407
 30
0.0
  0
SPLINE
  5
2E2
100
AcDbEntity
  8
0
100
AcDbSpline
 62
7
  6
BYLAYER
 70
0
 71
3
 72
11
 73
7
 74
0
 42
0.0000001
 43
0.0000001
 44
0.0000000001
 40
0.0
 40
0.0
 40
0.0
 40
0.0
 40
0.2282541849
 40
0.4746493001
 40
0.7340296028
 40
1.0
 40
1.0
 40
1.0
 40
1.0
 10
5.8414912956
 20
40.360080662
 30
0.0
 10
5.8414912956
 20
40.443903728
 30
0.0
 10
5.8568937093
 20
40.6183665972
 30
0.0
 10
5.9180362084
 20
40.8816326399
 30
0.0
 10
6.0161836805
 20
41.1482101155
 30
0.0
 10
6.1033134761
 20
41.3208820608
 30
0.0
 10
6.152150174
 20
41.4054701724
 30
0.0
  0
SPLINE
  5
2E3
100
AcDbEntity
  8
0
100
AcDbSpline
 62
7
  6
BYLAYER
 70
0
 71
3
 72
9
 73
5
 74
0
 42
0.0000001
 43
0.0000001
 44
0.0000000001
 40
0.0
 40
0.0
 40
0.0
 40
0.0
 40
0.2629049963
 40
1.0
 40
1.0
 40
1.0
 40
1.0
 10
8.0556312158
 20
19.7243095224
 30
0.0
 10
8.0746976185
 20
19.7433307035
 30
0.0
 10
8.1492229441
 20
19.8135907367
 30
0.0
 10
8.2320829687
 20
19.8754245022
 30
0.0
 10
8.2974749714
 20
19.9131783672
 30
0.0
  0
SPLINE
  5
2E4
100
AcDbEntity
  8
0
100
AcDbSpline
 62
7
  6
BYLAYER
 70
0
 71
3
 72
11
 73
7
 74
0
 42
0.0000001
 43
0.0000001
 44
0.0000000001
 40
0.0
 40
0.0
 40
0.0
 40
0.0
 40
0.2296154374
 40
0.4826037412
 40
0.744739721
 40
1.0
 40
1.0
 40
1.0
 40
1.0
 10
5.8414912956
 20
17.2295605207
 30
0.0
 10
5.8414912956
 20
17.2739687717
 30
0.0
 10
5.8543930251
 20
17.3674082823
 30
0.0
 10
5.9021795873
 20
17.5040566256
 30
0.0
 10
5.9754218642
 20
17.6346226965
 30
0.0
 10
6.0391714429
 20
17.7126323843
 30
0.0
 10
6.0741213363
 20
17.7474993837
 30
0.0
  0
SPLINE
  5
2E5
100
AcDbEntity
  8
0
100
AcDbSpline
 62
7
  6
BYLAYER
 70
0
 71
3
 72
13
 73
9
 74
0
 42
0.0000001
 43
0.0000001
 44
0.0000000001
 40
0.0
 40
0.0
 40
0.0
 40
0.0
 40
0.1079634953
 40
0.2181695045
 40
0.3322577577
 40
0.4516952607
 40
0.710692601
 40
1.0
 40
1.0
 40
1.0
 40
1.0
 10
6.152150174
 20
11.2939390924
 30
0.0
 10
6.1275879471
 20
11.3081205061
 30
0.0
 10
6.0803471089
 20
11.3411463913
 30
0.0
 10
6.0178602709
 20
11.4026115265
 30
0.0
 10
5.9640577551
 20
11.4755801132
 30
0.0
 10
5.903120494
 20
11.5901704139
 30
0.0
 10
5.8529931946
 20
11.7601455388
 30
0.0
 10
5.8414912956
 20
11.9046111559
 30
0.0
 10
5.8414912956
 20
11.98061277
 30
0.0
  0
SPLINE
  5
2E6
100
AcDbEntity
  8
0
100
AcDbSpline
 62
7
  6
BYLAYER
 70
0
 71
3
 72
14
 73
10
 74
0
 42
0.0000001
 43
0.0000001
 44
0.0000000001
 40
0.0
 40
0.0
 40
0.0
 40
0.0
 40
0.0915033632
 40
0.1891060131
 40
0.2970878087
 40
0.4174311527
 40
0.5499647227
 40
0.6932013174
 40
1.0
 40
1.0
 40
1.0
 40
1.0
 10
35.1412614926
 20
18.7806354549
 30
0.0
 10
35.1253431218
 20
18.7898307236
 30
0.0
 10
35.0954804023
 20
18.8145875977
 30
0.0
 10
35.0631532021
 20
18.86568042
 30
0.0
 10
35.0431037924
 20
18.9286240715
 30
0.0
 10
35.035683845
 20
19.0011467526
 30
0.0
 10
35.0407505197
 20
19.0808802165
 30
0.0
 10
35.064459333
 20
19.1957588098
 30
0.0
 10
35.0991316675
 20
19.2804102506
 30
0.0
 10
35.128291814
 20
19.3347130853
 30
0.0
  0
SPLINE
  5
2E7
100
AcDbEntity
  8
0
100
AcDbSpline
 62
7
  6
BYLAYER
 70
0
 71
3
 72
13
 73
9
 74
0
 42
0.0000001
 43
0.0000001
 44
0.0000000001
 40
0.0
 40
0.0
 40
0.0
 40
0.0
 40
0.1080961519
 40
0.2182387447
 40
0.3322532951
 40
0.4516803121
 40
0.7106596288
 40
1.0
 40
1.0
 40
1.0
 40
1.0
 10
7.2642420795
 20
14.7449914139
 30
0.0
 10
7.2998975641
 20
14.7655852723
 30
0.0
 10
7.3756174627
 20
14.8010341022
 30
0.0
 10
7.4981246269
 20
14.8348756703
 30
0.0
 10
7.6287042
 20
14.8494937203
 30
0.0
 10
7.8167362528
 20
14.8429360858
 30
0.0
 10
8.0665442975
 20
14.7827347199
 30
0.0
 10
8.2562819886
 20
14.6923933477
 30
0.0
 10
8.3517308199
 20
14.6372871859
 30
0.0
  0
SPLINE
  5
2E8
100
AcDbEntity
  8
0
100
AcDbSpline
 62
7
  6
BYLAYER
 70
0
 71
3
 72
11
 73
7
 74
0
 42
0.0000001
 43
0.0000001
 44
0.0000000001
 40
0.0
 40
0.0
 40
0.0
 40
0.0
 40
0.2822482825
 40
0.5391484874
 40
0.7753544159
 40
1.0
 40
1.0
 40
1.0
 40
1.0
 10
29.9599164559
 20
63.2745823741
 30
0.0
 10
30.0153629069
 20
63.2987329531
 30
0.0
 10
30.1251760288
 20
63.3367969445
 30
0.0
 10
30.2909965753
 20
63.3598043651
 30
0.0
 10
30.4456582505
 20
63.3443643799
 30
0.0
 10
30.5389543697
 20
63.3074392927
 30
0.0
 10
30.5806419197
 20
63.2833739602
 30
0.0
  0
SPLINE
  5
2E9
100
AcDbEntity
  8
0
100
AcDbSpline
 62
7
  6
BYLAYER
 70
0
 71
3
 72
9
 73
5
 74
0
 42
0.0000001
 43
0.0000001
 44
0.0000000001
 40
0.0
 40
0.0
 40
0.0
 40
0.0
 40
0.2560789398
 40
1.0
 40
1.0
 40
1.0
 40
1.0
 10
29.8306550353
 20
63.2090828314
 30
0.0
 10
29.8413704102
 20
63.2152693191
 30
0.0
 10
29.8835284508
 20
63.2388769088
 30
0.0
 10
29.9269625317
 20
63.2602287711
 30
0.0
 10
29.9599164559
 20
63.2745823741
 30
0.0
  0
SPLINE
  5
2EA
100
AcDbEntity
  8
0
100
AcDbSpline
 62
7
  6
BYLAYER
 70
0
 71
3
 72
9
 73
5
 74
0
 42
0.0000001
 43
0.0000001
 44
0.0000000001
 40
0.0
 40
0.0
 40
0.0
 40
0.0
 40
0.5149580956
 40
1.0
 40
1.0
 40
1.0
 40
1.0
 10
26.6439909475
 20
61.1337429014
 30
0.0
 10
26.8092328375
 20
61.2969276071
 30
0.0
 10
27.1458079417
 20
61.5984316183
 30
0.0
 10
27.5139133843
 20
61.8611041471
 30
0.0
 10
27.6999051831
 20
61.9762417294
 30
0.0
  0
SPLINE
  5
2EB
100
AcDbEntity
  8
0
100
AcDbSpline
 62
7
  6
BYLAYER
 70
0
 71
3
 72
11
 73
7
 74
0
 42
0.0000001
 43
0.0000001
 44
0.0000000001
 40
0.0
 40
0.0
 40
0.0
 40
0.0
 40
0.236733177
 40
0.4828410924
 40
0.7375737905
 40
1.0
 40
1.0
 40
1.0
 40
1.0
 10
18.5961370838
 20
54.8857391469
 30
0.0
 10
19.2941666467
 20
55.2887442973
 30
0.0
 10
20.6873087224
 20
56.1645892918
 30
0.0
 10
22.7191411899
 20
57.6432717742
 30
0.0
 10
24.7208146262
 20
59.303054524
 30
0.0
 10
26.0082518356
 20
60.5059184441
 30
0.0
 10
26.6439909475
 20
61.1337429014
 30
0.0
  0
SPLINE
  5
2EC
100
AcDbEntity
  8
0
100
AcDbSpline
 62
7
  6
BYLAYER
 70
0
 71
3
 72
9
 73
5
 74
0
 42
0.0000001
 43
0.0000001
 44
0.0000000001
 40
0.0
 40
0.0
 40
0.0
 40
0.0
 40
0.2439822202
 40
1.0
 40
1.0
 40
1.0
 40
1.0
 10
14.8028113976
 20
52.7200189545
 30
0.0
 10
14.8316325519
 20
52.7325724643
 30
0.0
 10
14.9489763863
 20
52.7858159714
 30
0.0
 10
15.0631481597
 20
52.8459792162
 30
0.0
 10
15.1475085191
 20
52.8946844017
 30
0.0
  0
SPLINE
  5
2ED
100
AcDbEntity
  8
0
100
AcDbSpline
 62
7
  6
BYLAYER
 70
0
 71
3
 72
11
 73
7
 74
0
 42
0.0000001
 43
0.0000001
 44
0.0000000001
 40
0.0
 40
0.0
 40
0.0
 40
0.0
 40
0.2267116261
 40
0.4669950787
 40
0.7241738609
 40
1.0
 40
1.0
 40
1.0
 40
1.0
 10
13.5251961227
 20
52.5486986658
 30
0.0
 10
13.6216224741
 20
52.5264056316
 30
0.0
 10
13.8253739493
 20
52.5008668522
 30
0.0
 10
14.1424323969
 20
52.518827135
 30
0.0
 10
14.4733893571
 20
52.5912564986
 30
0.0
 10
14.6924181868
 20
52.6719354451
 30
0.0
 10
14.8028113976
 20
52.7200189545
 30
0.0
  0
SPLINE
  5
2EE
100
AcDbEntity
  8
0
100
AcDbSpline
 62
7
  6
BYLAYER
 70
0
 71
3
 72
11
 73
7
 74
0
 42
0.0000001
 43
0.0000001
 44
0.0000000001
 40
0.0
 40
0.0
 40
0.0
 40
0.0
 40
0.2758261391
 40
0.5330049213
 40
0.7732883739
 40
1.0
 40
1.0
 40
1.0
 40
1.0
 10
13.0585964995
 20
52.5398991367
 30
0.0
 10
13.0861948022
 20
52.551920014
 30
0.0
 10
13.1409520097
 20
52.5720897506
 30
0.0
 10
13.2236912497
 20
52.5901970915
 30
0.0
 10
13.3029558616
 20
52.5946871622
 30
0.0
 10
13.3538937305
 20
52.5883024674
 30
0.0
 10
13.3780003183
 20
52.5827292088
 30
0.0
  0
SPLINE
  5
2EF
100
AcDbEntity
  8
0
100
AcDbSpline
 62
7
  6
BYLAYER
 70
0
 71
3
 72
9
 73
5
 74
0
 42
0.0000001
 43
0.0000001
 44
0.0000000001
 40
0.0
 40
0.0
 40
0.0
 40
0.0
 40
0.2560789398
 40
1.0
 40
1.0
 40
1.0
 40
1.0
 10
12.9724222192
 20
52.4962327749
 30
0.0
 10
12.9795658024
 20
52.5003571
 30
0.0
 10
13.0076711628
 20
52.5160954931
 30
0.0
 10
13.0366272167
 20
52.530330068
 30
0.0
 10
13.0585964995
 20
52.5398991367
 30
0.0
  0
SPLINE
  5
2F0
100
AcDbEntity
  8
0
100
AcDbSpline
 62
7
  6
BYLAYER
 70
0
 71
3
 72
9
 73
5
 74
0
 42
0.0000001
 43
0.0000001
 44
0.0000000001
 40
0.0
 40
0.0
 40
0.0
 40
0.0
 40
0.2553530868
 40
1.0
 40
1.0
 40
1.0
 40
1.0
 10
12.553564317
 20
52.2483204106
 30
0.0
 10
12.5606618568
 20
52.2534244489
 30
0.0
 10
12.5886896211
 20
52.2730857066
 30
0.0
 10
12.6176604863
 20
52.2914122155
 30
0.0
 10
12.6397385974
 20
52.3041589428
 30
0.0
  0
SPLINE
  5
2F1
100
AcDbEntity
  8
0
100
AcDbSpline
 62
7
  6
BYLAYER
 70
0
 71
3
 72
10
 73
6
 74
0
 42
0.0000001
 43
0.0000001
 44
0.0000000001
 40
0.0
 40
0.0
 40
0.0
 40
0.0
 40
0.5178826406
 40
0.7655637713
 40
1.0
 40
1.0
 40
1.0
 40
1.0
 10
12.139740679
 20
51.776338712
 30
0.0
 10
12.1942545786
 20
51.8707600799
 30
0.0
 10
12.2881873952
 20
52.0034354991
 30
0.0
 10
12.434927743
 20
52.1547641215
 30
0.0
 10
12.5134943573
 20
52.2195049877
 30
0.0
 10
12.553564317
 20
52.2483204106
 30
0.0
  0
SPLINE
  5
2F2
100
AcDbEntity
  8
0
100
AcDbSpline
 62
7
  6
BYLAYER
 70
0
 71
3
 72
12
 73
8
 74
0
 42
0.0000001
 43
0.0000001
 44
0.0000000001
 40
0.0
 40
0.0
 40
0.0
 40
0.0
 40
0.2063481782
 40
0.3228633629
 40
0.4474155569
 40
0.7160101384
 40
1.0
 40
1.0
 40
1.0
 40
1.0
 10
11.3888084835
 20
49.7855330931
 30
0.0
 10
11.3620341833
 20
49.8494676412
 30
0.0
 10
11.3403352594
 20
49.958213071
 30
0.0
 10
11.3397861585
 20
50.1085622382
 30
0.0
 10
11.3591140893
 20
50.2790861537
 30
0.0
 10
11.4202029056
 20
50.4996526598
 30
0.0
 10
11.5000202134
 20
50.668304212
 30
0.0
 10
11.5477175382
 20
50.7509188606
 30
0.0
  0
SPLINE
  5
2F3
100
AcDbEntity
  8
0
100
AcDbSpline
 62
7
  6
BYLAYER
 70
0
 71
3
 72
9
 73
5
 74
0
 42
0.0000001
 43
0.0000001
 44
0.0000000001
 40
0.0
 40
0.0
 40
0.0
 40
0.0
 40
0.4812463485
 40
1.0
 40
1.0
 40
1.0
 40
1.0
 10
11.7714666066
 20
48.904104254
 30
0.0
 10
11.7655491932
 20
48.907520772
 30
0.0
 10
11.7545093666
 20
48.9169847628
 30
0.0
 10
11.747297135
 20
48.9294954102
 30
0.0
 10
11.7444520673
 20
48.9362891682
 30
0.0
  0
SPLINE
  5
2F4
100
AcDbEntity
  8
0
100
AcDbSpline
 62
7
  6
BYLAYER
 70
0
 71
3
 72
17
 73
13
 74
0
 42
0.0000001
 43
0.0000001
 44
0.0000000001
 40
0.0
 40
0.0
 40
0.0
 40
0.0
 40
0.0428903439
 40
0.0875128478
 40
0.1353381999
 40
0.1873067581
 40
0.3045688319
 40
0.4382295244
 40
0.5825713658
 40
0.7297056051
 40
0.8713345917
 40
1.0
 40
1.0
 40
1.0
 40
1.0
 10
35.8555814637
 20
20.8844330486
 30
0.0
 10
35.8432380673
 20
20.8915412667
 30
0.0
 10
35.819868486
 20
20.909441458
 30
0.0
 10
35.7917490216
 20
20.9450035012
 30
0.0
 10
35.7707545982
 20
20.9884973813
 30
0.0
 10
35.7518909355
 20
21.0584154662
 30
0.0
 10
35.7495221284
 20
21.1603564315
 30
0.0
 10
35.7759126818
 20
21.2897290578
 30
0.0
 10
35.829086006
 20
21.4213032533
 30
0.0
 10
35.9047566289
 20
21.5444267624
 30
0.0
 10
35.9967277352
 20
21.6490264767
 30
0.0
 10
36.0685667906
 20
21.7043251847
 30
0.0
 10
36.1055717392
 20
21.7256898742
 30
0.0
  0
SPLINE
  5
2F5
100
AcDbEntity
  8
0
100
AcDbSpline
 62
7
  6
BYLAYER
 70
0
 71
3
 72
9
 73
5
 74
0
 42
0.0000001
 43
0.0000001
 44
0.0000000001
 40
0.0
 40
0.0
 40
0.0
 40
0.0
 40
0.5187518033
 40
1.0
 40
1.0
 40
1.0
 40
1.0
 10
9.0050982777
 20
44.191562886
 30
0.0
 10
9.0124042998
 20
44.1924957508
 30
0.0
 10
9.0268448388
 20
44.1925048367
 30
0.0
 10
9.040560569
 20
44.1876757539
 30
0.0
 10
9.0464779519
 20
44.1842592536
 30
0.0
  0
SPLINE
  5
2F6
100
AcDbEntity
  8
0
100
AcDbSpline
 62
7
  6
BYLAYER
 70
0
 71
3
 72
9
 73
5
 74
0
 42
0.0000001
 43
0.0000001
 44
0.0000000001
 40
0.0
 40
0.0
 40
0.0
 40
0.0
 40
0.5337631624
 40
1.0
 40
1.0
 40
1.0
 40
1.0
 10
7.7490587145
 20
43.926626407
 30
0.0
 10
7.8034124574
 20
43.965713696
 30
0.0
 10
7.9120023865
 20
44.0302926116
 30
0.0
 10
8.0338128771
 20
44.0675449333
 30
0.0
 10
8.0918210647
 20
44.0749516715
 30
0.0
  0
SPLINE
  5
2F7
100
AcDbEntity
  8
0
100
AcDbSpline
 62
7
  6
BYLAYER
 70
0
 71
3
 72
11
 73
7
 74
0
 42
0.0000001
 43
0.0000001
 44
0.0000000001
 40
0.0
 40
0.0
 40
0.0
 40
0.0
 40
0.2344544075
 40
0.4757723622
 40
0.7297730884
 40
1.0
 40
1.0
 40
1.0
 40
1.0
 10
27.7583049239
 20
12.5663672516
 30
0.0
 10
27.778639139
 20
12.554624874
 30
0.0
 10
27.8225834683
 20
12.5351502029
 30
0.0
 10
27.8945299986
 20
12.5198535706
 30
0.0
 10
27.9715843323
 20
12.5183363498
 30
0.0
 10
28.0237668089
 20
12.5260547264
 30
0.0
 10
28.0501888387
 20
12.5319136826
 30
0.0
  0
SPLINE
  5
2F8
100
AcDbEntity
  8
0
100
AcDbSpline
 62
7
  6
BYLAYER
 70
0
 71
3
 72
9
 73
5
 74
0
 42
0.0000001
 43
0.0000001
 44
0.0000000001
 40
0.0
 40
0.0
 40
0.0
 40
0.0
 40
0.4865236021
 40
1.0
 40
1.0
 40
1.0
 40
1.0
 10
27.0511951989
 20
12.9746080065
 30
0.0
 10
27.0219039894
 20
12.9915227698
 30
0.0
 10
26.9668914582
 20
13.035964017
 30
0.0
 10
26.926970626
 20
13.0939954537
 30
0.0
 10
26.9103371101
 20
13.125581577
 30
0.0
  0
SPLINE
  5
2F9
100
AcDbEntity
  8
0
100
AcDbSpline
 62
7
  6
BYLAYER
 70
0
 71
3
 72
11
 73
7
 74
0
 42
0.0000001
 43
0.0000001
 44
0.0000000001
 40
0.0
 40
0.0
 40
0.0
 40
0.0
 40
0.2177068691
 40
0.4508430786
 40
0.7104028475
 40
1.0
 40
1.0
 40
1.0
 40
1.0
 10
5.9450509522
 20
26.0640197392
 30
0.0
 10
5.9285656723
 20
26.0735422776
 30
0.0
 10
5.8977005684
 20
26.0994637479
 30
0.0
 10
5.8648441167
 20
26.153192279
 30
0.0
 10
5.845350223
 20
26.2193989275
 30
0.0
 10
5.8414912956
 20
26.2675822335
 30
0.0
 10
5.8414912956
 20
26.2929068063
 30
0.0
  0
SPLINE
  5
2FA
100
AcDbEntity
  8
0
100
AcDbSpline
 62
7
  6
BYLAYER
 70
0
 71
3
 72
13
 73
9
 74
0
 42
0.0000001
 43
0.0000001
 44
0.0000000001
 40
0.0
 40
0.0
 40
0.0
 40
0.0
 40
0.3063288401
 40
0.5828068248
 40
0.7036337637
 40
0.8118636315
 40
0.9093077191
 40
1.0
 40
1.0
 40
1.0
 40
1.0
 10
13.3952027616
 20
41.4772781186
 30
0.0
 10
13.4061174805
 20
41.4961830712
 30
0.0
 10
13.4230152535
 20
41.5345209565
 30
0.0
 10
13.4319649802
 20
41.5846298456
 30
0.0
 10
13.4291023931
 20
41.6207353888
 30
0.0
 10
13.4224783318
 20
41.6432684156
 30
0.0
 10
13.4112665508
 20
41.6615007237
 30
0.0
 10
13.4007997489
 20
41.6703470987
 30
0.0
 10
13.3952027616
 20
41.6735786133
 30
0.0
  0
SPLINE
  5
2FB
100
AcDbEntity
  8
0
100
AcDbSpline
 62
7
  6
BYLAYER
 70
0
 71
3
 72
13
 73
9
 74
0
 42
0.0000001
 43
0.0000001
 44
0.0000000001
 40
0.0
 40
0.0
 40
0.0
 40
0.0
 40
0.0906926212
 40
0.1881363703
 40
0.2963655821
 40
0.4171918886
 40
0.6936695278
 40
1.0
 40
1.0
 40
1.0
 40
1.0
 10
16.1201914163
 20
46.3934236137
 30
0.0
 10
16.125788376
 20
46.3901921151
 30
0.0
 10
16.1386827387
 20
46.3855504976
 30
0.0
 10
16.1600780437
 20
46.3849565686
 30
0.0
 10
16.1829040082
 20
46.3904861599
 30
0.0
 10
16.21560331
 20
46.4060595311
 30
0.0
 10
16.2545236673
 20
46.4388645212
 30
0.0
 10
16.2792760262
 20
46.4726672758
 30
0.0
 10
16.2901907085
 20
46.491572165
 30
0.0
  0
SPLINE
  5
2FC
100
AcDbEntity
  8
0
100
AcDbSpline
 62
7
  6
BYLAYER
 70
0
 71
3
 72
9
 73
5
 74
0
 42
0.0000001
 43
0.0000001
 44
0.0000000001
 40
0.0
 40
0.0
 40
0.0
 40
0.0
 40
0.5124826821
 40
1.0
 40
1.0
 40
1.0
 40
1.0
 10
19.0130027479
 20
49.6462759702
 30
0.0
 10
18.9965637646
 20
49.6755489914
 30
0.0
 10
18.9577691991
 20
49.7293224459
 30
0.0
 10
18.9056044501
 20
49.7706066516
 30
0.0
 10
18.8779438588
 20
49.7865722166
 30
0.0
  0
SPLINE
  5
2FD
100
AcDbEntity
  8
0
100
AcDbSpline
 62
7
  6
BYLAYER
 70
0
 71
3
 72
11
 73
7
 74
0
 42
0.0000001
 43
0.0000001
 44
0.0000000001
 40
0.0
 40
0.0
 40
0.0
 40
0.0
 40
0.289624577
 40
0.5491040187
 40
0.7822280817
 40
1.0
 40
1.0
 40
1.0
 40
1.0
 10
26.4712819571
 20
53.7805593111
 30
0.0
 10
26.4712819571
 20
53.8312132759
 30
0.0
 10
26.4635763087
 20
53.9275728939
 30
0.0
 10
26.4245846448
 20
54.0599702178
 30
0.0
 10
26.3588874534
 20
54.1674374489
 30
0.0
 10
26.297129393
 20
54.2192590318
 30
0.0
 10
26.2641537596
 20
54.2383181024
 30
0.0
  0
SPLINE
  5
2FE
100
AcDbEntity
  8
0
100
AcDbSpline
 62
7
  6
BYLAYER
 70
0
 71
3
 72
11
 73
7
 74
0
 42
0.0000001
 43
0.0000001
 44
0.0000000001
 40
0.0
 40
0.0
 40
0.0
 40
0.0
 40
0.2897211455
 40
0.5490700808
 40
0.7822818176
 40
1.0
 40
1.0
 40
1.0
 40
1.0
 10
43.3180308788
 20
52.4090277986
 30
0.0
 10
43.3180308788
 20
52.4597257557
 30
0.0
 10
43.3103269744
 20
52.556129503
 30
0.0
 10
43.2712895528
 20
52.6886133783
 30
0.0
 10
43.2054598017
 20
52.7960447681
 30
0.0
 10
43.1436866683
 20
52.847932444
 30
0.0
 10
43.1106764754
 20
52.8669535745
 30
0.0
  0
SPLINE
  5
2FF
100
AcDbEntity
  8
0
100
AcDbSpline
 62
7
  6
BYLAYER
 70
0
 71
3
 72
11
 73
7
 74
0
 42
0.0000001
 43
0.0000001
 44
0.0000000001
 40
0.0
 40
0.0
 40
0.0
 40
0.0
 40
0.2633965706
 40
0.5240500255
 40
0.7722891491
 40
1.0
 40
1.0
 40
1.0
 40
1.0
 10
43.0165051406
 20
51.4561029842
 30
0.0
 10
43.0631541679
 20
51.5207532175
 30
0.0
 10
43.1469878201
 20
51.656102168
 30
0.0
 10
43.2421129844
 20
51.870438558
 30
0.0
 10
43.3024518553
 20
52.0858924679
 30
0.0
 10
43.3180308788
 20
52.230105485
 30
0.0
 10
43.3180308788
 20
52.2990275353
 30
0.0
  0
SPLINE
  5
300
100
AcDbEntity
  8
0
100
AcDbSpline
 62
7
  6
BYLAYER
 70
0
 71
3
 72
11
 73
7
 74
0
 42
0.0000001
 43
0.0000001
 44
0.0000000001
 40
0.0
 40
0.0
 40
0.0
 40
0.0
 40
0.2303926778
 40
0.4758964237
 40
0.7336376046
 40
1.0
 40
1.0
 40
1.0
 40
1.0
 10
41.1750837025
 20
49.2646287826
 30
0.0
 10
41.2496783367
 20
49.3076957576
 30
0.0
 10
41.3977915537
 20
49.4072343317
 30
0.0
 10
41.6069870016
 20
49.5853741981
 30
0.0
 10
41.8061839206
 20
49.7936171051
 30
0.0
 10
41.9279707669
 20
49.9475184463
 30
0.0
 10
41.9862399006
 20
50.0282728224
 30
0.0
  0
SPLINE
  5
301
100
AcDbEntity
  8
0
100
AcDbSpline
 62
7
  6
BYLAYER
 70
0
 71
3
 72
11
 73
7
 74
0
 42
0.0000001
 43
0.0000001
 44
0.0000000001
 40
0.0
 40
0.0
 40
0.0
 40
0.0
 40
0.2177182217
 40
0.4509432136
 40
0.7102956781
 40
1.0
 40
1.0
 40
1.0
 40
1.0
 10
40.3507073786
 20
48.9082517417
 30
0.0
 10
40.3671951838
 20
48.8987322307
 30
0.0
 10
40.4050953901
 20
48.8849909031
 30
0.0
 10
40.4680377517
 20
48.8833714742
 30
0.0
 10
40.5351231996
 20
48.8995923915
 30
0.0
 10
40.5787668341
 20
48.9203471332
 30
0.0
 10
40.6007063377
 20
48.9330138359
 30
0.0
  0
SPLINE
  5
302
100
AcDbEntity
  8
0
100
AcDbSpline
 62
7
  6
BYLAYER
 70
0
 71
3
 72
13
 73
9
 74
0
 42
0.0000001
 43
0.0000001
 44
0.0000000001
 40
0.0
 40
0.0
 40
0.0
 40
0.0
 40
0.114175582
 40
0.23756922
 40
0.49999856
 40
0.7624286893
 40
0.8858231943
 40
1.0
 40
1.0
 40
1.0
 40
1.0
 10
38.1208176752
 20
22.1874154687
 30
0.0
 10
38.1450037867
 20
22.2013792433
 30
0.0
 10
38.1928025481
 20
22.2349194639
 30
0.0
 10
38.2823487478
 20
22.3186503326
 30
0.0
 10
38.3768477499
 20
22.447843916
 30
0.0
 10
38.4414824302
 20
22.5942797643
 30
0.0
 10
38.4692222607
 20
22.7136952284
 30
0.0
 10
38.4743695938
 20
22.7718607806
 30
0.0
 10
38.4743695938
 20
22.7997887542
 30
0.0
  0
SPLINE
  5
303
100
AcDbEntity
  8
0
100
AcDbSpline
 62
7
  6
BYLAYER
 70
0
 71
3
 72
9
 73
5
 74
0
 42
0.0000001
 43
0.0000001
 44
0.0000000001
 40
0.0
 40
0.0
 40
0.0
 40
0.0
 40
0.2441998105
 40
1.0
 40
1.0
 40
1.0
 40
1.0
 10
38.0792233319
 20
22.1662362188
 30
0.0
 10
38.0827012743
 20
22.16776842
 30
0.0
 10
38.0968516382
 20
22.1742501634
 30
0.0
 10
38.1106309981
 20
22.181534223
 30
0.0
 10
38.1208176752
 20
22.1874154687
 30
0.0
  0
SPLINE
  5
304
100
AcDbEntity
  8
0
100
AcDbSpline
 62
7
  6
BYLAYER
 70
0
 71
3
 72
10
 73
6
 74
0
 42
0.0000001
 43
0.0000001
 44
0.0000000001
 40
0.0
 40
0.0
 40
0.0
 40
0.0
 40
0.4734292772
 40
0.7297807613
 40
1.0
 40
1.0
 40
1.0
 40
1.0
 10
36.2710159062
 20
21.7737516302
 30
0.0
 10
36.5648675205
 20
21.7637388772
 30
0.0
 10
37.0214733025
 20
21.8133127355
 30
0.0
 10
37.6202043821
 20
21.979798707
 30
0.0
 10
37.9256471
 20
22.0985784921
 30
0.0
 10
38.0792233319
 20
22.1662362188
 30
0.0
  0
SPLINE
  5
305
100
AcDbEntity
  8
0
100
AcDbSpline
 62
7
  6
BYLAYER
 70
0
 71
3
 72
9
 73
5
 74
0
 42
0.0000001
 43
0.0000001
 44
0.0000000001
 40
0.0
 40
0.0
 40
0.0
 40
0.0
 40
0.2775224548
 40
1.0
 40
1.0
 40
1.0
 40
1.0
 10
36.1055717392
 20
21.7256898742
 30
0.0
 10
36.1194664047
 20
21.7337119152
 30
0.0
 10
36.1707854493
 20
21.7600162418
 30
0.0
 10
36.2292721939
 20
21.775174013
 30
0.0
 10
36.2710159062
 20
21.7737516302
 30
0.0
  0
SPLINE
  5
306
100
AcDbEntity
  8
0
100
AcDbSpline
 62
7
  6
BYLAYER
 70
0
 71
3
 72
13
 73
9
 74
0
 42
0.0000001
 43
0.0000001
 44
0.0000000001
 40
0.0
 40
0.0
 40
0.0
 40
0.0
 40
0.2893318293
 40
0.5482847274
 40
0.6676974131
 40
0.7816907616
 40
0.8918356727
 40
1.0
 40
1.0
 40
1.0
 40
1.0
 10
43.3180308788
 20
22.6261526384
 30
0.0
 10
43.3180308788
 20
22.7274990933
 30
0.0
 10
43.3027515158
 20
22.920127948
 30
0.0
 10
43.2358256392
 20
23.1467253483
 30
0.0
 10
43.1546178965
 20
23.2994696087
 30
0.0
 10
43.0829753387
 20
23.3967497368
 30
0.0
 10
42.9996951369
 20
23.4787779443
 30
0.0
 10
42.936608006
 20
23.5227641325
 30
0.0
 10
42.9037909139
 20
23.5416983374
 30
0.0
  0
SPLINE
  5
307
100
AcDbEntity
  8
0
100
AcDbSpline
 62
7
  6
BYLAYER
 70
0
 71
3
 72
15
 73
11
 74
0
 42
0.0000001
 43
0.0000001
 44
0.0000000001
 40
0.0
 40
0.0
 40
0.0
 40
0.0
 40
0.1141229605
 40
0.2373462928
 40
0.366971064
 40
0.4999983279
 40
0.633025824
 40
0.762651271
 40
0.8858756957
 40
1.0
 40
1.0
 40
1.0
 40
1.0
 10
42.2573751229
 20
18.1683673901
 30
0.0
 10
42.3299652849
 20
18.2102770895
 30
0.0
 10
42.4733760023
 20
18.3108465351
 30
0.0
 10
42.6707424148
 20
18.4954323268
 30
0.0
 10
42.8525855439
 20
18.7137117861
 30
0.0
 10
43.0121283798
 20
18.9573516761
 30
0.0
 10
43.143354274
 20
19.2173408385
 30
0.0
 10
43.2414676958
 20
19.4839631031
 30
0.0
 10
43.3026403203
 20
19.7471826919
 30
0.0
 10
43.3180308788
 20
19.9216664856
 30
0.0
 10
43.3180308788
 20
20.0054872466
 30
0.0
  0
SPLINE
  5
308
100
AcDbEntity
  8
0
100
AcDbSpline
 62
7
  6
BYLAYER
 70
0
 71
3
 72
11
 73
7
 74
0
 42
0.0000001
 43
0.0000001
 44
0.0000000001
 40
0.0
 40
0.0
 40
0.0
 40
0.0
 40
0.281945148
 40
0.5391351413
 40
0.7754374618
 40
1.0
 40
1.0
 40
1.0
 40
1.0
 10
40.1295129773
 20
19.6565164763
 30
0.0
 10
40.1572057447
 20
19.6685784993
 30
0.0
 10
40.2121234559
 20
19.6875531107
 30
0.0
 10
40.2950280066
 20
19.6991528214
 30
0.0
 10
40.3723896422
 20
19.6913951135
 30
0.0
 10
40.4190422158
 20
19.6729437713
 30
0.0
 10
40.4398706101
 20
19.6609034536
 30
0.0
  0
SPLINE
  5
309
100
AcDbEntity
  8
0
100
AcDbSpline
 62
7
  6
BYLAYER
 70
0
 71
3
 72
9
 73
5
 74
0
 42
0.0000001
 43
0.0000001
 44
0.0000000001
 40
0.0
 40
0.0
 40
0.0
 40
0.0
 40
0.2418164229
 40
1.0
 40
1.0
 40
1.0
 40
1.0
 10
36.6059339765
 20
18.3125677037
 30
0.0
 10
36.8969022602
 20
18.3959073821
 30
0.0
 10
38.0923493812
 20
18.7676133728
 30
0.0
 10
39.2547333683
 20
19.2428842043
 30
0.0
 10
40.1125175931
 20
19.6487934584
 30
0.0
  0
SPLINE
  5
30A
100
AcDbEntity
  8
0
100
AcDbSpline
 62
7
  6
BYLAYER
 70
0
 71
3
 72
9
 73
5
 74
0
 42
0.0000001
 43
0.0000001
 44
0.0000000001
 40
0.0
 40
0.0
 40
0.0
 40
0.0
 40
0.5169982616
 40
1.0
 40
1.0
 40
1.0
 40
1.0
 10
35.3102854789
 20
17.7500978911
 30
0.0
 10
35.5214811948
 20
17.8720310668
 30
0.0
 10
35.9425175524
 20
18.0870825735
 30
0.0
 10
36.3869096858
 20
18.249834358
 30
0.0
 10
36.6059339765
 20
18.3125677037
 30
0.0
  0
SPLINE
  5
30B
100
AcDbEntity
  8
0
100
AcDbSpline
 62
7
  6
BYLAYER
 70
0
 71
3
 72
9
 73
5
 74
0
 42
0.0000001
 43
0.0000001
 44
0.0000000001
 40
0.0
 40
0.0
 40
0.0
 40
0.0
 40
0.2553325595
 40
1.0
 40
1.0
 40
1.0
 40
1.0
 10
34.6666462631
 20
17.3332266591
 30
0.0
 10
34.7196615404
 20
17.3713199278
 30
0.0
 10
34.9290247702
 20
17.5180777851
 30
0.0
 10
35.1454010148
 20
17.6549023696
 30
0.0
 10
35.3102854789
 20
17.7500978911
 30
0.0
  0
SPLINE
  5
30C
100
AcDbEntity
  8
0
100
AcDbSpline
 62
7
  6
BYLAYER
 70
0
 71
3
 72
13
 73
9
 74
0
 42
0.0000001
 43
0.0000001
 44
0.0000000001
 40
0.0
 40
0.0
 40
0.0
 40
0.0
 40
0.1128323491
 40
0.2342392268
 40
0.492905407
 40
0.7553957887
 40
0.8813263817
 40
1.0
 40
1.0
 40
1.0
 40
1.0
 10
34.2317465706
 20
16.514812041
 30
0.0
 10
34.2317465706
 20
16.5507719582
 30
0.0
 10
34.2378311206
 20
16.6254901381
 30
0.0
 10
34.2710060394
 20
16.7793777213
 30
0.0
 10
34.3492753822
 20
16.9704794474
 30
0.0
 10
34.4648661307
 20
17.1431815532
 30
0.0
 10
34.5758631708
 20
17.2610501774
 30
0.0
 10
34.6359314425
 20
17.3111570223
 30
0.0
 10
34.6666462631
 20
17.3332266591
 30
0.0
  0
SPLINE
  5
30D
100
AcDbEntity
  8
0
100
AcDbSpline
 62
7
  6
BYLAYER
 70
0
 71
3
 72
15
 73
11
 74
0
 42
0.0000001
 43
0.0000001
 44
0.0000000001
 40
0.0
 40
0.0
 40
0.0
 40
0.0
 40
0.1141229605
 40
0.2373462928
 40
0.366971064
 40
0.4999983279
 40
0.633025824
 40
0.762651271
 40
0.8858756957
 40
1.0
 40
1.0
 40
1.0
 40
1.0
 10
33.1710908147
 20
13.73893243
 30
0.0
 10
33.2436809767
 20
13.7808421294
 30
0.0
 10
33.3870916941
 20
13.881411575
 30
0.0
 10
33.5844581066
 20
14.0659973666
 30
0.0
 10
33.7663012357
 20
14.284276826
 30
0.0
 10
33.9258440716
 20
14.527916716
 30
0.0
 10
34.0570699658
 20
14.7879058784
 30
0.0
 10
34.1551833876
 20
15.054528143
 30
0.0
 10
34.2163560121
 20
15.3177477318
 30
0.0
 10
34.2317465706
 20
15.4922315255
 30
0.0
 10
34.2317465706
 20
15.5760522865
 30
0.0
  0
SPLINE
  5
30E
100
AcDbEntity
  8
0
100
AcDbSpline
 62
7
  6
BYLAYER
 70
0
 71
3
 72
9
 73
5
 74
0
 42
0.0000001
 43
0.0000001
 44
0.0000000001
 40
0.0
 40
0.0
 40
0.0
 40
0.0
 40
0.2439822202
 40
1.0
 40
1.0
 40
1.0
 40
1.0
 10
31.8472553342
 20
12.9928784769
 30
0.0
 10
31.8688711999
 20
13.0022936092
 30
0.0
 10
31.9568790757
 20
13.0422262395
 30
0.0
 10
32.0425079058
 20
13.0873486732
 30
0.0
 10
32.1057781753
 20
13.1238775622
 30
0.0
  0
SPLINE
  5
30F
100
AcDbEntity
  8
0
100
AcDbSpline
 62
7
  6
BYLAYER
 70
0
 71
3
 72
9
 73
5
 74
0
 42
0.0000001
 43
0.0000001
 44
0.0000000001
 40
0.0
 40
0.0
 40
0.0
 40
0.0
 40
0.4740794794
 40
1.0
 40
1.0
 40
1.0
 40
1.0
 10
31.1138063665
 20
12.8354835961
 30
0.0
 10
31.2330099609
 20
12.8314869776
 30
0.0
 10
31.4861033586
 20
12.8586225539
 30
0.0
 10
31.7259498797
 20
12.9400419671
 30
0.0
 10
31.8472553342
 20
12.9928784769
 30
0.0
  0
SPLINE
  5
310
100
AcDbEntity
  8
0
100
AcDbSpline
 62
7
  6
BYLAYER
 70
0
 71
3
 72
9
 73
5
 74
0
 42
0.0000001
 43
0.0000001
 44
0.0000000001
 40
0.0
 40
0.0
 40
0.0
 40
0.0
 40
0.5128017183
 40
1.0
 40
1.0
 40
1.0
 40
1.0
 10
28.0501888387
 20
12.5319136826
 30
0.0
 10
28.564968095
 20
12.6460633348
 30
0.0
 10
29.5821380556
 20
12.8136892787
 30
0.0
 10
30.6131307412
 20
12.8522700821
 30
0.0
 10
31.1138063665
 20
12.8354835961
 30
0.0
  0
SPLINE
  5
311
100
AcDbEntity
  8
0
100
AcDbSpline
 62
7
  6
BYLAYER
 70
0
 71
3
 72
11
 73
7
 74
0
 42
0.0000001
 43
0.0000001
 44
0.0000000001
 40
0.0
 40
0.0
 40
0.0
 40
0.0
 40
0.2822004411
 40
0.5391694795
 40
0.7753919226
 40
1.0
 40
1.0
 40
1.0
 40
1.0
 10
25.3821999784
 20
16.0537501496
 30
0.0
 10
25.4191578387
 20
16.0698477304
 30
0.0
 10
25.4923722886
 20
16.0952129561
 30
0.0
 10
25.6029208498
 20
16.1105692423
 30
0.0
 10
25.7060378929
 20
16.1002719177
 30
0.0
 10
25.7682255912
 20
16.0756442777
 30
0.0
 10
25.7960142628
 20
16.0596064973
 30
0.0
  0
SPLINE
  5
312
100
AcDbEntity
  8
0
100
AcDbSpline
 62
7
  6
BYLAYER
 70
0
 71
3
 72
9
 73
5
 74
0
 42
0.0000001
 43
0.0000001
 44
0.0000000001
 40
0.0
 40
0.0
 40
0.0
 40
0.0
 40
0.2560789398
 40
1.0
 40
1.0
 40
1.0
 40
1.0
 10
25.296025698
 20
16.0100837878
 30
0.0
 10
25.3031692812
 20
16.0142081129
 30
0.0
 10
25.3312746416
 20
16.029946506
 30
0.0
 10
25.3602306955
 20
16.0441810809
 30
0.0
 10
25.3821999784
 20
16.0537501496
 30
0.0
  0
SPLINE
  5
313
100
AcDbEntity
  8
0
100
AcDbSpline
 62
7
  6
BYLAYER
 70
0
 71
3
 72
11
 73
7
 74
0
 42
0.0000001
 43
0.0000001
 44
0.0000000001
 40
0.0
 40
0.0
 40
0.0
 40
0.0
 40
0.2585169993
 40
0.5202383484
 40
0.7713891366
 40
1.0
 40
1.0
 40
1.0
 40
1.0
 10
23.3640997407
 20
14.4232588894
 30
0.0
 10
23.3930070141
 20
14.5115312416
 30
0.0
 10
23.4672314704
 20
14.6842120591
 30
0.0
 10
23.6166528348
 20
14.9190281992
 30
0.0
 10
23.7954167135
 20
15.1181916624
 30
0.0
 10
23.9338181804
 20
15.2236176054
 30
0.0
 10
24.0049534546
 20
15.26468733
 30
0.0
  0
SPLINE
  5
314
100
AcDbEntity
  8
0
100
AcDbSpline
 62
7
  6
BYLAYER
 70
0
 71
3
 72
11
 73
7
 74
0
 42
0.0000001
 43
0.0000001
 44
0.0000000001
 40
0.0
 40
0.0
 40
0.0
 40
0.0
 40
0.2286108634
 40
0.4797616516
 40
0.7414830007
 40
1.0
 40
1.0
 40
1.0
 40
1.0
 10
21.4223913372
 20
9.6094909692
 30
0.0
 10
21.4935266115
 20
9.6505606938
 30
0.0
 10
21.6319280783
 20
9.7559866368
 30
0.0
 10
21.810691957
 20
9.9551500999
 30
0.0
 10
21.9601133214
 20
10.18996624
 30
0.0
 10
22.0343377777
 20
10.3626470575
 30
0.0
 10
22.0632450511
 20
10.4509194097
 30
0.0
  0
SPLINE
  5
315
100
AcDbEntity
  8
0
100
AcDbSpline
 62
7
  6
BYLAYER
 70
0
 71
3
 72
11
 73
7
 74
0
 42
0.0000001
 43
0.0000001
 44
0.0000000001
 40
0.0
 40
0.0
 40
0.0
 40
0.0
 40
0.2664103979
 40
0.5241016098
 40
0.7695723741
 40
1.0
 40
1.0
 40
1.0
 40
1.0
 10
18.3358825213
 20
6.7938653597
 30
0.0
 10
18.5398615945
 20
7.0765570994
 30
0.0
 10
18.9660559464
 20
7.6152629617
 30
0.0
 10
19.663327088
 20
8.3439687645
 30
0.0
 10
20.3953598964
 20
8.9675403863
 30
0.0
 10
20.9138079417
 20
9.3158619616
 30
0.0
 10
21.1749292148
 20
9.4666194991
 30
0.0
  0
SPLINE
  5
316
100
AcDbEntity
  8
0
100
AcDbSpline
 62
7
  6
BYLAYER
 70
0
 71
3
 72
9
 73
5
 74
0
 42
0.0000001
 43
0.0000001
 44
0.0000000001
 40
0.0
 40
0.0
 40
0.0
 40
0.0
 40
0.2439822202
 40
1.0
 40
1.0
 40
1.0
 40
1.0
 10
16.9022891267
 20
5.3320804489
 30
0.0
 10
16.9094944153
 20
5.3352188263
 30
0.0
 10
16.9388303738
 20
5.3485297031
 30
0.0
 10
16.9673733172
 20
5.3635705143
 30
0.0
 10
16.988463407
 20
5.3757468107
 30
0.0
  0
SPLINE
  5
317
100
AcDbEntity
  8
0
100
AcDbSpline
 62
7
  6
BYLAYER
 70
0
 71
3
 72
11
 73
7
 74
0
 42
0.0000001
 43
0.0000001
 44
0.0000000001
 40
0.0
 40
0.0
 40
0.0
 40
0.0
 40
0.2246022945
 40
0.4608901369
 40
0.7177306164
 40
1.0
 40
1.0
 40
1.0
 40
1.0
 10
16.4884654887
 20
5.3262226222
 30
0.0
 10
16.5162512253
 20
5.310180061
 30
0.0
 10
16.5784600625
 20
5.2855794193
 30
0.0
 10
16.6815620427
 20
5.2752463696
 30
0.0
 10
16.7921164808
 20
5.290610286
 30
0.0
 10
16.8653214605
 20
5.315978597
 30
0.0
 10
16.9022891267
 20
5.3320804489
 30
0.0
  0
SPLINE
  5
318
100
AcDbEntity
  8
0
100
AcDbSpline
 62
7
  6
BYLAYER
 70
0
 71
3
 72
13
 73
9
 74
0
 42
0.0000001
 43
0.0000001
 44
0.0000000001
 40
0.0
 40
0.0
 40
0.0
 40
0.0
 40
0.3063288401
 40
0.5828068248
 40
0.7036337637
 40
0.8118636315
 40
0.9093077191
 40
1.0
 40
1.0
 40
1.0
 40
1.0
 10
13.3952027616
 20
9.3465312649
 30
0.0
 10
13.4061174805
 20
9.3654362175
 30
0.0
 10
13.4230152535
 20
9.4037741028
 30
0.0
 10
13.4319649803
 20
9.4538829918
 30
0.0
 10
13.4291023931
 20
9.4899885351
 30
0.0
 10
13.4224783318
 20
9.5125215618
 30
0.0
 10
13.4112665508
 20
9.5307538699
 30
0.0
 10
13.4007997489
 20
9.539600245
 30
0.0
 10
13.3952027616
 20
9.5428317596
 30
0.0
  0
SPLINE
  5
319
100
AcDbEntity
  8
0
100
AcDbSpline
 62
7
  6
BYLAYER
 70
0
 71
3
 72
9
 73
5
 74
0
 42
0.0000001
 43
0.0000001
 44
0.0000000001
 40
0.0
 40
0.0
 40
0.0
 40
0.0
 40
0.2440074946
 40
1.0
 40
1.0
 40
1.0
 40
1.0
 10
13.3538230873
 20
9.2914467855
 30
0.0
 10
13.3577379976
 20
9.2954674348
 30
0.0
 10
13.3732197533
 20
9.3124866644
 30
0.0
 10
13.3865094824
 20
9.3314739801
 30
0.0
 10
13.3952027616
 20
9.3465312649
 30
0.0
  0
SPLINE
  5
31A
100
AcDbEntity
  8
0
100
AcDbSpline
 62
7
  6
BYLAYER
 70
0
 71
3
 72
9
 73
5
 74
0
 42
0.0000001
 43
0.0000001
 44
0.0000000001
 40
0.0
 40
0.0
 40
0.0
 40
0.0
 40
0.4734944269
 40
1.0
 40
1.0
 40
1.0
 40
1.0
 10
12.0977835241
 20
8.1060423621
 30
0.0
 10
12.1592365256
 20
8.1328091891
 30
0.0
 10
12.2819386912
 20
8.2059174429
 30
0.0
 10
12.3885494057
 20
8.3001017491
 30
0.0
 10
12.4405458743
 20
8.3535026054
 30
0.0
  0
SPLINE
  5
31B
100
AcDbEntity
  8
0
100
AcDbSpline
 62
7
  6
BYLAYER
 70
0
 71
3
 72
11
 73
7
 74
0
 42
0.0000001
 43
0.0000001
 44
0.0000000001
 40
0.0
 40
0.0
 40
0.0
 40
0.0
 40
0.2246022945
 40
0.4608901369
 40
0.7177306164
 40
1.0
 40
1.0
 40
1.0
 40
1.0
 10
11.6839598862
 20
8.1001845354
 30
0.0
 10
11.7117456228
 20
8.0841419742
 30
0.0
 10
11.77395446
 20
8.0595413325
 30
0.0
 10
11.8770564402
 20
8.0492082828
 30
0.0
 10
11.9876108782
 20
8.0645721992
 30
0.0
 10
12.060815858
 20
8.0899405102
 30
0.0
 10
12.0977835241
 20
8.1060423621
 30
0.0
  0
SPLINE
  5
31C
100
AcDbEntity
  8
0
100
AcDbSpline
 62
7
  6
BYLAYER
 70
0
 71
3
 72
9
 73
5
 74
0
 42
0.0000001
 43
0.0000001
 44
0.0000000001
 40
0.0
 40
0.0
 40
0.0
 40
0.0
 40
0.2322170285
 40
1.0
 40
1.0
 40
1.0
 40
1.0
 10
12.4043560253
 20
23.8441304609
 30
0.0
 10
12.4241637761
 20
23.847241574
 30
0.0
 10
12.5086979799
 20
23.8655174007
 30
0.0
 10
12.5887877685
 20
23.901370421
 30
0.0
 10
12.6461997811
 20
23.934517064
 30
0.0
  0
SPLINE
  5
31D
100
AcDbEntity
  8
0
100
AcDbSpline
 62
7
  6
BYLAYER
 70
0
 71
3
 72
9
 73
5
 74
0
 42
0.0000001
 43
0.0000001
 44
0.0000000001
 40
0.0
 40
0.0
 40
0.0
 40
0.0
 40
0.5128301941
 40
1.0
 40
1.0
 40
1.0
 40
1.0
 10
41.2044677121
 20
22.9051662081
 30
0.0
 10
41.3931088671
 20
22.9313180682
 30
0.0
 10
41.7648495694
 20
22.9583828007
 30
0.0
 10
42.136862603
 20
22.9293442093
 30
0.0
 10
42.3154078735
 20
22.9001519536
 30
0.0
  0
SPLINE
  5
31E
100
AcDbEntity
  8
0
100
AcDbSpline
 62
7
  6
BYLAYER
 70
0
 71
3
 72
9
 73
5
 74
0
 42
0.0000001
 43
0.0000001
 44
0.0000000001
 40
0.0
 40
0.0
 40
0.0
 40
0.0
 40
0.269843888
 40
1.0
 40
1.0
 40
1.0
 40
1.0
 10
40.9533304825
 20
22.8134053494
 30
0.0
 10
40.9742265493
 20
22.8254696272
 30
0.0
 10
41.0532533675
 20
22.8671575252
 30
0.0
 10
41.1397977454
 20
22.8962008265
 30
0.0
 10
41.2044677121
 20
22.9051662081
 30
0.0
  0
SPLINE
  5
31F
100
AcDbEntity
  8
0
100
AcDbSpline
 62
7
  6
BYLAYER
 70
0
 71
3
 72
11
 73
7
 74
0
 42
0.0000001
 43
0.0000001
 44
0.0000000001
 40
0.0
 40
0.0
 40
0.0
 40
0.0
 40
0.2659716567
 40
0.5253523206
 40
0.7717469624
 40
1.0
 40
1.0
 40
1.0
 40
1.0
 10
40.4533325643
 20
22.2855851188
 30
0.0
 10
40.4858903082
 20
22.3419770985
 30
0.0
 10
40.556538474
 20
22.4498388133
 30
0.0
 10
40.6777300323
 20
22.5953632345
 30
0.0
 10
40.8093445501
 20
22.7184185615
 30
0.0
 10
40.9049356942
 20
22.7854647721
 30
0.0
 10
40.9533304825
 20
22.8134053494
 30
0.0
  0
SPLINE
  5
320
100
AcDbEntity
  8
0
100
AcDbSpline
 62
7
  6
BYLAYER
 70
0
 71
3
 72
11
 73
7
 74
0
 42
0.0000001
 43
0.0000001
 44
0.0000000001
 40
0.0
 40
0.0
 40
0.0
 40
0.0
 40
0.2282530376
 40
0.4746476794
 40
0.7340283433
 40
1.0
 40
1.0
 40
1.0
 40
1.0
 10
39.5337484586
 20
21.0310162591
 30
0.0
 10
39.5821432469
 20
21.0589568364
 30
0.0
 10
39.6777343911
 20
21.126003047
 30
0.0
 10
39.8093489089
 20
21.2490583741
 30
0.0
 10
39.9305404672
 20
21.3945827953
 30
0.0
 10
40.0011886329
 20
21.5024445101
 30
0.0
 10
40.0337463769
 20
21.5588364898
 30
0.0
  0
SPLINE
  5
321
100
AcDbEntity
  8
0
100
AcDbSpline
 62
7
  6
BYLAYER
 70
0
 71
3
 72
9
 73
5
 74
0
 42
0.0000001
 43
0.0000001
 44
0.0000000001
 40
0.0
 40
0.0
 40
0.0
 40
0.0
 40
0.2431080585
 40
1.0
 40
1.0
 40
1.0
 40
1.0
 10
39.4356544333
 20
20.9822769637
 30
0.0
 10
39.4438543422
 20
20.985684792
 30
0.0
 10
39.4773353755
 20
21.0002969486
 30
0.0
 10
39.5098058419
 20
21.0171930655
 30
0.0
 10
39.5337484586
 20
21.0310162591
 30
0.0
  0
SPLINE
  5
322
100
AcDbEntity
  8
0
100
AcDbSpline
 62
7
  6
BYLAYER
 70
0
 71
3
 72
9
 73
5
 74
0
 42
0.0000001
 43
0.0000001
 44
0.0000000001
 40
0.0
 40
0.0
 40
0.0
 40
0.0
 40
0.2402105482
 40
1.0
 40
1.0
 40
1.0
 40
1.0
 10
35.5802563124
 20
19.80920533
 30
0.0
 10
35.8977111909
 20
19.8688603663
 30
0.0
 10
37.2119310667
 20
20.1558883983
 30
0.0
 10
38.4921973006
 20
20.5901823731
 30
0.0
 10
39.4356544333
 20
20.9822769637
 30
0.0
  0
SPLINE
  5
323
100
AcDbEntity
  8
0
100
AcDbSpline
 62
7
  6
BYLAYER
 70
0
 71
3
 72
9
 73
5
 74
0
 42
0.0000001
 43
0.0000001
 44
0.0000000001
 40
0.0
 40
0.0
 40
0.0
 40
0.0
 40
0.2611807279
 40
1.0
 40
1.0
 40
1.0
 40
1.0
 10
35.5103594906
 20
19.7872149392
 30
0.0
 10
35.5162147891
 20
19.7897653071
 30
0.0
 10
35.5388655074
 20
19.7989746814
 30
0.0
 10
35.5625008368
 20
19.8058687817
 30
0.0
 10
35.5802563124
 20
19.80920533
 30
0.0
  0
SPLINE
  5
324
100
AcDbEntity
  8
0
100
AcDbSpline
 62
7
  6
BYLAYER
 70
0
 71
3
 72
11
 73
7
 74
0
 42
0.0000001
 43
0.0000001
 44
0.0000000001
 40
0.0
 40
0.0
 40
0.0
 40
0.0
 40
0.2703002521
 40
0.5333418271
 40
0.77905689
 40
1.0
 40
1.0
 40
1.0
 40
1.0
 10
35.1997836584
 20
19.4696548972
 30
0.0
 10
35.2186302388
 20
19.5057151992
 30
0.0
 10
35.2609058596
 20
19.5743272938
 30
0.0
 10
35.3361119695
 20
19.6648611756
 30
0.0
 10
35.4189688085
 20
19.7376697712
 30
0.0
 10
35.4798677809
 20
19.7739337927
 30
0.0
 10
35.5103594906
 20
19.7872149392
 30
0.0
  0
SPLINE
  5
325
100
AcDbEntity
  8
0
100
AcDbSpline
 62
7
  6
BYLAYER
 70
0
 71
3
 72
13
 73
9
 74
0
 42
0.0000001
 43
0.0000001
 44
0.0000000001
 40
0.0
 40
0.0
 40
0.0
 40
0.0
 40
0.1080961519
 40
0.2182387447
 40
0.3322532951
 40
0.4516803121
 40
0.7106596288
 40
1.0
 40
1.0
 40
1.0
 40
1.0
 10
7.2642420795
 20
33.3000088431
 30
0.0
 10
7.2998975641
 20
33.3206027016
 30
0.0
 10
7.3756174627
 20
33.3560515315
 30
0.0
 10
7.4981246269
 20
33.3898930995
 30
0.0
 10
7.6287042
 20
33.4045111496
 30
0.0
 10
7.8167362528
 20
33.3979535151
 30
0.0
 10
8.0665442975
 20
33.3377521491
 30
0.0
 10
8.2562819886
 20
33.2474107769
 30
0.0
 10
8.3517308199
 20
33.1923046151
 30
0.0
  0
SPLINE
  5
326
100
AcDbEntity
  8
0
100
AcDbSpline
 62
7
  6
BYLAYER
 70
0
 71
3
 72
22
 73
18
 74
0
 42
0.0000001
 43
0.0000001
 44
0.0000000001
 40
0.0
 40
0.0
 40
0.0
 40
0.0
 40
0.0623739225
 40
0.1287732928
 40
0.1983830174
 40
0.2703757297
 40
0.4173936088
 40
0.4904355776
 40
0.5617436159
 40
0.630359848
 40
0.695467735
 40
0.7564326853
 40
0.8128857704
 40
0.8648035566
 40
0.9125915059
 40
0.9571797606
 40
1.0
 40
1.0
 40
1.0
 40
1.0
 10
8.3517308199
 20
14.6372871859
 30
0.0
 10
8.4298402966
 20
14.5921916787
 30
0.0
 10
8.5850676043
 20
14.4883994133
 30
0.0
 10
8.8049588387
 20
14.3034472304
 30
0.0
 10
9.0151423359
 20
14.0876221854
 30
0.0
 10
9.2780521622
 20
13.7629684205
 30
0.0
 10
9.5005127078
 20
13.4011016848
 30
0.0
 10
9.674201558
 20
13.0168341905
 30
0.0
 10
9.7760550459
 20
12.7257425855
 30
0.0
 10
9.8474764111
 20
12.4375215213
 30
0.0
 10
9.8870340995
 20
12.1582392816
 30
0.0
 10
9.8937521782
 20
11.8937242665
 30
0.0
 10
9.8673921849
 20
11.6494436854
 30
0.0
 10
9.8082364708
 20
11.4303985088
 30
0.0
 10
9.7167910233
 20
11.2412530082
 30
0.0
 10
9.5944998882
 20
11.0865479778
 30
0.0
 10
9.4928367803
 20
11.0087656226
 30
0.0
 10
9.4392195603
 20
10.9777974434
 30
0.0
  0
SPLINE
  5
327
100
AcDbEntity
  8
0
100
AcDbSpline
 62
7
  6
BYLAYER
 70
0
 71
3
 72
15
 73
11
 74
0
 42
0.0000001
 43
0.0000001
 44
0.0000000001
 40
0.0
 40
0.0
 40
0.0
 40
0.0
 40
0.11854251
 40
0.2438493005
 40
0.3734503573
 40
0.5049832896
 40
0.6358424969
 40
0.7634591421
 40
0.8855917958
 40
1.0
 40
1.0
 40
1.0
 40
1.0
 10
30.3610140728
 20
58.2558048512
 30
0.0
 10
30.3697764173
 20
58.3329706994
 30
0.0
 10
30.3985802996
 20
58.4905938158
 30
0.0
 10
30.4697562105
 20
58.7251399738
 30
0.0
 10
30.5684988021
 20
58.958754638
 30
0.0
 10
30.6918163776
 20
59.1844934998
 30
0.0
 10
30.8360260543
 20
59.3959279844
 30
0.0
 10
30.9971042753
 20
59.58689194
 30
0.0
 10
31.1703003016
 20
59.7516610971
 30
0.0
 10
31.2950787272
 20
59.8444592257
 30
0.0
 10
31.3583485297
 20
59.8846452288
 30
0.0
  0
SPLINE
  5
328
100
AcDbEntity
  8
0
100
AcDbSpline
 62
7
  6
BYLAYER
 70
0
 71
3
 72
9
 73
5
 74
0
 42
0.0000001
 43
0.0000001
 44
0.0000000001
 40
0.0
 40
0.0
 40
0.0
 40
0.0
 40
0.2590254432
 40
1.0
 40
1.0
 40
1.0
 40
1.0
 10
29.2816494118
 20
49.0074696322
 30
0.0
 10
29.289031645
 20
49.030012301
 30
0.0
 10
29.3155189263
 20
49.1176762828
 30
0.0
 10
29.333612421
 20
49.2079615608
 30
0.0
 10
29.3412683985
 20
49.2753841549
 30
0.0
  0
SPLINE
  5
329
100
AcDbEntity
  8
0
100
AcDbSpline
 62
7
  6
BYLAYER
 70
0
 71
3
 72
11
 73
7
 74
0
 42
0.0000001
 43
0.0000001
 44
0.0000000001
 40
0.0
 40
0.0
 40
0.0
 40
0.0
 40
0.2286108634
 40
0.4797616516
 40
0.7414830007
 40
1.0
 40
1.0
 40
1.0
 40
1.0
 10
27.9046776989
 20
45.9182032031
 30
0.0
 10
27.9758129732
 20
45.9592729276
 30
0.0
 10
28.11421444
 20
46.0646988706
 30
0.0
 10
28.2929783187
 20
46.2638623338
 30
0.0
 10
28.4423996832
 20
46.4986784739
 30
0.0
 10
28.5166241394
 20
46.6713592914
 30
0.0
 10
28.5455314128
 20
46.7596316436
 30
0.0
  0
SPLINE
  5
32A
100
AcDbEntity
  8
0
100
AcDbSpline
 62
7
  6
BYLAYER
 70
0
 71
3
 72
9
 73
5
 74
0
 42
0.0000001
 43
0.0000001
 44
0.0000000001
 40
0.0
 40
0.0
 40
0.0
 40
0.0
 40
0.2439822202
 40
1.0
 40
1.0
 40
1.0
 40
1.0
 10
26.6702585211
 20
45.2116012978
 30
0.0
 10
26.6774638097
 20
45.2147396753
 30
0.0
 10
26.7067997683
 20
45.2280505521
 30
0.0
 10
26.7353427117
 20
45.2430913633
 30
0.0
 10
26.7564328015
 20
45.2552676596
 30
0.0
  0
SPLINE
  5
32B
100
AcDbEntity
  8
0
100
AcDbSpline
 62
7
  6
BYLAYER
 70
0
 71
3
 72
11
 73
7
 74
0
 42
0.0000001
 43
0.0000001
 44
0.0000000001
 40
0.0
 40
0.0
 40
0.0
 40
0.0
 40
0.2820717079
 40
0.539154693
 40
0.7754009889
 40
1.0
 40
1.0
 40
1.0
 40
1.0
 10
25.1432426751
 20
54.6407246906
 30
0.0
 10
25.1801831752
 20
54.6568147098
 30
0.0
 10
25.2534027743
 20
54.6821452306
 30
0.0
 10
25.3639426377
 20
54.6975628088
 30
0.0
 10
25.4670778382
 20
54.6872469589
 30
0.0
 10
25.5292669843
 20
54.6626132995
 30
0.0
 10
25.5570440399
 20
54.6465588662
 30
0.0
  0
SPLINE
  5
32C
100
AcDbEntity
  8
0
100
AcDbSpline
 62
7
  6
BYLAYER
 70
0
 71
3
 72
9
 73
5
 74
0
 42
0.0000001
 43
0.0000001
 44
0.0000000001
 40
0.0
 40
0.0
 40
0.0
 40
0.0
 40
0.2611488033
 40
1.0
 40
1.0
 40
1.0
 40
1.0
 10
24.9765165028
 20
54.5452366413
 30
0.0
 10
24.9901686977
 20
54.5549263069
 30
0.0
 10
25.0432712437
 20
54.5908326721
 30
0.0
 10
25.0998179686
 20
54.6218103727
 30
0.0
 10
25.1432426751
 20
54.6407246906
 30
0.0
  0
SPLINE
  5
32D
100
AcDbEntity
  8
0
100
AcDbSpline
 62
7
  6
BYLAYER
 70
0
 71
3
 72
11
 73
7
 74
0
 42
0.0000001
 43
0.0000001
 44
0.0000000001
 40
0.0
 40
0.0
 40
0.0
 40
0.0
 40
0.2567354687
 40
0.517346272
 40
0.7688978446
 40
1.0
 40
1.0
 40
1.0
 40
1.0
 10
23.0674082723
 20
53.0579032335
 30
0.0
 10
23.0812460632
 20
53.1001588397
 30
0.0
 10
23.1165529302
 20
53.1830013089
 30
0.0
 10
23.1871081293
 20
53.2965462909
 30
0.0
 10
23.2718407699
 20
53.3941566081
 30
0.0
 10
23.337331229
 20
53.4471612414
 30
0.0
 10
23.3711672602
 20
53.4685403785
 30
0.0
  0
SPLINE
  5
32E
100
AcDbEntity
  8
0
100
AcDbSpline
 62
7
  6
BYLAYER
 70
0
 71
3
 72
11
 73
7
 74
0
 42
0.0000001
 43
0.0000001
 44
0.0000000001
 40
0.0
 40
0.0
 40
0.0
 40
0.0
 40
0.2286108634
 40
0.4797616516
 40
0.7414830007
 40
1.0
 40
1.0
 40
1.0
 40
1.0
 10
21.230172746
 20
48.5678383539
 30
0.0
 10
21.3016065047
 20
48.6090804075
 30
0.0
 10
21.4405887056
 20
48.7149487189
 30
0.0
 10
21.6201026795
 20
48.9149478741
 30
0.0
 10
21.7701510176
 20
49.1507493053
 30
0.0
 10
21.8446869205
 20
49.3241546934
 30
0.0
 10
21.8737154891
 20
49.4127974373
 30
0.0
  0
SPLINE
  5
32F
100
AcDbEntity
  8
0
100
AcDbSpline
 62
7
  6
BYLAYER
 70
0
 71
3
 72
9
 73
5
 74
0
 42
0.0000001
 43
0.0000001
 44
0.0000000001
 40
0.0
 40
0.0
 40
0.0
 40
0.0
 40
0.2439822202
 40
1.0
 40
1.0
 40
1.0
 40
1.0
 10
20.0072401128
 20
47.8678681687
 30
0.0
 10
20.0144454013
 20
47.8710065461
 30
0.0
 10
20.0437813599
 20
47.8843174229
 30
0.0
 10
20.0723243033
 20
47.8993582341
 30
0.0
 10
20.0934143931
 20
47.9115345304
 30
0.0
  0
SPLINE
  5
330
100
AcDbEntity
  8
0
100
AcDbSpline
 62
7
  6
BYLAYER
 70
0
 71
3
 72
11
 73
7
 74
0
 42
0.0000001
 43
0.0000001
 44
0.0000000001
 40
0.0
 40
0.0
 40
0.0
 40
0.0
 40
0.2311017487
 40
0.4826528597
 40
0.7432641228
 40
1.0
 40
1.0
 40
1.0
 40
1.0
 10
24.0782769853
 20
53.0602996239
 30
0.0
 10
24.0444410136
 20
53.0389205244
 30
0.0
 10
23.9789506234
 20
52.9859160496
 30
0.0
 10
23.8942180318
 20
52.8883057742
 30
0.0
 10
23.8236628012
 20
52.7747607352
 30
0.0
 10
23.7883558105
 20
52.6919181526
 30
0.0
 10
23.7745179974
 20
52.649662479
 30
0.0
  0
SPLINE
  5
331
100
AcDbEntity
  8
0
100
AcDbSpline
 62
7
  6
BYLAYER
 70
0
 71
3
 72
9
 73
5
 74
0
 42
0.0000001
 43
0.0000001
 44
0.0000000001
 40
0.0
 40
0.0
 40
0.0
 40
0.0
 40
0.2389589088
 40
1.0
 40
1.0
 40
1.0
 40
1.0
 10
25.8503524003
 20
54.2324839361
 30
0.0
 10
25.836307175
 20
54.226366316
 30
0.0
 10
25.7782913663
 20
54.1990270369
 30
0.0
 10
25.7234138623
 20
54.1652352193
 30
0.0
 10
25.683626228
 20
54.1369958868
 30
0.0
  0
SPLINE
  5
332
100
AcDbEntity
  8
0
100
AcDbSpline
 62
7
  6
BYLAYER
 70
0
 71
3
 72
11
 73
7
 74
0
 42
0.0000001
 43
0.0000001
 44
0.0000000001
 40
0.0
 40
0.0
 40
0.0
 40
0.0
 40
0.2822123774
 40
0.5391661034
 40
0.7753844353
 40
1.0
 40
1.0
 40
1.0
 40
1.0
 10
27.3773682463
 20
44.8033605433
 30
0.0
 10
27.3404087706
 20
44.787262259
 30
0.0
 10
27.2671954102
 20
44.761894223
 30
0.0
 10
27.1566470579
 20
44.7465429415
 30
0.0
 10
27.0535318521
 20
44.7568380104
 30
0.0
 10
26.9913429199
 20
44.7814646853
 30
0.0
 10
26.963553192
 20
44.7975028655
 30
0.0
  0
SPLINE
  5
333
100
AcDbEntity
  8
0
100
AcDbSpline
 62
7
  6
BYLAYER
 70
0
 71
3
 72
9
 73
5
 74
0
 42
0.0000001
 43
0.0000001
 44
0.0000000001
 40
0.0
 40
0.0
 40
0.0
 40
0.0
 40
0.2560789398
 40
1.0
 40
1.0
 40
1.0
 40
1.0
 10
27.4635425266
 20
44.8470269051
 30
0.0
 10
27.4563989434
 20
44.84290258
 30
0.0
 10
27.428293583
 20
44.8271641869
 30
0.0
 10
27.3993375291
 20
44.812929612
 30
0.0
 10
27.3773682463
 20
44.8033605433
 30
0.0
  0
SPLINE
  5
334
100
AcDbEntity
  8
0
100
AcDbSpline
 62
7
  6
BYLAYER
 70
0
 71
3
 72
11
 73
7
 74
0
 42
0.0000001
 43
0.0000001
 44
0.0000000001
 40
0.0
 40
0.0
 40
0.0
 40
0.0
 40
0.2585169993
 40
0.5202383484
 40
0.7713891366
 40
1.0
 40
1.0
 40
1.0
 40
1.0
 10
29.252641138
 20
46.3513908891
 30
0.0
 10
29.2237338646
 20
46.2631185368
 30
0.0
 10
29.1495094083
 20
46.0904377193
 30
0.0
 10
29.0000880439
 20
45.8556215793
 30
0.0
 10
28.8213241652
 20
45.6564581161
 30
0.0
 10
28.6829226983
 20
45.5510321731
 30
0.0
 10
28.6117874241
 20
45.5099624485
 30
0.0
  0
SPLINE
  5
335
100
AcDbEntity
  8
0
100
AcDbSpline
 62
7
  6
BYLAYER
 70
0
 71
3
 72
9
 73
5
 74
0
 42
0.0000001
 43
0.0000001
 44
0.0000000001
 40
0.0
 40
0.0
 40
0.0
 40
0.0
 40
0.2405696896
 40
1.0
 40
1.0
 40
1.0
 40
1.0
 10
30.0481491327
 20
48.8651267853
 30
0.0
 10
30.0456614845
 20
48.8432192369
 30
0.0
 10
30.0326982959
 20
48.7524558655
 30
0.0
 10
30.0097239712
 20
48.6632478951
 30
0.0
 10
29.9880626984
 20
48.5971022064
 30
0.0
  0
SPLINE
  5
336
100
AcDbEntity
  8
0
100
AcDbSpline
 62
7
  6
BYLAYER
 70
0
 71
3
 72
15
 73
11
 74
0
 42
0.0000001
 43
0.0000001
 44
0.0000000001
 40
0.0
 40
0.0
 40
0.0
 40
0.0
 40
0.1126216836
 40
0.2336275203
 40
0.3608744785
 40
0.4919733865
 40
0.6241675411
 40
0.754626445
 40
0.8807483062
 40
1.0
 40
1.0
 40
1.0
 40
1.0
 10
32.1184893624
 20
59.5085536187
 30
0.0
 10
32.0525793567
 20
59.4705006863
 30
0.0
 10
31.9220746505
 20
59.3805228955
 30
0.0
 10
31.7405349537
 20
59.2168635299
 30
0.0
 10
31.5708441915
 20
59.0239973775
 30
0.0
 10
31.4182827903
 20
58.8080654839
 30
0.0
 10
31.2876384593
 20
58.5757279906
 30
0.0
 10
31.1829108481
 20
58.3342415242
 30
0.0
 10
31.1074890465
 20
58.0912055705
 30
0.0
 10
31.0772161404
 20
57.9276360815
 30
0.0
 10
31.068123798
 20
57.8475640966
 30
0.0
  0
SPLINE
  5
337
100
AcDbEntity
  8
0
100
AcDbSpline
 62
7
  6
BYLAYER
 70
0
 71
3
 72
9
 73
5
 74
0
 42
0.0000001
 43
0.0000001
 44
0.0000000001
 40
0.0
 40
0.0
 40
0.0
 40
0.0
 40
0.2439822202
 40
1.0
 40
1.0
 40
1.0
 40
1.0
 10
34.3086412655
 20
60.7639017338
 30
0.0
 10
34.2978333327
 20
60.7591941677
 30
0.0
 10
34.2538293948
 20
60.7392278525
 30
0.0
 10
34.2110149797
 20
60.7166666357
 30
0.0
 10
34.179379845
 20
60.6984021911
 30
0.0
  0
SPLINE
  5
338
100
AcDbEntity
  8
0
100
AcDbSpline
 62
7
  6
BYLAYER
 70
0
 71
3
 72
22
 73
18
 74
0
 42
0.0000001
 43
0.0000001
 44
0.0000000001
 40
0.0
 40
0.0
 40
0.0
 40
0.0
 40
0.0623739225
 40
0.1287732928
 40
0.1983830174
 40
0.2703757297
 40
0.4173936088
 40
0.4904355776
 40
0.5617436159
 40
0.630359848
 40
0.695467735
 40
0.7564326853
 40
0.8128857704
 40
0.8648035566
 40
0.9125915059
 40
0.9571797606
 40
1.0
 40
1.0
 40
1.0
 40
1.0
 10
8.3517308199
 20
11.0855016714
 30
0.0
 10
8.2736213432
 20
11.1305971786
 30
0.0
 10
8.1183940355
 20
11.2343894439
 30
0.0
 10
7.8985028011
 20
11.4193416268
 30
0.0
 10
7.6883193039
 20
11.6351666718
 30
0.0
 10
7.4254094776
 20
11.9598204367
 30
0.0
 10
7.202948932
 20
12.3216871725
 30
0.0
 10
7.0292600818
 20
12.7059546667
 30
0.0
 10
6.9274065939
 20
12.9970462717
 30
0.0
 10
6.8559852287
 20
13.2852673359
 30
0.0
 10
6.8164275403
 20
13.5645495757
 30
0.0
 10
6.8097094616
 20
13.8290645907
 30
0.0
 10
6.8360694548
 20
14.0733451718
 30
0.0
 10
6.8952251689
 20
14.2923903484
 30
0.0
 10
6.9866706165
 20
14.481535849
 30
0.0
 10
7.1089617516
 20
14.6362408795
 30
0.0
 10
7.2106248595
 20
14.7140232346
 30
0.0
 10
7.2642420795
 20
14.7449914139
 30
0.0
  0
SPLINE
  5
339
100
AcDbEntity
  8
0
100
AcDbSpline
 62
7
  6
BYLAYER
 70
0
 71
3
 72
11
 73
7
 74
0
 42
0.0000001
 43
0.0000001
 44
0.0000000001
 40
0.0
 40
0.0
 40
0.0
 40
0.0
 40
0.2246455841
 40
0.4608515126
 40
0.7177517175
 40
1.0
 40
1.0
 40
1.0
 40
1.0
 10
34.9293667293
 20
60.7726933199
 30
0.0
 10
34.8876791793
 20
60.7967586524
 30
0.0
 10
34.7943830601
 20
60.8336837396
 30
0.0
 10
34.639721385
 20
60.8491237247
 30
0.0
 10
34.4739008384
 20
60.8261163042
 30
0.0
 10
34.3640877166
 20
60.7880523128
 30
0.0
 10
34.3086412655
 20
60.7639017338
 30
0.0
  0
SPLINE
  5
33A
100
AcDbEntity
  8
0
100
AcDbSpline
 62
7
  6
BYLAYER
 70
0
 71
3
 72
10
 73
6
 74
0
 42
0.0000001
 43
0.0000001
 44
0.0000000001
 40
0.0
 40
0.0
 40
0.0
 40
0.0
 40
0.5264034358
 40
0.7670672782
 40
1.0
 40
1.0
 40
1.0
 40
1.0
 10
39.4735419357
 20
49.4920487413
 30
0.0
 10
39.4809344701
 20
49.4644590425
 30
0.0
 10
39.4976375843
 20
49.4250468284
 30
0.0
 10
39.5332587714
 20
49.3836656608
 30
0.0
 10
39.5541022397
 20
49.368185083
 30
0.0
 10
39.5650479031
 20
49.3618654206
 30
0.0
  0
SPLINE
  5
33B
100
AcDbEntity
  8
0
100
AcDbSpline
 62
7
  6
BYLAYER
 70
0
 71
3
 72
13
 73
9
 74
0
 42
0.0000001
 43
0.0000001
 44
0.0000000001
 40
0.0
 40
0.0
 40
0.0
 40
0.0
 40
0.1080961519
 40
0.2182387447
 40
0.3322532951
 40
0.4516803121
 40
0.7106596288
 40
1.0
 40
1.0
 40
1.0
 40
1.0
 10
9.4392195603
 20
10.9777974434
 30
0.0
 10
9.4035640757
 20
10.9572035849
 30
0.0
 10
9.327844177
 20
10.921754755
 30
0.0
 10
9.2053370129
 20
10.887913187
 30
0.0
 10
9.0747574398
 20
10.8732951369
 30
0.0
 10
8.886725387
 20
10.8798527714
 30
0.0
 10
8.6369173423
 20
10.9400541374
 30
0.0
 10
8.4471796512
 20
11.0303955096
 30
0.0
 10
8.3517308199
 20
11.0855016714
 30
0.0
  0
SPLINE
  5
33C
100
AcDbEntity
  8
0
100
AcDbSpline
 62
7
  6
BYLAYER
 70
0
 71
3
 72
11
 73
7
 74
0
 42
0.0000001
 43
0.0000001
 44
0.0000000001
 40
0.0
 40
0.0
 40
0.0
 40
0.0
 40
0.2760631793
 40
0.534292438
 40
0.7750487151
 40
1.0
 40
1.0
 40
1.0
 40
1.0
 10
38.686500745
 20
21.6589508496
 30
0.0
 10
38.455849298
 20
21.5257849695
 30
0.0
 10
37.9958278593
 20
21.2905129167
 30
0.0
 10
37.2925014246
 20
21.0308100764
 30
0.0
 10
36.6081047182
 20
20.8802218559
 30
0.0
 10
36.1570242619
 20
20.8537351242
 30
0.0
 10
35.9401275721
 20
20.8611257012
 30
0.0
  0
SPLINE
  5
33D
100
AcDbEntity
  8
0
100
AcDbSpline
 62
7
  6
BYLAYER
 70
0
 71
3
 72
11
 73
7
 74
0
 42
0.0000001
 43
0.0000001
 44
0.0000000001
 40
0.0
 40
0.0
 40
0.0
 40
0.0
 40
0.2316400065
 40
0.4942145089
 40
0.7599720437
 40
1.0
 40
1.0
 40
1.0
 40
1.0
 10
39.4358307279
 20
22.2691071928
 30
0.0
 10
39.4377026042
 20
22.2454820744
 30
0.0
 10
39.4312494904
 20
22.1942724246
 30
0.0
 10
39.4017663305
 20
22.121647134
 30
0.0
 10
39.3561886351
 20
22.0568175783
 30
0.0
 10
39.316215415
 20
22.0225146136
 30
0.0
 10
39.2949481092
 20
22.0102360022
 30
0.0
  0
SPLINE
  5
33E
100
AcDbEntity
  8
0
100
AcDbSpline
 62
7
  6
BYLAYER
 70
0
 71
3
 72
11
 73
7
 74
0
 42
0.0000001
 43
0.0000001
 44
0.0000000001
 40
0.0
 40
0.0
 40
0.0
 40
0.0
 40
0.2400279563
 40
0.5057854911
 40
0.7683599935
 40
1.0
 40
1.0
 40
1.0
 40
1.0
 10
39.5093548465
 20
22.8688752262
 30
0.0
 10
39.4934043672
 20
22.8596662676
 30
0.0
 10
39.4634244521
 20
22.8339390441
 30
0.0
 10
39.4292411805
 20
22.7853168773
 30
0.0
 10
39.4071288106
 20
22.7308479093
 30
0.0
 10
39.4022889753
 20
22.692440672
 30
0.0
 10
39.4036928825
 20
22.6747218332
 30
0.0
  0
SPLINE
  5
33F
100
AcDbEntity
  8
0
100
AcDbSpline
 62
7
  6
BYLAYER
 70
0
 71
3
 72
11
 73
7
 74
0
 42
0.0000001
 43
0.0000001
 44
0.0000000001
 40
0.0
 40
0.0
 40
0.0
 40
0.0
 40
0.2214719067
 40
0.4601806075
 40
0.7193694319
 40
1.0
 40
1.0
 40
1.0
 40
1.0
 10
42.4727382952
 20
23.6652925382
 30
0.0
 10
42.2681076502
 20
23.699777811
 30
0.0
 10
41.8334701829
 20
23.721048582
 30
0.0
 10
41.1636074887
 20
23.6189452137
 30
0.0
 10
40.4686094448
 20
23.3879018178
 30
0.0
 10
40.0148029052
 20
23.160694057
 30
0.0
 10
39.7870838237
 20
23.0292211688
 30
0.0
  0
SPLINE
  5
340
100
AcDbEntity
  8
0
100
AcDbSpline
 62
7
  6
BYLAYER
 70
0
 71
3
 72
11
 73
7
 74
0
 42
0.0000001
 43
0.0000001
 44
0.0000000001
 40
0.0
 40
0.0
 40
0.0
 40
0.0
 40
0.217826566
 40
0.4509352752
 40
0.7102830022
 40
1.0
 40
1.0
 40
1.0
 40
1.0
 10
42.4335586514
 20
22.8585008033
 30
0.0
 10
42.4665604103
 20
22.8394669746
 30
0.0
 10
42.5282812677
 20
22.7875693806
 30
0.0
 10
42.5939612104
 20
22.680131763
 30
0.0
 10
42.6330057822
 20
22.5477519433
 30
0.0
 10
42.6406756386
 20
22.4513934666
 30
0.0
 10
42.6406756386
 20
22.400722744
 30
0.0
  0
SPLINE
  5
341
100
AcDbEntity
  8
0
100
AcDbSpline
 62
7
  6
BYLAYER
 70
0
 71
3
 72
15
 73
11
 74
0
 42
0.0000001
 43
0.0000001
 44
0.0000000001
 40
0.0
 40
0.0
 40
0.0
 40
0.0
 40
0.1548840734
 40
0.3064662757
 40
0.4502275894
 40
0.5833405039
 40
0.7040541412
 40
0.8121103983
 40
0.9092598203
 40
1.0
 40
1.0
 40
1.0
 40
1.0
 10
39.4714217175
 20
17.1174487681
 30
0.0
 10
39.4584207779
 20
17.094930355
 30
0.0
 10
39.4352267853
 20
17.0488620372
 30
0.0
 10
39.408992113
 20
16.9777957495
 30
0.0
 10
39.3926843934
 20
16.9075250035
 30
0.0
 10
39.3867862512
 20
16.8407766102
 30
0.0
 10
39.3916960727
 20
16.7798844429
 30
0.0
 10
39.4072507924
 20
16.7269005715
 30
0.0
 10
39.4335848158
 20
16.6839744487
 30
0.0
 10
39.458239442
 20
16.6631939537
 30
0.0
 10
39.4714282704
 20
16.6555706976
 30
0.0
  0
SPLINE
  5
342
100
AcDbEntity
  8
0
100
AcDbSpline
 62
7
  6
BYLAYER
 70
0
 71
3
 72
20
 73
16
 74
0
 42
0.0000001
 43
0.0000001
 44
0.0000000001
 40
0.0
 40
0.0
 40
0.0
 40
0.0
 40
0.0607394637
 40
0.1251776803
 40
0.1926269438
 40
0.2624050869
 40
0.4056115422
 40
0.5479287788
 40
0.6825165074
 40
0.74516974
 40
0.8039836263
 40
0.858680614
 40
0.9092852693
 40
0.9561678051
 40
1.0
 40
1.0
 40
1.0
 40
1.0
 10
8.3517308199
 20
36.1113007564
 30
0.0
 10
8.2794712942
 20
36.1530188692
 30
0.0
 10
8.1357180314
 20
36.2481429673
 30
0.0
 10
7.9309099404
 20
36.4163003999
 30
0.0
 10
7.7338953
 20
36.6116154347
 30
0.0
 10
7.4844216985
 20
36.905644925
 30
0.0
 10
7.2151089662
 20
37.3154096951
 30
0.0
 10
6.9752680412
 20
37.8427002556
 30
0.0
 10
6.853272726
 20
38.2958351201
 30
0.0
 10
6.8131075428
 20
38.6458510306
 30
0.0
 10
6.8121008393
 20
38.8884112553
 30
0.0
 10
6.8395205304
 20
39.1128640966
 30
0.0
 10
6.89516297
 20
39.3153161093
 30
0.0
 10
6.9784668985
 20
39.4918172205
 30
0.0
 10
7.0536359744
 20
39.5926140213
 30
0.0
 10
7.0949614252
 20
39.6364057169
 30
0.0
  0
SPLINE
  5
343
100
AcDbEntity
  8
0
100
AcDbSpline
 62
7
  6
BYLAYER
 70
0
 71
3
 72
15
 73
11
 74
0
 42
0.0000001
 43
0.0000001
 44
0.0000000001
 40
0.0
 40
0.0
 40
0.0
 40
0.0
 40
0.0907449599
 40
0.1879023446
 40
0.29592207
 40
0.4166934073
 40
0.5498272175
 40
0.6934994188
 40
0.8449401093
 40
1.0
 40
1.0
 40
1.0
 40
1.0
 10
40.4398706101
 20
19.6609034536
 30
0.0
 10
40.464601074
 20
19.6466074577
 30
0.0
 10
40.5108926615
 20
19.6076993125
 30
0.0
 10
40.5601538245
 20
19.5271455681
 30
0.0
 10
40.5894712898
 20
19.4278402976
 30
0.0
 10
40.5985134762
 20
19.3136252607
 30
0.0
 10
40.587542435
 20
19.1884746343
 30
0.0
 10
40.55693276
 20
19.0567839316
 30
0.0
 10
40.507836874
 20
18.9235153595
 30
0.0
 10
40.4642859192
 20
18.8371495566
 30
0.0
 10
40.4398807058
 20
18.7948782523
 30
0.0
  0
SPLINE
  5
344
100
AcDbEntity
  8
0
100
AcDbSpline
 62
7
  6
BYLAYER
 70
0
 71
3
 72
22
 73
18
 74
0
 42
0.0000001
 43
0.0000001
 44
0.0000000001
 40
0.0
 40
0.0
 40
0.0
 40
0.0
 40
0.0623739225
 40
0.1287732928
 40
0.1983830174
 40
0.2703757297
 40
0.4173936088
 40
0.4904355776
 40
0.5617436159
 40
0.630359848
 40
0.695467735
 40
0.7564326853
 40
0.8128857704
 40
0.8648035566
 40
0.9125915059
 40
0.9571797606
 40
1.0
 40
1.0
 40
1.0
 40
1.0
 10
8.3517308199
 20
29.6405191006
 30
0.0
 10
8.2736213432
 20
29.6856146078
 30
0.0
 10
8.1183940355
 20
29.7894068732
 30
0.0
 10
7.8985028011
 20
29.9743590561
 30
0.0
 10
7.6883193039
 20
30.1901841011
 30
0.0
 10
7.4254094776
 20
30.514837866
 30
0.0
 10
7.202948932
 20
30.8767046017
 30
0.0
 10
7.0292600818
 20
31.260972096
 30
0.0
 10
6.9274065939
 20
31.552063701
 30
0.0
 10
6.8559852287
 20
31.8402847652
 30
0.0
 10
6.8164275403
 20
32.1195670049
 30
0.0
 10
6.8097094616
 20
32.38408202
 30
0.0
 10
6.8360694548
 20
32.6283626011
 30
0.0
 10
6.8952251689
 20
32.8474077777
 30
0.0
 10
6.9866706165
 20
33.0365532783
 30
0.0
 10
7.1089617516
 20
33.1912583087
 30
0.0
 10
7.2106248595
 20
33.2690406639
 30
0.0
 10
7.2642420795
 20
33.3000088431
 30
0.0
  0
SPLINE
  5
345
100
AcDbEntity
  8
0
100
AcDbSpline
 62
7
  6
BYLAYER
 70
0
 71
3
 72
11
 73
7
 74
0
 42
0.0000001
 43
0.0000001
 44
0.0000000001
 40
0.0
 40
0.0
 40
0.0
 40
0.0
 40
0.2245991064
 40
0.4608453959
 40
0.7179282465
 40
1.0
 40
1.0
 40
1.0
 40
1.0
 10
26.2641537596
 20
54.2383181024
 30
0.0
 10
26.2363766888
 20
54.2543725371
 30
0.0
 10
26.1741875406
 20
54.2790062298
 30
0.0
 10
26.0710523405
 20
54.2893220425
 30
0.0
 10
25.9605124859
 20
54.2739045082
 30
0.0
 10
25.8872929067
 20
54.2485739581
 30
0.0
 10
25.8503524003
 20
54.2324839361
 30
0.0
  0
SPLINE
  5
346
100
AcDbEntity
  8
0
100
AcDbSpline
 62
7
  6
BYLAYER
 70
0
 71
3
 72
9
 73
5
 74
0
 42
0.0000001
 43
0.0000001
 44
0.0000000001
 40
0.0
 40
0.0
 40
0.0
 40
0.0
 40
0.5134763971
 40
1.0
 40
1.0
 40
1.0
 40
1.0
 10
27.6174468353
 20
12.7173408224
 30
0.0
 10
27.6340803512
 20
12.6857546992
 30
0.0
 10
27.6740011835
 20
12.6277232627
 30
0.0
 10
27.7290137145
 20
12.5832820153
 30
0.0
 10
27.7583049239
 20
12.5663672516
 30
0.0
  0
SPLINE
  5
347
100
AcDbEntity
  8
0
100
AcDbSpline
 62
7
  6
BYLAYER
 70
0
 71
3
 72
13
 73
9
 74
0
 42
0.0000001
 43
0.0000001
 44
0.0000000001
 40
0.0
 40
0.0
 40
0.0
 40
0.0
 40
0.1080980614
 40
0.2182398577
 40
0.3322529278
 40
0.4516780983
 40
0.7106557923
 40
1.0
 40
1.0
 40
1.0
 40
1.0
 10
9.4392184329
 20
36.003598382
 30
0.0
 10
9.4035625122
 20
35.9830038562
 30
0.0
 10
9.3278436694
 20
35.9475517067
 30
0.0
 10
9.2053358277
 20
35.9137121738
 30
0.0
 10
9.0747579038
 20
35.8990958022
 30
0.0
 10
8.8867277924
 20
35.9056516809
 30
0.0
 10
8.6369194817
 20
35.965852655
 30
0.0
 10
8.4471808797
 20
36.0561938854
 30
0.0
 10
8.3517308199
 20
36.1113007564
 30
0.0
  0
SPLINE
  5
348
100
AcDbEntity
  8
0
100
AcDbSpline
 62
7
  6
BYLAYER
 70
0
 71
3
 72
15
 73
11
 74
0
 42
0.0000001
 43
0.0000001
 44
0.0000000001
 40
0.0
 40
0.0
 40
0.0
 40
0.0
 40
0.1561996961
 40
0.3046503928
 40
0.4435055307
 40
0.5720771125
 40
0.6904603708
 40
0.7997147881
 40
0.9019163321
 40
1.0
 40
1.0
 40
1.0
 40
1.0
 10
15.7375332932
 20
6.4499316066
 30
0.0
 10
15.7254552195
 20
6.407143811
 30
0.0
 10
15.705726958
 20
6.3225416555
 30
0.0
 10
15.6895541605
 20
6.1971076276
 30
0.0
 10
15.6880514186
 20
6.0784443147
 30
0.0
 10
15.7011663228
 20
5.9690377791
 30
0.0
 10
15.7288518925
 20
5.8710069756
 30
0.0
 10
15.7707423429
 20
5.7862688671
 30
0.0
 10
15.8263977837
 20
5.7170115518
 30
0.0
 10
15.8722648301
 20
5.6819964102
 30
0.0
 10
15.8964423479
 20
5.6680371147
 30
0.0
  0
SPLINE
  5
349
100
AcDbEntity
  8
0
100
AcDbSpline
 62
7
  6
BYLAYER
 70
0
 71
3
 72
9
 73
5
 74
0
 42
0.0000001
 43
0.0000001
 44
0.0000000001
 40
0.0
 40
0.0
 40
0.0
 40
0.0
 40
0.2546963771
 40
1.0
 40
1.0
 40
1.0
 40
1.0
 10
16.1201914163
 20
7.7732133489
 30
0.0
 10
16.1172627316
 20
7.76814069
 30
0.0
 10
16.1063633205
 20
7.7478879468
 30
0.0
 10
16.0978332192
 20
7.7263304803
 30
0.0
 10
16.093176877
 20
7.7098349178
 30
0.0
  0
SPLINE
  5
34A
100
AcDbEntity
  8
0
100
AcDbSpline
 62
7
  6
BYLAYER
 70
0
 71
3
 72
13
 73
9
 74
0
 42
0.0000001
 43
0.0000001
 44
0.0000000001
 40
0.0
 40
0.0
 40
0.0
 40
0.0
 40
0.0906926212
 40
0.1881363703
 40
0.2963655821
 40
0.4171918886
 40
0.6936695278
 40
1.0
 40
1.0
 40
1.0
 40
1.0
 10
16.2901907085
 20
7.8713619001
 30
0.0
 10
16.2845937488
 20
7.8745933987
 30
0.0
 10
16.2716993861
 20
7.8792350163
 30
0.0
 10
16.2503040811
 20
7.8798289453
 30
0.0
 10
16.2274781166
 20
7.874299354
 30
0.0
 10
16.1947788148
 20
7.8587259828
 30
0.0
 10
16.1558584575
 20
7.8259209927
 30
0.0
 10
16.1311060986
 20
7.7921182381
 30
0.0
 10
16.1201914163
 20
7.7732133489
 30
0.0
  0
SPLINE
  5
34B
100
AcDbEntity
  8
0
100
AcDbSpline
 62
7
  6
BYLAYER
 70
0
 71
3
 72
11
 73
7
 74
0
 42
0.0000001
 43
0.0000001
 44
0.0000000001
 40
0.0
 40
0.0
 40
0.0
 40
0.0
 40
0.2895971525
 40
0.5491569214
 40
0.7822931309
 40
1.0
 40
1.0
 40
1.0
 40
1.0
 10
10.1902161053
 20
23.782226166
 30
0.0
 10
10.1902161053
 20
23.7569015932
 30
0.0
 10
10.1940750326
 20
23.7087182872
 30
0.0
 10
10.2135689264
 20
23.6425116387
 30
0.0
 10
10.2464253781
 20
23.5887831076
 30
0.0
 10
10.277290482
 20
23.5628616373
 30
0.0
 10
10.2937757618
 20
23.5533390989
 30
0.0
  0
SPLINE
  5
34C
100
AcDbEntity
  8
0
100
AcDbSpline
 62
7
  6
BYLAYER
 70
0
 71
3
 72
11
 73
7
 74
0
 42
0.0000001
 43
0.0000001
 44
0.0000000001
 40
0.0
 40
0.0
 40
0.0
 40
0.0
 40
0.2659703972
 40
0.5253506999
 40
0.7717458151
 40
1.0
 40
1.0
 40
1.0
 40
1.0
 10
10.5008749837
 20
38.8947895321
 30
0.0
 10
10.4520382858
 20
38.8102014206
 30
0.0
 10
10.3649084902
 20
38.6375294752
 30
0.0
 10
10.2667610181
 20
38.3709519996
 30
0.0
 10
10.2056185189
 20
38.1076859569
 30
0.0
 10
10.1902161053
 20
37.9332230877
 30
0.0
 10
10.1902161053
 20
37.8494000217
 30
0.0
  0
SPLINE
  5
34D
100
AcDbEntity
  8
0
100
AcDbSpline
 62
7
  6
BYLAYER
 70
0
 71
3
 72
10
 73
6
 74
0
 42
0.0000001
 43
0.0000001
 44
0.0000000001
 40
0.0
 40
0.0
 40
0.0
 40
0.0
 40
0.2344362287
 40
0.4821173594
 40
1.0
 40
1.0
 40
1.0
 40
1.0
 10
12.0977835241
 20
41.4159457667
 30
0.0
 10
12.0577135645
 20
41.3871303438
 30
0.0
 10
11.9791469501
 20
41.3223894776
 30
0.0
 10
11.8324066024
 20
41.1710608553
 30
0.0
 10
11.7384737857
 20
41.038385436
 30
0.0
 10
11.6839598862
 20
40.9439640682
 30
0.0
  0
SPLINE
  5
34E
100
AcDbEntity
  8
0
100
AcDbSpline
 62
7
  6
BYLAYER
 70
0
 71
3
 72
9
 73
5
 74
0
 42
0.0000001
 43
0.0000001
 44
0.0000000001
 40
0.0
 40
0.0
 40
0.0
 40
0.0
 40
0.4662368376
 40
1.0
 40
1.0
 40
1.0
 40
1.0
 10
12.4405458743
 20
41.5642710312
 30
0.0
 10
12.3825376867
 20
41.556864293
 30
0.0
 10
12.2607271962
 20
41.5196119713
 30
0.0
 10
12.1521372671
 20
41.4550330557
 30
0.0
 10
12.0977835241
 20
41.4159457667
 30
0.0
  0
SPLINE
  5
34F
100
AcDbEntity
  8
0
100
AcDbSpline
 62
7
  6
BYLAYER
 70
0
 71
3
 72
9
 73
5
 74
0
 42
0.0000001
 43
0.0000001
 44
0.0000000001
 40
0.0
 40
0.0
 40
0.0
 40
0.0
 40
0.4812481967
 40
1.0
 40
1.0
 40
1.0
 40
1.0
 10
13.3952027616
 20
41.6735786133
 30
0.0
 10
13.3892853786
 20
41.6769951136
 30
0.0
 10
13.3755696484
 20
41.6818241964
 30
0.0
 10
13.3611291095
 20
41.6818151105
 30
0.0
 10
13.3538230874
 20
41.6808822457
 30
0.0
  0
SPLINE
  5
350
100
AcDbEntity
  8
0
100
AcDbSpline
 62
7
  6
BYLAYER
 70
0
 71
3
 72
9
 73
5
 74
0
 42
0.0000001
 43
0.0000001
 44
0.0000000001
 40
0.0
 40
0.0
 40
0.0
 40
0.0
 40
0.5117604729
 40
1.0
 40
1.0
 40
1.0
 40
1.0
 10
28.0228549107
 20
60.3376734292
 30
0.0
 10
27.0952682237
 20
59.4216347626
 30
0.0
 10
25.2096691313
 20
57.7037748271
 30
0.0
 10
23.1776043494
 20
56.1603221139
 30
0.0
 10
22.1501929885
 20
55.4593692256
 30
0.0
  0
SPLINE
  5
351
100
AcDbEntity
  8
0
100
AcDbSpline
 62
7
  6
BYLAYER
 70
0
 71
3
 72
9
 73
5
 74
0
 42
0.0000001
 43
0.0000001
 44
0.0000000001
 40
0.0
 40
0.0
 40
0.0
 40
0.0
 40
0.4850419044
 40
1.0
 40
1.0
 40
1.0
 40
1.0
 10
29.0787691474
 20
61.1801722582
 30
0.0
 10
28.8927773483
 20
61.0650346758
 30
0.0
 10
28.5246719054
 20
60.8023621467
 30
0.0
 10
28.1880968009
 20
60.5008581352
 30
0.0
 10
28.0228549107
 20
60.3376734292
 30
0.0
  0
SPLINE
  5
352
100
AcDbEntity
  8
0
100
AcDbSpline
 62
7
  6
BYLAYER
 70
0
 71
3
 72
13
 73
9
 74
0
 42
0.0000001
 43
0.0000001
 44
0.0000000001
 40
0.0
 40
0.0
 40
0.0
 40
0.0
 40
0.289307399
 40
0.5483047393
 40
0.6677422423
 40
0.7818304955
 40
0.8920365047
 40
1.0
 40
1.0
 40
1.0
 40
1.0
 10
10.1902161053
 20
9.4699321297
 30
0.0
 10
10.1902161053
 20
9.3939305156
 30
0.0
 10
10.2017180043
 20
9.2494648985
 30
0.0
 10
10.2518453037
 20
9.0794897736
 30
0.0
 10
10.3127825647
 20
8.9648994729
 30
0.0
 10
10.3665850805
 20
8.8919308862
 30
0.0
 10
10.4290719185
 20
8.830465751
 30
0.0
 10
10.4763127568
 20
8.7974398658
 30
0.0
 10
10.5008749837
 20
8.7832584521
 30
0.0
  0
SPLINE
  5
353
100
AcDbEntity
  8
0
100
AcDbSpline
 62
7
  6
BYLAYER
 70
0
 71
3
 72
11
 73
7
 74
0
 42
0.0000001
 43
0.0000001
 44
0.0000000001
 40
0.0
 40
0.0
 40
0.0
 40
0.0
 40
0.2758261391
 40
0.5330049213
 40
0.7732883739
 40
1.0
 40
1.0
 40
1.0
 40
1.0
 10
16.1816753616
 20
51.9239494832
 30
0.0
 10
16.0712821508
 20
51.8758659738
 30
0.0
 10
15.8522533211
 20
51.7951870273
 30
0.0
 10
15.5212963609
 20
51.7227576637
 30
0.0
 10
15.2042379133
 20
51.7047973809
 30
0.0
 10
15.0004864381
 20
51.7303361603
 30
0.0
 10
14.9040600867
 20
51.7526291945
 30
0.0
  0
SPLINE
  5
354
100
AcDbEntity
  8
0
100
AcDbSpline
 62
7
  6
BYLAYER
 70
0
 71
3
 72
9
 73
5
 74
0
 42
0.0000001
 43
0.0000001
 44
0.0000000001
 40
0.0
 40
0.0
 40
0.0
 40
0.0
 40
0.2560789398
 40
1.0
 40
1.0
 40
1.0
 40
1.0
 10
16.5263724831
 20
52.0986149303
 30
0.0
 10
16.4977981502
 20
52.08211763
 30
0.0
 10
16.3853767085
 20
52.0191640575
 30
0.0
 10
16.2695524929
 20
51.962225758
 30
0.0
 10
16.1816753616
 20
51.9239494832
 30
0.0
  0
SPLINE
  5
355
100
AcDbEntity
  8
0
100
AcDbSpline
 62
7
  6
BYLAYER
 70
0
 71
3
 72
11
 73
7
 74
0
 42
0.0000001
 43
0.0000001
 44
0.0000000001
 40
0.0
 40
0.0
 40
0.0
 40
0.0
 40
0.255260279
 40
0.5173962588
 40
0.7703845626
 40
1.0
 40
1.0
 40
1.0
 40
1.0
 10
10.422846146
 20
15.2368187434
 30
0.0
 10
10.3878962525
 20
15.201951744
 30
0.0
 10
10.3241466739
 20
15.1239420562
 30
0.0
 10
10.250904397
 20
14.9933759853
 30
0.0
 10
10.2031178348
 20
14.856727642
 30
0.0
 10
10.1902161053
 20
14.7632881314
 30
0.0
 10
10.1902161053
 20
14.7188798804
 30
0.0
  0
SPLINE
  5
356
100
AcDbEntity
  8
0
100
AcDbSpline
 62
7
  6
BYLAYER
 70
0
 71
3
 72
9
 73
5
 74
0
 42
0.0000001
 43
0.0000001
 44
0.0000000001
 40
0.0
 40
0.0
 40
0.0
 40
0.0
 40
0.2367348574
 40
1.0
 40
1.0
 40
1.0
 40
1.0
 10
12.646199781
 20
17.4024977269
 30
0.0
 10
12.6251953333
 20
17.3903708757
 30
0.0
 10
12.5384558814
 20
17.3357213644
 30
0.0
 10
12.4597156631
 20
17.2688572179
 30
0.0
 10
12.4043560254
 20
17.2136288821
 30
0.0
  0
SPLINE
  5
357
100
AcDbEntity
  8
0
100
AcDbSpline
 62
7
  6
BYLAYER
 70
0
 71
3
 72
11
 73
7
 74
0
 42
0.0000001
 43
0.0000001
 44
0.0000000001
 40
0.0
 40
0.0
 40
0.0
 40
0.0
 40
0.2669418556
 40
0.522578569
 40
0.7668434891
 40
1.0
 40
1.0
 40
1.0
 40
1.0
 10
42.2869947081
 20
21.4517523962
 30
0.0
 10
41.7044997888
 20
21.1186961847
 30
0.0
 10
40.5413101372
 20
20.5055170329
 30
0.0
 10
38.7709655373
 20
19.7380288864
 30
0.0
 10
37.0231854273
 20
19.1475790765
 30
0.0
 10
35.8538454018
 20
18.8682198631
 30
0.0
 10
35.2775879527
 20
18.7614457389
 30
0.0
  0
SPLINE
  5
358
100
AcDbEntity
  8
0
100
AcDbSpline
 62
7
  6
BYLAYER
 70
0
 71
3
 72
13
 73
9
 74
0
 42
0.0000001
 43
0.0000001
 44
0.0000000001
 40
0.0
 40
0.0
 40
0.0
 40
0.0
 40
0.1141798263
 40
0.2375790108
 40
0.5000175407
 40
0.76244135
 40
0.8858275805
 40
1.0
 40
1.0
 40
1.0
 40
1.0
 10
42.6406756386
 20
22.0642238394
 30
0.0
 10
42.6406756386
 20
22.0362889641
 30
0.0
 10
42.63552579
 20
21.9781086633
 30
0.0
 10
42.6077729385
 20
21.8586643443
 30
0.0
 10
42.5431121138
 20
21.7121985778
 30
0.0
 10
42.4485735293
 20
21.5829905821
 30
0.0
 10
42.3589958374
 20
21.4992595925
 30
0.0
 10
42.3111854865
 20
21.4657188652
 30
0.0
 10
42.2869947081
 20
21.4517523962
 30
0.0
  0
SPLINE
  5
359
100
AcDbEntity
  8
0
100
AcDbSpline
 62
7
  6
BYLAYER
 70
0
 71
3
 72
9
 73
5
 74
0
 42
0.0000001
 43
0.0000001
 44
0.0000000001
 40
0.0
 40
0.0
 40
0.0
 40
0.0
 40
0.5187536515
 40
1.0
 40
1.0
 40
1.0
 40
1.0
 10
16.093176877
 20
46.4256085279
 30
0.0
 10
16.0960219447
 20
46.4188147699
 30
0.0
 10
16.1032341762
 20
46.4063041225
 30
0.0
 10
16.1142740029
 20
46.3968401317
 30
0.0
 10
16.1201914163
 20
46.3934236137
 30
0.0
  0
SPLINE
  5
35A
100
AcDbEntity
  8
0
100
AcDbSpline
 62
7
  6
BYLAYER
 70
0
 71
3
 72
12
 73
8
 74
0
 42
0.0000001
 43
0.0000001
 44
0.0000000001
 40
0.0
 40
0.0
 40
0.0
 40
0.0
 40
0.2839898616
 40
0.5525844431
 40
0.6771366372
 40
0.7936518218
 40
1.0
 40
1.0
 40
1.0
 40
1.0
 10
15.8964423478
 20
48.2402382203
 30
0.0
 10
15.848745023
 20
48.1576235717
 30
0.0
 10
15.7689277152
 20
47.9889720194
 30
0.0
 10
15.707838899
 20
47.7684055134
 30
0.0
 10
15.6885109682
 20
47.5978815978
 30
0.0
 10
15.6890600691
 20
47.4475324306
 30
0.0
 10
15.7107589929
 20
47.3387870008
 30
0.0
 10
15.7375332932
 20
47.2748524527
 30
0.0
  0
SPLINE
  5
35B
100
AcDbEntity
  8
0
100
AcDbSpline
 62
7
  6
BYLAYER
 70
0
 71
3
 72
10
 73
6
 74
0
 42
0.0000001
 43
0.0000001
 44
0.0000000001
 40
0.0
 40
0.0
 40
0.0
 40
0.0
 40
0.2344362287
 40
0.4821173594
 40
1.0
 40
1.0
 40
1.0
 40
1.0
 10
16.9022891267
 20
49.7376397703
 30
0.0
 10
16.862219167
 20
49.7088243474
 30
0.0
 10
16.7836525527
 20
49.6440834812
 30
0.0
 10
16.6369122049
 20
49.4927548589
 30
0.0
 10
16.5429793883
 20
49.3600794396
 30
0.0
 10
16.4884654887
 20
49.2656580718
 30
0.0
  0
SPLINE
  5
35C
100
AcDbEntity
  8
0
100
AcDbSpline
 62
7
  6
BYLAYER
 70
0
 71
3
 72
9
 73
5
 74
0
 42
0.0000001
 43
0.0000001
 44
0.0000000001
 40
0.0
 40
0.0
 40
0.0
 40
0.0
 40
0.2446435573
 40
1.0
 40
1.0
 40
1.0
 40
1.0
 10
16.988463407
 20
49.7934783025
 30
0.0
 10
16.9812098973
 20
49.7892905117
 30
0.0
 10
16.9517894988
 20
49.7717778385
 30
0.0
 10
16.923284401
 20
49.7527380563
 30
0.0
 10
16.9022891267
 20
49.7376397703
 30
0.0
  0
SPLINE
  5
35D
100
AcDbEntity
  8
0
100
AcDbSpline
 62
7
  6
BYLAYER
 70
0
 71
3
 72
9
 73
5
 74
0
 42
0.0000001
 43
0.0000001
 44
0.0000000001
 40
0.0
 40
0.0
 40
0.0
 40
0.0
 40
0.2439822202
 40
1.0
 40
1.0
 40
1.0
 40
1.0
 10
17.4073213092
 20
50.0292184963
 30
0.0
 10
17.4001160206
 20
50.0260801189
 30
0.0
 10
17.370780062
 20
50.0127692421
 30
0.0
 10
17.3422371187
 20
49.9977284309
 30
0.0
 10
17.3211470288
 20
49.9855521346
 30
0.0
  0
SPLINE
  5
35E
100
AcDbEntity
  8
0
100
AcDbSpline
 62
7
  6
BYLAYER
 70
0
 71
3
 72
11
 73
7
 74
0
 42
0.0000001
 43
0.0000001
 44
0.0000000001
 40
0.0
 40
0.0
 40
0.0
 40
0.0
 40
0.2248651712
 40
0.4630596442
 40
0.7203973574
 40
1.0
 40
1.0
 40
1.0
 40
1.0
 10
17.7780293098
 20
50.056004996
 30
0.0
 10
17.7515201373
 20
50.0666142512
 30
0.0
 10
17.6939438369
 20
50.0815222174
 30
0.0
 10
17.6018281473
 20
50.0836747884
 30
0.0
 10
17.5043794459
 20
50.0664094194
 30
0.0
 10
17.4398715246
 20
50.0433962576
 30
0.0
 10
17.4073213092
 20
50.0292184963
 30
0.0
  0
SPLINE
  5
35F
100
AcDbEntity
  8
0
100
AcDbSpline
 62
7
  6
BYLAYER
 70
0
 71
3
 72
13
 73
9
 74
0
 42
0.0000001
 43
0.0000001
 44
0.0000000001
 40
0.0
 40
0.0
 40
0.0
 40
0.0
 40
0.1080961519
 40
0.2182387447
 40
0.3322532951
 40
0.4516803121
 40
0.7106596288
 40
1.0
 40
1.0
 40
1.0
 40
1.0
 10
9.4392195603
 20
29.5328148727
 30
0.0
 10
9.4035640757
 20
29.5122210142
 30
0.0
 10
9.327844177
 20
29.4767721843
 30
0.0
 10
9.2053370129
 20
29.4429306162
 30
0.0
 10
9.0747574398
 20
29.4283125662
 30
0.0
 10
8.886725387
 20
29.4348702007
 30
0.0
 10
8.6369173423
 20
29.4950715666
 30
0.0
 10
8.4471796512
 20
29.5854129388
 30
0.0
 10
8.3517308199
 20
29.6405191006
 30
0.0
  0
SPLINE
  5
360
100
AcDbEntity
  8
0
100
AcDbSpline
 62
7
  6
BYLAYER
 70
0
 71
3
 72
11
 73
7
 74
0
 42
0.0000001
 43
0.0000001
 44
0.0000000001
 40
0.0
 40
0.0
 40
0.0
 40
0.0
 40
0.2822123774
 40
0.5391661034
 40
0.7753844353
 40
1.0
 40
1.0
 40
1.0
 40
1.0
 10
20.7143498379
 20
47.4596274141
 30
0.0
 10
20.6773903623
 20
47.4435291298
 30
0.0
 10
20.6041770019
 20
47.4181610938
 30
0.0
 10
20.4936286495
 20
47.4028098123
 30
0.0
 10
20.3905134438
 20
47.4131048812
 30
0.0
 10
20.3283245115
 20
47.4377315561
 30
0.0
 10
20.3005347836
 20
47.4537697364
 30
0.0
  0
SPLINE
  5
361
100
AcDbEntity
  8
0
100
AcDbSpline
 62
7
  6
BYLAYER
 70
0
 71
3
 72
9
 73
5
 74
0
 42
0.0000001
 43
0.0000001
 44
0.0000000001
 40
0.0
 40
0.0
 40
0.0
 40
0.0
 40
0.2560789398
 40
1.0
 40
1.0
 40
1.0
 40
1.0
 10
20.8005241183
 20
47.5032937759
 30
0.0
 10
20.793380535
 20
47.4991694508
 30
0.0
 10
20.7652751746
 20
47.4834310577
 30
0.0
 10
20.7363191207
 20
47.4691964828
 30
0.0
 10
20.7143498379
 20
47.4596274141
 30
0.0
  0
SPLINE
  5
362
100
AcDbEntity
  8
0
100
AcDbSpline
 62
7
  6
BYLAYER
 70
0
 71
3
 72
11
 73
7
 74
0
 42
0.0000001
 43
0.0000001
 44
0.0000000001
 40
0.0
 40
0.0
 40
0.0
 40
0.0
 40
0.2585169993
 40
0.5202383484
 40
0.7713891366
 40
1.0
 40
1.0
 40
1.0
 40
1.0
 10
22.5808252143
 20
49.0045566829
 30
0.0
 10
22.5517966457
 20
48.9159139389
 30
0.0
 10
22.4772607427
 20
48.7425085508
 30
0.0
 10
22.3272124047
 20
48.5067071196
 30
0.0
 10
22.1476984307
 20
48.3067079644
 30
0.0
 10
22.0087162298
 20
48.200839653
 30
0.0
 10
21.9372824712
 20
48.1595975994
 30
0.0
  0
ENDSEC
  0
SECTION
  2
OBJECTS
  0
DICTIONARY
  5
C
100
AcDbDictionary
280
0
281
1
  3
ACAD_GROUP
350
D
  3
ACAD_MLINESTYLE
350
17
  3
ACAD_LAYOUT
350
1A
  3
ACAD_PLOTSETTINGS
350
19
  3
ACAD_PLOTSTYLENAME
350
E
  0
DICTIONARY
  5
D
102
{ACAD_REACTORS
330
C
102
}
100
AcDbDictionary
280
0
281
1
  0
ACDBDICTIONARYWDFLT
  5
E
102
{ACAD_REACTORS
330
C
102
}
100
AcDbDictionary
281
1
  3
Normal
350
F
100
AcDbDictionaryWithDefault
340
F
  0
DICTIONARY
  5
17
102
{ACAD_REACTORS
330
C
102
}
100
AcDbDictionary
280
0
281
1
  3
Standard
350
18
  0
DICTIONARY
  5
19
102
{ACAD_REACTORS
330
C
102
}
100
AcDbDictionary
281
1
  0
DICTIONARY
  5
1A
102
{ACAD_REACTORS
330
C
102
}
100
AcDbDictionary
281
1
  3
Model
350
363
  3
Layout1
350
364
  0
ACDBPLACEHOLDER
  5
F
102
{ACAD_REACTORS
330
E
102
}
  0
MLINESTYLE
  5
18
102
{ACAD_REACTORS
330
17
102
}
100
AcDbMlineStyle
  2
STANDARD
 70
0
  3

 62
256
 51
90.0
 52
90.0
 71
2
 49
0.5
 62
256
  6
BYLAYER
 49
-0.5
 62
256
  6
BYLAYER
  0
LAYOUT
  5
363
102
{ACAD_REACTORS
330
1A
102
}
100
AcDbPlotSettings
  1

  2
none_device
  4

  6

 40
0.0
 41
0.0
 42
0.0
 43
0.0
 44
210.0
 45
297.0
 46
0.0
 47
0.0
 48
0.0
 49
0.0
140
0.0
141
0.0
142
1.0
143
1.0
 70
1024
 72
1
 73
0
 74
0
  7

 75
0
147
1.0
148
0.0
149
0.0
100
AcDbLayout
  1
Model
 70
0
 71
0
 10
0.0
 20
0.0
 11
210.0
 21
297.0
 12
0.0
 22
0.0
 32
0.0
 14
0.0
 24
0.0
 34
0.0
 15
0.0
 25
0.0
 35
0.0
146
0.0
 13
0.0
 23
0.0
 33
0.0
 16
1.0
 26
0.0
 36
0.0
 17
0.0
 27
1.0
 37
0.0
 76
0
330
210
345
0
346
0
  0
LAYOUT
  5
364
102
{ACAD_REACTORS
330
1A
102
}
100
AcDbPlotSettings
  1

  2
none_device
  4

  6

 40
0.0
 41
0.0
 42
0.0
 43
0.0
 44
210.0
 45
297.0
 46
0.0
 47
0.0
 48
0.0
 49
0.0
140
0.0
141
0.0
142
1.0
143
1.0
 70
0
 72
1
 73
0
 74
0
  7

 75
0
147
1.0
148
0.0
149
0.0
100
AcDbLayout
  1
Layout1
 70
0
 71
1
 10
0.0
 20
0.0
 11
210.0
 21
297.0
 12
0.0
 22
0.0
 32
0.0
 14
0.0
 24
0.0
 34
0.0
 15
0.0
 25
0.0
 35
0.0
146
0.0
 13
0.0
 23
0.0
 33
0.0
 16
1.0
 26
0.0
 36
0.0
 17
0.0
 27
1.0
 37
0.0
 76
0
330
211
345
0
346
0
  0
ENDSEC
  0
EOF
