999
DXF file: C:\Users\sesa63760\Dev\_Creo\CAD\MCADID0000847_3D-CAD\drw0001_6.dxf
999
Pro/ENGINEER 2019471 by Parametric Technology Corporation
  0
SECTION
  2
HEADER
  9
$ACADVER
  1
AC1024
  9
$DWGCODEPAGE
  3
ANSI_1252
  9
$EXTMAX
 10
315.2634579131
 20
445.8726047628
 30
0.0
  9
$EXTMIN
 10
0.0
 20
0.0
 30
0.0
  9
$LIMMIN
 10
0.0
 20
0.0
  9
$LIMMAX
 10
315.2634579131
 20
445.8726047628
  9
$VIEWCTR
 10
157.6317289565
 20
222.9363023814
  9
$VIEWSIZE
 40
445.8726047628
  9
$CLAYER
  8
0
  9
$LTSCALE
 40
29.0642883105
  9
$CELTYPE
  6
BYLAYER
  9
$DIMSCALE
 40
1.0
  9
$DIMASZ
 40
3.7531364037
  9
$DIMEXO
 40
1.0
  9
$DIMDLI
 40
20.0807810145
  9
$DIMEXE
 40
1.0
  9
$DIMCEN
 40
4.7559744508
  9
$DIMLFAC
 40
1.0
  9
$DIMBLK
  1
_FILLED
  9
$DIMALT
 70
0
  9
$DIMALTF
 40
0.0393700787
  9
$DIMTXT
 40
5.2543909652
  9
$DIMTOL
 70
1
  9
$DIMLIM
 70
0
  9
$DIMTFAC
 40
1.0
  9
$DIMTP
 40
0.01
  9
$DIMTM
 40
0.01
  9
$DIMGAP
 40
0.625
  9
$DIMDSEP
 70
46
  9
$AUNITS
 70
0
  9
$PDMODE
 70
3
  9
$PDSIZE
 40
0.3125
  9
$HANDSEED
  5
2F1
  9
$TILEMODE
 70
1
  9
$MEASUREMENT
 70
1
  9
$INSUNITS
 70
4
  0
ENDSEC
  0
SECTION
  2
CLASSES
  0
CLASS
  1
ACDBDICTIONARYWDFLT
  2
AcDbDictionaryWithDefault
  3
AutoCAD 2000
 90
0
 91
1
280
0
281
0
  0
CLASS
  1
ACDBPLACEHOLDER
  2
AcDbPlaceHolder
  3
AutoCAD 2000
 90
0
 91
1
280
0
281
0
  0
CLASS
  1
LAYOUT
  2
AcDbLayout
  3
AutoCAD 2000
 90
0
 91
0
280
0
281
0
  0
ENDSEC
  0
SECTION
  2
TABLES
  0
TABLE
  2
VPORT
  5
8
100
AcDbSymbolTable
 70
2
  0
VPORT
  5
1F4
100
AcDbSymbolTableRecord
100
AcDbViewportTableRecord
  2
*ACTIVE
 70
0
 10
0.0
 20
0.0
 11
1.0
 21
1.0
 12
157.6317289565
 22
222.9363023814
 13
0.0
 23
0.0
 14
1.0
 24
1.0
 15
0.0
 25
0.0
 16
0.0
 26
0.0
 36
1.0
 17
0.0
 27
0.0
 37
0.0
 40
445.8726047628
 41
0.7070707071
 42
50.0
 43
0.0
 44
0.0
 50
0.0
 51
0.0
 71
0
 72
100
 73
1
 74
1
 75
0
 76
0
 77
0
 78
0
  0
ENDTAB
  0
TABLE
  2
LTYPE
  5
5
100
AcDbSymbolTable
 70
6
  0
LTYPE
  5
14
100
AcDbSymbolTableRecord
100
AcDbLinetypeTableRecord
  2
BYBLOCK
 70
0
  3

 72
65
 73
0
 40
0.0
  0
LTYPE
  5
15
100
AcDbSymbolTableRecord
100
AcDbLinetypeTableRecord
  2
BYLAYER
 70
0
  3

 72
65
 73
0
 40
0.0
  0
LTYPE
  5
16
100
AcDbSymbolTableRecord
100
AcDbLinetypeTableRecord
  2
CONTINUOUS
 70
64
  3
Solid line
 72
65
 73
0
 40
0.0
  0
LTYPE
  5
1F5
100
AcDbSymbolTableRecord
100
AcDbLinetypeTableRecord
  2
CENTER
 70
64
  3
____ _ ____ _ ____ _ ____ _ ____ _ ____ _ ____
 72
65
 73
4
 40
0.6
 49
0.375
 74
0
 49
-0.075
 74
0
 49
0.075
 74
0
 49
-0.075
 74
0
  0
LTYPE
  5
1F6
100
AcDbSymbolTableRecord
100
AcDbLinetypeTableRecord
  2
HIDDEN
 70
64
  3
- - - - - - - - - - - - - - - - - - - -
 72
65
 73
2
 40
0.2
 49
0.1
 74
0
 49
-0.1
 74
0
  0
LTYPE
  5
1F7
100
AcDbSymbolTableRecord
100
AcDbLinetypeTableRecord
  2
PHANTOM
 70
64
  3
_____ _ _ _____ _ _ _____ _ _ _____
 72
65
 73
6
 40
0.8
 49
0.45
 74
0
 49
-0.05
 74
0
 49
0.1
 74
0
 49
-0.05
 74
0
 49
0.1
 74
0
 49
-0.05
 74
0
  0
LTYPE
  5
1F8
100
AcDbSymbolTableRecord
100
AcDbLinetypeTableRecord
  2
DOT
 70
64
  3
. . . . . . . . . . . . . . . . . . . .
 72
65
 73
2
 40
0.2
 49
0.1
 74
0
 49
-0.1
 74
0
  0
LTYPE
  5
1F9
100
AcDbSymbolTableRecord
100
AcDbLinetypeTableRecord
  2
DASHED
 70
64
  3
- - - - - - - - - - - - - - - - - - - -
 72
65
 73
2
 40
0.2
 49
0.1
 74
0
 49
-0.1
 74
0
  0
ENDTAB
  0
TABLE
  2
LAYER
  5
2
100
AcDbSymbolTable
 70
36
  0
LAYER
  5
10
100
AcDbSymbolTableRecord
100
AcDbLayerTableRecord
  2
0
 70
0
 62
7
  6
CONTINUOUS
370
-3
390
F
  0
LAYER
  5
1FA
100
AcDbSymbolTableRecord
100
AcDbLayerTableRecord
  2
DEFAULT_1
 70
0
 62
7
  6
CENTER
370
-3
390
F
  0
LAYER
  5
1FB
100
AcDbSymbolTableRecord
100
AcDbLayerTableRecord
  2
DEFAULT_2
 70
0
 62
8
  6
HIDDEN
370
-3
390
F
  0
LAYER
  5
1FC
100
AcDbSymbolTableRecord
100
AcDbLayerTableRecord
  2
DEFAULT_3
 70
0
 62
7
  6
PHANTOM
370
-3
390
F
  0
LAYER
  5
1FD
100
AcDbSymbolTableRecord
100
AcDbLayerTableRecord
  2
00_COMPONENTS
 70
0
 62
7
  6
CONTINUOUS
370
-3
390
F
  0
LAYER
  5
1FE
100
AcDbSymbolTableRecord
100
AcDbLayerTableRecord
  2
01_1_DEFAULT_DATUMS
 70
0
 62
7
  6
CONTINUOUS
370
-3
390
F
  0
LAYER
  5
1FF
100
AcDbSymbolTableRecord
100
AcDbLayerTableRecord
  2
01_PLANES
 70
0
 62
7
  6
CONTINUOUS
370
-3
390
F
  0
LAYER
  5
200
100
AcDbSymbolTableRecord
100
AcDbLayerTableRecord
  2
02_COORD_SYS
 70
0
 62
7
  6
CONTINUOUS
370
-3
390
F
  0
LAYER
  5
201
100
AcDbSymbolTableRecord
100
AcDbLayerTableRecord
  2
03_AXES
 70
0
 62
7
  6
CONTINUOUS
370
-3
390
F
  0
LAYER
  5
202
100
AcDbSymbolTableRecord
100
AcDbLayerTableRecord
  2
04_POINTS
 70
0
 62
7
  6
CONTINUOUS
370
-3
390
F
  0
LAYER
  5
203
100
AcDbSymbolTableRecord
100
AcDbLayerTableRecord
  2
05_CURVES
 70
0
 62
7
  6
CONTINUOUS
370
-3
390
F
  0
LAYER
  5
204
100
AcDbSymbolTableRecord
100
AcDbLayerTableRecord
  2
06_SURFS
 70
0
 62
7
  6
CONTINUOUS
370
-3
390
F
  0
LAYER
  5
205
100
AcDbSymbolTableRecord
100
AcDbLayerTableRecord
  2
07_COSMETICS
 70
0
 62
7
  6
CONTINUOUS
370
-3
390
F
  0
LAYER
  5
206
100
AcDbSymbolTableRecord
100
AcDbLayerTableRecord
  2
10_NOTES
 70
0
 62
7
  6
CONTINUOUS
370
-3
390
F
  0
LAYER
  5
207
100
AcDbSymbolTableRecord
100
AcDbLayerTableRecord
  2
11_NOTES_PUB
 70
0
 62
7
  6
CONTINUOUS
370
-3
390
F
  0
LAYER
  5
208
100
AcDbSymbolTableRecord
100
AcDbLayerTableRecord
  2
13_REF_GTOL
 70
0
 62
7
  6
CONTINUOUS
370
-3
390
F
  0
LAYER
  5
209
100
AcDbSymbolTableRecord
100
AcDbLayerTableRecord
  2
16_MISC
 70
0
 62
7
  6
CONTINUOUS
370
-3
390
F
  0
LAYER
  5
20A
100
AcDbSymbolTableRecord
100
AcDbLayerTableRecord
  2
17_NO_PRINT
 70
0
 62
7
  6
CONTINUOUS
370
-3
390
F
  0
LAYER
  5
20B
100
AcDbSymbolTableRecord
100
AcDbLayerTableRecord
  2
18_DATUM_CAMS_JOINTS
 70
0
 62
7
  6
CONTINUOUS
370
-3
390
F
  0
LAYER
  5
20C
100
AcDbSymbolTableRecord
100
AcDbLayerTableRecord
  2
19_DATUM_FUNCTIONAL
 70
0
 62
7
  6
CONTINUOUS
370
-3
390
F
  0
LAYER
  5
20D
100
AcDbSymbolTableRecord
100
AcDbLayerTableRecord
  2
20_DATUM_KINEMATIC_SCHEME
 70
0
 62
7
  6
CONTINUOUS
370
-3
390
F
  0
ENDTAB
  0
TABLE
  2
STYLE
  5
3
100
AcDbSymbolTable
 70
1
  0
STYLE
  5
11
100
AcDbSymbolTableRecord
100
AcDbTextStyleTableRecord
  2
STANDARD
 70
0
 40
0.0
 41
0.8
 50
0.0
 71
0
 42
0.2
  3
txt
  4

  0
STYLE
  5
20E
100
AcDbSymbolTableRecord
100
AcDbTextStyleTableRecord
  2
TEXTSTYLE_1
 70
0
 40
0.0
 41
0.8
 50
0.0
 71
0
 42
0.2
  3
gdt
  4

  0
ENDTAB
  0
TABLE
  2
VIEW
  5
6
100
AcDbSymbolTable
 70
0
  0
ENDTAB
  0
TABLE
  2
UCS
  5
7
100
AcDbSymbolTable
 70
0
  0
ENDTAB
  0
TABLE
  2
APPID
  5
9
100
AcDbSymbolTable
 70
1
  0
APPID
  5
20F
100
AcDbSymbolTableRecord
100
AcDbRegAppTableRecord
  2
ACAD
 70
0
  0
ENDTAB
  0
TABLE
  2
BLOCK_RECORD
  5
1
100
AcDbSymbolTable
 70
0
  0
BLOCK_RECORD
  5
210
100
AcDbSymbolTableRecord
100
AcDbBlockTableRecord
  2
*Model_Space
  0
BLOCK_RECORD
  5
211
100
AcDbSymbolTableRecord
100
AcDbBlockTableRecord
  2
*Paper_Space
  0
BLOCK_RECORD
  5
212
100
AcDbSymbolTableRecord
100
AcDbBlockTableRecord
  2
_FILLED
  0
ENDTAB
  0
TABLE
  2
DIMSTYLE
  5
A
100
AcDbSymbolTable
 70
1
100
AcDbDimStyleTable
 71
0
  0
DIMSTYLE
105
213
100
AcDbSymbolTableRecord
100
AcDbDimStyleTableRecord
  2
STANDARD
 70
0
  3

  4

 40
1.0
 41
3.7531364037
 42
1.0
 43
0.38
 44
1.0
 45
0.0
 46
0.0
 47
0.01
 48
0.01
140
5.2543909652
141
0.09
142
0.0
143
25.4
144
1.0
145
0.0
146
1.0
147
0.625
 71
1
 72
0
 73
0
 74
0
 75
0
 76
0
 77
1
 78
8
 79
2
170
0
171
1
172
0
173
0
174
0
175
0
176
0
177
0
178
0
270
2
179
2
271
2
272
2
273
2
274
2
275
0
280
0
281
0
282
0
283
1
284
8
285
0
286
0
287
3
288
0
340
11
278
46
341
212
342
212
343
212
344
212
  0
ENDTAB
  0
ENDSEC
  0
SECTION
  2
BLOCKS
  0
BLOCK
  5
20
100
AcDbEntity
  8
0
100
AcDbBlockBegin
  2
*Model_Space
 70
0
 10
0.0
 20
0.0
 30
0.0
  3
*Model_Space
  1

  0
ENDBLK
  5
21
100
AcDbEntity
  8
0
100
AcDbBlockEnd
  0
BLOCK
  5
1C
100
AcDbEntity
  8
0
100
AcDbBlockBegin
  2
*Paper_Space
 70
0
 10
0.0
 20
0.0
 30
0.0
  3
*Paper_Space
  1

  0
ENDBLK
  5
1D
100
AcDbEntity
  8
0
100
AcDbBlockEnd
  0
BLOCK
  5
214
100
AcDbEntity
  8
0
100
AcDbBlockBegin
  2
_FILLED
 70
64
 10
0.0
 20
0.0
  3
_FILLED
  1

  0
SOLID
  5
215
100
AcDbEntity
  8
0
  6
BYBLOCK
 62
0
100
AcDbTrace
 10
0.0
 20
0.0
 11
-1.0
 21
0.25
 12
-1.0
 22
-0.25
 13
-1.0
 23
-0.25
  0
ENDBLK
  5
216
100
AcDbEntity
  8
0
  6
BYBLOCK
 62
0
100
AcDbBlockEnd
  0
ENDSEC
  0
SECTION
  2
ENTITIES
  0
LINE
  5
217
100
AcDbEntity
  8
0
100
AcDbLine
 62
7
  6
CONTINUOUS
 10
205.0628862708
 20
90.4363023814
 11
192.062886151
 21
90.4363023814
  0
LINE
  5
218
100
AcDbEntity
  8
0
100
AcDbLine
 62
7
  6
CONTINUOUS
 10
245.0628834389
 20
90.4363023814
 11
285.0628834389
 21
90.4363023814
  0
LINE
  5
219
100
AcDbEntity
  8
0
100
AcDbLine
 62
7
  6
CONTINUOUS
 10
36.0638624512
 20
178.0489560774
 11
36.0638642597
 21
178.0488889103
  0
LINE
  5
21A
100
AcDbEntity
  8
0
100
AcDbLine
 62
7
  6
CONTINUOUS
 10
36.0683462802
 20
224.293225084
 11
36.0639473972
 21
224.9279472847
  0
LINE
  5
21B
100
AcDbEntity
  8
0
100
AcDbLine
 62
7
  6
CONTINUOUS
 10
35.658011497
 20
200.3494886894
 11
35.658011497
 21
201.0031160734
  0
LINE
  5
21C
100
AcDbEntity
  8
0
100
AcDbLine
 62
7
  6
CONTINUOUS
 10
35.658011497
 20
221.3194886894
 11
35.658011497
 21
221.9731160734
  0
LINE
  5
21D
100
AcDbEntity
  8
0
100
AcDbLine
 62
7
  6
CONTINUOUS
 10
35.958011497
 20
221.3194886894
 11
35.958011497
 21
221.9731160734
  0
LINE
  5
21E
100
AcDbEntity
  8
0
100
AcDbLine
 62
7
  6
CONTINUOUS
 10
36.0638864031
 20
178.0489560774
 11
36.0638864031
 21
197.4047328191
  0
LINE
  5
21F
100
AcDbEntity
  8
0
100
AcDbLine
 62
7
  6
CONTINUOUS
 10
36.0638864031
 20
203.9478719437
 11
36.0638864031
 21
218.3747328191
  0
LINE
  5
220
100
AcDbEntity
  8
0
100
AcDbLine
 62
7
  6
CONTINUOUS
 10
36.0638864031
 20
224.9178719437
 11
36.0638864031
 21
316.3594553056
  0
LINE
  5
221
100
AcDbEntity
  8
0
100
AcDbLine
 62
7
  6
CONTINUOUS
 10
36.4275465431
 20
218.4699149004
 11
36.4275465431
 21
224.8226898619
  0
LINE
  5
222
100
AcDbEntity
  8
0
100
AcDbLine
 62
7
  6
CONTINUOUS
 10
37.0628862547
 20
144.9363023814
 11
37.0628862547
 21
178.0489560774
  0
LINE
  5
223
100
AcDbEntity
  8
0
100
AcDbLine
 62
7
  6
CONTINUOUS
 10
36.0639474012
 20
218.3646574711
 11
36.0682919741
 21
218.9895539423
  0
LINE
  5
224
100
AcDbEntity
  8
0
100
AcDbLine
 62
7
  6
CONTINUOUS
 10
36.0639448805
 20
203.9579428343
 11
35.658011497
 21
201.0031160734
  0
LINE
  5
225
100
AcDbEntity
  8
0
100
AcDbLine
 62
7
  6
CONTINUOUS
 10
36.3761486904
 20
224.9711793574
 11
35.958011497
 21
221.9731160734
  0
LINE
  5
226
100
AcDbEntity
  8
0
100
AcDbLine
 62
7
  6
CONTINUOUS
 10
244.0628864788
 20
93.9388861604
 11
243.0628919028
 21
93.9363052871
  0
LINE
  5
227
100
AcDbEntity
  8
0
100
AcDbLine
 62
7
  6
CONTINUOUS
 10
245.0628830547
 20
92.9363032606
 11
244.0628864788
 21
92.9363032606
  0
LINE
  5
228
100
AcDbEntity
  8
0
100
AcDbLine
 62
7
  6
CONTINUOUS
 10
239.5628891014
 20
94.0363036968
 11
243.0628919028
 21
94.0361374099
  0
LINE
  5
229
100
AcDbEntity
  8
0
100
AcDbLine
 62
7
  6
CONTINUOUS
 10
36.376148721
 20
218.3214252979
 11
35.958011497
 21
221.3194886894
  0
LINE
  5
22A
100
AcDbEntity
  8
0
100
AcDbLine
 62
7
  6
CONTINUOUS
 10
36.0639448805
 20
197.3946619285
 11
35.658011497
 21
200.3494886894
  0
LINE
  5
22B
100
AcDbEntity
  8
0
100
AcDbLine
 62
7
  6
CONTINUOUS
 10
40.7279113858
 20
316.1059042845
 11
40.7279113858
 21
144.9363023814
  0
LINE
  5
22C
100
AcDbEntity
  8
0
100
AcDbLine
 62
7
  6
CONTINUOUS
 10
41.7038241667
 20
144.9363023814
 11
41.7038241667
 21
316.1437181958
  0
LINE
  5
22D
100
AcDbEntity
  8
0
100
AcDbLine
 62
7
  6
CONTINUOUS
 10
43.8128864192
 20
133.9972023486
 11
43.8128864192
 21
138.7554024142
  0
LINE
  5
22E
100
AcDbEntity
  8
0
100
AcDbLine
 62
7
  6
CONTINUOUS
 10
45.8228861212
 20
139.3762880763
 11
45.8228861212
 21
131.950492132
  0
LINE
  5
22F
100
AcDbEntity
  8
0
100
AcDbLine
 62
7
  6
CONTINUOUS
 10
47.8628864192
 20
141.9463023814
 11
47.8628864192
 21
144.9363023814
  0
LINE
  5
230
100
AcDbEntity
  8
0
100
AcDbLine
 62
7
  6
CONTINUOUS
 10
51.4228844069
 20
131.2462913569
 11
51.4228844069
 21
131.1462896642
  0
LINE
  5
231
100
AcDbEntity
  8
0
100
AcDbLine
 62
7
  6
CONTINUOUS
 10
239.5628891014
 20
103.836301066
 11
243.0628919028
 21
103.8364673529
  0
LINE
  5
232
100
AcDbEntity
  8
0
100
AcDbLine
 62
7
  6
CONTINUOUS
 10
245.0628830547
 20
104.9363015022
 11
244.0628864788
 21
104.9363015022
  0
LINE
  5
233
100
AcDbEntity
  8
0
100
AcDbLine
 62
7
  6
CONTINUOUS
 10
111.8040864192
 20
106.6363023814
 11
123.8584864192
 21
106.6363023814
  0
LINE
  5
234
100
AcDbEntity
  8
0
100
AcDbLine
 62
7
  6
CONTINUOUS
 10
71.9549145373
 20
108.6329298791
 11
183.4418230675
 21
108.6329298791
  0
LINE
  5
235
100
AcDbEntity
  8
0
100
AcDbLine
 62
7
  6
CONTINUOUS
 10
178.5628376814
 20
108.9363023814
 11
174.5636914135
 21
108.9363023814
  0
LINE
  5
236
100
AcDbEntity
  8
0
100
AcDbLine
 62
7
  6
CONTINUOUS
 10
128.5628376814
 20
108.9363023814
 11
124.5636914135
 21
108.9363023814
  0
LINE
  5
237
100
AcDbEntity
  8
0
100
AcDbLine
 62
7
  6
CONTINUOUS
 10
85.0917376814
 20
108.9363023814
 11
81.0925914135
 21
108.9363023814
  0
LINE
  5
238
100
AcDbEntity
  8
0
100
AcDbLine
 62
7
  6
CONTINUOUS
 10
180.5627888449
 20
110.9368819403
 11
172.5629839935
 21
110.9368819403
  0
LINE
  5
239
100
AcDbEntity
  8
0
100
AcDbLine
 62
7
  6
CONTINUOUS
 10
130.5627888449
 20
110.9368819403
 11
122.5629839935
 21
110.9368819403
  0
LINE
  5
23A
100
AcDbEntity
  8
0
100
AcDbLine
 62
7
  6
CONTINUOUS
 10
87.0916888449
 20
110.9368819403
 11
79.0918839935
 21
110.9368819403
  0
LINE
  5
23B
100
AcDbEntity
  8
0
100
AcDbLine
 62
7
  6
CONTINUOUS
 10
183.5081295096
 20
112.4363023814
 11
171.1214609678
 21
112.4363023814
  0
LINE
  5
23C
100
AcDbEntity
  8
0
100
AcDbLine
 62
7
  6
CONTINUOUS
 10
132.0043107946
 20
112.4363023814
 11
121.1214613794
 21
112.4363023814
  0
LINE
  5
23D
100
AcDbEntity
  8
0
100
AcDbLine
 62
7
  6
CONTINUOUS
 10
88.533167192
 20
112.4363023814
 11
73.5276696659
 21
112.4363023814
  0
LINE
  5
23E
100
AcDbEntity
  8
0
100
AcDbLine
 62
7
  6
CONTINUOUS
 10
184.0628848396
 20
114.4362914141
 11
183.543039205
 21
114.4362914141
  0
LINE
  5
23F
100
AcDbEntity
  8
0
100
AcDbLine
 62
7
  6
CONTINUOUS
 10
244.0628864788
 20
103.9337186024
 11
243.0628919028
 21
103.9362994757
  0
LINE
  5
240
100
AcDbEntity
  8
0
100
AcDbLine
 62
7
  6
CONTINUOUS
 10
46.7694827341
 20
132.0668088969
 11
51.4228844069
 21
131.2462913569
  0
LINE
  5
241
100
AcDbEntity
  8
0
100
AcDbLine
 62
7
  6
CONTINUOUS
 10
56.1747836192
 20
130.9462862786
 11
56.1747836192
 21
129.401857998
  0
LINE
  5
242
100
AcDbEntity
  8
0
100
AcDbLine
 62
7
  6
CONTINUOUS
 10
56.3401920425
 20
144.9363023814
 11
56.3401920425
 21
129.3934898093
  0
LINE
  5
243
100
AcDbEntity
  8
0
100
AcDbLine
 62
7
  6
CONTINUOUS
 10
57.2307191853
 20
144.9363023814
 11
57.2307191853
 21
129.3484370906
  0
LINE
  5
244
100
AcDbEntity
  8
0
100
AcDbLine
 62
7
  6
CONTINUOUS
 10
58.1862936484
 20
129.3000935585
 11
58.1862936484
 21
144.9363023814
  0
LINE
  5
245
100
AcDbEntity
  8
0
100
AcDbLine
 62
7
  6
CONTINUOUS
 10
46.0236757359
 20
131.7502671094
 11
46.5728842639
 21
131.7262875613
  0
LINE
  5
246
100
AcDbEntity
  8
0
100
AcDbLine
 62
7
  6
CONTINUOUS
 10
56.1747836192
 20
129.401857998
 11
75.0628874623
 21
128.4462886628
  0
LINE
  5
247
100
AcDbEntity
  8
0
100
AcDbLine
 62
7
  6
CONTINUOUS
 10
71.9604145811
 20
118.2363023814
 11
71.9548670165
 21
122.0070265775
  0
LINE
  5
248
100
AcDbEntity
  8
0
100
AcDbLine
 62
7
  6
CONTINUOUS
 10
71.9548654714
 20
122.0071119151
 11
71.9548654714
 21
127.9362815198
  0
LINE
  5
249
100
AcDbEntity
  8
0
100
AcDbLine
 62
7
  6
CONTINUOUS
 10
72.4044378655
 20
317.9362865862
 11
72.4044378655
 21
323.8363233155
  0
LINE
  5
24A
100
AcDbEntity
  8
0
100
AcDbLine
 62
7
  6
CONTINUOUS
 10
72.4044378655
 20
331.4362814557
 11
72.4044378655
 21
337.2396523182
  0
LINE
  5
24B
100
AcDbEntity
  8
0
100
AcDbLine
 62
7
  6
CONTINUOUS
 10
73.5276696659
 20
108.6329298791
 11
73.5276696659
 21
112.4363023814
  0
LINE
  5
24C
100
AcDbEntity
  8
0
100
AcDbLine
 62
7
  6
CONTINUOUS
 10
73.7311151775
 20
333.4363023814
 11
73.7311151775
 21
337.2396523279
  0
LINE
  5
24D
100
AcDbEntity
  8
0
100
AcDbLine
 62
7
  6
CONTINUOUS
 10
73.9852303904
 20
317.3945330781
 11
73.9852303904
 21
128.5008084844
  0
LINE
  5
24E
100
AcDbEntity
  8
0
100
AcDbLine
 62
7
  6
CONTINUOUS
 10
74.0027665127
 20
333.4363023814
 11
74.0027665127
 21
317.9362865862
  0
LINE
  5
24F
100
AcDbEntity
  8
0
100
AcDbLine
 62
7
  6
CONTINUOUS
 10
74.0319465335
 20
127.9362815198
 11
74.0319465335
 21
112.4363023814
  0
LINE
  5
250
100
AcDbEntity
  8
0
100
AcDbLine
 62
7
  6
CONTINUOUS
 10
74.1515720774
 20
112.4363023814
 11
74.1515720774
 21
127.9362815198
  0
LINE
  5
251
100
AcDbEntity
  8
0
100
AcDbLine
 62
7
  6
CONTINUOUS
 10
74.1800588691
 20
317.4020821408
 11
74.1800588691
 21
128.4909519037
  0
LINE
  5
252
100
AcDbEntity
  8
0
100
AcDbLine
 62
7
  6
CONTINUOUS
 10
74.1800588691
 20
127.9362815198
 11
74.1800588691
 21
112.4363023814
  0
LINE
  5
253
100
AcDbEntity
  8
0
100
AcDbLine
 62
7
  6
CONTINUOUS
 10
74.5353579871
 20
317.9362865862
 11
74.5353579871
 21
333.4363023814
  0
LINE
  5
254
100
AcDbEntity
  8
0
100
AcDbLine
 62
7
  6
CONTINUOUS
 10
74.5637489441
 20
112.4363023814
 11
74.5637489441
 21
127.9362815198
  0
LINE
  5
255
100
AcDbEntity
  8
0
100
AcDbLine
 62
7
  6
CONTINUOUS
 10
74.5637489441
 20
128.4715406132
 11
74.5637489441
 21
317.4169490661
  0
LINE
  5
256
100
AcDbEntity
  8
0
100
AcDbLine
 62
7
  6
CONTINUOUS
 10
75.0628874623
 20
127.9362815198
 11
75.0628874623
 21
128.4462886628
  0
LINE
  5
257
100
AcDbEntity
  8
0
100
AcDbLine
 62
7
  6
CONTINUOUS
 10
75.0628874623
 20
317.4362892982
 11
75.0628874623
 21
317.9362865862
  0
LINE
  5
258
100
AcDbEntity
  8
0
100
AcDbLine
 62
7
  6
CONTINUOUS
 10
71.9548670273
 20
114.465576573
 11
71.9604145811
 21
118.2363023814
  0
LINE
  5
259
100
AcDbEntity
  8
0
100
AcDbLine
 62
7
  6
CONTINUOUS
 10
71.9548654714
 20
108.6329298791
 11
71.955096733
 21
114.6140248219
  0
LINE
  5
25A
100
AcDbEntity
  8
0
100
AcDbLine
 62
7
  6
CONTINUOUS
 10
50.58959082
 20
141.9463023814
 11
50.327775719
 21
140.6036096391
  0
LINE
  5
25B
100
AcDbEntity
  8
0
100
AcDbLine
 62
7
  6
CONTINUOUS
 10
192.062886151
 20
355.4362880763
 11
189.5778157734
 21
353.4960031042
  0
LINE
  5
25C
100
AcDbEntity
  8
0
100
AcDbLine
 62
7
  6
CONTINUOUS
 10
71.9549495642
 20
127.9362815198
 11
75.0628874623
 21
127.9362815198
  0
LINE
  5
25D
100
AcDbEntity
  8
0
100
AcDbLine
 62
7
  6
CONTINUOUS
 10
51.6228904022
 20
130.9462862786
 11
56.3401920425
 21
130.9462862786
  0
LINE
  5
25E
100
AcDbEntity
  8
0
100
AcDbLine
 62
7
  6
CONTINUOUS
 10
43.8128864192
 20
133.9963023814
 11
45.8228861212
 21
133.9963023814
  0
LINE
  5
25F
100
AcDbEntity
  8
0
100
AcDbLine
 62
7
  6
CONTINUOUS
 10
43.8128864192
 20
138.7563023814
 11
45.8228861212
 21
138.7563023814
  0
LINE
  5
260
100
AcDbEntity
  8
0
100
AcDbLine
 62
7
  6
CONTINUOUS
 10
189.5778157734
 20
92.3765825805
 11
192.062886151
 21
90.4363023814
  0
LINE
  5
261
100
AcDbEntity
  8
0
100
AcDbLine
 62
7
  6
CONTINUOUS
 10
77.5626378399
 20
333.4363023814
 11
77.5626378399
 21
112.4363023814
  0
LINE
  5
262
100
AcDbEntity
  8
0
100
AcDbLine
 62
7
  6
CONTINUOUS
 10
78.0278176789
 20
337.2396523593
 11
78.0278176789
 21
333.4363023814
  0
LINE
  5
263
100
AcDbEntity
  8
0
100
AcDbLine
 62
7
  6
CONTINUOUS
 10
78.0278176789
 20
112.4363023814
 11
78.0278176789
 21
108.6329298791
  0
LINE
  5
264
100
AcDbEntity
  8
0
100
AcDbLine
 62
7
  6
CONTINUOUS
 10
79.0918839935
 20
334.5357228225
 11
79.0918839935
 21
333.4363023814
  0
LINE
  5
265
100
AcDbEntity
  8
0
100
AcDbLine
 62
7
  6
CONTINUOUS
 10
79.0918839935
 20
110.9368819403
 11
79.0918839935
 21
112.4363023814
  0
LINE
  5
266
100
AcDbEntity
  8
0
100
AcDbLine
 62
7
  6
CONTINUOUS
 10
79.1260923625
 20
333.4363023814
 11
79.1260923625
 21
112.4363023814
  0
LINE
  5
267
100
AcDbEntity
  8
0
100
AcDbLine
 62
7
  6
CONTINUOUS
 10
87.0916888449
 20
112.4363023814
 11
87.0916888449
 21
110.9368819403
  0
LINE
  5
268
100
AcDbEntity
  8
0
100
AcDbLine
 62
7
  6
CONTINUOUS
 10
87.0916888449
 20
333.4363023814
 11
87.0916888449
 21
334.5357228225
  0
LINE
  5
269
100
AcDbEntity
  8
0
100
AcDbLine
 62
7
  6
CONTINUOUS
 10
88.533167192
 20
108.6329298791
 11
88.533167192
 21
112.4363023814
  0
LINE
  5
26A
100
AcDbEntity
  8
0
100
AcDbLine
 62
7
  6
CONTINUOUS
 10
88.533167192
 20
333.4363023814
 11
88.533167192
 21
337.2396524359
  0
LINE
  5
26B
100
AcDbEntity
  8
0
100
AcDbLine
 62
7
  6
CONTINUOUS
 10
48.7228834056
 20
139.976285654
 11
46.4228861212
 21
139.9762880763
  0
LINE
  5
26C
100
AcDbEntity
  8
0
100
AcDbLine
 62
7
  6
CONTINUOUS
 10
47.8628864192
 20
141.9463023814
 11
56.3401920425
 21
141.9463023814
  0
LINE
  5
26D
100
AcDbEntity
  8
0
100
AcDbLine
 62
7
  6
CONTINUOUS
 10
58.1862936484
 20
144.9363023814
 11
37.0628918225
 21
144.9363023814
  0
LINE
  5
26E
100
AcDbEntity
  8
0
100
AcDbLine
 62
7
  6
CONTINUOUS
 10
111.8040864192
 20
106.6363023814
 11
111.8040864192
 21
108.6329298791
  0
LINE
  5
26F
100
AcDbEntity
  8
0
100
AcDbLine
 62
7
  6
CONTINUOUS
 10
111.8040864192
 20
337.2396526057
 11
111.8040864192
 21
339.2363023814
  0
LINE
  5
270
100
AcDbEntity
  8
0
100
AcDbLine
 62
7
  6
CONTINUOUS
 10
46.5728842639
 20
131.7262875613
 11
46.7694827341
 21
132.0668088969
  0
LINE
  5
271
100
AcDbEntity
  8
0
100
AcDbLine
 62
7
  6
CONTINUOUS
 10
50.1015300945
 20
140.3782154158
 11
49.9602460288
 21
140.3462814864
  0
LINE
  5
272
100
AcDbEntity
  8
0
100
AcDbLine
 62
7
  6
CONTINUOUS
 10
121.1214613794
 20
337.2396526736
 11
121.1214613794
 21
333.4363023814
  0
LINE
  5
273
100
AcDbEntity
  8
0
100
AcDbLine
 62
7
  6
CONTINUOUS
 10
121.1214613794
 20
112.4363023814
 11
121.1214613794
 21
108.6329298791
  0
LINE
  5
274
100
AcDbEntity
  8
0
100
AcDbLine
 62
7
  6
CONTINUOUS
 10
122.5629839935
 20
334.5357228225
 11
122.5629839935
 21
333.4363023814
  0
LINE
  5
275
100
AcDbEntity
  8
0
100
AcDbLine
 62
7
  6
CONTINUOUS
 10
122.5629839935
 20
110.9368819403
 11
122.5629839935
 21
112.4363023814
  0
LINE
  5
276
100
AcDbEntity
  8
0
100
AcDbLine
 62
7
  6
CONTINUOUS
 10
123.8584864192
 20
106.6363023814
 11
123.8584864192
 21
108.6329298791
  0
LINE
  5
277
100
AcDbEntity
  8
0
100
AcDbLine
 62
7
  6
CONTINUOUS
 10
123.8584864192
 20
337.2396526936
 11
123.8584864192
 21
339.2363023814
  0
LINE
  5
278
100
AcDbEntity
  8
0
100
AcDbLine
 62
7
  6
CONTINUOUS
 10
36.0638882558
 20
178.0488889103
 11
37.0628881073
 21
178.0488889103
  0
LINE
  5
279
100
AcDbEntity
  8
0
100
AcDbLine
 62
7
  6
CONTINUOUS
 10
37.1942233727
 20
184.0121470763
 11
36.1952235211
 21
184.0121470763
  0
LINE
  5
27A
100
AcDbEntity
  8
0
100
AcDbLine
 62
7
  6
CONTINUOUS
 10
130.5627888449
 20
112.4363023814
 11
130.5627888449
 21
110.9368819403
  0
LINE
  5
27B
100
AcDbEntity
  8
0
100
AcDbLine
 62
7
  6
CONTINUOUS
 10
130.5627888449
 20
333.4363023814
 11
130.5627888449
 21
334.5357228225
  0
LINE
  5
27C
100
AcDbEntity
  8
0
100
AcDbLine
 62
7
  6
CONTINUOUS
 10
132.0043107946
 20
108.6329298791
 11
132.0043107946
 21
112.4363023814
  0
LINE
  5
27D
100
AcDbEntity
  8
0
100
AcDbLine
 62
7
  6
CONTINUOUS
 10
132.0043107946
 20
333.4363023814
 11
132.0043107946
 21
337.239652753
  0
LINE
  5
27E
100
AcDbEntity
  8
0
100
AcDbLine
 62
7
  6
CONTINUOUS
 10
189.5778157734
 20
353.4960031042
 11
184.0628848396
 21
331.4362878677
  0
LINE
  5
27F
100
AcDbEntity
  8
0
100
AcDbLine
 62
7
  6
CONTINUOUS
 10
37.7625539059
 20
212.4778203614
 11
36.763571562
 21
212.4778203614
  0
LINE
  5
280
100
AcDbEntity
  8
0
100
AcDbLine
 62
7
  6
CONTINUOUS
 10
184.0628848396
 20
114.4362914141
 11
189.5778157734
 21
92.3765825805
  0
LINE
  5
281
100
AcDbEntity
  8
0
100
AcDbLine
 62
7
  6
CONTINUOUS
 10
171.1214609678
 20
337.2396530384
 11
171.1214609678
 21
333.4363023814
  0
LINE
  5
282
100
AcDbEntity
  8
0
100
AcDbLine
 62
7
  6
CONTINUOUS
 10
171.1214609678
 20
112.4363023814
 11
171.1214609678
 21
108.6329298791
  0
LINE
  5
283
100
AcDbEntity
  8
0
100
AcDbLine
 62
7
  6
CONTINUOUS
 10
172.5629839935
 20
334.5357228225
 11
172.5629839935
 21
333.4363023814
  0
LINE
  5
284
100
AcDbEntity
  8
0
100
AcDbLine
 62
7
  6
CONTINUOUS
 10
172.5629839935
 20
110.9368819403
 11
172.5629839935
 21
112.4363023814
  0
LINE
  5
285
100
AcDbEntity
  8
0
100
AcDbLine
 62
7
  6
CONTINUOUS
 10
183.5121111044
 20
331.4362878677
 11
183.4129259907
 21
337.239653128
  0
LINE
  5
286
100
AcDbEntity
  8
0
100
AcDbLine
 62
7
  6
CONTINUOUS
 10
176.5628845475
 20
108.6329298791
 11
176.5628845475
 21
108.9363023814
  0
LINE
  5
287
100
AcDbEntity
  8
0
100
AcDbLine
 62
7
  6
CONTINUOUS
 10
176.5628845475
 20
336.5363023814
 11
176.5628845475
 21
337.2396530781
  0
LINE
  5
288
100
AcDbEntity
  8
0
100
AcDbLine
 62
7
  6
CONTINUOUS
 10
180.5627888449
 20
112.4363023814
 11
180.5627888449
 21
110.9368819403
  0
LINE
  5
289
100
AcDbEntity
  8
0
100
AcDbLine
 62
7
  6
CONTINUOUS
 10
180.5627888449
 20
333.4363023814
 11
180.5627888449
 21
334.5357228225
  0
LINE
  5
28A
100
AcDbEntity
  8
0
100
AcDbLine
 62
7
  6
CONTINUOUS
 10
183.0362354304
 20
333.4363023814
 11
183.0362354304
 21
112.4363023814
  0
LINE
  5
28B
100
AcDbEntity
  8
0
100
AcDbLine
 62
7
  6
CONTINUOUS
 10
183.4503167294
 20
335.0519043204
 11
183.4503167294
 21
333.4363023814
  0
LINE
  5
28C
100
AcDbEntity
  8
0
100
AcDbLine
 62
7
  6
CONTINUOUS
 10
183.4503167294
 20
112.4363023814
 11
183.4503167294
 21
109.1199252526
  0
LINE
  5
28D
100
AcDbEntity
  8
0
100
AcDbLine
 62
7
  6
CONTINUOUS
 10
183.5422890526
 20
114.4362914141
 11
183.5422890526
 21
331.4362878677
  0
LINE
  5
28E
100
AcDbEntity
  8
0
100
AcDbLine
 62
7
  6
CONTINUOUS
 10
183.4418230675
 20
108.6329298791
 11
183.543039205
 21
114.4362914141
  0
LINE
  5
28F
100
AcDbEntity
  8
0
100
AcDbLine
 62
7
  6
CONTINUOUS
 10
202.7628833693
 20
355.4362880763
 11
202.7628833693
 21
90.4363023814
  0
LINE
  5
290
100
AcDbEntity
  8
0
100
AcDbLine
 62
7
  6
CONTINUOUS
 10
205.0628862708
 20
90.4363023814
 11
205.0628862708
 21
355.4362880763
  0
LINE
  5
291
100
AcDbEntity
  8
0
100
AcDbLine
 62
7
  6
CONTINUOUS
 10
49.9602460288
 20
140.3462814864
 11
48.7228834056
 21
139.976285654
  0
LINE
  5
292
100
AcDbEntity
  8
0
100
AcDbLine
 62
7
  6
CONTINUOUS
 10
239.0628891014
 20
94.5363036968
 11
239.0628891014
 21
103.336301066
  0
LINE
  5
293
100
AcDbEntity
  8
0
100
AcDbLine
 62
7
  6
CONTINUOUS
 10
239.0628891014
 20
344.5363036968
 11
239.0628891014
 21
353.336301066
  0
LINE
  5
294
100
AcDbEntity
  8
0
100
AcDbLine
 62
7
  6
CONTINUOUS
 10
239.5628891014
 20
94.0363036968
 11
239.5628891014
 21
103.836301066
  0
LINE
  5
295
100
AcDbEntity
  8
0
100
AcDbLine
 62
7
  6
CONTINUOUS
 10
239.5628891014
 20
344.0363036968
 11
239.5628891014
 21
353.836301066
  0
LINE
  5
296
100
AcDbEntity
  8
0
100
AcDbLine
 62
7
  6
CONTINUOUS
 10
243.0628919028
 20
93.9369734187
 11
243.0628919028
 21
103.9356313441
  0
LINE
  5
297
100
AcDbEntity
  8
0
100
AcDbLine
 62
7
  6
CONTINUOUS
 10
243.0628919028
 20
343.9369734187
 11
243.0628919028
 21
353.9356313441
  0
LINE
  5
298
100
AcDbEntity
  8
0
100
AcDbLine
 62
7
  6
CONTINUOUS
 10
244.0628864788
 20
92.9363376447
 11
244.0628864788
 21
104.9362671181
  0
LINE
  5
299
100
AcDbEntity
  8
0
100
AcDbLine
 62
7
  6
CONTINUOUS
 10
244.0628864788
 20
342.9363376447
 11
244.0628864788
 21
354.9362671181
  0
LINE
  5
29A
100
AcDbEntity
  8
0
100
AcDbLine
 62
7
  6
CONTINUOUS
 10
245.0628834389
 20
355.4363023814
 11
245.0628834389
 21
90.4363023814
  0
LINE
  5
29B
100
AcDbEntity
  8
0
100
AcDbLine
 62
7
  6
CONTINUOUS
 10
247.3628834389
 20
90.4363023814
 11
247.3628834389
 21
355.4363023814
  0
LINE
  5
29C
100
AcDbEntity
  8
0
100
AcDbLine
 62
7
  6
CONTINUOUS
 10
38.6206778042
 20
316.0242548326
 11
75.0628874623
 21
317.4362892982
  0
LINE
  5
29D
100
AcDbEntity
  8
0
100
AcDbLine
 62
7
  6
CONTINUOUS
 10
36.0639723361
 20
316.3594553056
 11
47.2716323028
 21
316.3594553056
  0
LINE
  5
29E
100
AcDbEntity
  8
0
100
AcDbLine
 62
7
  6
CONTINUOUS
 10
75.0628874623
 20
317.9362865862
 11
72.4044745237
 21
317.9362865862
  0
LINE
  5
29F
100
AcDbEntity
  8
0
100
AcDbLine
 62
7
  6
CONTINUOUS
 10
183.5121111044
 20
331.4362878677
 11
184.0628848396
 21
331.4362878677
  0
LINE
  5
2A0
100
AcDbEntity
  8
0
100
AcDbLine
 62
7
  6
CONTINUOUS
 10
73.7311151775
 20
333.4363023814
 11
88.533167192
 21
333.4363023814
  0
LINE
  5
2A1
100
AcDbEntity
  8
0
100
AcDbLine
 62
7
  6
CONTINUOUS
 10
121.1214613794
 20
333.4363023814
 11
132.0043107946
 21
333.4363023814
  0
LINE
  5
2A2
100
AcDbEntity
  8
0
100
AcDbLine
 62
7
  6
CONTINUOUS
 10
171.1214609678
 20
333.4363023814
 11
183.4779289259
 21
333.4363023814
  0
LINE
  5
2A3
100
AcDbEntity
  8
0
100
AcDbLine
 62
7
  6
CONTINUOUS
 10
282.762880268
 20
355.4363023814
 11
282.762880268
 21
90.4363023814
  0
LINE
  5
2A4
100
AcDbEntity
  8
0
100
AcDbLine
 62
7
  6
CONTINUOUS
 10
244.0628864788
 20
343.9388861604
 11
243.0628919028
 21
343.9363052871
  0
LINE
  5
2A5
100
AcDbEntity
  8
0
100
AcDbLine
 62
7
  6
CONTINUOUS
 10
79.0918839935
 20
334.5357228225
 11
87.0916888449
 21
334.5357228225
  0
LINE
  5
2A6
100
AcDbEntity
  8
0
100
AcDbLine
 62
7
  6
CONTINUOUS
 10
122.5629839935
 20
334.5357228225
 11
130.5627888449
 21
334.5357228225
  0
LINE
  5
2A7
100
AcDbEntity
  8
0
100
AcDbLine
 62
7
  6
CONTINUOUS
 10
172.5629839935
 20
334.5357228225
 11
180.5627888449
 21
334.5357228225
  0
LINE
  5
2A8
100
AcDbEntity
  8
0
100
AcDbLine
 62
7
  6
CONTINUOUS
 10
178.5628376814
 20
336.5363023814
 11
174.562935157
 21
336.5363023814
  0
LINE
  5
2A9
100
AcDbEntity
  8
0
100
AcDbLine
 62
7
  6
CONTINUOUS
 10
128.5628376814
 20
336.5363023814
 11
124.562935157
 21
336.5363023814
  0
LINE
  5
2AA
100
AcDbEntity
  8
0
100
AcDbLine
 62
7
  6
CONTINUOUS
 10
85.0917376814
 20
336.5363023814
 11
81.091835157
 21
336.5363023814
  0
LINE
  5
2AB
100
AcDbEntity
  8
0
100
AcDbLine
 62
7
  6
CONTINUOUS
 10
72.4044596653
 20
337.2396523182
 11
183.4129259907
 21
337.239653128
  0
LINE
  5
2AC
100
AcDbEntity
  8
0
100
AcDbLine
 62
7
  6
CONTINUOUS
 10
123.8584864192
 20
339.2363023814
 11
111.8040864192
 21
339.2363023814
  0
LINE
  5
2AD
100
AcDbEntity
  8
0
100
AcDbLine
 62
7
  6
CONTINUOUS
 10
245.0628830547
 20
342.9363032606
 11
244.0628864788
 21
342.9363032606
  0
LINE
  5
2AE
100
AcDbEntity
  8
0
100
AcDbLine
 62
7
  6
CONTINUOUS
 10
239.5628891014
 20
344.0363036968
 11
243.0628919028
 21
344.0361374099
  0
LINE
  5
2AF
100
AcDbEntity
  8
0
100
AcDbLine
 62
7
  6
CONTINUOUS
 10
285.0628834389
 20
90.4363023814
 11
285.0628834389
 21
355.4363023814
  0
LINE
  5
2B0
100
AcDbEntity
  8
0
100
AcDbLine
 62
7
  6
CONTINUOUS
 10
239.5628891014
 20
353.836301066
 11
243.0628919028
 21
353.8364673529
  0
LINE
  5
2B1
100
AcDbEntity
  8
0
100
AcDbLine
 62
7
  6
CONTINUOUS
 10
245.0628830547
 20
354.9363015022
 11
244.0628864788
 21
354.9363015022
  0
LINE
  5
2B2
100
AcDbEntity
  8
0
100
AcDbLine
 62
7
  6
CONTINUOUS
 10
192.062886151
 20
355.4362880763
 11
205.0628862708
 21
355.4362880763
  0
LINE
  5
2B3
100
AcDbEntity
  8
0
100
AcDbLine
 62
7
  6
CONTINUOUS
 10
245.0628834389
 20
355.4363023814
 11
285.0628834389
 21
355.4363023814
  0
LINE
  5
2B4
100
AcDbEntity
  8
0
100
AcDbLine
 62
7
  6
CONTINUOUS
 10
244.0628864788
 20
353.9337186024
 11
243.0628919028
 21
353.9362994757
  0
ARC
  5
2B5
100
AcDbEntity
  8
0
100
AcDbCircle
 62
7
  6
CONTINUOUS
 10
-3634.1908446157
 20
299.7029203507
 40
3672.8477868047
100
AcDbArc
 50
0.0008462033
 51
0.2546107854
  0
ARC
  5
2B6
100
AcDbEntity
  8
0
100
AcDbCircle
 62
7
  6
CONTINUOUS
 10
-3618.2448667408
 20
299.7420502258
 40
3655.9028087088
100
AcDbArc
 50
0.000236877
 51
0.2604310087
  0
ARC
  5
2B7
100
AcDbEntity
  8
0
100
AcDbCircle
 62
7
  6
CONTINUOUS
 10
-436.9043076463
 20
221.7143400657
 40
472.979684564
100
AcDbArc
 50
0.1344595749
 51
0.3124023385
  0
ARC
  5
2B8
100
AcDbEntity
  8
0
100
AcDbCircle
 62
7
  6
CONTINUOUS
 10
46.6152072591
 20
221.3194886894
 40
10.9571957621
100
AcDbArc
 50
180.0
 51
195.6446296828
  0
ARC
  5
2B9
100
AcDbEntity
  8
0
100
AcDbCircle
 62
7
  6
CONTINUOUS
 10
46.6152072591
 20
221.9731160734
 40
10.9571957621
100
AcDbArc
 50
164.3553703172
 51
180.0
  0
CIRCLE
  5
2BA
100
AcDbEntity
  8
0
100
AcDbCircle
 62
7
  6
CONTINUOUS
 10
158.2828864192
 20
162.4089023814
 40
3.4499973086
  0
ARC
  5
2BB
100
AcDbEntity
  8
0
100
AcDbCircle
 62
7
  6
CONTINUOUS
 10
85.0917376814
 20
110.9362536436
 40
1.9999512622
100
AcDbArc
 50
270.0
 51
360.0
  0
ARC
  5
2BC
100
AcDbEntity
  8
0
100
AcDbCircle
 62
7
  6
CONTINUOUS
 10
81.091835157
 20
110.9362536436
 40
1.9999512622
100
AcDbArc
 50
180.0
 51
270.0
  0
ARC
  5
2BD
100
AcDbEntity
  8
0
100
AcDbCircle
 62
7
  6
CONTINUOUS
 10
128.5628376814
 20
110.9362536436
 40
1.9999512622
100
AcDbArc
 50
270.0
 51
360.0
  0
ARC
  5
2BE
100
AcDbEntity
  8
0
100
AcDbCircle
 62
7
  6
CONTINUOUS
 10
124.562935157
 20
110.9362536436
 40
1.9999512622
100
AcDbArc
 50
180.0
 51
270.0
  0
ARC
  5
2BF
100
AcDbEntity
  8
0
100
AcDbCircle
 62
7
  6
CONTINUOUS
 10
178.5628376814
 20
110.9362536436
 40
1.9999512622
100
AcDbArc
 50
270.0
 51
360.0
  0
ARC
  5
2C0
100
AcDbEntity
  8
0
100
AcDbCircle
 62
7
  6
CONTINUOUS
 10
174.562935157
 20
110.9362536436
 40
1.9999512622
100
AcDbArc
 50
180.0
 51
270.0
  0
CIRCLE
  5
2C1
100
AcDbEntity
  8
0
100
AcDbCircle
 62
7
  6
CONTINUOUS
 10
158.2828864192
 20
162.4089023814
 40
1.0210126638
  0
ARC
  5
2C2
100
AcDbEntity
  8
0
100
AcDbCircle
 62
7
  6
CONTINUOUS
 10
46.4228861212
 20
139.3762880763
 40
0.6
100
AcDbArc
 50
89.9999999999
 51
180.0000000002
  0
ARC
  5
2C3
100
AcDbEntity
  8
0
100
AcDbCircle
 62
7
  6
CONTINUOUS
 10
239.5628891014
 20
94.5363036968
 40
0.5
100
AcDbArc
 50
180.0
 51
270.0
  0
ARC
  5
2C4
100
AcDbEntity
  8
0
100
AcDbCircle
 62
7
  6
CONTINUOUS
 10
239.5628891014
 20
103.336301066
 40
0.5
100
AcDbArc
 50
90.0
 51
180.0
  0
ARC
  5
2C5
100
AcDbEntity
  8
0
100
AcDbCircle
 62
7
  6
CONTINUOUS
 10
50.0354049707
 20
140.6708375523
 40
0.3000004114
100
AcDbArc
 50
282.7335135003
 51
347.0504664192
  0
ARC
  5
2C6
100
AcDbEntity
  8
0
100
AcDbCircle
 62
7
  6
CONTINUOUS
 10
51.6228904022
 20
131.1462922739
 40
0.2000059953
100
AcDbArc
 50
180.0007476167
 51
269.9999999828
  0
ARC
  5
2C7
100
AcDbEntity
  8
0
100
AcDbCircle
 62
7
  6
CONTINUOUS
 10
46.0228861212
 20
131.950492132
 40
0.2
100
AcDbArc
 50
180.0
 51
267.5000000003
  0
CIRCLE
  5
2C8
100
AcDbEntity
  8
0
100
AcDbCircle
 62
7
  6
CONTINUOUS
 10
158.2828864192
 20
248.4089023814
 40
3.4499973086
  0
ARC
  5
2C9
100
AcDbEntity
  8
0
100
AcDbCircle
 62
7
  6
CONTINUOUS
 10
85.0917376814
 20
334.5363511192
 40
1.9999512622
100
AcDbArc
 50
0.0
 51
90.0
  0
ARC
  5
2CA
100
AcDbEntity
  8
0
100
AcDbCircle
 62
7
  6
CONTINUOUS
 10
81.091835157
 20
334.5363511192
 40
1.9999512622
100
AcDbArc
 50
90.0
 51
180.0
  0
ARC
  5
2CB
100
AcDbEntity
  8
0
100
AcDbCircle
 62
7
  6
CONTINUOUS
 10
178.5628376814
 20
334.5363511192
 40
1.9999512622
100
AcDbArc
 50
0.0
 51
90.0
  0
ARC
  5
2CC
100
AcDbEntity
  8
0
100
AcDbCircle
 62
7
  6
CONTINUOUS
 10
174.562935157
 20
334.5363511192
 40
1.9999512622
100
AcDbArc
 50
90.0
 51
180.0
  0
ARC
  5
2CD
100
AcDbEntity
  8
0
100
AcDbCircle
 62
7
  6
CONTINUOUS
 10
128.5628376814
 20
334.5363511192
 40
1.9999512622
100
AcDbArc
 50
0.0
 51
90.0
  0
ARC
  5
2CE
100
AcDbEntity
  8
0
100
AcDbCircle
 62
7
  6
CONTINUOUS
 10
124.562935157
 20
334.5363511192
 40
1.9999512622
100
AcDbArc
 50
90.0
 51
180.0
  0
CIRCLE
  5
2CF
100
AcDbEntity
  8
0
100
AcDbCircle
 62
7
  6
CONTINUOUS
 10
158.2828864192
 20
248.4089023814
 40
1.0210126638
  0
ARC
  5
2D0
100
AcDbEntity
  8
0
100
AcDbCircle
 62
7
  6
CONTINUOUS
 10
239.5628891014
 20
344.5363036968
 40
0.5
100
AcDbArc
 50
180.0
 51
270.0
  0
ARC
  5
2D1
100
AcDbEntity
  8
0
100
AcDbCircle
 62
7
  6
CONTINUOUS
 10
239.5628891014
 20
353.336301066
 40
0.5
100
AcDbArc
 50
90.0
 51
180.0
  0
SPLINE
  5
2D2
100
AcDbEntity
  8
0
100
AcDbSpline
 62
7
  6
CONTINUOUS
 70
0
 71
3
 72
18
 73
14
 74
0
 42
0.0000001
 43
0.0000001
 44
0.0000000001
 40
0.0
 40
0.0
 40
0.0
 40
0.0
 40
0.1945714692
 40
0.382024117
 40
0.5545875447
 40
0.7058443681
 40
0.8300628653
 40
0.8804513509
 40
0.9224181678
 40
0.9555551988
 40
0.9795365387
 40
0.9942544697
 40
1.0
 40
1.0
 40
1.0
 40
1.0
 10
73.1743503037
 20
327.6363023814
 30
0.0
 10
73.1743503037
 20
327.3893595599
 30
0.0
 10
73.1727213117
 20
326.9045049249
 30
0.0
 10
73.1655392022
 20
326.2006838846
 30
0.0
 10
73.1539743745
 20
325.5518595785
 30
0.0
 10
73.1386070055
 20
324.9835189977
 30
0.0
 10
73.1225666893
 20
324.5700089184
 30
0.0
 10
73.1076746214
 20
324.2959005791
 30
0.0
 10
73.0969160519
 20
324.1362033369
 30
0.0
 10
73.0859248071
 20
324.012984196
 30
0.0
 10
73.0750939615
 20
323.9176642891
 30
0.0
 10
73.0647331164
 20
323.8708442463
 30
0.0
 10
73.0561669533
 20
323.8362603437
 30
0.0
 10
73.0488749858
 20
323.8362349205
 30
0.0
  0
SPLINE
  5
2D3
100
AcDbEntity
  8
0
100
AcDbSpline
 62
7
  6
CONTINUOUS
 70
0
 71
3
 72
22
 73
18
 74
0
 42
0.0000001
 43
0.0000001
 44
0.0000000001
 40
0.0
 40
0.0
 40
0.0
 40
0.0
 40
0.1948976217
 40
0.3826676002
 40
0.5555236083
 40
0.7070260924
 40
0.7729514084
 40
0.8314103951
 40
0.8818365585
 40
0.9238003668
 40
0.9568800454
 40
0.9699689135
 40
0.980722529
 40
0.9891215643
 40
0.9951467282
 40
0.9987788624
 40
1.0
 40
1.0
 40
1.0
 40
1.0
 10
72.4179187636
 20
327.6363023814
 30
0.0
 10
72.4179187636
 20
327.389424889
 30
0.0
 10
72.4177010345
 20
326.9046984556
 30
0.0
 10
72.4167679813
 20
326.2010154428
 30
0.0
 10
72.4153238534
 20
325.5523016135
 30
0.0
 10
72.4137678963
 20
325.0579312943
 30
0.0
 10
72.4123907974
 20
324.708465223
 30
0.0
 10
72.4113857535
 20
324.4870393986
 30
0.0
 10
72.4104093769
 20
324.2959461551
 30
0.0
 10
72.409413746
 20
324.1370583452
 30
0.0
 10
72.4087107064
 20
324.0253254006
 30
0.0
 10
72.4079494472
 20
323.9533758389
 30
0.0
 10
72.407842128
 20
323.9122176041
 30
0.0
 10
72.4066875535
 20
323.88115725
 30
0.0
 10
72.4081024484
 20
323.8563989052
 30
0.0
 10
72.4046950339
 20
323.8459542069
 30
0.0
 10
72.4076999986
 20
323.8363402444
 30
0.0
 10
72.4061567649
 20
323.8362349845
 30
0.0
  0
SPLINE
  5
2D4
100
AcDbEntity
  8
0
100
AcDbSpline
 62
7
  6
CONTINUOUS
 70
0
 71
3
 72
22
 73
18
 74
0
 42
0.0000001
 43
0.0000001
 44
0.0000000001
 40
0.0
 40
0.0
 40
0.0
 40
0.0
 40
0.0012132677
 40
0.004843347
 40
0.0108700186
 40
0.019271814
 40
0.0300271308
 40
0.0431143306
 40
0.0761831264
 40
0.1181401305
 40
0.1685590613
 40
0.2270067954
 40
0.292923359
 40
0.4444191669
 40
0.6172826463
 40
0.8050775977
 40
1.0
 40
1.0
 40
1.0
 40
1.0
 10
72.4061567651
 20
331.4363697786
 30
0.0
 10
72.4076900422
 20
331.4364745198
 30
0.0
 10
72.4046982813
 20
331.426374501
 30
0.0
 10
72.4081026178
 20
331.4164317191
 30
0.0
 10
72.4066870856
 20
331.3913892608
 30
0.0
 10
72.4078421989
 20
331.3604451663
 30
0.0
 10
72.407949479
 20
331.3192357771
 30
0.0
 10
72.408710628
 20
331.2473224109
 30
0.0
 10
72.409413386
 20
331.1355994264
 30
0.0
 10
72.4104088639
 20
330.9767494373
 30
0.0
 10
72.4113851954
 20
330.7856860146
 30
0.0
 10
72.4123902385
 20
330.5642954239
 30
0.0
 10
72.4137672958
 20
330.2148628434
 30
0.0
 10
72.4153232811
 20
329.7205027708
 30
0.0
 10
72.4167677879
 20
329.071756226
 30
0.0
 10
72.41770086
 20
328.3680007359
 30
0.0
 10
72.4179187636
 20
327.8832112674
 30
0.0
 10
72.4179187636
 20
327.6363023814
 30
0.0
  0
SPLINE
  5
2D5
100
AcDbEntity
  8
0
100
AcDbSpline
 62
7
  6
CONTINUOUS
 70
0
 71
3
 72
18
 73
14
 74
0
 42
0.0000001
 43
0.0000001
 44
0.0000000001
 40
0.0
 40
0.0
 40
0.0
 40
0.0
 40
0.0057372649
 40
0.0204592947
 40
0.0444406178
 40
0.0775668068
 40
0.1195267616
 40
0.1699079571
 40
0.2941063792
 40
0.4453563454
 40
0.6179269312
 40
0.8054041613
 40
1.0
 40
1.0
 40
1.0
 40
1.0
 10
73.0488749888
 20
331.4363698486
 30
0.0
 10
73.0561564764
 20
331.4363953965
 30
0.0
 10
73.0647587826
 20
331.4017322436
 30
0.0
 10
73.0750778821
 20
331.3549972852
 30
0.0
 10
73.0859283388
 20
331.2596422567
 30
0.0
 10
73.0969124247
 20
331.1364639374
 30
0.0
 10
73.1076709647
 20
330.9767910086
 30
0.0
 10
73.1225599062
 20
330.7027289464
 30
0.0
 10
73.1386025315
 20
330.2892597275
 30
0.0
 10
73.1539695846
 20
329.7209442602
 30
0.0
 10
73.1655374623
 20
329.072087186
 30
0.0
 10
73.1727203643
 20
328.3681939875
 30
0.0
 10
73.1743503037
 20
327.8832764946
 30
0.0
 10
73.1743503037
 20
327.6363023814
 30
0.0
  0
SPLINE
  5
2D6
100
AcDbEntity
  8
0
100
AcDbSpline
 62
7
  6
CONTINUOUS
 70
0
 71
3
 72
18
 73
14
 74
0
 42
0.0000001
 43
0.0000001
 44
0.0000000001
 40
0.0
 40
0.0
 40
0.0
 40
0.0
 40
0.0061114535
 40
0.0209435461
 40
0.0449699516
 40
0.0781233573
 40
0.1200872958
 40
0.1704590885
 40
0.2945806311
 40
0.44570429
 40
0.6181699284
 40
0.8055458259
 40
1.0
 40
1.0
 40
1.0
 40
1.0
 10
72.6884682339
 20
114.4363024053
 30
0.0
 10
72.696231429
 20
114.4363046655
 30
0.0
 10
72.708542432
 20
114.4692262469
 30
0.0
 10
72.7197623946
 20
114.5180251716
 30
0.0
 10
72.7337655511
 20
114.6123730355
 30
0.0
 10
72.7468013249
 20
114.7359767359
 30
0.0
 10
72.7600393058
 20
114.8954738048
 30
0.0
 10
72.77812272
 20
115.1695559787
 30
0.0
 10
72.7977391813
 20
115.5829234381
 30
0.0
 10
72.8164950187
 20
116.1512641058
 30
0.0
 10
72.8306402915
 20
116.8002105709
 30
0.0
 10
72.839418563
 20
117.5042615543
 30
0.0
 10
72.8414134028
 20
117.9892930988
 30
0.0
 10
72.8414134028
 20
118.2363023814
 30
0.0
  0
SPLINE
  5
2D7
100
AcDbEntity
  8
0
100
AcDbSpline
 62
7
  6
CONTINUOUS
 70
0
 71
3
 72
14
 73
10
 74
0
 42
0.0000001
 43
0.0000001
 44
0.0000000001
 40
0.0
 40
0.0
 40
0.0
 40
0.0
 40
0.027356313
 40
0.0863748749
 40
0.1788092842
 40
0.3020002319
 40
0.4515984066
 40
0.6222099289
 40
1.0
 40
1.0
 40
1.0
 40
1.0
 10
39.9594405021
 20
303.946303419
 30
0.0
 10
39.996492659
 20
303.9462818513
 30
0.0
 10
40.0728945728
 20
304.0703264683
 30
0.0
 10
40.1306153877
 20
304.2861488447
 30
0.0
 10
40.2044841301
 20
304.660964178
 30
0.0
 10
40.2638328119
 20
305.1483232418
 30
0.0
 10
40.3166364602
 20
305.7480326508
 30
0.0
 10
40.3702228164
 20
306.6914254819
 30
0.0
 10
40.3853383207
 20
307.434612836
 30
0.0
 10
40.3853383207
 20
307.9463023814
 30
0.0
  0
SPLINE
  5
2D8
100
AcDbEntity
  8
0
100
AcDbSpline
 62
7
  6
CONTINUOUS
 70
0
 71
3
 72
14
 73
10
 74
0
 42
0.0000001
 43
0.0000001
 44
0.0000000001
 40
0.0
 40
0.0
 40
0.0
 40
0.0
 40
0.0263568102
 40
0.0851249839
 40
0.1774967622
 40
0.3008161874
 40
0.4506328626
 40
0.6215574634
 40
1.0
 40
1.0
 40
1.0
 40
1.0
 10
39.5629574766
 20
168.2463648522
 30
0.0
 10
39.5870030024
 20
168.2463742029
 30
0.0
 10
39.6342598358
 20
168.3323536932
 30
0.0
 10
39.6698585721
 20
168.4755700631
 30
0.0
 10
39.715800474
 20
168.729511093
 30
0.0
 10
39.7524674953
 20
169.0580047698
 30
0.0
 10
39.7850747853
 20
169.4629455433
 30
0.0
 10
39.8180731701
 20
170.0995673749
 30
0.0
 10
39.8273574214
 20
170.6010462459
 30
0.0
 10
39.8273574214
 20
170.9463023814
 30
0.0
  0
SPLINE
  5
2D9
100
AcDbEntity
  8
0
100
AcDbSpline
 62
7
  6
CONTINUOUS
 70
0
 71
3
 72
18
 73
14
 74
0
 42
0.0000001
 43
0.0000001
 44
0.0000000001
 40
0.0
 40
0.0
 40
0.0
 40
0.0
 40
0.1944742925
 40
0.3818715331
 40
0.55431845
 40
0.7054218618
 40
0.8295318603
 40
0.8799044491
 40
0.9218718759
 40
0.9550258121
 40
0.9790534323
 40
0.9938882478
 40
1.0
 40
1.0
 40
1.0
 40
1.0
 10
72.8414134028
 20
118.2363023814
 30
0.0
 10
72.8414134028
 20
118.4833371994
 30
0.0
 10
72.8394157645
 20
118.9684213575
 30
0.0
 10
72.8306398655
 20
119.6725011918
 30
0.0
 10
72.8164924679
 20
120.3214251936
 30
0.0
 10
72.7977384872
 20
120.8897015972
 30
0.0
 10
72.7781228696
 20
121.3030298346
 30
0.0
 10
72.7600405166
 20
121.5771024671
 30
0.0
 10
72.7468038761
 20
121.736606557
 30
0.0
 10
72.7337678322
 20
121.8602148969
 30
0.0
 10
72.7197623942
 20
121.9545730206
 30
0.0
 10
72.7085445124
 20
122.0033679956
 30
0.0
 10
72.6962322509
 20
122.0363048042
 30
0.0
 10
72.6884686771
 20
122.0363023504
 30
0.0
  0
SPLINE
  5
2DA
100
AcDbEntity
  8
0
100
AcDbSpline
 62
7
  6
CONTINUOUS
 70
0
 71
3
 72
14
 73
10
 74
0
 42
0.0000001
 43
0.0000001
 44
0.0000000001
 40
0.0
 40
0.0
 40
0.0
 40
0.0
 40
0.3784311682
 40
0.5493672903
 40
0.6991937398
 40
0.8225112972
 40
0.9148846262
 40
0.9736421641
 40
1.0
 40
1.0
 40
1.0
 40
1.0
 10
39.8273574214
 20
170.9463023814
 30
0.0
 10
39.8273574214
 20
171.2915479551
 30
0.0
 10
39.8180762819
 20
171.7930274576
 30
0.0
 10
39.7850698849
 20
172.4296560786
 30
0.0
 10
39.7524694401
 20
172.8346183277
 30
0.0
 10
39.7157919972
 20
173.1631104102
 30
0.0
 10
39.6698698316
 20
173.4170648517
 30
0.0
 10
39.6342407631
 20
173.5602308464
 30
0.0
 10
39.5870006701
 20
173.6462483381
 30
0.0
 10
39.5629542216
 20
173.6462397699
 30
0.0
  0
SPLINE
  5
2DB
100
AcDbEntity
  8
0
100
AcDbSpline
 62
7
  6
CONTINUOUS
 70
0
 71
3
 72
14
 73
10
 74
0
 42
0.0000001
 43
0.0000001
 44
0.0000000001
 40
0.0
 40
0.0
 40
0.0
 40
0.0
 40
0.3777815304
 40
0.5484026202
 40
0.6980046809
 40
0.8212003798
 40
0.9136261159
 40
0.9726486175
 40
1.0
 40
1.0
 40
1.0
 40
1.0
 10
40.3853383207
 20
307.9463023814
 30
0.0
 10
40.3853383207
 20
308.4579812925
 30
0.0
 10
40.3702221686
 20
309.2011701491
 30
0.0
 10
40.3166365998
 20
310.1445743093
 30
0.0
 10
40.2638247624
 20
310.7443021874
 30
0.0
 10
40.2044924806
 20
311.2316822631
 30
0.0
 10
40.1305930292
 20
311.6064498999
 30
0.0
 10
40.072906226
 20
311.8223477606
 30
0.0
 10
39.9964810211
 20
311.9462825562
 30
0.0
 10
39.9594354732
 20
311.9463015902
 30
0.0
  0
SPLINE
  5
2DC
100
AcDbEntity
  8
0
100
AcDbSpline
 62
7
  6
CONTINUOUS
 70
0
 71
3
 72
9
 73
5
 74
0
 42
0.0000001
 43
0.0000001
 44
0.0000000001
 40
0.0
 40
0.0
 40
0.0
 40
0.0
 40
0.4934787763
 40
1.0
 40
1.0
 40
1.0
 40
1.0
 10
37.7625621068
 20
212.4778203614
 30
0.0
 10
38.0032374554
 20
226.8335328515
 30
0.0
 10
38.4735774261
 20
255.9248016914
 30
0.0
 10
38.6569417884
 20
285.0199658608
 30
0.0
 10
38.6569417884
 20
299.7571647659
 30
0.0
  0
SPLINE
  5
2DD
100
AcDbEntity
  8
0
100
AcDbSpline
 62
7
  6
CONTINUOUS
 70
0
 71
3
 72
9
 73
5
 74
0
 42
0.0000001
 43
0.0000001
 44
0.0000000001
 40
0.0
 40
0.0
 40
0.0
 40
0.0
 40
0.5065212103
 40
1.0
 40
1.0
 40
1.0
 40
1.0
 10
37.6579419368
 20
299.7571647659
 30
0.0
 10
37.6579419368
 20
285.0199662517
 30
0.0
 10
37.4745774111
 20
255.9248020853
 30
0.0
 10
37.0042379984
 20
226.8335332359
 30
0.0
 10
36.7635622552
 20
212.4778203614
 30
0.0
  0
SPLINE
  5
2DE
100
AcDbEntity
  8
0
100
AcDbSpline
 62
7
  6
CONTINUOUS
 70
0
 71
3
 72
9
 73
5
 74
0
 42
0.0000001
 43
0.0000001
 44
0.0000000001
 40
0.0
 40
0.0
 40
0.0
 40
0.0
 40
0.5288767087
 40
1.0
 40
1.0
 40
1.0
 40
1.0
 10
36.763571562
 20
212.4778203614
 30
0.0
 10
36.6861049828
 20
207.4591377575
 30
0.0
 10
36.4981809324
 20
197.9704775075
 30
0.0
 10
36.2796147183
 20
188.4825248583
 30
0.0
 10
36.1952248116
 20
184.0121470763
 30
0.0
  0
SPLINE
  5
2DF
100
AcDbEntity
  8
0
100
AcDbSpline
 62
7
  6
CONTINUOUS
 70
0
 71
3
 72
9
 73
5
 74
0
 42
0.0000001
 43
0.0000001
 44
0.0000000001
 40
0.0
 40
0.0
 40
0.0
 40
0.0
 40
0.4711221606
 40
1.0
 40
1.0
 40
1.0
 40
1.0
 10
37.1942231825
 20
184.0121470763
 30
0.0
 10
37.2786138423
 20
188.4825140626
 30
0.0
 10
37.4971784781
 20
197.97046665
 30
0.0
 10
37.6850872868
 20
207.4591270809
 30
0.0
 10
37.7625539059
 20
212.4778203614
 30
0.0
  0
SPLINE
  5
2E0
100
AcDbEntity
  8
0
100
AcDbSpline
 62
7
  6
CONTINUOUS
 70
0
 71
3
 72
12
 73
8
 74
0
 42
0.0000001
 43
0.0000001
 44
0.0000000001
 40
0.0
 40
0.0
 40
0.0
 40
0.0
 40
0.4185870636
 40
0.7346898553
 40
0.8489736037
 40
0.9319359509
 40
1.0
 40
1.0
 40
1.0
 40
1.0
 10
36.1952235211
 20
184.0121470763
 30
0.0
 10
36.1812988493
 20
183.1800278723
 30
0.0
 10
36.1531919286
 20
181.7195779722
 30
0.0
 10
36.1156906267
 20
180.0320712962
 30
0.0
 10
36.0884646091
 20
179.0117728436
 30
0.0
 10
36.0775143065
 20
178.4844257693
 30
0.0
 10
36.0638757526
 20
178.1843352484
 30
0.0
 10
36.0639064243
 20
178.0490101625
 30
0.0
  0
SPLINE
  5
2E1
100
AcDbEntity
  8
0
100
AcDbSpline
 62
7
  6
CONTINUOUS
 70
0
 71
3
 72
25
 73
21
 74
0
 42
0.0000001
 43
0.0000001
 44
0.0000000001
 40
0.0
 40
0.0
 40
0.0
 40
0.0
 40
0.0023137998
 40
0.0093738204
 40
0.021116472
 40
0.0374670539
 40
0.0833022401
 40
0.1452150644
 40
0.2209087405
 40
0.3075702472
 40
0.4999801117
 40
0.6923937826
 40
0.7790626329
 40
0.8547612038
 40
0.9166763426
 40
0.9625121662
 40
0.978866545
 40
0.9906160805
 40
0.9976830379
 40
1.0
 40
1.0
 40
1.0
 40
1.0
 10
36.0639448805
 20
197.3946619285
 30
0.0
 10
36.0653099724
 20
197.389787381
 30
0.0
 10
36.062512013
 20
197.4347391937
 30
0.0
 10
36.0658646674
 20
197.4571512233
 30
0.0
 10
36.0647853602
 20
197.5475077742
 30
0.0
 10
36.0669174521
 20
197.7011777071
 30
0.0
 10
36.0678605485
 20
197.9785260354
 30
0.0
 10
36.0702984868
 20
198.3771524802
 30
0.0
 10
36.0722508232
 20
198.8687710157
 30
0.0
 10
36.07471554
 20
199.6445164694
 30
0.0
 10
36.0759756369
 20
200.676180199
 30
0.0
 10
36.0747160702
 20
201.7078598803
 30
0.0
 10
36.0722524951
 20
202.4836405789
 30
0.0
 10
36.0702992072
 20
202.9752906266
 30
0.0
 10
36.0678612753
 20
203.3739352266
 30
0.0
 10
36.0669173764
 20
203.6512961848
 30
0.0
 10
36.0647851738
 20
203.8049923271
 30
0.0
 10
36.0658653221
 20
203.8953919107
 30
0.0
 10
36.0625099089
 20
203.9178223894
 30
0.0
 10
36.0653118382
 20
203.9628240441
 30
0.0
 10
36.0639448805
 20
203.9579428344
 30
0.0
  0
SPLINE
  5
2E2
100
AcDbEntity
  8
0
100
AcDbSpline
 62
7
  6
CONTINUOUS
 70
0
 71
3
 72
9
 73
5
 74
0
 42
0.0000001
 43
0.0000001
 44
0.0000000001
 40
0.0
 40
0.0
 40
0.0
 40
0.0
 40
0.5933047536
 40
1.0
 40
1.0
 40
1.0
 40
1.0
 10
36.5049729395
 20
221.6463023814
 30
0.0
 10
36.5049729395
 20
222.2747530188
 30
0.0
 10
36.4917860862
 20
223.3337345326
 30
0.0
 10
36.4612334632
 20
224.3932221648
 30
0.0
 10
36.4275465431
 20
224.8226898619
 30
0.0
  0
SPLINE
  5
2E3
100
AcDbEntity
  8
0
100
AcDbSpline
 62
7
  6
CONTINUOUS
 70
0
 71
3
 72
9
 73
5
 74
0
 42
0.0000001
 43
0.0000001
 44
0.0000000001
 40
0.0
 40
0.0
 40
0.0
 40
0.0
 40
0.4066893036
 40
1.0
 40
1.0
 40
1.0
 40
1.0
 10
36.4275465431
 20
218.4699149004
 30
0.0
 10
36.4612329708
 20
218.8993763223
 30
0.0
 10
36.4917860489
 20
219.958863929
 30
0.0
 10
36.5049729395
 20
221.0178454488
 30
0.0
 10
36.5049729395
 20
221.6463023814
 30
0.0
  0
SPLINE
  5
2E4
100
AcDbEntity
  8
0
100
AcDbSpline
 62
7
  6
CONTINUOUS
 70
0
 71
3
 72
11
 73
7
 74
0
 42
0.0000001
 43
0.0000001
 44
0.0000000001
 40
0.0
 40
0.0
 40
0.0
 40
0.0
 40
0.4783098831
 40
0.7657441262
 40
0.8700431205
 40
1.0
 40
1.0
 40
1.0
 40
1.0
 10
36.427543925
 20
224.8227109782
 30
0.0
 10
36.4239726744
 20
224.8552340351
 30
0.0
 10
36.4142404858
 20
224.9105229448
 30
0.0
 10
36.4113442847
 20
224.960840835
 30
0.0
 10
36.3870767026
 20
225.0061416102
 30
0.0
 10
36.3785513362
 20
224.9796959667
 30
0.0
 10
36.3761189824
 20
224.9711455722
 30
0.0
  0
SPLINE
  5
2E5
100
AcDbEntity
  8
0
100
AcDbSpline
 62
7
  6
CONTINUOUS
 70
0
 71
3
 72
11
 73
7
 74
0
 42
0.0000001
 43
0.0000001
 44
0.0000000001
 40
0.0
 40
0.0
 40
0.0
 40
0.0
 40
0.1299865499
 40
0.234292028
 40
0.5217435422
 40
1.0
 40
1.0
 40
1.0
 40
1.0
 10
36.3761190214
 20
218.321459509
 30
0.0
 10
36.3785521224
 20
218.3129064876
 30
0.0
 10
36.3870749067
 20
218.2864501898
 30
0.0
 10
36.4113449122
 20
218.3317624014
 30
0.0
 10
36.4142391827
 20
218.3820807879
 30
0.0
 10
36.4239727828
 20
218.4373717636
 30
0.0
 10
36.4275439219
 20
218.4698937527
 30
0.0
  0
SPLINE
  5
2E6
100
AcDbEntity
  8
0
100
AcDbSpline
 62
7
  6
CONTINUOUS
 70
0
 71
3
 72
14
 73
10
 74
0
 42
0.0000001
 43
0.0000001
 44
0.0000000001
 40
0.0
 40
0.0
 40
0.0
 40
0.0
 40
0.3786110222
 40
0.5496232094
 40
0.6994958294
 40
0.8228109133
 40
0.9151195835
 40
0.9737571556
 40
1.0
 40
1.0
 40
1.0
 40
1.0
 10
39.3119241664
 20
170.9463023814
 30
0.0
 10
39.3119241664
 20
170.6011213183
 30
0.0
 10
39.3202515242
 20
170.0997555874
 30
0.0
 10
39.350274193
 20
169.4631357184
 30
0.0
 10
39.380359787
 20
169.0581369423
 30
0.0
 10
39.4144674434
 20
168.7296348436
 30
0.0
 10
39.4583191423
 20
168.475612329
 30
0.0
 10
39.4923152073
 20
168.3325281153
 30
0.0
 10
39.5390317806
 20
168.2463555481
 30
0.0
 10
39.5629574766
 20
168.2463648522
 30
0.0
  0
SPLINE
  5
2E7
100
AcDbEntity
  8
0
100
AcDbSpline
 62
7
  6
CONTINUOUS
 70
0
 71
3
 72
14
 73
10
 74
0
 42
0.0000001
 43
0.0000001
 44
0.0000000001
 40
0.0
 40
0.0
 40
0.0
 40
0.0
 40
0.3780655456
 40
0.5488056237
 40
0.6984802919
 40
0.8216707978
 40
0.9139932146
 40
0.9728265883
 40
1.0
 40
1.0
 40
1.0
 40
1.0
 10
39.5629539953
 20
307.9463023814
 30
0.0
 10
39.5629539953
 20
307.4347753206
 30
0.0
 10
39.575963991
 20
306.6918566959
 30
0.0
 10
39.6229917325
 20
305.7484705531
 30
0.0
 10
39.6702543031
 20
305.1486612033
 30
0.0
 10
39.7239417691
 20
304.6612405965
 30
0.0
 10
39.7932820269
 20
304.28634592
 30
0.0
 10
39.8473581078
 20
304.0705655679
 30
0.0
 10
39.9226745677
 20
303.9463248202
 30
0.0
 10
39.9594405021
 20
303.946303419
 30
0.0
  0
SPLINE
  5
2E8
100
AcDbEntity
  8
0
100
AcDbSpline
 62
7
  6
CONTINUOUS
 70
0
 71
3
 72
14
 73
10
 74
0
 42
0.0000001
 43
0.0000001
 44
0.0000000001
 40
0.0
 40
0.0
 40
0.0
 40
0.0
 40
0.0262416076
 40
0.0848900346
 40
0.177197041
 40
0.3005139491
 40
0.450376806
 40
0.6213774453
 40
1.0
 40
1.0
 40
1.0
 40
1.0
 10
39.5629542216
 20
173.6462397699
 30
0.0
 10
39.5390296401
 20
173.6462312451
 30
0.0
 10
39.4922959312
 20
173.5600969103
 30
0.0
 10
39.4583301758
 20
173.4169625841
 30
0.0
 10
39.4144580054
 20
173.1629535146
 30
0.0
 10
39.3803618144
 20
172.8344498296
 30
0.0
 10
39.3502701973
 20
172.4294725092
 30
0.0
 10
39.3202541098
 20
171.7928593997
 30
0.0
 10
39.3119241664
 20
171.2914941437
 30
0.0
 10
39.3119241664
 20
170.9463023814
 30
0.0
  0
SPLINE
  5
2E9
100
AcDbEntity
  8
0
100
AcDbSpline
 62
7
  6
CONTINUOUS
 70
0
 71
3
 72
12
 73
8
 74
0
 42
0.0000001
 43
0.0000001
 44
0.0000000001
 40
0.0
 40
0.0
 40
0.0
 40
0.0
 40
0.0680645074
 40
0.1510267878
 40
0.2653111602
 40
0.58141376
 40
1.0
 40
1.0
 40
1.0
 40
1.0
 10
37.0629062868
 20
178.0490102279
 30
0.0
 10
37.0628870186
 20
178.1843362256
 30
0.0
 10
37.0765080311
 20
178.4844275114
 30
0.0
 10
37.0874670365
 20
179.011776609
 30
0.0
 10
37.1146886368
 20
180.0320757625
 30
0.0
 10
37.152193087
 20
181.7195816546
 30
0.0
 10
37.1802985705
 20
183.1800295213
 30
0.0
 10
37.1942233727
 20
184.0121470763
 30
0.0
  0
SPLINE
  5
2EA
100
AcDbEntity
  8
0
100
AcDbSpline
 62
7
  6
CONTINUOUS
 70
0
 71
3
 72
18
 73
14
 74
0
 42
0.0000001
 43
0.0000001
 44
0.0000000001
 40
0.0
 40
0.0
 40
0.0
 40
0.0
 40
0.0060895535
 40
0.0208969337
 40
0.0449016005
 40
0.0780376061
 40
0.1199890964
 40
0.1703536655
 40
0.2944761306
 40
0.4456166015
 40
0.6181085654
 40
0.8055148198
 40
1.0
 40
1.0
 40
1.0
 40
1.0
 10
72.6884686771
 20
122.0363023504
 30
0.0
 10
72.6807350081
 20
122.0362999061
 30
0.0
 10
72.6685985411
 20
122.0033272467
 30
0.0
 10
72.6578193164
 20
121.9545786715
 30
0.0
 10
72.6444749923
 20
121.8602110929
 30
0.0
 10
72.6323434727
 20
121.7366211835
 30
0.0
 10
72.620197374
 20
121.5771155278
 30
0.0
 10
72.6039020375
 20
121.3030084568
 30
0.0
 10
72.5867094379
 20
120.8896123912
 30
0.0
 10
72.5706901231
 20
120.3212605795
 30
0.0
 10
72.5588703339
 20
119.6723201435
 30
0.0
 10
72.551635432
 20
118.9682982256
 30
0.0
 10
72.5500086398
 20
118.4832965331
 30
0.0
 10
72.5500086398
 20
118.2363023814
 30
0.0
  0
SPLINE
  5
2EB
100
AcDbEntity
  8
0
100
AcDbSpline
 62
7
  6
CONTINUOUS
 70
0
 71
3
 72
18
 73
14
 74
0
 42
0.0000001
 43
0.0000001
 44
0.0000000001
 40
0.0
 40
0.0
 40
0.0
 40
0.0
 40
0.1945913482
 40
0.3820634646
 40
0.5546438678
 40
0.7059115967
 40
0.8301308153
 40
0.8805147508
 40
0.9224736898
 40
0.9555996818
 40
0.9795672085
 40
0.9942693386
 40
1.0
 40
1.0
 40
1.0
 40
1.0
 10
72.9345608324
 20
327.6363023814
 30
0.0
 10
72.9345608324
 20
327.8832355561
 30
0.0
 10
72.9359073146
 20
328.3680711753
 30
0.0
 10
72.9419000325
 20
329.0718737569
 30
0.0
 10
72.9516754799
 20
329.7206943263
 30
0.0
 10
72.9649343628
 20
330.2890418683
 30
0.0
 10
72.9791074262
 20
330.7025704312
 30
0.0
 10
72.9926199851
 20
330.9766939223
 30
0.0
 10
73.0025339675
 20
331.1363981274
 30
0.0
 10
73.0128322708
 20
331.2596047111
 30
0.0
 10
73.0231471227
 20
331.3549452593
 30
0.0
 10
73.0331886878
 20
331.4017180145
 30
0.0
 10
73.0416029198
 20
331.4363443338
 30
0.0
 10
73.0488749888
 20
331.4363698486
 30
0.0
  0
SPLINE
  5
2EC
100
AcDbEntity
  8
0
100
AcDbSpline
 62
7
  6
CONTINUOUS
 70
0
 71
3
 72
18
 73
14
 74
0
 42
0.0000001
 43
0.0000001
 44
0.0000000001
 40
0.0
 40
0.0
 40
0.0
 40
0.0
 40
0.1945052771
 40
0.3819328428
 40
0.5544061217
 40
0.7055263634
 40
0.8296372818
 40
0.8800026473
 40
0.9219576317
 40
0.9550941699
 40
0.9791000455
 40
0.9939101391
 40
1.0
 40
1.0
 40
1.0
 40
1.0
 10
72.5500086398
 20
118.2363023814
 30
0.0
 10
72.5500086398
 20
117.9892827241
 30
0.0
 10
72.5516372632
 20
117.5042284839
 30
0.0
 10
72.5588709053
 20
116.8001777495
 30
0.0
 10
72.5706924623
 20
116.151259725
 30
0.0
 10
72.58670967
 20
115.5829720794
 30
0.0
 10
72.6039017124
 20
115.1696152083
 30
0.0
 10
72.620196052
 20
114.8955176741
 30
0.0
 10
72.6323407517
 20
114.7360049973
 30
0.0
 10
72.6444728261
 20
114.6124104604
 30
0.0
 10
72.6578195836
 20
114.5180326889
 30
0.0
 10
72.6685963903
 20
114.4692879753
 30
0.0
 10
72.6807341749
 20
114.4363001536
 30
0.0
 10
72.6884682339
 20
114.4363024053
 30
0.0
  0
SPLINE
  5
2ED
100
AcDbEntity
  8
0
100
AcDbSpline
 62
7
  6
CONTINUOUS
 70
0
 71
3
 72
14
 73
10
 74
0
 42
0.0000001
 43
0.0000001
 44
0.0000000001
 40
0.0
 40
0.0
 40
0.0
 40
0.0
 40
0.0271785126
 40
0.0860077607
 40
0.1783389287
 40
0.3015245302
 40
0.4511952899
 40
0.6219257693
 40
1.0
 40
1.0
 40
1.0
 40
1.0
 10
39.9594354732
 20
311.9463015902
 30
0.0
 10
39.9226626981
 20
311.946320484
 30
0.0
 10
39.8473706495
 20
311.8219696512
 30
0.0
 10
39.7932573056
 20
311.6062656068
 30
0.0
 10
39.7239510829
 20
311.2313228327
 30
0.0
 10
39.6702453512
 20
310.7439236167
 30
0.0
 10
39.622993427
 20
310.1441326562
 30
0.0
 10
39.5759626669
 20
309.2007577698
 30
0.0
 10
39.5629539953
 20
308.4578403271
 30
0.0
 10
39.5629539953
 20
307.9463023814
 30
0.0
  0
SPLINE
  5
2EE
100
AcDbEntity
  8
0
100
AcDbSpline
 62
7
  6
CONTINUOUS
 70
0
 71
3
 72
18
 73
14
 74
0
 42
0.0000001
 43
0.0000001
 44
0.0000000001
 40
0.0
 40
0.0
 40
0.0
 40
0.0
 40
0.0057224609
 40
0.0204286788
 40
0.0443961747
 40
0.0775113134
 40
0.1194633909
 40
0.1698400376
 40
0.294039173
 40
0.4453000386
 40
0.6178875937
 40
0.8053842848
 40
1.0
 40
1.0
 40
1.0
 40
1.0
 10
73.0488749858
 20
323.8362349205
 30
0.0
 10
73.0416133115
 20
323.8362096029
 30
0.0
 10
73.0331621142
 20
323.8709147949
 30
0.0
 10
73.0231636539
 20
323.9176029385
 30
0.0
 10
73.0128287604
 20
324.0129783809
 30
0.0
 10
73.0025370088
 20
324.1361441463
 30
0.0
 10
72.9926230316
 20
324.2958240105
 30
0.0
 10
72.9791137247
 20
324.5699012467
 30
0.0
 10
72.9649382083
 20
324.9833889522
 30
0.0
 10
72.951679563
 20
325.5517113779
 30
0.0
 10
72.9419015627
 20
326.2005647171
 30
0.0
 10
72.935907994
 20
326.9044394448
 30
0.0
 10
72.9345608324
 20
327.3893379157
 30
0.0
 10
72.9345608324
 20
327.6363023814
 30
0.0
  0
ENDSEC
  0
SECTION
  2
OBJECTS
  0
DICTIONARY
  5
C
100
AcDbDictionary
280
0
281
1
  3
ACAD_GROUP
350
D
  3
ACAD_MLINESTYLE
350
17
  3
ACAD_LAYOUT
350
1A
  3
ACAD_PLOTSETTINGS
350
19
  3
ACAD_PLOTSTYLENAME
350
E
  0
DICTIONARY
  5
D
102
{ACAD_REACTORS
330
C
102
}
100
AcDbDictionary
280
0
281
1
  0
ACDBDICTIONARYWDFLT
  5
E
102
{ACAD_REACTORS
330
C
102
}
100
AcDbDictionary
281
1
  3
Normal
350
F
100
AcDbDictionaryWithDefault
340
F
  0
DICTIONARY
  5
17
102
{ACAD_REACTORS
330
C
102
}
100
AcDbDictionary
280
0
281
1
  3
Standard
350
18
  0
DICTIONARY
  5
19
102
{ACAD_REACTORS
330
C
102
}
100
AcDbDictionary
281
1
  0
DICTIONARY
  5
1A
102
{ACAD_REACTORS
330
C
102
}
100
AcDbDictionary
281
1
  3
Model
350
2EF
  3
Layout1
350
2F0
  0
ACDBPLACEHOLDER
  5
F
102
{ACAD_REACTORS
330
E
102
}
  0
MLINESTYLE
  5
18
102
{ACAD_REACTORS
330
17
102
}
100
AcDbMlineStyle
  2
STANDARD
 70
0
  3

 62
256
 51
90.0
 52
90.0
 71
2
 49
0.5
 62
256
  6
BYLAYER
 49
-0.5
 62
256
  6
BYLAYER
  0
LAYOUT
  5
2EF
102
{ACAD_REACTORS
330
1A
102
}
100
AcDbPlotSettings
  1

  2
none_device
  4

  6

 40
0.0
 41
0.0
 42
0.0
 43
0.0
 44
210.0
 45
297.0
 46
0.0
 47
0.0
 48
0.0
 49
0.0
140
0.0
141
0.0
142
1.0
143
1.0
 70
1024
 72
1
 73
0
 74
0
  7

 75
0
147
1.0
148
0.0
149
0.0
100
AcDbLayout
  1
Model
 70
0
 71
0
 10
0.0
 20
0.0
 11
210.0
 21
297.0
 12
0.0
 22
0.0
 32
0.0
 14
0.0
 24
0.0
 34
0.0
 15
0.0
 25
0.0
 35
0.0
146
0.0
 13
0.0
 23
0.0
 33
0.0
 16
1.0
 26
0.0
 36
0.0
 17
0.0
 27
1.0
 37
0.0
 76
0
330
210
345
0
346
0
  0
LAYOUT
  5
2F0
102
{ACAD_REACTORS
330
1A
102
}
100
AcDbPlotSettings
  1

  2
none_device
  4

  6

 40
0.0
 41
0.0
 42
0.0
 43
0.0
 44
210.0
 45
297.0
 46
0.0
 47
0.0
 48
0.0
 49
0.0
140
0.0
141
0.0
142
1.0
143
1.0
 70
0
 72
1
 73
0
 74
0
  7

 75
0
147
1.0
148
0.0
149
0.0
100
AcDbLayout
  1
Layout1
 70
0
 71
1
 10
0.0
 20
0.0
 11
210.0
 21
297.0
 12
0.0
 22
0.0
 32
0.0
 14
0.0
 24
0.0
 34
0.0
 15
0.0
 25
0.0
 35
0.0
146
0.0
 13
0.0
 23
0.0
 33
0.0
 16
1.0
 26
0.0
 36
0.0
 17
0.0
 27
1.0
 37
0.0
 76
0
330
211
345
0
346
0
  0
ENDSEC
  0
EOF
