999
DXF file: C:\Users\sesa63760\Dev\_Creo\CAD\MCADFD0002474_3D-CAD\drw0001_1.dxf
999
Pro/ENGINEER 2019471 by Parametric Technology Corporation
  0
SECTION
  2
HEADER
  9
$ACADVER
  1
AC1024
  9
$DWGCODEPAGE
  3
ANSI_1252
  9
$EXTMAX
 10
80.3066725737
 20
113.5765797828
 30
0.0
  9
$EXTMIN
 10
0.0
 20
0.0
 30
0.0
  9
$LIMMIN
 10
0.0
 20
0.0
  9
$LIMMAX
 10
80.3066725737
 20
113.5765797828
  9
$VIEWCTR
 10
40.1533362868
 20
56.7882898914
  9
$VIEWSIZE
 40
113.5765797828
  9
$CLAYER
  8
0
  9
$LTSCALE
 40
7.4035103858
  9
$CELTYPE
  6
BYLAYER
  9
$DIMSCALE
 40
1.0
  9
$DIMASZ
 40
0.9560318164
  9
$DIMEXO
 40
1.0
  9
$DIMDLI
 40
5.1151526302
  9
$DIMEXE
 40
1.0
  9
$DIMCEN
 40
1.2114835177
  9
$DIMLFAC
 40
1.0
  9
$DIMBLK
  1
_FILLED
  9
$DIMALT
 70
0
  9
$DIMALTF
 40
0.0393700787
  9
$DIMTXT
 40
1.3384445429
  9
$DIMTOL
 70
1
  9
$DIMLIM
 70
0
  9
$DIMTFAC
 40
1.0
  9
$DIMTP
 40
0.01
  9
$DIMTM
 40
0.01
  9
$DIMGAP
 40
0.625
  9
$DIMDSEP
 70
46
  9
$AUNITS
 70
0
  9
$PDMODE
 70
3
  9
$PDSIZE
 40
0.3125
  9
$HANDSEED
  5
38B
  9
$TILEMODE
 70
1
  9
$MEASUREMENT
 70
1
  9
$INSUNITS
 70
4
  0
ENDSEC
  0
SECTION
  2
CLASSES
  0
CLASS
  1
ACDBDICTIONARYWDFLT
  2
AcDbDictionaryWithDefault
  3
AutoCAD 2000
 90
0
 91
1
280
0
281
0
  0
CLASS
  1
ACDBPLACEHOLDER
  2
AcDbPlaceHolder
  3
AutoCAD 2000
 90
0
 91
1
280
0
281
0
  0
CLASS
  1
LAYOUT
  2
AcDbLayout
  3
AutoCAD 2000
 90
0
 91
0
280
0
281
0
  0
ENDSEC
  0
SECTION
  2
TABLES
  0
TABLE
  2
VPORT
  5
8
100
AcDbSymbolTable
 70
2
  0
VPORT
  5
1F4
100
AcDbSymbolTableRecord
100
AcDbViewportTableRecord
  2
*ACTIVE
 70
0
 10
0.0
 20
0.0
 11
1.0
 21
1.0
 12
40.1533362868
 22
56.7882898914
 13
0.0
 23
0.0
 14
1.0
 24
1.0
 15
0.0
 25
0.0
 16
0.0
 26
0.0
 36
1.0
 17
0.0
 27
0.0
 37
0.0
 40
113.5765797828
 41
0.7070707071
 42
50.0
 43
0.0
 44
0.0
 50
0.0
 51
0.0
 71
0
 72
100
 73
1
 74
1
 75
0
 76
0
 77
0
 78
0
  0
ENDTAB
  0
TABLE
  2
LTYPE
  5
5
100
AcDbSymbolTable
 70
6
  0
LTYPE
  5
14
100
AcDbSymbolTableRecord
100
AcDbLinetypeTableRecord
  2
BYBLOCK
 70
0
  3

 72
65
 73
0
 40
0.0
  0
LTYPE
  5
15
100
AcDbSymbolTableRecord
100
AcDbLinetypeTableRecord
  2
BYLAYER
 70
0
  3

 72
65
 73
0
 40
0.0
  0
LTYPE
  5
16
100
AcDbSymbolTableRecord
100
AcDbLinetypeTableRecord
  2
CONTINUOUS
 70
64
  3
Solid line
 72
65
 73
0
 40
0.0
  0
LTYPE
  5
1F5
100
AcDbSymbolTableRecord
100
AcDbLinetypeTableRecord
  2
CENTER
 70
64
  3
____ _ ____ _ ____ _ ____ _ ____ _ ____ _ ____
 72
65
 73
4
 40
0.6
 49
0.375
 74
0
 49
-0.075
 74
0
 49
0.075
 74
0
 49
-0.075
 74
0
  0
LTYPE
  5
1F6
100
AcDbSymbolTableRecord
100
AcDbLinetypeTableRecord
  2
HIDDEN
 70
64
  3
- - - - - - - - - - - - - - - - - - - -
 72
65
 73
2
 40
0.2
 49
0.1
 74
0
 49
-0.1
 74
0
  0
LTYPE
  5
1F7
100
AcDbSymbolTableRecord
100
AcDbLinetypeTableRecord
  2
PHANTOM
 70
64
  3
_____ _ _ _____ _ _ _____ _ _ _____
 72
65
 73
6
 40
0.8
 49
0.45
 74
0
 49
-0.05
 74
0
 49
0.1
 74
0
 49
-0.05
 74
0
 49
0.1
 74
0
 49
-0.05
 74
0
  0
LTYPE
  5
1F8
100
AcDbSymbolTableRecord
100
AcDbLinetypeTableRecord
  2
DOT
 70
64
  3
. . . . . . . . . . . . . . . . . . . .
 72
65
 73
2
 40
0.2
 49
0.1
 74
0
 49
-0.1
 74
0
  0
LTYPE
  5
1F9
100
AcDbSymbolTableRecord
100
AcDbLinetypeTableRecord
  2
DASHED
 70
64
  3
- - - - - - - - - - - - - - - - - - - -
 72
65
 73
2
 40
0.2
 49
0.1
 74
0
 49
-0.1
 74
0
  0
ENDTAB
  0
TABLE
  2
LAYER
  5
2
100
AcDbSymbolTable
 70
36
  0
LAYER
  5
10
100
AcDbSymbolTableRecord
100
AcDbLayerTableRecord
  2
0
 70
0
 62
7
  6
CONTINUOUS
370
-3
390
F
  0
LAYER
  5
1FA
100
AcDbSymbolTableRecord
100
AcDbLayerTableRecord
  2
DEFAULT_1
 70
0
 62
7
  6
CENTER
370
-3
390
F
  0
LAYER
  5
1FB
100
AcDbSymbolTableRecord
100
AcDbLayerTableRecord
  2
DEFAULT_2
 70
0
 62
8
  6
HIDDEN
370
-3
390
F
  0
LAYER
  5
1FC
100
AcDbSymbolTableRecord
100
AcDbLayerTableRecord
  2
DEFAULT_3
 70
0
 62
7
  6
PHANTOM
370
-3
390
F
  0
LAYER
  5
1FD
100
AcDbSymbolTableRecord
100
AcDbLayerTableRecord
  2
00_COMPONENTS
 70
0
 62
7
  6
CONTINUOUS
370
-3
390
F
  0
LAYER
  5
1FE
100
AcDbSymbolTableRecord
100
AcDbLayerTableRecord
  2
01_1_DEFAULT_DATUMS
 70
0
 62
7
  6
CONTINUOUS
370
-3
390
F
  0
LAYER
  5
1FF
100
AcDbSymbolTableRecord
100
AcDbLayerTableRecord
  2
01_PLANES
 70
0
 62
7
  6
CONTINUOUS
370
-3
390
F
  0
LAYER
  5
200
100
AcDbSymbolTableRecord
100
AcDbLayerTableRecord
  2
02_COORD_SYS
 70
0
 62
7
  6
CONTINUOUS
370
-3
390
F
  0
LAYER
  5
201
100
AcDbSymbolTableRecord
100
AcDbLayerTableRecord
  2
03_AXES
 70
0
 62
7
  6
CONTINUOUS
370
-3
390
F
  0
LAYER
  5
202
100
AcDbSymbolTableRecord
100
AcDbLayerTableRecord
  2
04_POINTS
 70
0
 62
7
  6
CONTINUOUS
370
-3
390
F
  0
LAYER
  5
203
100
AcDbSymbolTableRecord
100
AcDbLayerTableRecord
  2
05_CURVES
 70
0
 62
7
  6
CONTINUOUS
370
-3
390
F
  0
LAYER
  5
204
100
AcDbSymbolTableRecord
100
AcDbLayerTableRecord
  2
06_SURFS
 70
0
 62
7
  6
CONTINUOUS
370
-3
390
F
  0
LAYER
  5
205
100
AcDbSymbolTableRecord
100
AcDbLayerTableRecord
  2
07_COSMETICS
 70
0
 62
7
  6
CONTINUOUS
370
-3
390
F
  0
LAYER
  5
206
100
AcDbSymbolTableRecord
100
AcDbLayerTableRecord
  2
10_NOTES
 70
0
 62
7
  6
CONTINUOUS
370
-3
390
F
  0
LAYER
  5
207
100
AcDbSymbolTableRecord
100
AcDbLayerTableRecord
  2
11_NOTES_PUB
 70
0
 62
7
  6
CONTINUOUS
370
-3
390
F
  0
LAYER
  5
208
100
AcDbSymbolTableRecord
100
AcDbLayerTableRecord
  2
13_REF_GTOL
 70
0
 62
7
  6
CONTINUOUS
370
-3
390
F
  0
LAYER
  5
209
100
AcDbSymbolTableRecord
100
AcDbLayerTableRecord
  2
16_MISC
 70
0
 62
7
  6
CONTINUOUS
370
-3
390
F
  0
LAYER
  5
20A
100
AcDbSymbolTableRecord
100
AcDbLayerTableRecord
  2
17_NO_PRINT
 70
0
 62
7
  6
CONTINUOUS
370
-3
390
F
  0
LAYER
  5
20B
100
AcDbSymbolTableRecord
100
AcDbLayerTableRecord
  2
18_DATUM_CAMS_JOINTS
 70
0
 62
7
  6
CONTINUOUS
370
-3
390
F
  0
LAYER
  5
20C
100
AcDbSymbolTableRecord
100
AcDbLayerTableRecord
  2
19_DATUM_FUNCTIONAL
 70
0
 62
7
  6
CONTINUOUS
370
-3
390
F
  0
LAYER
  5
20D
100
AcDbSymbolTableRecord
100
AcDbLayerTableRecord
  2
20_DATUM_KINEMATIC_SCHEME
 70
0
 62
7
  6
CONTINUOUS
370
-3
390
F
  0
ENDTAB
  0
TABLE
  2
STYLE
  5
3
100
AcDbSymbolTable
 70
1
  0
STYLE
  5
11
100
AcDbSymbolTableRecord
100
AcDbTextStyleTableRecord
  2
STANDARD
 70
0
 40
0.0
 41
0.8
 50
0.0
 71
0
 42
0.2
  3
txt
  4

  0
STYLE
  5
20E
100
AcDbSymbolTableRecord
100
AcDbTextStyleTableRecord
  2
TEXTSTYLE_1
 70
0
 40
0.0
 41
0.8
 50
0.0
 71
0
 42
0.2
  3
gdt
  4

  0
ENDTAB
  0
TABLE
  2
VIEW
  5
6
100
AcDbSymbolTable
 70
0
  0
ENDTAB
  0
TABLE
  2
UCS
  5
7
100
AcDbSymbolTable
 70
0
  0
ENDTAB
  0
TABLE
  2
APPID
  5
9
100
AcDbSymbolTable
 70
1
  0
APPID
  5
20F
100
AcDbSymbolTableRecord
100
AcDbRegAppTableRecord
  2
ACAD
 70
0
  0
ENDTAB
  0
TABLE
  2
BLOCK_RECORD
  5
1
100
AcDbSymbolTable
 70
0
  0
BLOCK_RECORD
  5
210
100
AcDbSymbolTableRecord
100
AcDbBlockTableRecord
  2
*Model_Space
  0
BLOCK_RECORD
  5
211
100
AcDbSymbolTableRecord
100
AcDbBlockTableRecord
  2
*Paper_Space
  0
BLOCK_RECORD
  5
212
100
AcDbSymbolTableRecord
100
AcDbBlockTableRecord
  2
_FILLED
  0
ENDTAB
  0
TABLE
  2
DIMSTYLE
  5
A
100
AcDbSymbolTable
 70
1
100
AcDbDimStyleTable
 71
0
  0
DIMSTYLE
105
213
100
AcDbSymbolTableRecord
100
AcDbDimStyleTableRecord
  2
STANDARD
 70
0
  3

  4

 40
1.0
 41
0.9560318164
 42
1.0
 43
0.38
 44
1.0
 45
0.0
 46
0.0
 47
0.01
 48
0.01
140
1.3384445429
141
0.09
142
0.0
143
25.4
144
1.0
145
0.0
146
1.0
147
0.625
 71
1
 72
0
 73
0
 74
0
 75
0
 76
0
 77
1
 78
8
 79
2
170
0
171
1
172
0
173
0
174
0
175
0
176
0
177
0
178
0
270
2
179
2
271
2
272
2
273
2
274
2
275
0
280
0
281
0
282
0
283
1
284
8
285
0
286
0
287
3
288
0
340
11
278
46
341
212
342
212
343
212
344
212
  0
ENDTAB
  0
ENDSEC
  0
SECTION
  2
BLOCKS
  0
BLOCK
  5
20
100
AcDbEntity
  8
0
100
AcDbBlockBegin
  2
*Model_Space
 70
0
 10
0.0
 20
0.0
 30
0.0
  3
*Model_Space
  1

  0
ENDBLK
  5
21
100
AcDbEntity
  8
0
100
AcDbBlockEnd
  0
BLOCK
  5
1C
100
AcDbEntity
  8
0
100
AcDbBlockBegin
  2
*Paper_Space
 70
0
 10
0.0
 20
0.0
 30
0.0
  3
*Paper_Space
  1

  0
ENDBLK
  5
1D
100
AcDbEntity
  8
0
100
AcDbBlockEnd
  0
BLOCK
  5
214
100
AcDbEntity
  8
0
100
AcDbBlockBegin
  2
_FILLED
 70
64
 10
0.0
 20
0.0
  3
_FILLED
  1

  0
SOLID
  5
215
100
AcDbEntity
  8
0
  6
BYBLOCK
 62
0
100
AcDbTrace
 10
0.0
 20
0.0
 11
-1.0
 21
0.25
 12
-1.0
 22
-0.25
 13
-1.0
 23
-0.25
  0
ENDBLK
  5
216
100
AcDbEntity
  8
0
  6
BYBLOCK
 62
0
100
AcDbBlockEnd
  0
ENDSEC
  0
SECTION
  2
ENTITIES
  0
LINE
  5
217
100
AcDbEntity
  8
0
100
AcDbLine
 62
7
  6
CONTINUOUS
 10
24.8614460811
 20
17.8369045865
 11
28.5738042354
 21
15.6936220943
  0
LINE
  5
218
100
AcDbEntity
  8
0
100
AcDbLine
 62
7
  6
CONTINUOUS
 10
33.6649869553
 20
12.754292877
 11
37.3772882162
 21
10.6110432315
  0
LINE
  5
219
100
AcDbEntity
  8
0
100
AcDbLine
 62
7
  6
CONTINUOUS
 10
29.4576840319
 20
16.2039272866
 11
33.6649869553
 21
13.7748947633
  0
LINE
  5
21A
100
AcDbEntity
  8
0
100
AcDbLine
 62
7
  6
CONTINUOUS
 10
9.3164979688
 20
29.7902752558
 11
10.9937495072
 21
28.0581787852
  0
LINE
  5
21B
100
AcDbEntity
  8
0
100
AcDbLine
 62
7
  6
CONTINUOUS
 10
50.494058803
 20
18.7146822236
 11
50.1266368713
 21
18.7475030638
  0
LINE
  5
21C
100
AcDbEntity
  8
0
100
AcDbLine
 62
7
  6
CONTINUOUS
 10
10.9937495072
 20
28.0581787852
 11
22.3075051095
 21
21.5263267129
  0
LINE
  5
21D
100
AcDbEntity
  8
0
100
AcDbLine
 62
7
  6
CONTINUOUS
 10
26.3364306948
 20
19.330313744
 11
22.3638115738
 21
21.6238545761
  0
LINE
  5
21E
100
AcDbEntity
  8
0
100
AcDbLine
 62
7
  6
CONTINUOUS
 10
9.3164979688
 20
29.7902752558
 11
20.6302535711
 21
23.2584231834
  0
LINE
  5
21F
100
AcDbEntity
  8
0
100
AcDbLine
 62
7
  6
CONTINUOUS
 10
22.7142258449
 20
22.0979723767
 11
25.9222060533
 21
20.2458860396
  0
LINE
  5
220
100
AcDbEntity
  8
0
100
AcDbLine
 62
7
  6
CONTINUOUS
 10
21.4495889155
 20
23.6606520422
 11
22.072034524
 21
23.3012910324
  0
LINE
  5
221
100
AcDbEntity
  8
0
100
AcDbLine
 62
7
  6
CONTINUOUS
 10
22.9437929013
 20
23.1370880889
 11
21.6275741965
 21
23.8969901212
  0
LINE
  5
222
100
AcDbEntity
  8
0
100
AcDbLine
 62
7
  6
CONTINUOUS
 10
22.3188220479
 20
24.615340228
 11
23.5042939831
 21
23.9309231707
  0
LINE
  5
223
100
AcDbEntity
  8
0
100
AcDbLine
 62
7
  6
CONTINUOUS
 10
41.0188632627
 20
14.0607007228
 11
41.5138400703
 21
13.7749321946
  0
LINE
  5
224
100
AcDbEntity
  8
0
100
AcDbLine
 62
7
  6
CONTINUOUS
 10
21.3997411757
 20
23.5743112708
 11
21.7364400088
 21
23.2335787524
  0
LINE
  5
225
100
AcDbEntity
  8
0
100
AcDbLine
 62
7
  6
CONTINUOUS
 10
22.1435176074
 20
22.8216243239
 11
22.4803667148
 21
22.4807397309
  0
LINE
  5
226
100
AcDbEntity
  8
0
100
AcDbLine
 62
7
  6
CONTINUOUS
 10
22.3075051095
 20
21.5263267129
 11
20.6302535711
 21
23.2584231834
  0
LINE
  5
227
100
AcDbEntity
  8
0
100
AcDbLine
 62
7
  6
CONTINUOUS
 10
25.9222060533
 20
25.0578990612
 11
25.1006886355
 21
25.3548796423
  0
LINE
  5
228
100
AcDbEntity
  8
0
100
AcDbLine
 62
7
  6
CONTINUOUS
 10
24.2996709621
 20
25.3555106282
 11
24.608405612
 21
25.2037458809
  0
LINE
  5
229
100
AcDbEntity
  8
0
100
AcDbLine
 62
7
  6
CONTINUOUS
 10
22.5937577621
 20
25.2653914227
 11
23.2954268213
 21
24.8602917671
  0
LINE
  5
22A
100
AcDbEntity
  8
0
100
AcDbLine
 62
7
  6
CONTINUOUS
 10
23.9677201696
 20
24.5872715286
 11
23.4706159113
 21
24.8742683133
  0
LINE
  5
22B
100
AcDbEntity
  8
0
100
AcDbLine
 62
7
  6
CONTINUOUS
 10
22.8136890509
 20
25.5768790868
 11
23.2237934636
 21
25.3401105501
  0
LINE
  5
22C
100
AcDbEntity
  8
0
100
AcDbLine
 62
7
  6
CONTINUOUS
 10
24.043287668
 20
25.5300094968
 11
24.608405612
 21
25.2037458809
  0
LINE
  5
22D
100
AcDbEntity
  8
0
100
AcDbLine
 62
7
  6
CONTINUOUS
 10
22.8305773866
 20
26.3509765219
 11
20.5678262661
 21
27.6573469364
  0
LINE
  5
22E
100
AcDbEntity
  8
0
100
AcDbLine
 62
7
  6
CONTINUOUS
 10
11.5168217842
 20
32.8828285942
 11
13.7795729047
 21
31.5764581798
  0
LINE
  5
22F
100
AcDbEntity
  8
0
100
AcDbLine
 62
7
  6
CONTINUOUS
 10
34.3742278867
 20
19.9790565738
 11
33.7710109541
 21
20.3273161535
  0
LINE
  5
230
100
AcDbEntity
  8
0
100
AcDbLine
 62
7
  6
CONTINUOUS
 10
32.0032366413
 20
21.3479180398
 11
32.7103463664
 21
20.9396772853
  0
LINE
  5
231
100
AcDbEntity
  8
0
100
AcDbLine
 62
7
  6
CONTINUOUS
 10
23.2874484037
 20
26.4017184493
 11
25.1006833318
 21
25.3548704584
  0
LINE
  5
232
100
AcDbEntity
  8
0
100
AcDbLine
 62
7
  6
CONTINUOUS
 10
23.2415774584
 20
26.4684135877
 11
20.9788263379
 21
27.7747840022
  0
LINE
  5
233
100
AcDbEntity
  8
0
100
AcDbLine
 62
7
  6
CONTINUOUS
 10
13.9584695097
 20
31.8278972131
 11
11.927821856
 21
33.00026566
  0
LINE
  5
234
100
AcDbEntity
  8
0
100
AcDbLine
 62
7
  6
CONTINUOUS
 10
44.3069058209
 20
14.6118359394
 11
43.635151582
 21
14.9996646562
  0
LINE
  5
235
100
AcDbEntity
  8
0
100
AcDbLine
 62
7
  6
CONTINUOUS
 10
32.8517612459
 20
21.8378110244
 11
33.5588709711
 21
21.4295702699
  0
LINE
  5
236
100
AcDbEntity
  8
0
100
AcDbLine
 62
7
  6
CONTINUOUS
 10
32.3920241868
 20
22.3482101494
 11
32.7103463664
 21
22.1644309109
  0
LINE
  5
237
100
AcDbEntity
  8
0
100
AcDbLine
 62
7
  6
CONTINUOUS
 10
14.6612019487
 20
33.2673851216
 11
14.8890563678
 21
33.1358362875
  0
LINE
  5
238
100
AcDbEntity
  8
0
100
AcDbLine
 62
7
  6
CONTINUOUS
 10
20.9903281313
 20
29.6273338675
 11
14.6578060498
 21
33.2833344862
  0
LINE
  5
239
100
AcDbEntity
  8
0
100
AcDbLine
 62
7
  6
CONTINUOUS
 10
23.9677201696
 20
24.5872715286
 11
23.6310213365
 21
24.9280040471
  0
LINE
  5
23A
100
AcDbEntity
  8
0
100
AcDbLine
 62
7
  6
CONTINUOUS
 10
23.2239437379
 20
25.3399584756
 11
22.8870946305
 21
25.6808430686
  0
LINE
  5
23B
100
AcDbEntity
  8
0
100
AcDbLine
 62
7
  6
CONTINUOUS
 10
58.5195887324
 20
103.2427216148
 11
52.4384957324
 21
99.7318218915
  0
LINE
  5
23C
100
AcDbEntity
  8
0
100
AcDbLine
 62
7
  6
CONTINUOUS
 10
34.7608998021
 20
89.5257180447
 11
24.8614460811
 21
83.8102998905
  0
LINE
  5
23D
100
AcDbEntity
  8
0
100
AcDbLine
 62
7
  6
CONTINUOUS
 10
40.3116705815
 20
92.1997247516
 11
39.3217251456
 21
91.6281828994
  0
LINE
  5
23E
100
AcDbEntity
  8
0
100
AcDbLine
 62
7
  6
CONTINUOUS
 10
38.9543032139
 20
91.1711022893
 11
35.432654041
 21
89.137889328
  0
LINE
  5
23F
100
AcDbEntity
  8
0
100
AcDbLine
 62
7
  6
CONTINUOUS
 10
44.7664246922
 20
94.5267121591
 11
53.1102499713
 21
99.3439931747
  0
LINE
  5
240
100
AcDbEntity
  8
0
100
AcDbLine
 62
7
  6
CONTINUOUS
 10
42.0794354099
 20
92.4854986819
 11
40.9480693341
 21
91.8323080725
  0
LINE
  5
241
100
AcDbEntity
  8
0
100
AcDbLine
 62
7
  6
CONTINUOUS
 10
42.4468573416
 20
92.4526778417
 11
45.4028234448
 21
94.15929548
  0
LINE
  5
242
100
AcDbEntity
  8
0
100
AcDbLine
 62
7
  6
CONTINUOUS
 10
14.4740619139
 20
34.1463172321
 11
20.8935243529
 21
30.4401227103
  0
LINE
  5
243
100
AcDbEntity
  8
0
100
AcDbLine
 62
7
  6
CONTINUOUS
 10
33.7002541054
 20
23.1035125365
 11
35.0084706369
 21
22.3482304567
  0
LINE
  5
244
100
AcDbEntity
  8
0
100
AcDbLine
 62
7
  6
CONTINUOUS
 10
20.9389702208
 20
30.7276811939
 11
14.3656872598
 21
34.5226820265
  0
LINE
  5
245
100
AcDbEntity
  8
0
100
AcDbLine
 62
7
  6
CONTINUOUS
 10
35.0084706369
 20
22.919767513
 11
34.1952267914
 21
23.3892834443
  0
LINE
  5
246
100
AcDbEntity
  8
0
100
AcDbLine
 62
7
  6
CONTINUOUS
 10
35.0084706369
 20
23.0830679964
 11
34.3366511803
 21
23.4709343659
  0
LINE
  5
247
100
AcDbEntity
  8
0
100
AcDbLine
 62
7
  6
CONTINUOUS
 10
21.091814726
 20
31.6948039727
 11
14.5014867894
 21
35.499645504
  0
LINE
  5
248
100
AcDbEntity
  8
0
100
AcDbLine
 62
7
  6
CONTINUOUS
 10
14.3927025521
 20
34.5284340552
 11
14.6978778594
 21
33.0951310359
  0
LINE
  5
249
100
AcDbEntity
  8
0
100
AcDbLine
 62
7
  6
CONTINUOUS
 10
13.4063639182
 20
42.5971908078
 11
13.4063639182
 21
60.948346497
  0
LINE
  5
24A
100
AcDbEntity
  8
0
100
AcDbLine
 62
7
  6
CONTINUOUS
 10
47.2413087302
 20
93.0978695182
 11
45.6149699046
 21
92.1589079643
  0
LINE
  5
24B
100
AcDbEntity
  8
0
100
AcDbLine
 62
7
  6
CONTINUOUS
 10
28.573747342
 20
81.667050245
 11
29.4576271385
 21
82.1773554374
  0
LINE
  5
24C
100
AcDbEntity
  8
0
100
AcDbLine
 62
7
  6
CONTINUOUS
 10
45.4167181872
 20
90.7380666727
 11
45.6149793253
 21
90.8525321109
  0
LINE
  5
24D
100
AcDbEntity
  8
0
100
AcDbLine
 62
7
  6
CONTINUOUS
 10
28.2568545371
 20
30.8144551417
 11
28.4336319684
 21
30.7123949531
  0
LINE
  5
24E
100
AcDbEntity
  8
0
100
AcDbLine
 62
7
  6
CONTINUOUS
 10
41.3382755256
 20
24.1598299303
 11
41.5150529568
 21
24.0577697416
  0
LINE
  5
24F
100
AcDbEntity
  8
0
100
AcDbLine
 62
7
  6
CONTINUOUS
 10
29.2568375701
 20
32.5465157451
 11
29.4336150014
 21
32.4444555565
  0
LINE
  5
250
100
AcDbEntity
  8
0
100
AcDbLine
 62
7
  6
CONTINUOUS
 10
23.1998336115
 20
36.6016579341
 11
25.9222060533
 21
35.0299310292
  0
LINE
  5
251
100
AcDbEntity
  8
0
100
AcDbLine
 62
7
  6
CONTINUOUS
 10
42.3382585585
 20
25.8918905336
 11
42.5150359898
 21
25.789830345
  0
LINE
  5
252
100
AcDbEntity
  8
0
100
AcDbLine
 62
7
  6
CONTINUOUS
 10
13.4063639182
 20
42.5971908078
 11
23.1998336115
 21
36.9430563576
  0
LWPOLYLINE
  5
253
100
AcDbEntity
  8
0
100
AcDbPolyline
 62
7
  6
CONTINUOUS
 90
4
 70
0
 10
13.7952936972
 20
34.3508437875
 10
14.2322920678
 20
37.003278601
 10
14.7610633326
 20
38.379783824
 10
16.3133266029
 20
40.9188930874
  0
LINE
  5
254
100
AcDbEntity
  8
0
100
AcDbLine
 62
7
  6
CONTINUOUS
 10
39.3217251456
 20
91.6281828994
 11
38.9543032139
 21
91.1711022893
  0
LINE
  5
255
100
AcDbEntity
  8
0
100
AcDbLine
 62
7
  6
CONTINUOUS
 10
28.573747342
 20
78.5328448382
 11
29.4576271385
 21
79.0431500305
  0
LINE
  5
256
100
AcDbEntity
  8
0
100
AcDbLine
 62
7
  6
CONTINUOUS
 10
49.376532648
 20
88.4519184474
 11
49.5747937861
 21
88.5663838856
  0
LINE
  5
257
100
AcDbEntity
  8
0
100
AcDbLine
 62
7
  6
CONTINUOUS
 10
33.6649300618
 20
78.7277210278
 11
34.5488098583
 21
79.2380262201
  0
LINE
  5
258
100
AcDbEntity
  8
0
100
AcDbLine
 62
7
  6
CONTINUOUS
 10
28.573747342
 20
78.5328448382
 11
28.041560974
 21
78.3431571402
  0
LINE
  5
259
100
AcDbEntity
  8
0
100
AcDbLine
 62
7
  6
CONTINUOUS
 10
55.9387583495
 20
22.1031129336
 11
55.3023595969
 21
22.4705296126
  0
LINE
  5
25A
100
AcDbEntity
  8
0
100
AcDbLine
 62
7
  6
CONTINUOUS
 10
51.8375354859
 20
88.5663893246
 11
53.4638743115
 21
89.5053508785
  0
LINE
  5
25B
100
AcDbEntity
  8
0
100
AcDbLine
 62
7
  6
CONTINUOUS
 10
32.7103463664
 20
76.5434918918
 11
33.1506305787
 21
76.7976885829
  0
LINE
  5
25C
100
AcDbEntity
  8
0
100
AcDbLine
 62
7
  6
CONTINUOUS
 10
32.0032366413
 20
75.7269790206
 11
32.8517612459
 21
76.2168720052
  0
LINE
  5
25D
100
AcDbEntity
  8
0
100
AcDbLine
 62
7
  6
CONTINUOUS
 10
51.978971562
 20
86.7701281186
 11
50.8476054861
 21
86.1169375092
  0
LINE
  5
25E
100
AcDbEntity
  8
0
100
AcDbLine
 62
7
  6
CONTINUOUS
 10
52.3463934936
 20
86.7373072784
 11
55.3023595969
 21
88.4439249167
  0
LINE
  5
25F
100
AcDbEntity
  8
0
100
AcDbLine
 62
7
  6
CONTINUOUS
 10
32.7103463664
 20
75.3187382661
 11
33.5588709711
 21
75.8086312507
  0
LINE
  5
260
100
AcDbEntity
  8
0
100
AcDbLine
 62
7
  6
CONTINUOUS
 10
51.4840042388
 20
85.7495208302
 11
50.494058803
 21
85.177978978
  0
LINE
  5
261
100
AcDbEntity
  8
0
100
AcDbLine
 62
7
  6
CONTINUOUS
 10
50.1266368713
 20
84.7208983679
 11
46.6049876983
 21
82.6876854065
  0
LINE
  5
262
100
AcDbEntity
  8
0
100
AcDbLine
 62
7
  6
CONTINUOUS
 10
55.9387583495
 20
88.0765082376
 11
64.2825836286
 21
92.8937892533
  0
LINE
  5
263
100
AcDbEntity
  8
0
100
AcDbLine
 62
7
  6
CONTINUOUS
 10
33.7710109541
 20
74.7063771343
 11
34.0803613303
 21
74.8849795912
  0
LINE
  5
264
100
AcDbEntity
  8
0
100
AcDbLine
 62
7
  6
CONTINUOUS
 10
71.0354308676
 20
96.0168602598
 11
64.9543378675
 21
92.5059605365
  0
LINE
  5
265
100
AcDbEntity
  8
0
100
AcDbLine
 62
7
  6
CONTINUOUS
 10
47.2767419372
 20
82.2998566897
 11
37.3772882162
 21
76.5844385355
  0
LINE
  5
266
100
AcDbEntity
  8
0
100
AcDbLine
 62
7
  6
CONTINUOUS
 10
24.8614460811
 20
69.1949066239
 11
14.8205715926
 21
63.397839639
  0
LINE
  5
267
100
AcDbEntity
  8
0
100
AcDbLine
 62
7
  6
CONTINUOUS
 10
55.9387583495
 20
23.7361177678
 11
55.3023595969
 21
24.1035344469
  0
LINE
  5
268
100
AcDbEntity
  8
0
100
AcDbLine
 62
7
  6
CONTINUOUS
 10
57.3529660239
 20
24.5526060756
 11
56.7165672713
 21
24.9200227546
  0
LINE
  5
269
100
AcDbEntity
  8
0
100
AcDbLine
 62
7
  6
CONTINUOUS
 10
23.1998336115
 20
36.9430563576
 11
23.1998336115
 21
36.6016579341
  0
LINE
  5
26A
100
AcDbEntity
  8
0
100
AcDbLine
 62
7
  6
CONTINUOUS
 10
24.8614460811
 20
83.8102998905
 11
24.8614460811
 21
69.1949066239
  0
LINE
  5
26B
100
AcDbEntity
  8
0
100
AcDbLine
 62
7
  6
CONTINUOUS
 10
24.8614460811
 20
20.1818772428
 11
24.8614460811
 21
17.8369045865
  0
LINE
  5
26C
100
AcDbEntity
  8
0
100
AcDbLine
 62
7
  6
CONTINUOUS
 10
25.9222060533
 20
53.7224851419
 11
25.9222060533
 21
35.0299310292
  0
LINE
  5
26D
100
AcDbEntity
  8
0
100
AcDbLine
 62
7
  6
CONTINUOUS
 10
25.9222060533
 20
25.0578990612
 11
25.9222060533
 21
20.2458860396
  0
LINE
  5
26E
100
AcDbEntity
  8
0
100
AcDbLine
 62
7
  6
CONTINUOUS
 10
24.608405612
 20
25.2037458809
 11
24.5891678986
 21
24.7332019128
  0
LINE
  5
26F
100
AcDbEntity
  8
0
100
AcDbLine
 62
7
  6
CONTINUOUS
 10
32.7103463664
 20
73.0562032273
 11
33.5588709711
 21
73.546096212
  0
LINE
  5
270
100
AcDbEntity
  8
0
100
AcDbLine
 62
7
  6
CONTINUOUS
 10
57.3529660239
 20
87.2599917111
 11
55.9387583495
 21
86.4435034034
  0
LINE
  5
271
100
AcDbEntity
  8
0
100
AcDbLine
 62
7
  6
CONTINUOUS
 10
62.3026928844
 20
89.6277993379
 11
64.2825836286
 21
90.7708829688
  0
LINE
  5
272
100
AcDbEntity
  8
0
100
AcDbLine
 62
7
  6
CONTINUOUS
 10
52.8720489461
 20
83.7747831153
 11
56.7165672713
 21
85.9944035559
  0
LINE
  5
273
100
AcDbEntity
  8
0
100
AcDbLine
 62
7
  6
CONTINUOUS
 10
31.2252698692
 20
71.1137159153
 11
30.3413900727
 21
70.603410723
  0
LINE
  5
274
100
AcDbEntity
  8
0
100
AcDbLine
 62
7
  6
CONTINUOUS
 10
62.9744471233
 20
89.2399706212
 11
64.9543378675
 21
90.383054252
  0
LINE
  5
275
100
AcDbEntity
  8
0
100
AcDbLine
 62
7
  6
CONTINUOUS
 10
47.2767419372
 20
79.8095109136
 11
53.2394645153
 21
83.2520698499
  0
LINE
  5
276
100
AcDbEntity
  8
0
100
AcDbLine
 62
7
  6
CONTINUOUS
 10
57.3529660239
 20
85.6269868769
 11
60.2877571055
 21
87.3213791837
  0
LINE
  5
277
100
AcDbEntity
  8
0
100
AcDbLine
 62
7
  6
CONTINUOUS
 10
47.2767419372
 20
79.0338470212
 11
60.9595113444
 21
86.9335504669
  0
LINE
  5
278
100
AcDbEntity
  8
0
100
AcDbLine
 62
7
  6
CONTINUOUS
 10
31.8966540078
 20
69.7056216976
 11
32.7805338043
 21
70.2159268899
  0
LINE
  5
279
100
AcDbEntity
  8
0
100
AcDbLine
 62
7
  6
CONTINUOUS
 10
60.9300842956
 20
27.4751848867
 11
60.9447981968
 21
27.4666900041
  0
LINE
  5
27A
100
AcDbEntity
  8
0
100
AcDbLine
 62
7
  6
CONTINUOUS
 10
28.573747342
 20
81.667050245
 11
28.573747342
 21
78.5328448382
  0
LINE
  5
27B
100
AcDbEntity
  8
0
100
AcDbLine
 62
7
  6
CONTINUOUS
 10
28.5738042354
 20
15.6936220943
 11
28.5738042354
 21
18.8278275011
  0
LINE
  5
27C
100
AcDbEntity
  8
0
100
AcDbLine
 62
7
  6
CONTINUOUS
 10
29.4576271385
 20
82.1773554374
 11
29.4576271385
 21
79.0431500305
  0
LINE
  5
27D
100
AcDbEntity
  8
0
100
AcDbLine
 62
7
  6
CONTINUOUS
 10
29.4576840319
 20
19.3381326935
 11
29.4576840319
 21
16.2039272866
  0
LINE
  5
27E
100
AcDbEntity
  8
0
100
AcDbLine
 62
7
  6
CONTINUOUS
 10
64.9543378675
 20
26.5325652325
 11
64.2825836286
 21
26.9203939493
  0
LINE
  5
27F
100
AcDbEntity
  8
0
100
AcDbLine
 62
7
  6
CONTINUOUS
 10
61.1745723831
 20
27.3342513924
 11
60.9595113444
 21
27.4921744998
  0
LINE
  5
280
100
AcDbEntity
  8
0
100
AcDbLine
 62
7
  6
CONTINUOUS
 10
32.0032366413
 20
76.9517326463
 11
32.0032366413
 21
75.7269790206
  0
LINE
  5
281
100
AcDbEntity
  8
0
100
AcDbLine
 62
7
  6
CONTINUOUS
 10
32.0032366413
 20
22.1237448952
 11
32.0032366413
 21
21.3479180398
  0
LINE
  5
282
100
AcDbEntity
  8
0
100
AcDbLine
 62
7
  6
CONTINUOUS
 10
32.7103463664
 20
18.6771422465
 11
32.7103463664
 21
20.9396772853
  0
LINE
  5
283
100
AcDbEntity
  8
0
100
AcDbLine
 62
7
  6
CONTINUOUS
 10
32.7103463664
 20
22.1644309109
 11
32.7103463664
 21
22.5319924485
  0
LINE
  5
284
100
AcDbEntity
  8
0
100
AcDbLine
 62
7
  6
CONTINUOUS
 10
32.7103463664
 20
73.0562032273
 11
32.7103463664
 21
75.3187382661
  0
LINE
  5
285
100
AcDbEntity
  8
0
100
AcDbLine
 62
7
  6
CONTINUOUS
 10
32.7103463664
 20
76.5434918918
 11
32.7103463664
 21
77.2459506532
  0
LINE
  5
286
100
AcDbEntity
  8
0
100
AcDbLine
 62
7
  6
CONTINUOUS
 10
32.8517612459
 20
76.6251373232
 11
32.8517612459
 21
76.2168720052
  0
LINE
  5
287
100
AcDbEntity
  8
0
100
AcDbLine
 62
7
  6
CONTINUOUS
 10
32.8517612459
 20
22.2460763423
 11
32.8517612459
 21
21.8378110244
  0
LINE
  5
288
100
AcDbEntity
  8
0
100
AcDbLine
 62
7
  6
CONTINUOUS
 10
33.5588709711
 20
75.8086312507
 11
33.5588709711
 21
73.546096212
  0
LINE
  5
289
100
AcDbEntity
  8
0
100
AcDbLine
 62
7
  6
CONTINUOUS
 10
33.5588709711
 20
21.4295702699
 11
33.5588709711
 21
19.1670352311
  0
LINE
  5
28A
100
AcDbEntity
  8
0
100
AcDbLine
 62
7
  6
CONTINUOUS
 10
33.6649300618
 20
78.7277210278
 11
33.6649300618
 21
75.5935156209
  0
LINE
  5
28B
100
AcDbEntity
  8
0
100
AcDbLine
 62
7
  6
CONTINUOUS
 10
33.6649869553
 20
12.754292877
 11
33.6649869553
 21
15.8884982839
  0
LINE
  5
28C
100
AcDbEntity
  8
0
100
AcDbLine
 62
7
  6
CONTINUOUS
 10
33.7710109541
 20
74.7063771343
 11
33.7710109541
 21
72.4438420955
  0
LINE
  5
28D
100
AcDbEntity
  8
0
100
AcDbLine
 62
7
  6
CONTINUOUS
 10
33.7710109541
 20
20.3273161535
 11
33.7710109541
 21
18.0647811147
  0
LINE
  5
28E
100
AcDbEntity
  8
0
100
AcDbLine
 62
7
  6
CONTINUOUS
 10
11.5168217842
 20
32.8828285942
 11
9.3164979688
 21
29.7902752558
  0
LINE
  5
28F
100
AcDbEntity
  8
0
100
AcDbLine
 62
7
  6
CONTINUOUS
 10
14.8890563678
 20
33.1358362875
 11
13.7795729047
 21
31.5764581798
  0
LINE
  5
290
100
AcDbEntity
  8
0
100
AcDbLine
 62
7
  6
CONTINUOUS
 10
50.1266368713
 20
84.7208983679
 11
50.494058803
 21
85.177978978
  0
LINE
  5
291
100
AcDbEntity
  8
0
100
AcDbLine
 62
7
  6
CONTINUOUS
 10
25.9222060533
 20
53.7224851419
 11
13.4063639182
 21
60.948346497
  0
LINE
  5
292
100
AcDbEntity
  8
0
100
AcDbLine
 62
7
  6
CONTINUOUS
 10
14.8205715926
 20
63.397839639
 11
27.3364137277
 21
56.1719782839
  0
LINE
  5
293
100
AcDbEntity
  8
0
100
AcDbLine
 62
7
  6
CONTINUOUS
 10
35.0084706369
 20
22.3482304567
 11
35.0084706369
 21
23.8588071947
  0
LINE
  5
294
100
AcDbEntity
  8
0
100
AcDbLine
 62
7
  6
CONTINUOUS
 10
37.3772882162
 20
76.5844385355
 11
37.3772882162
 21
61.9690452689
  0
LINE
  5
295
100
AcDbEntity
  8
0
100
AcDbLine
 62
7
  6
CONTINUOUS
 10
37.3772882162
 20
25.2264364981
 11
37.3772882162
 21
10.6110432315
  0
LINE
  5
296
100
AcDbEntity
  8
0
100
AcDbLine
 62
7
  6
CONTINUOUS
 10
37.3772882162
 20
61.9690452689
 11
27.3364137277
 21
56.1719782839
  0
LINE
  5
297
100
AcDbEntity
  8
0
100
AcDbLine
 62
7
  6
CONTINUOUS
 10
68.3484362861
 20
73.3529505652
 11
66.6454312451
 21
72.7164700397
  0
LINE
  5
298
100
AcDbEntity
  8
0
100
AcDbLine
 62
7
  6
CONTINUOUS
 10
65.0262540722
 20
37.5910583598
 11
65.2030315035
 21
37.4889981712
  0
LINE
  5
299
100
AcDbEntity
  8
0
100
AcDbLine
 62
7
  6
CONTINUOUS
 10
39.3571789604
 20
11.7541268623
 11
39.3571789604
 21
13.3054814549
  0
LINE
  5
29A
100
AcDbEntity
  8
0
100
AcDbLine
 62
7
  6
CONTINUOUS
 10
41.0188632627
 20
14.0607007228
 11
41.0188632627
 21
14.2648496075
  0
LINE
  5
29B
100
AcDbEntity
  8
0
100
AcDbLine
 62
7
  6
CONTINUOUS
 10
68.3484362861
 20
75.7676271228
 11
68.9141193559
 21
76.0942224459
  0
LINE
  5
29C
100
AcDbEntity
  8
0
100
AcDbLine
 62
7
  6
CONTINUOUS
 10
70.2014298924
 20
74.7145408097
 11
70.9034155049
 21
75.1198299728
  0
LINE
  5
29D
100
AcDbEntity
  8
0
100
AcDbLine
 62
7
  6
CONTINUOUS
 10
66.1512123917
 20
69.1946402641
 11
68.3484362861
 21
70.015829976
  0
LINE
  5
29E
100
AcDbEntity
  8
0
100
AcDbLine
 62
7
  6
CONTINUOUS
 10
66.0262371052
 20
39.3231189632
 11
66.2030145365
 21
39.2210587746
  0
LINE
  5
29F
100
AcDbEntity
  8
0
100
AcDbLine
 62
7
  6
CONTINUOUS
 10
49.1871281186
 20
52.6148608601
 11
49.3639055499
 21
52.5128006715
  0
LINE
  5
2A0
100
AcDbEntity
  8
0
100
AcDbLine
 62
7
  6
CONTINUOUS
 10
41.478490472
 20
14.5302139165
 11
41.478490472
 21
21.2255337369
  0
LINE
  5
2A1
100
AcDbEntity
  8
0
100
AcDbLine
 62
7
  6
CONTINUOUS
 10
41.5138400703
 20
13.7749321946
 11
41.5138400703
 21
15.3262867871
  0
LINE
  5
2A2
100
AcDbEntity
  8
0
100
AcDbLine
 62
7
  6
CONTINUOUS
 10
43.635151582
 20
14.9996646562
 11
43.635151582
 21
22.4706751768
  0
LINE
  5
2A3
100
AcDbEntity
  8
0
100
AcDbLine
 62
7
  6
CONTINUOUS
 10
44.3069058209
 20
14.6118359394
 11
44.3069058209
 21
22.8585103524
  0
LINE
  5
2A4
100
AcDbEntity
  8
0
100
AcDbLine
 62
7
  6
CONTINUOUS
 10
44.7664246922
 20
94.5267121591
 11
44.7664246922
 21
93.7918726821
  0
LINE
  5
2A5
100
AcDbEntity
  8
0
100
AcDbLine
 62
7
  6
CONTINUOUS
 10
22.8870946305
 20
25.6808430686
 11
22.423668444
 21
25.0244947106
  0
LINE
  5
2A6
100
AcDbEntity
  8
0
100
AcDbLine
 62
7
  6
CONTINUOUS
 10
21.863880287
 20
24.2316693409
 11
21.3997411757
 21
23.5743112708
  0
LINE
  5
2A7
100
AcDbEntity
  8
0
100
AcDbLine
 62
7
  6
CONTINUOUS
 10
20.5678262661
 20
27.6573469364
 11
21.1995251694
 21
28.5451992327
  0
LINE
  5
2A8
100
AcDbEntity
  8
0
100
AcDbLine
 62
7
  6
CONTINUOUS
 10
20.6302535711
 20
23.2584231834
 11
22.8305773866
 21
26.3509765219
  0
LINE
  5
2A9
100
AcDbEntity
  8
0
100
AcDbLine
 62
7
  6
CONTINUOUS
 10
50.1871111516
 20
54.3469214635
 11
50.3638885829
 21
54.2448612749
  0
LINE
  5
2AA
100
AcDbEntity
  8
0
100
AcDbLine
 62
7
  6
CONTINUOUS
 10
24.8614460811
 20
69.1949066239
 11
37.3772882162
 21
61.9690452689
  0
LINE
  5
2AB
100
AcDbEntity
  8
0
100
AcDbLine
 62
7
  6
CONTINUOUS
 10
45.6149699046
 20
92.1589079643
 11
45.6149793253
 21
90.4442976288
  0
LINE
  5
2AC
100
AcDbEntity
  8
0
100
AcDbLine
 62
7
  6
CONTINUOUS
 10
47.2413087302
 20
89.5053571508
 11
47.2413087302
 21
93.0978695182
  0
LINE
  5
2AD
100
AcDbEntity
  8
0
100
AcDbLine
 62
7
  6
CONTINUOUS
 10
47.2767419372
 20
82.2998566897
 11
47.2767419372
 21
79.0338470212
  0
LINE
  5
2AE
100
AcDbEntity
  8
0
100
AcDbLine
 62
7
  6
CONTINUOUS
 10
47.2767419372
 20
16.3264613857
 11
47.2767419372
 21
19.5924710542
  0
LINE
  5
2AF
100
AcDbEntity
  8
0
100
AcDbLine
 62
7
  6
CONTINUOUS
 10
22.4803667148
 20
22.4807397309
 11
22.9437929013
 21
23.1370880889
  0
LINE
  5
2B0
100
AcDbEntity
  8
0
100
AcDbLine
 62
7
  6
CONTINUOUS
 10
23.5035810583
 20
23.9299134586
 11
23.9677201696
 21
24.5872715286
  0
LINE
  5
2B1
100
AcDbEntity
  8
0
100
AcDbLine
 62
7
  6
CONTINUOUS
 10
24.5891678986
 20
24.7332019128
 11
22.3075051095
 21
21.5263267129
  0
LINE
  5
2B2
100
AcDbEntity
  8
0
100
AcDbLine
 62
7
  6
CONTINUOUS
 10
69.409092042
 20
46.1693725578
 11
70.4697477978
 21
45.557016525
  0
LINE
  5
2B3
100
AcDbEntity
  8
0
100
AcDbLine
 62
7
  6
CONTINUOUS
 10
68.3484362861
 20
47.5982623698
 11
69.409092042
 21
46.985906337
  0
LINE
  5
2B4
100
AcDbEntity
  8
0
100
AcDbLine
 62
7
  6
CONTINUOUS
 10
68.9950621707
 20
47.8491126124
 11
70.6567700248
 21
46.8897468392
  0
LINE
  5
2B5
100
AcDbEntity
  8
0
100
AcDbLine
 62
7
  6
CONTINUOUS
 10
68.8385802915
 20
47.9684482974
 11
69.0201710948
 21
47.8636091699
  0
LINE
  5
2B6
100
AcDbEntity
  8
0
100
AcDbLine
 62
7
  6
CONTINUOUS
 10
68.3484362861
 20
48.3330915459
 11
68.8421676386
 21
48.0480274301
  0
LINE
  5
2B7
100
AcDbEntity
  8
0
100
AcDbLine
 62
7
  6
CONTINUOUS
 10
30.340921666
 20
70.6037015914
 11
31.8961829986
 21
69.7058731641
  0
LINE
  5
2B8
100
AcDbEntity
  8
0
100
AcDbLine
 62
7
  6
CONTINUOUS
 10
68.4544791932
 20
48.7617412094
 11
72.2375073908
 21
46.5776269096
  0
LINE
  5
2B9
100
AcDbEntity
  8
0
100
AcDbLine
 62
7
  6
CONTINUOUS
 10
31.2252698692
 20
71.1137159153
 11
32.7805338043
 21
70.2159268899
  0
LINE
  5
2BA
100
AcDbEntity
  8
0
100
AcDbLine
 62
7
  6
CONTINUOUS
 10
68.3484362861
 20
50.1293655012
 11
69.3383575177
 21
49.5578178706
  0
LINE
  5
2BB
100
AcDbEntity
  8
0
100
AcDbLine
 62
7
  6
CONTINUOUS
 10
52.4384957324
 20
99.7318218915
 11
52.4384957324
 21
98.9561579992
  0
LINE
  5
2BC
100
AcDbEntity
  8
0
100
AcDbLine
 62
7
  6
CONTINUOUS
 10
41.3382755256
 20
66.5363053793
 11
41.5150529568
 21
66.4342451907
  0
LINE
  5
2BD
100
AcDbEntity
  8
0
100
AcDbLine
 62
7
  6
CONTINUOUS
 10
42.3382585585
 20
68.2683659827
 11
42.5150359898
 21
68.166305794
  0
LINE
  5
2BE
100
AcDbEntity
  8
0
100
AcDbLine
 62
7
  6
CONTINUOUS
 10
55.3023595969
 20
22.4705296126
 11
55.3023595969
 21
24.1035344469
  0
LINE
  5
2BF
100
AcDbEntity
  8
0
100
AcDbLine
 62
7
  6
CONTINUOUS
 10
55.3023595969
 20
86.8109200824
 11
55.3023595969
 21
88.4439249167
  0
LINE
  5
2C0
100
AcDbEntity
  8
0
100
AcDbLine
 62
7
  6
CONTINUOUS
 10
55.9387583495
 20
88.0765082376
 11
55.9387583495
 21
86.4435034034
  0
LINE
  5
2C1
100
AcDbEntity
  8
0
100
AcDbLine
 62
7
  6
CONTINUOUS
 10
55.9387583495
 20
22.1031129336
 11
55.9387583495
 21
23.7361177678
  0
LINE
  5
2C2
100
AcDbEntity
  8
0
100
AcDbLine
 62
7
  6
CONTINUOUS
 10
11.927821856
 20
33.00026566
 11
11.5168217842
 21
32.8828285942
  0
LINE
  5
2C3
100
AcDbEntity
  8
0
100
AcDbLine
 62
7
  6
CONTINUOUS
 10
34.4781206793
 20
74.2981363798
 11
33.7710109541
 21
74.7063771343
  0
LINE
  5
2C4
100
AcDbEntity
  8
0
100
AcDbLine
 62
7
  6
CONTINUOUS
 10
32.0032366413
 20
75.7269790206
 11
32.7103463664
 21
75.3187382661
  0
LINE
  5
2C5
100
AcDbEntity
  8
0
100
AcDbLine
 62
7
  6
CONTINUOUS
 10
32.8517612459
 20
76.2168720052
 11
33.5588709711
 21
75.8086312507
  0
LINE
  5
2C6
100
AcDbEntity
  8
0
100
AcDbLine
 62
7
  6
CONTINUOUS
 10
32.0032366413
 20
76.9517326463
 11
32.7103463664
 21
76.5434918918
  0
LINE
  5
2C7
100
AcDbEntity
  8
0
100
AcDbLine
 62
7
  6
CONTINUOUS
 10
24.8614460811
 20
83.8102998905
 11
28.573747342
 21
81.667050245
  0
LINE
  5
2C8
100
AcDbEntity
  8
0
100
AcDbLine
 62
7
  6
CONTINUOUS
 10
33.6649300618
 20
78.7277210278
 11
37.3772882162
 21
76.5844385355
  0
LINE
  5
2C9
100
AcDbEntity
  8
0
100
AcDbLine
 62
7
  6
CONTINUOUS
 10
56.7165672713
 20
24.9200227546
 11
56.7165672713
 21
25.0425242195
  0
LINE
  5
2CA
100
AcDbEntity
  8
0
100
AcDbLine
 62
7
  6
CONTINUOUS
 10
56.7165672713
 20
85.9944035559
 11
56.7165672713
 21
86.8925689132
  0
LINE
  5
2CB
100
AcDbEntity
  8
0
100
AcDbLine
 62
7
  6
CONTINUOUS
 10
57.3529660239
 20
24.5526060756
 11
57.3529660239
 21
25.4099470174
  0
LINE
  5
2CC
100
AcDbEntity
  8
0
100
AcDbLine
 62
7
  6
CONTINUOUS
 10
57.3529660239
 20
85.6269868769
 11
57.3529660239
 21
87.2599917111
  0
LINE
  5
2CD
100
AcDbEntity
  8
0
100
AcDbLine
 62
7
  6
CONTINUOUS
 10
29.4576271385
 20
82.1773554374
 11
34.5488098583
 21
79.2380262201
  0
LINE
  5
2CE
100
AcDbEntity
  8
0
100
AcDbLine
 62
7
  6
CONTINUOUS
 10
68.4544791932
 20
48.7617412094
 11
68.3484362861
 21
48.700517674
  0
LINE
  5
2CF
100
AcDbEntity
  8
0
100
AcDbLine
 62
7
  6
CONTINUOUS
 10
68.3484362861
 20
47.8448252345
 11
68.7712825326
 21
48.0889541715
  0
LINE
  5
2D0
100
AcDbEntity
  8
0
100
AcDbLine
 62
7
  6
CONTINUOUS
 10
68.9950621707
 20
47.8491126124
 11
69.0201710948
 21
47.8636091699
  0
LINE
  5
2D1
100
AcDbEntity
  8
0
100
AcDbLine
 62
7
  6
CONTINUOUS
 10
20.9788263379
 20
27.7747840022
 11
20.5678262661
 21
27.6573469364
  0
LINE
  5
2D2
100
AcDbEntity
  8
0
100
AcDbLine
 62
7
  6
CONTINUOUS
 10
64.2825836286
 20
26.9203939493
 11
64.2825836286
 21
28.2676363414
  0
LINE
  5
2D3
100
AcDbEntity
  8
0
100
AcDbLine
 62
7
  6
CONTINUOUS
 10
64.2825836286
 20
90.7708829688
 11
64.2825836286
 21
92.8937892533
  0
LINE
  5
2D4
100
AcDbEntity
  8
0
100
AcDbLine
 62
7
  6
CONTINUOUS
 10
64.9543378675
 20
92.5059605365
 11
64.9543378675
 21
90.383054252
  0
LINE
  5
2D5
100
AcDbEntity
  8
0
100
AcDbLine
 62
7
  6
CONTINUOUS
 10
64.9543378675
 20
26.5325652325
 11
64.9543378675
 21
28.655471517
  0
LINE
  5
2D6
100
AcDbEntity
  8
0
100
AcDbLine
 62
7
  6
CONTINUOUS
 10
66.6454312451
 20
72.7164700397
 11
66.1512123917
 21
69.1946402641
  0
LINE
  5
2D7
100
AcDbEntity
  8
0
100
AcDbLine
 62
7
  6
CONTINUOUS
 10
52.8516369701
 20
22.8111189894
 11
51.4840042388
 21
19.2862240758
  0
LINE
  5
2D8
100
AcDbEntity
  8
0
100
AcDbLine
 62
7
  6
CONTINUOUS
 10
69.409092042
 20
46.985906337
 11
68.3484362861
 21
46.3735401062
  0
LINE
  5
2D9
100
AcDbEntity
  8
0
100
AcDbLine
 62
7
  6
CONTINUOUS
 10
71.176851635
 20
47.1900143045
 11
70.6567700248
 21
46.8897468392
  0
LINE
  5
2DA
100
AcDbEntity
  8
0
100
AcDbLine
 62
7
  6
CONTINUOUS
 10
70.4697477978
 20
45.557016525
 11
69.409092042
 21
44.9446502942
  0
LINE
  5
2DB
100
AcDbEntity
  8
0
100
AcDbLine
 62
7
  6
CONTINUOUS
 10
27.3364137277
 20
19.4293695131
 11
37.3772882162
 21
25.2264364981
  0
LINE
  5
2DC
100
AcDbEntity
  8
0
100
AcDbLine
 62
7
  6
CONTINUOUS
 10
32.7103463664
 20
22.1644309109
 11
33.1506305787
 21
22.4186276021
  0
LINE
  5
2DD
100
AcDbEntity
  8
0
100
AcDbLine
 62
7
  6
CONTINUOUS
 10
32.0032366413
 20
21.3479180398
 11
32.8517612459
 21
21.8378110244
  0
LINE
  5
2DE
100
AcDbEntity
  8
0
100
AcDbLine
 62
7
  6
CONTINUOUS
 10
22.8305773866
 20
26.3509765219
 11
23.2415774584
 21
26.4684135877
  0
LINE
  5
2DF
100
AcDbEntity
  8
0
100
AcDbLine
 62
7
  6
CONTINUOUS
 10
68.3484362861
 20
70.015829976
 11
66.4224863044
 21
71.1277525614
  0
LINE
  5
2E0
100
AcDbEntity
  8
0
100
AcDbLine
 62
7
  6
CONTINUOUS
 10
47.2767419372
 20
82.2998566897
 11
46.6049876983
 21
82.6876854065
  0
LINE
  5
2E1
100
AcDbEntity
  8
0
100
AcDbLine
 62
7
  6
CONTINUOUS
 10
34.7608998021
 20
89.5257180447
 11
35.432654041
 21
89.137889328
  0
LINE
  5
2E2
100
AcDbEntity
  8
0
100
AcDbLine
 62
7
  6
CONTINUOUS
 10
51.4840042388
 20
85.7495208302
 11
53.2394645153
 21
83.2520698499
  0
LINE
  5
2E3
100
AcDbEntity
  8
0
100
AcDbLine
 62
7
  6
CONTINUOUS
 10
68.3484362861
 20
46.3735401062
 11
68.3484362861
 21
70.015829976
  0
LINE
  5
2E4
100
AcDbEntity
  8
0
100
AcDbLine
 62
7
  6
CONTINUOUS
 10
68.3484362861
 20
73.3529505652
 11
68.3484362861
 21
75.7676271228
  0
LINE
  5
2E5
100
AcDbEntity
  8
0
100
AcDbLine
 62
7
  6
CONTINUOUS
 10
69.3383575177
 20
49.5578178706
 11
69.3383575177
 21
48.2514453653
  0
LINE
  5
2E6
100
AcDbEntity
  8
0
100
AcDbLine
 62
7
  6
CONTINUOUS
 10
69.409092042
 20
44.9446502942
 11
69.409092042
 21
46.985906337
  0
LINE
  5
2E7
100
AcDbEntity
  8
0
100
AcDbLine
 62
7
  6
CONTINUOUS
 10
72.2375073908
 20
84.6266395479
 11
70.9034155049
 21
75.1198299728
  0
LINE
  5
2E8
100
AcDbEntity
  8
0
100
AcDbLine
 62
7
  6
CONTINUOUS
 10
68.9950621707
 20
47.8491126124
 11
68.9140366218
 21
47.2717202511
  0
LINE
  5
2E9
100
AcDbEntity
  8
0
100
AcDbLine
 62
7
  6
CONTINUOUS
 10
29.4576840319
 20
19.3381326935
 11
28.5738042354
 21
18.8278275011
  0
LINE
  5
2EA
100
AcDbEntity
  8
0
100
AcDbLine
 62
7
  6
CONTINUOUS
 10
32.7103463664
 20
20.9396772853
 11
33.5588709711
 21
21.4295702699
  0
LINE
  5
2EB
100
AcDbEntity
  8
0
100
AcDbLine
 62
7
  6
CONTINUOUS
 10
33.7710109541
 20
20.3273161535
 11
34.2527924093
 21
20.6054711459
  0
LINE
  5
2EC
100
AcDbEntity
  8
0
100
AcDbLine
 62
7
  6
CONTINUOUS
 10
32.7103463664
 20
18.6771422465
 11
33.5588709711
 21
19.1670352311
  0
LINE
  5
2ED
100
AcDbEntity
  8
0
100
AcDbLine
 62
7
  6
CONTINUOUS
 10
28.5738042354
 20
15.6936220943
 11
29.4576840319
 21
16.2039272866
  0
LINE
  5
2EE
100
AcDbEntity
  8
0
100
AcDbLine
 62
7
  6
CONTINUOUS
 10
38.9543032139
 20
91.1711022893
 11
50.1266368713
 21
84.7208983679
  0
LINE
  5
2EF
100
AcDbEntity
  8
0
100
AcDbLine
 62
7
  6
CONTINUOUS
 10
39.3217251456
 20
91.6281828994
 11
50.494058803
 21
85.177978978
  0
LINE
  5
2F0
100
AcDbEntity
  8
0
100
AcDbLine
 62
7
  6
CONTINUOUS
 10
68.3556743762
 20
75.7801641462
 11
70.2014298924
 21
74.7145408097
  0
LINE
  5
2F1
100
AcDbEntity
  8
0
100
AcDbLine
 62
7
  6
CONTINUOUS
 10
51.4840042388
 20
85.7495208302
 11
50.8476054861
 21
86.1169375092
  0
LINE
  5
2F2
100
AcDbEntity
  8
0
100
AcDbLine
 62
7
  6
CONTINUOUS
 10
40.3116705815
 20
92.1997247516
 11
40.9480693341
 21
91.8323080725
  0
LINE
  5
2F3
100
AcDbEntity
  8
0
100
AcDbLine
 62
7
  6
CONTINUOUS
 10
72.2375073908
 20
30.7374800173
 11
72.2375073908
 21
46.5776269096
  0
LINE
  5
2F4
100
AcDbEntity
  8
0
100
AcDbLine
 62
7
  6
CONTINUOUS
 10
72.2375073908
 20
84.6266395479
 11
72.2375073908
 21
88.8388292877
  0
LINE
  5
2F5
100
AcDbEntity
  8
0
100
AcDbLine
 62
7
  6
CONTINUOUS
 10
70.4697477978
 20
45.557016525
 11
70.6567700248
 21
46.8897468392
  0
LINE
  5
2F6
100
AcDbEntity
  8
0
100
AcDbLine
 62
7
  6
CONTINUOUS
 10
52.3463934936
 20
20.7639119744
 11
51.978971562
 21
20.3068313643
  0
LINE
  5
2F7
100
AcDbEntity
  8
0
100
AcDbLine
 62
7
  6
CONTINUOUS
 10
41.478490472
 20
21.2255337369
 11
44.3069058209
 21
22.8585103524
  0
LINE
  5
2F8
100
AcDbEntity
  8
0
100
AcDbLine
 62
7
  6
CONTINUOUS
 10
33.6649869553
 20
15.8884982839
 11
34.5488667518
 21
16.3988034762
  0
LINE
  5
2F9
100
AcDbEntity
  8
0
100
AcDbLine
 62
7
  6
CONTINUOUS
 10
49.5747937861
 20
88.5663838856
 11
51.8375354859
 21
88.5663893246
  0
LINE
  5
2FA
100
AcDbEntity
  8
0
100
AcDbLine
 62
7
  6
CONTINUOUS
 10
51.978971562
 20
86.7701281186
 11
52.3463934936
 21
86.7373072784
  0
LINE
  5
2FB
100
AcDbEntity
  8
0
100
AcDbLine
 62
7
  6
CONTINUOUS
 10
49.376532648
 20
88.4519184474
 11
49.0091107163
 21
88.4847392876
  0
LINE
  5
2FC
100
AcDbEntity
  8
0
100
AcDbLine
 62
7
  6
CONTINUOUS
 10
45.0492962555
 20
90.7708875129
 11
45.4167181872
 21
90.7380666727
  0
LINE
  5
2FD
100
AcDbEntity
  8
0
100
AcDbLine
 62
7
  6
CONTINUOUS
 10
42.0794354099
 20
92.4854986819
 11
51.978971562
 21
86.7701281186
  0
LINE
  5
2FE
100
AcDbEntity
  8
0
100
AcDbLine
 62
7
  6
CONTINUOUS
 10
42.4468573416
 20
92.4526778417
 11
45.4167181872
 21
90.7380666727
  0
LINE
  5
2FF
100
AcDbEntity
  8
0
100
AcDbLine
 62
7
  6
CONTINUOUS
 10
49.376532648
 20
88.4519184474
 11
52.3463934936
 21
86.7373072784
  0
LINE
  5
300
100
AcDbEntity
  8
0
100
AcDbLine
 62
7
  6
CONTINUOUS
 10
57.3529660239
 20
85.6269868769
 11
56.7165672713
 21
85.9944035559
  0
LINE
  5
301
100
AcDbEntity
  8
0
100
AcDbLine
 62
7
  6
CONTINUOUS
 10
55.9387583495
 20
86.4435034034
 11
55.3023595969
 21
86.8109200824
  0
LINE
  5
302
100
AcDbEntity
  8
0
100
AcDbLine
 62
7
  6
CONTINUOUS
 10
70.2014298924
 20
74.7145408097
 11
68.9141193559
 21
76.0942224459
  0
LINE
  5
303
100
AcDbEntity
  8
0
100
AcDbLine
 62
7
  6
CONTINUOUS
 10
60.9595113444
 20
27.4921744998
 11
47.2767419372
 21
19.5924710542
  0
LINE
  5
304
100
AcDbEntity
  8
0
100
AcDbLine
 62
7
  6
CONTINUOUS
 10
55.3023595969
 20
24.1035344469
 11
56.7165672713
 21
24.9200227546
  0
LINE
  5
305
100
AcDbEntity
  8
0
100
AcDbLine
 62
7
  6
CONTINUOUS
 10
55.9387583495
 20
23.7361177678
 11
57.3529660239
 21
24.5526060756
  0
LINE
  5
306
100
AcDbEntity
  8
0
100
AcDbLine
 62
7
  6
CONTINUOUS
 10
41.478490472
 20
15.3058778089
 11
41.5138400703
 21
15.3262867871
  0
LINE
  5
307
100
AcDbEntity
  8
0
100
AcDbLine
 62
7
  6
CONTINUOUS
 10
64.9543378675
 20
28.655471517
 11
62.9744471233
 21
27.5123878862
  0
LINE
  5
308
100
AcDbEntity
  8
0
100
AcDbLine
 62
7
  6
CONTINUOUS
 10
39.3571789604
 20
13.3054814549
 11
41.478490472
 21
14.5302139165
  0
LINE
  5
309
100
AcDbEntity
  8
0
100
AcDbLine
 62
7
  6
CONTINUOUS
 10
52.3463934936
 20
20.7639119744
 11
55.3023595969
 21
22.4705296126
  0
LINE
  5
30A
100
AcDbEntity
  8
0
100
AcDbLine
 62
7
  6
CONTINUOUS
 10
51.978971562
 20
20.3068313643
 11
51.851419808
 21
20.2331897644
  0
LINE
  5
30B
100
AcDbEntity
  8
0
100
AcDbLine
 62
7
  6
CONTINUOUS
 10
50.1266368713
 20
18.7475030638
 11
47.2767419372
 21
17.1021252781
  0
LINE
  5
30C
100
AcDbEntity
  8
0
100
AcDbLine
 62
7
  6
CONTINUOUS
 10
41.5138400703
 20
13.7749321946
 11
43.635151582
 21
14.9996646562
  0
LINE
  5
30D
100
AcDbEntity
  8
0
100
AcDbLine
 62
7
  6
CONTINUOUS
 10
55.9387583495
 20
22.1031129336
 11
64.2825836286
 21
26.9203939493
  0
LINE
  5
30E
100
AcDbEntity
  8
0
100
AcDbLine
 62
7
  6
CONTINUOUS
 10
33.6649869553
 20
15.8884982839
 11
34.1971733233
 21
16.0781859818
  0
LINE
  5
30F
100
AcDbEntity
  8
0
100
AcDbLine
 62
7
  6
CONTINUOUS
 10
42.4468573416
 20
92.4526778417
 11
42.0794354099
 21
92.4854986819
  0
LINE
  5
310
100
AcDbEntity
  8
0
100
AcDbLine
 62
7
  6
CONTINUOUS
 10
55.9387583495
 20
88.0765082376
 11
55.3023595969
 21
88.4439249167
  0
LINE
  5
311
100
AcDbEntity
  8
0
100
AcDbLine
 62
7
  6
CONTINUOUS
 10
44.7664246922
 20
94.5267121591
 11
45.4028234448
 21
94.15929548
  0
LINE
  5
312
100
AcDbEntity
  8
0
100
AcDbLine
 62
7
  6
CONTINUOUS
 10
62.4806802582
 20
85.4381254005
 11
62.6574576895
 21
85.3360652119
  0
LINE
  5
313
100
AcDbEntity
  8
0
100
AcDbLine
 62
7
  6
CONTINUOUS
 10
60.9595113444
 20
86.9335504669
 11
60.2877571055
 21
87.3213791837
  0
LINE
  5
314
100
AcDbEntity
  8
0
100
AcDbLine
 62
7
  6
CONTINUOUS
 10
63.4806632912
 20
87.1701860039
 11
63.6574407225
 21
87.0681258153
  0
LINE
  5
315
100
AcDbEntity
  8
0
100
AcDbLine
 62
7
  6
CONTINUOUS
 10
71.0354308676
 20
96.0168602598
 11
72.2375073908
 21
88.8388292877
  0
LINE
  5
316
100
AcDbEntity
  8
0
100
AcDbLine
 62
7
  6
CONTINUOUS
 10
50.494058803
 20
18.7146822236
 11
51.4840042388
 21
19.2862240758
  0
LINE
  5
317
100
AcDbEntity
  8
0
100
AcDbLine
 62
7
  6
CONTINUOUS
 10
37.3772882162
 20
10.6110432315
 11
39.3571789604
 21
11.7541268623
  0
LINE
  5
318
100
AcDbEntity
  8
0
100
AcDbLine
 62
7
  6
CONTINUOUS
 10
44.3069058209
 20
14.6118359394
 11
47.2767419372
 21
16.3264613857
  0
LINE
  5
319
100
AcDbEntity
  8
0
100
AcDbLine
 62
7
  6
CONTINUOUS
 10
64.9543378675
 20
26.5325652325
 11
72.2375073908
 21
30.7374800173
  0
LINE
  5
31A
100
AcDbEntity
  8
0
100
AcDbLine
 62
7
  6
CONTINUOUS
 10
62.3026928844
 20
89.6277993379
 11
62.9744471233
 21
89.2399706212
  0
LINE
  5
31B
100
AcDbEntity
  8
0
100
AcDbLine
 62
7
  6
CONTINUOUS
 10
64.9543378675
 20
90.383054252
 11
64.2825836286
 21
90.7708829688
  0
LINE
  5
31C
100
AcDbEntity
  8
0
100
AcDbLine
 62
7
  6
CONTINUOUS
 10
64.9543378675
 20
92.5059605365
 11
64.2825836286
 21
92.8937892533
  0
LINE
  5
31D
100
AcDbEntity
  8
0
100
AcDbLine
 62
7
  6
CONTINUOUS
 10
52.4384957324
 20
99.7318218915
 11
53.1102499713
 21
99.3439931747
  0
LINE
  5
31E
100
AcDbEntity
  8
0
100
AcDbLine
 62
7
  6
CONTINUOUS
 10
58.5195887325
 20
103.2427216148
 11
71.0354308676
 21
96.0168602598
  0
ARC
  5
31F
100
AcDbEntity
  8
0
100
AcDbCircle
 62
7
  6
CONTINUOUS
 10
34.8953117711
 20
23.5897550282
 40
7.9143800323
100
AcDbArc
 50
208.6983373414
 51
216.9903441299
  0
ARC
  5
320
100
AcDbEntity
  8
0
100
AcDbCircle
 62
7
  6
CONTINUOUS
 10
35.7367870119
 20
24.07268588
 40
7.8640401899
100
AcDbArc
 50
208.6717507879
 51
217.0169306834
  0
ARC
  5
321
100
AcDbEntity
  8
0
100
AcDbCircle
 62
7
  6
CONTINUOUS
 10
20.3348242744
 20
34.6771439709
 40
5.9738475147
100
AcDbArc
 50
179.9971692846
 51
181.5996737599
  0
ARC
  5
322
100
AcDbEntity
  8
0
100
AcDbCircle
 62
7
  6
CONTINUOUS
 10
29.7221226061
 20
73.2812640893
 40
4.8383047645
100
AcDbArc
 50
11.6999639717
 51
13.1454880707
  0
ARC
  5
323
100
AcDbEntity
  8
0
100
AcDbCircle
 62
7
  6
CONTINUOUS
 10
36.2507204951
 20
76.810735784
 40
4.2313030376
100
AcDbArc
 50
230.4928078877
 51
234.1110778422
  0
ARC
  5
324
100
AcDbEntity
  8
0
100
AcDbCircle
 62
7
  6
CONTINUOUS
 10
36.2507204951
 20
22.4316748032
 40
4.2313030376
100
AcDbArc
 50
230.4928078877
 51
234.1110778422
  0
ARC
  5
325
100
AcDbEntity
  8
0
100
AcDbCircle
 62
7
  6
CONTINUOUS
 10
17.7640420853
 20
34.2265594593
 40
3.3498366381
100
AcDbArc
 50
200.8911792417
 51
203.7089454992
  0
ARC
  5
326
100
AcDbEntity
  8
0
100
AcDbCircle
 62
7
  6
CONTINUOUS
 10
13.9676537274
 20
34.8721160862
 40
2.6819698493
100
AcDbArc
 50
221.4901080749
 51
222.2866665636
  0
ARC
  5
327
100
AcDbEntity
  8
0
100
AcDbCircle
 62
7
  6
CONTINUOUS
 10
66.2269300596
 20
48.1260492828
 40
2.6164011551
100
AcDbArc
 50
356.5466530926
 51
358.2911696601
  0
ARC
  5
328
100
AcDbEntity
  8
0
100
AcDbCircle
 62
7
  6
CONTINUOUS
 10
34.2616051391
 20
18.0861750556
 40
1.7116489363
100
AcDbArc
 50
279.6615242053
 51
281.5034159384
  0
ARC
  5
329
100
AcDbEntity
  8
0
100
AcDbCircle
 62
7
  6
CONTINUOUS
 10
13.7530264451
 20
35.35076733
 40
1.0301692433
100
AcDbArc
 50
308.1724523857
 51
312.2899075147
  0
ARC
  5
32A
100
AcDbEntity
  8
0
100
AcDbCircle
 62
7
  6
CONTINUOUS
 10
13.8207867431
 20
35.2660931488
 40
0.9217248341
100
AcDbArc
 50
306.2404216789
 51
308.1140943879
  0
SPLINE
  5
32B
100
AcDbEntity
  8
0
100
AcDbSpline
 62
7
  6
CONTINUOUS
 70
0
 71
3
 72
12
 73
8
 74
0
 42
0.0000001
 43
0.0000001
 44
0.0000000001
 40
0.0
 40
0.0
 40
0.0
 40
0.0
 40
0.108163127
 40
0.2183737745
 40
0.4513417026
 40
0.7104804291
 40
1.0
 40
1.0
 40
1.0
 40
1.0
 10
33.8032281739
 20
71.7928296821
 30
0.0
 10
33.8622577286
 20
71.8268963388
 30
0.0
 10
33.9757359688
 20
71.9061190593
 30
0.0
 10
34.1792595834
 20
72.1063725794
 30
0.0
 10
34.3809627904
 20
72.4350399758
 30
0.0
 10
34.5211368007
 20
72.9114743111
 30
0.0
 10
34.5488419557
 20
73.2584120054
 30
0.0
 10
34.5488419557
 20
73.4408405275
 30
0.0
  0
SPLINE
  5
32C
100
AcDbEntity
  8
0
100
AcDbSpline
 62
7
  6
CONTINUOUS
 70
0
 71
3
 72
13
 73
9
 74
0
 42
0.0000001
 43
0.0000001
 44
0.0000000001
 40
0.0
 40
0.0
 40
0.0
 40
0.0
 40
0.1080943002
 40
0.2182332117
 40
0.3322568609
 40
0.4516850024
 40
0.7106223967
 40
1.0
 40
1.0
 40
1.0
 40
1.0
 10
34.1972258349
 20
69.4774938037
 30
0.0
 10
34.2726437339
 20
69.5210360827
 30
0.0
 10
34.4176793792
 20
69.6221826529
 30
0.0
 10
34.6092141796
 20
69.8108046056
 30
0.0
 10
34.7740260055
 20
70.0345623423
 30
0.0
 10
34.9608960231
 20
70.3858538043
 30
0.0
 10
35.1148121718
 20
70.9070800649
 30
0.0
 10
35.149958095
 20
71.3501469942
 30
0.0
 10
35.149958095
 20
71.5832808021
 30
0.0
  0
SPLINE
  5
32D
100
AcDbEntity
  8
0
100
AcDbSpline
 62
7
  6
CONTINUOUS
 70
0
 71
3
 72
11
 73
7
 74
0
 42
0.0000001
 43
0.0000001
 44
0.0000000001
 40
0.0
 40
0.0
 40
0.0
 40
0.0
 40
0.2177231375
 40
0.4508717887
 40
0.7104673698
 40
1.0
 40
1.0
 40
1.0
 40
1.0
 10
63.6574189386
 20
87.068087939
 30
0.0
 10
63.6903967943
 20
87.049050287
 30
0.0
 10
63.7521517333
 20
86.9972274447
 30
0.0
 10
63.8178683547
 20
86.8897533173
 30
0.0
 10
63.8568200554
 20
86.7573354032
 30
0.0
 10
63.8645530432
 20
86.6609772091
 30
0.0
 10
63.8645530432
 20
86.6103396674
 30
0.0
  0
SPLINE
  5
32E
100
AcDbEntity
  8
0
100
AcDbSpline
 62
7
  6
CONTINUOUS
 70
0
 71
3
 72
11
 73
7
 74
0
 42
0.0000001
 43
0.0000001
 44
0.0000000001
 40
0.0
 40
0.0
 40
0.0
 40
0.0
 40
0.2177231375
 40
0.4508717887
 40
0.7104673698
 40
1.0
 40
1.0
 40
1.0
 40
1.0
 10
42.5150142059
 20
68.1662679178
 30
0.0
 10
42.5479920616
 20
68.1472302658
 30
0.0
 10
42.6097470006
 20
68.0954074235
 30
0.0
 10
42.675463622
 20
67.987933296
 30
0.0
 10
42.7144153227
 20
67.855515382
 30
0.0
 10
42.7221483105
 20
67.7591571879
 30
0.0
 10
42.7221483105
 20
67.7085196462
 30
0.0
  0
SPLINE
  5
32F
100
AcDbEntity
  8
0
100
AcDbSpline
 62
7
  6
CONTINUOUS
 70
0
 71
3
 72
11
 73
7
 74
0
 42
0.0000001
 43
0.0000001
 44
0.0000000001
 40
0.0
 40
0.0
 40
0.0
 40
0.0
 40
0.2177231375
 40
0.4508717887
 40
0.7104673698
 40
1.0
 40
1.0
 40
1.0
 40
1.0
 10
50.363866799
 20
54.2448233987
 30
0.0
 10
50.3968446547
 20
54.2257857467
 30
0.0
 10
50.4585995937
 20
54.1739629043
 30
0.0
 10
50.5243162151
 20
54.0664887769
 30
0.0
 10
50.5632679158
 20
53.9340708629
 30
0.0
 10
50.5710009036
 20
53.8377126687
 30
0.0
 10
50.5710009036
 20
53.7870751271
 30
0.0
  0
SPLINE
  5
330
100
AcDbEntity
  8
0
100
AcDbSpline
 62
7
  6
CONTINUOUS
 70
0
 71
3
 72
15
 73
11
 74
0
 42
0.0000001
 43
0.0000001
 44
0.0000000001
 40
0.0
 40
0.0
 40
0.0
 40
0.0
 40
0.1141229605
 40
0.2373462928
 40
0.366971064
 40
0.4999983279
 40
0.633025824
 40
0.762651271
 40
0.8858756957
 40
1.0
 40
1.0
 40
1.0
 40
1.0
 10
14.8205715926
 20
63.397839639
 30
0.0
 10
14.72378471
 20
63.3419600398
 30
0.0
 10
14.5325704201
 20
63.2078674456
 30
0.0
 10
14.2694152035
 20
62.9617530568
 30
0.0
 10
14.0269576981
 20
62.6707137777
 30
0.0
 10
13.8142339168
 20
62.345860591
 30
0.0
 10
13.6392660579
 20
61.9992083745
 30
0.0
 10
13.5084481622
 20
61.6437120216
 30
0.0
 10
13.4268846628
 20
61.29275257
 30
0.0
 10
13.4063639182
 20
61.0601075117
 30
0.0
 10
13.4063639182
 20
60.948346497
 30
0.0
  0
SPLINE
  5
331
100
AcDbEntity
  8
0
100
AcDbSpline
 62
7
  6
CONTINUOUS
 70
0
 71
3
 72
12
 73
8
 74
0
 42
0.0000001
 43
0.0000001
 44
0.0000000001
 40
0.0
 40
0.0
 40
0.0
 40
0.0
 40
0.2615945819
 40
0.5226363073
 40
0.771873049
 40
0.8891303171
 40
1.0
 40
1.0
 40
1.0
 40
1.0
 10
13.5858494206
 20
42.489179932
 30
0.0
 10
13.1999117556
 20
41.9998871604
 30
0.0
 10
12.5038604006
 20
40.9608244464
 30
0.0
 10
11.7117400349
 20
39.2947862827
 30
0.0
 10
11.2806438625
 20
37.8552678139
 30
0.0
 10
11.1041614647
 20
36.7304635906
 30
0.0
 10
11.0729212554
 20
36.1866891046
 30
0.0
 10
11.0729212554
 20
35.9225706924
 30
0.0
  0
SPLINE
  5
332
100
AcDbEntity
  8
0
100
AcDbSpline
 62
7
  6
CONTINUOUS
 70
0
 71
3
 72
11
 73
7
 74
0
 42
0.0000001
 43
0.0000001
 44
0.0000000001
 40
0.0
 40
0.0
 40
0.0
 40
0.0
 40
0.2816833494
 40
0.5410631535
 40
0.779199773
 40
1.0
 40
1.0
 40
1.0
 40
1.0
 10
11.0729212554
 20
35.9225706924
 30
0.0
 10
11.0729212554
 20
35.6387207447
 30
0.0
 10
11.106507158
 20
35.0925421083
 30
0.0
 10
11.2715487105
 20
34.3213748098
 30
0.0
 10
11.5474343506
 20
33.6475843255
 30
0.0
 10
11.8112654987
 20
33.2620015329
 30
0.0
 10
11.9586702806
 20
33.0953359131
 30
0.0
  0
SPLINE
  5
333
100
AcDbEntity
  8
0
100
AcDbSpline
 62
7
  6
CONTINUOUS
 70
0
 71
3
 72
11
 73
7
 74
0
 42
0.0000001
 43
0.0000001
 44
0.0000000001
 40
0.0
 40
0.0
 40
0.0
 40
0.0
 40
0.2177231375
 40
0.4508717887
 40
0.7104673698
 40
1.0
 40
1.0
 40
1.0
 40
1.0
 10
29.4335932175
 20
32.4444176802
 30
0.0
 10
29.4665710732
 20
32.4253800282
 30
0.0
 10
29.5283260122
 20
32.3735571859
 30
0.0
 10
29.5940426335
 20
32.2660830584
 30
0.0
 10
29.6329943342
 20
32.1336651444
 30
0.0
 10
29.6407273221
 20
32.0373069503
 30
0.0
 10
29.6407273221
 20
31.9866694086
 30
0.0
  0
SPLINE
  5
334
100
AcDbEntity
  8
0
100
AcDbSpline
 62
7
  6
CONTINUOUS
 70
0
 71
3
 72
11
 73
7
 74
0
 42
0.0000001
 43
0.0000001
 44
0.0000000001
 40
0.0
 40
0.0
 40
0.0
 40
0.0
 40
0.2559559315
 40
0.5137780946
 40
0.7645188279
 40
1.0
 40
1.0
 40
1.0
 40
1.0
 10
16.7278963286
 20
40.6851772203
 30
0.0
 10
16.4146928486
 20
40.3037218999
 30
0.0
 10
15.8392761645
 20
39.4928709945
 30
0.0
 10
15.1491095923
 20
38.1855062245
 30
0.0
 10
14.6528455766
 20
36.8347620617
 30
0.0
 10
14.4604279785
 20
35.9122431579
 30
0.0
 10
14.4079801788
 20
35.4612008656
 30
0.0
  0
SPLINE
  5
335
100
AcDbEntity
  8
0
100
AcDbSpline
 62
7
  6
CONTINUOUS
 70
0
 71
3
 72
9
 73
5
 74
0
 42
0.0000001
 43
0.0000001
 44
0.0000000001
 40
0.0
 40
0.0
 40
0.0
 40
0.0
 40
0.2563894071
 40
1.0
 40
1.0
 40
1.0
 40
1.0
 10
14.4079801788
 20
35.4612008656
 30
0.0
 10
14.4002271835
 20
35.3945264049
 30
0.0
 10
14.3734868312
 20
35.1340891306
 30
0.0
 10
14.360976767
 20
34.8721191616
 30
0.0
 10
14.360976767
 20
34.6774391106
 30
0.0
  0
SPLINE
  5
336
100
AcDbEntity
  8
0
100
AcDbSpline
 62
7
  6
CONTINUOUS
 70
0
 71
3
 72
11
 73
7
 74
0
 42
0.0000001
 43
0.0000001
 44
0.0000000001
 40
0.0
 40
0.0
 40
0.0
 40
0.0
 40
0.2177231375
 40
0.4508717887
 40
0.7104673698
 40
1.0
 40
1.0
 40
1.0
 40
1.0
 10
42.5150142059
 20
25.7897924688
 30
0.0
 10
42.5479920616
 20
25.7707548168
 30
0.0
 10
42.6097470006
 20
25.7189319744
 30
0.0
 10
42.675463622
 20
25.611457847
 30
0.0
 10
42.7144153227
 20
25.479039933
 30
0.0
 10
42.7221483105
 20
25.3826817389
 30
0.0
 10
42.7221483105
 20
25.3320441972
 30
0.0
  0
SPLINE
  5
337
100
AcDbEntity
  8
0
100
AcDbSpline
 62
7
  6
CONTINUOUS
 70
0
 71
3
 72
11
 73
7
 74
0
 42
0.0000001
 43
0.0000001
 44
0.0000000001
 40
0.0
 40
0.0
 40
0.0
 40
0.0
 40
0.2177231375
 40
0.4508717887
 40
0.7104673698
 40
1.0
 40
1.0
 40
1.0
 40
1.0
 10
66.2029927526
 20
39.2210208983
 30
0.0
 10
66.2359706083
 20
39.2019832464
 30
0.0
 10
66.2977255473
 20
39.150160404
 30
0.0
 10
66.3634421687
 20
39.0426862766
 30
0.0
 10
66.4023938694
 20
38.9102683625
 30
0.0
 10
66.4101268572
 20
38.8139101684
 30
0.0
 10
66.4101268572
 20
38.7632726268
 30
0.0
  0
SPLINE
  5
338
100
AcDbEntity
  8
0
100
AcDbSpline
 62
7
  6
CONTINUOUS
 70
0
 71
3
 72
12
 73
8
 74
0
 42
0.0000001
 43
0.0000001
 44
0.0000000001
 40
0.0
 40
0.0
 40
0.0
 40
0.0
 40
0.108163127
 40
0.2183737745
 40
0.4513417026
 40
0.7104804291
 40
1.0
 40
1.0
 40
1.0
 40
1.0
 10
33.8032281739
 20
17.4137687012
 30
0.0
 10
33.8622577286
 20
17.447835358
 30
0.0
 10
33.9757359688
 20
17.5270580784
 30
0.0
 10
34.1792595834
 20
17.7273115985
 30
0.0
 10
34.3809627904
 20
18.055978995
 30
0.0
 10
34.5211368007
 20
18.5324133303
 30
0.0
 10
34.5488419557
 20
18.8793510245
 30
0.0
 10
34.5488419557
 20
19.0617795467
 30
0.0
  0
SPLINE
  5
339
100
AcDbEntity
  8
0
100
AcDbSpline
 62
7
  6
CONTINUOUS
 70
0
 71
3
 72
11
 73
7
 74
0
 42
0.0000001
 43
0.0000001
 44
0.0000000001
 40
0.0
 40
0.0
 40
0.0
 40
0.0
 40
0.2412890299
 40
0.4964026571
 40
0.7533526432
 40
1.0
 40
1.0
 40
1.0
 40
1.0
 10
14.8447740433
 20
35.3176645612
 30
0.0
 10
14.8341126502
 20
35.250577427
 30
0.0
 10
14.798196662
 20
35.1145891409
 30
0.0
 10
14.7106582476
 20
34.9205028095
 30
0.0
 10
14.5935838886
 20
34.7408730877
 30
0.0
 10
14.4975922334
 20
34.6354047374
 30
0.0
 10
14.4462090117
 20
34.5887000107
 30
0.0
  0
SPLINE
  5
33A
100
AcDbEntity
  8
0
100
AcDbSpline
 62
7
  6
CONTINUOUS
 70
0
 71
3
 72
12
 73
8
 74
0
 42
0.0000001
 43
0.0000001
 44
0.0000000001
 40
0.0
 40
0.0
 40
0.0
 40
0.0
 40
0.1081717458
 40
0.2183611242
 40
0.4513645924
 40
0.7104213731
 40
1.0
 40
1.0
 40
1.0
 40
1.0
 10
34.1971795135
 20
16.0781752593
 30
0.0
 10
34.2726115657
 20
16.121717272
 30
0.0
 10
34.4176103577
 20
16.2229384841
 30
0.0
 10
34.677740304
 20
16.4788012549
 30
0.0
 10
34.9353431204
 20
16.8988103747
 30
0.0
 10
35.1145933537
 20
17.507571289
 30
0.0
 10
35.1499257413
 20
17.9508995619
 30
0.0
 10
35.1499257413
 20
18.1840607512
 30
0.0
  0
SPLINE
  5
33B
100
AcDbEntity
  8
0
100
AcDbSpline
 62
7
  6
CONTINUOUS
 70
0
 71
3
 72
10
 73
6
 74
0
 42
0.0000001
 43
0.0000001
 44
0.0000000001
 40
0.0
 40
0.0
 40
0.0
 40
0.0
 40
0.5123533776
 40
0.7578442474
 40
1.0
 40
1.0
 40
1.0
 40
1.0
 10
23.2415774584
 20
26.4684135877
 30
0.0
 10
23.3688679174
 20
26.235861233
 30
0.0
 10
23.599123204
 20
25.9111286798
 30
0.0
 10
23.9815518745
 20
25.5606268073
 30
0.0
 10
24.1911395525
 20
25.4181291032
 30
0.0
 10
24.2996534797
 20
25.3554803471
 30
0.0
  0
SPLINE
  5
33C
100
AcDbEntity
  8
0
100
AcDbSpline
 62
7
  6
CONTINUOUS
 70
0
 71
3
 72
9
 73
5
 74
0
 42
0.0000001
 43
0.0000001
 44
0.0000000001
 40
0.0
 40
0.0
 40
0.0
 40
0.0
 40
0.2375709498
 40
1.0
 40
1.0
 40
1.0
 40
1.0
 10
22.1844663915
 20
23.0095146493
 30
0.0
 10
22.1833619681
 20
22.9943003526
 30
0.0
 10
22.1762271658
 20
22.9304422856
 30
0.0
 10
22.1597408147
 20
22.8678133223
 30
0.0
 10
22.1435176074
 20
22.8216243239
 30
0.0
  0
SPLINE
  5
33D
100
AcDbEntity
  8
0
100
AcDbSpline
 62
7
  6
CONTINUOUS
 70
0
 71
3
 72
11
 73
7
 74
0
 42
0.0000001
 43
0.0000001
 44
0.0000000001
 40
0.0
 40
0.0
 40
0.0
 40
0.0
 40
0.2974911722
 40
0.5606157222
 40
0.7905690735
 40
1.0
 40
1.0
 40
1.0
 40
1.0
 10
23.6310213365
 20
24.9280040471
 30
0.0
 10
23.6025132573
 20
24.9063522121
 30
0.0
 10
23.5451961576
 20
24.8698809733
 30
0.0
 10
23.4550239681
 20
24.8367550686
 30
0.0
 10
23.3691879611
 20
24.8309942816
 30
0.0
 10
23.3172837132
 20
24.847746088
 30
0.0
 10
23.2954524462
 20
24.8603364241
 30
0.0
  0
SPLINE
  5
33E
100
AcDbEntity
  8
0
100
AcDbSpline
 62
7
  6
CONTINUOUS
 70
0
 71
3
 72
9
 73
5
 74
0
 42
0.0000001
 43
0.0000001
 44
0.0000000001
 40
0.0
 40
0.0
 40
0.0
 40
0.0
 40
0.2383202122
 40
1.0
 40
1.0
 40
1.0
 40
1.0
 10
22.423668444
 20
25.0244947106
 30
0.0
 10
22.4249200995
 20
25.0160551259
 30
0.0
 10
22.4290479433
 20
24.9804776117
 30
0.0
 10
22.4289130407
 20
24.9444652367
 30
0.0
 10
22.4269388027
 20
24.9172685621
 30
0.0
  0
SPLINE
  5
33F
100
AcDbEntity
  8
0
100
AcDbSpline
 62
7
  6
CONTINUOUS
 70
0
 71
3
 72
13
 73
9
 74
0
 42
0.0000001
 43
0.0000001
 44
0.0000000001
 40
0.0
 40
0.0
 40
0.0
 40
0.0
 40
0.1261323095
 40
0.2622302842
 40
0.5418790344
 40
0.6755804597
 40
0.7984863837
 40
1.0
 40
1.0
 40
1.0
 40
1.0
 10
22.4269388027
 20
24.9172685621
 30
0.0
 10
22.4240472007
 20
24.8774344772
 30
0.0
 10
22.4096079667
 20
24.7951250949
 30
0.0
 10
22.3537642414
 20
24.6324370771
 30
0.0
 10
22.2625847086
 20
24.4810536513
 30
0.0
 10
22.1452486855
 20
24.3572157567
 30
0.0
 10
22.0301064889
 20
24.2693831817
 30
0.0
 10
21.927684885
 20
24.2310246996
 30
0.0
 10
21.863880287
 20
24.2316693409
 30
0.0
  0
SPLINE
  5
340
100
AcDbEntity
  8
0
100
AcDbSpline
 62
7
  6
CONTINUOUS
 70
0
 71
3
 72
11
 73
7
 74
0
 42
0.0000001
 43
0.0000001
 44
0.0000000001
 40
0.0
 40
0.0
 40
0.0
 40
0.0
 40
0.2129816906
 40
0.4442423504
 40
0.7058707585
 40
1.0
 40
1.0
 40
1.0
 40
1.0
 10
22.0720088991
 20
23.3012463754
 30
0.0
 10
22.0922020646
 20
23.2896007508
 30
0.0
 10
22.1298018788
 20
23.2567115721
 30
0.0
 10
22.1672282237
 20
23.1877160522
 30
0.0
 10
22.1862177098
 20
23.1028603772
 30
0.0
 10
22.1867971216
 20
23.0416222838
 30
0.0
 10
22.1844663915
 20
23.0095146493
 30
0.0
  0
SPLINE
  5
341
100
AcDbEntity
  8
0
100
AcDbSpline
 62
7
  6
CONTINUOUS
 70
0
 71
3
 72
9
 73
5
 74
0
 42
0.0000001
 43
0.0000001
 44
0.0000000001
 40
0.0
 40
0.0
 40
0.0
 40
0.0
 40
0.2390207306
 40
1.0
 40
1.0
 40
1.0
 40
1.0
 10
34.5488419557
 20
73.4408405275
 30
0.0
 10
34.5488419557
 20
73.5067455254
 30
0.0
 10
34.5407257536
 20
73.7824549525
 30
0.0
 10
34.5024339874
 20
74.0569396058
 30
0.0
 10
34.4599016132
 20
74.2624078474
 30
0.0
  0
SPLINE
  5
342
100
AcDbEntity
  8
0
100
AcDbSpline
 62
7
  6
CONTINUOUS
 70
0
 71
3
 72
16
 73
12
 74
0
 42
0.0000001
 43
0.0000001
 44
0.0000000001
 40
0.0
 40
0.0
 40
0.0
 40
0.0
 40
0.1558610031
 40
0.3070016864
 40
0.4501167954
 40
0.5825763051
 40
0.7027970566
 40
0.8106993145
 40
0.9082349958
 40
0.9545165184
 40
1.0
 40
1.0
 40
1.0
 40
1.0
 10
33.7028355398
 20
76.1175284593
 30
0.0
 10
33.5840401348
 20
76.3091314269
 30
0.0
 10
33.329387705
 20
76.6742136747
 30
0.0
 10
32.8983120867
 20
77.164012466
 30
0.0
 10
32.4356444544
 20
77.5751826489
 30
0.0
 10
31.9571750153
 20
77.8934548344
 30
0.0
 10
31.4783829404
 20
78.1076444879
 30
0.0
 10
31.0144430505
 20
78.2094425347
 30
0.0
 10
30.6451413364
 20
78.1936741937
 30
0.0
 10
30.3809360006
 20
78.1179995357
 30
0.0
 10
30.2602462233
 20
78.0610689325
 30
0.0
 10
30.2032657164
 20
78.0281848055
 30
0.0
  0
SPLINE
  5
343
100
AcDbEntity
  8
0
100
AcDbSpline
 62
7
  6
CONTINUOUS
 70
0
 71
3
 72
12
 73
8
 74
0
 42
0.0000001
 43
0.0000001
 44
0.0000000001
 40
0.0
 40
0.0
 40
0.0
 40
0.0
 40
0.2626357167
 40
0.5234189258
 40
0.7720265963
 40
0.8890976057
 40
1.0
 40
1.0
 40
1.0
 40
1.0
 10
23.1998336115
 20
36.6016579341
 30
0.0
 10
22.8399331152
 20
36.1216502149
 30
0.0
 10
22.192178181
 20
35.1108104263
 30
0.0
 10
21.4564162504
 20
33.5021583047
 30
0.0
 10
21.0578481254
 20
32.1205059249
 30
0.0
 10
20.8951064028
 20
31.0428306139
 30
0.0
 10
20.8663909487
 20
30.5217738378
 30
0.0
 10
20.8663909487
 20
30.2684362423
 30
0.0
  0
SPLINE
  5
344
100
AcDbEntity
  8
0
100
AcDbSpline
 62
7
  6
CONTINUOUS
 70
0
 71
3
 72
12
 73
8
 74
0
 42
0.0000001
 43
0.0000001
 44
0.0000000001
 40
0.0
 40
0.0
 40
0.0
 40
0.0
 40
0.2878251888
 40
0.5472524471
 40
0.7816230191
 40
0.8921558783
 40
1.0
 40
1.0
 40
1.0
 40
1.0
 10
20.8663909487
 20
30.2684362423
 30
0.0
 10
20.8663909487
 20
29.9207553251
 30
0.0
 10
20.9161444197
 20
29.2576702077
 30
0.0
 10
21.1661814732
 20
28.340381307
 30
0.0
 10
21.52464508
 20
27.693363648
 30
0.0
 10
21.8891923694
 20
27.2832730955
 30
0.0
 10
22.093617796
 20
27.1144995282
 30
0.0
 10
22.2003859041
 20
27.039859284
 30
0.0
  0
SPLINE
  5
345
100
AcDbEntity
  8
0
100
AcDbSpline
 62
7
  6
CONTINUOUS
 70
0
 71
3
 72
11
 73
7
 74
0
 42
0.0000001
 43
0.0000001
 44
0.0000000001
 40
0.0
 40
0.0
 40
0.0
 40
0.0
 40
0.2277862584
 40
0.4765384907
 40
0.7374251989
 40
1.0
 40
1.0
 40
1.0
 40
1.0
 10
35.149958095
 20
71.5832808021
 30
0.0
 10
35.149958095
 20
71.9129222412
 30
0.0
 10
35.0725152583
 20
72.6033083104
 30
0.0
 10
34.7742841411
 20
73.6321296704
 30
0.0
 10
34.3059429932
 20
74.6509334328
 30
0.0
 10
33.8938489454
 20
75.2902247947
 30
0.0
 10
33.6649300618
 20
75.5935156209
 30
0.0
  0
SPLINE
  5
346
100
AcDbEntity
  8
0
100
AcDbSpline
 62
7
  6
CONTINUOUS
 70
0
 71
3
 72
17
 73
13
 74
0
 42
0.0000001
 43
0.0000001
 44
0.0000000001
 40
0.0
 40
0.0
 40
0.0
 40
0.0
 40
0.1286849204
 40
0.270303802
 40
0.4174438806
 40
0.5617821443
 40
0.6954492858
 40
0.8127130378
 40
0.8646795618
 40
0.9125091497
 40
0.9571393989
 40
1.0
 40
1.0
 40
1.0
 40
1.0
 10
63.8645530432
 20
86.6103396674
 30
0.0
 10
63.8645530432
 20
86.5248682915
 30
0.0
 10
63.8406235969
 20
86.3451332226
 30
0.0
 10
63.7513974991
 20
86.0812357531
 30
0.0
 10
63.6138397199
 20
85.8270408525
 30
0.0
 10
63.439109546
 20
85.6033722695
 30
0.0
 10
63.2414162694
 20
85.4282842325
 30
0.0
 10
63.0624742702
 20
85.3304763811
 30
0.0
 10
62.9225113786
 20
85.2931833352
 30
0.0
 10
62.8261762724
 20
85.2861447127
 30
0.0
 10
62.7364598447
 20
85.2992302968
 30
0.0
 10
62.6821338501
 20
85.3218704634
 30
0.0
 10
62.6574794734
 20
85.3361030881
 30
0.0
  0
SPLINE
  5
347
100
AcDbEntity
  8
0
100
AcDbSpline
 62
7
  6
CONTINUOUS
 70
0
 71
3
 72
17
 73
13
 74
0
 42
0.0000001
 43
0.0000001
 44
0.0000000001
 40
0.0
 40
0.0
 40
0.0
 40
0.0
 40
0.1286849204
 40
0.270303802
 40
0.4174438806
 40
0.5617821443
 40
0.6954492858
 40
0.8127130378
 40
0.8646795618
 40
0.9125091497
 40
0.9571393989
 40
1.0
 40
1.0
 40
1.0
 40
1.0
 10
42.7221483105
 20
67.7085196462
 30
0.0
 10
42.7221483105
 20
67.6230482702
 30
0.0
 10
42.6982188642
 20
67.4433132014
 30
0.0
 10
42.6089927664
 20
67.1794157318
 30
0.0
 10
42.4714349872
 20
66.9252208313
 30
0.0
 10
42.2967048133
 20
66.7015522483
 30
0.0
 10
42.0990115367
 20
66.5264642112
 30
0.0
 10
41.9200695375
 20
66.4286563599
 30
0.0
 10
41.7801066459
 20
66.391363314
 30
0.0
 10
41.6837715398
 20
66.3843246915
 30
0.0
 10
41.594055112
 20
66.3974102756
 30
0.0
 10
41.5397291174
 20
66.4200504422
 30
0.0
 10
41.5150747407
 20
66.4342830669
 30
0.0
  0
SPLINE
  5
348
100
AcDbEntity
  8
0
100
AcDbSpline
 62
7
  6
CONTINUOUS
 70
0
 71
3
 72
17
 73
13
 74
0
 42
0.0000001
 43
0.0000001
 44
0.0000000001
 40
0.0
 40
0.0
 40
0.0
 40
0.0
 40
0.1286849204
 40
0.270303802
 40
0.4174438806
 40
0.5617821443
 40
0.6954492858
 40
0.8127130378
 40
0.8646795618
 40
0.9125091497
 40
0.9571393989
 40
1.0
 40
1.0
 40
1.0
 40
1.0
 10
50.5710009036
 20
53.7870751271
 30
0.0
 10
50.5710009036
 20
53.7016037511
 30
0.0
 10
50.5470714572
 20
53.5218686822
 30
0.0
 10
50.4578453595
 20
53.2579712127
 30
0.0
 10
50.3202875803
 20
53.0037763121
 30
0.0
 10
50.1455574064
 20
52.7801077291
 30
0.0
 10
49.9478641297
 20
52.6050196921
 30
0.0
 10
49.7689221306
 20
52.5072118407
 30
0.0
 10
49.628959239
 20
52.4699187949
 30
0.0
 10
49.5326241328
 20
52.4628801723
 30
0.0
 10
49.4429077051
 20
52.4759657564
 30
0.0
 10
49.3885817104
 20
52.4986059231
 30
0.0
 10
49.3639273338
 20
52.5128385477
 30
0.0
  0
SPLINE
  5
349
100
AcDbEntity
  8
0
100
AcDbSpline
 62
7
  6
CONTINUOUS
 70
0
 71
3
 72
13
 73
9
 74
0
 42
0.0000001
 43
0.0000001
 44
0.0000000001
 40
0.0
 40
0.0
 40
0.0
 40
0.0
 40
0.2893791468
 40
0.548316804
 40
0.6677447649
 40
0.7817680404
 40
0.8919063684
 40
1.0
 40
1.0
 40
1.0
 40
1.0
 10
53.4638743115
 20
89.5053508785
 30
0.0
 10
53.6569901628
 20
89.6168457017
 30
0.0
 10
54.0071949072
 20
89.8578517036
 30
0.0
 10
54.3653422912
 20
90.2346186975
 30
0.0
 10
54.5669642164
 20
90.557412438
 30
0.0
 10
54.6734932478
 20
90.8009421788
 30
0.0
 10
54.7381371952
 20
91.0498042744
 30
0.0
 10
54.7525591784
 20
91.2183150858
 30
0.0
 10
54.7525591774
 20
91.3016101983
 30
0.0
  0
SPLINE
  5
34A
100
AcDbEntity
  8
0
100
AcDbSpline
 62
7
  6
CONTINUOUS
 70
0
 71
3
 72
17
 73
13
 74
0
 42
0.0000001
 43
0.0000001
 44
0.0000000001
 40
0.0
 40
0.0
 40
0.0
 40
0.0
 40
0.1286849204
 40
0.270303802
 40
0.4174438806
 40
0.5617821443
 40
0.6954492858
 40
0.8127130378
 40
0.8646795618
 40
0.9125091497
 40
0.9571393989
 40
1.0
 40
1.0
 40
1.0
 40
1.0
 10
29.6407273221
 20
31.9866694086
 30
0.0
 10
29.6407273221
 20
31.9011980327
 30
0.0
 10
29.6167978757
 20
31.7214629638
 30
0.0
 10
29.5275717779
 20
31.4575654942
 30
0.0
 10
29.3900139988
 20
31.2033705937
 30
0.0
 10
29.2152838248
 20
30.9797020107
 30
0.0
 10
29.0175905482
 20
30.8046139736
 30
0.0
 10
28.838648549
 20
30.7068061223
 30
0.0
 10
28.6986856575
 20
30.6695130764
 30
0.0
 10
28.6023505513
 20
30.6624744539
 30
0.0
 10
28.5126341236
 20
30.675560038
 30
0.0
 10
28.4583081289
 20
30.6982002046
 30
0.0
 10
28.4336537523
 20
30.7124328293
 30
0.0
  0
SPLINE
  5
34B
100
AcDbEntity
  8
0
100
AcDbSpline
 62
7
  6
CONTINUOUS
 70
0
 71
3
 72
17
 73
13
 74
0
 42
0.0000001
 43
0.0000001
 44
0.0000000001
 40
0.0
 40
0.0
 40
0.0
 40
0.0
 40
0.1286849204
 40
0.270303802
 40
0.4174438806
 40
0.5617821443
 40
0.6954492858
 40
0.8127130378
 40
0.8646795618
 40
0.9125091497
 40
0.9571393989
 40
1.0
 40
1.0
 40
1.0
 40
1.0
 10
42.7221483105
 20
25.3320441972
 30
0.0
 10
42.7221483105
 20
25.2465728212
 30
0.0
 10
42.6982188642
 20
25.0668377524
 30
0.0
 10
42.6089927664
 20
24.8029402828
 30
0.0
 10
42.4714349872
 20
24.5487453822
 30
0.0
 10
42.2967048133
 20
24.3250767992
 30
0.0
 10
42.0990115367
 20
24.1499887622
 30
0.0
 10
41.9200695375
 20
24.0521809109
 30
0.0
 10
41.7801066459
 20
24.014887865
 30
0.0
 10
41.6837715398
 20
24.0078492424
 30
0.0
 10
41.594055112
 20
24.0209348265
 30
0.0
 10
41.5397291174
 20
24.0435749932
 30
0.0
 10
41.5150747407
 20
24.0578076179
 30
0.0
  0
SPLINE
  5
34C
100
AcDbEntity
  8
0
100
AcDbSpline
 62
7
  6
CONTINUOUS
 70
0
 71
3
 72
17
 73
13
 74
0
 42
0.0000001
 43
0.0000001
 44
0.0000000001
 40
0.0
 40
0.0
 40
0.0
 40
0.0
 40
0.1286849204
 40
0.270303802
 40
0.4174438806
 40
0.5617821443
 40
0.6954492858
 40
0.8127130378
 40
0.8646795618
 40
0.9125091497
 40
0.9571393989
 40
1.0
 40
1.0
 40
1.0
 40
1.0
 10
66.4101268572
 20
38.7632726268
 30
0.0
 10
66.4101268572
 20
38.6778012508
 30
0.0
 10
66.3861974108
 20
38.4980661819
 30
0.0
 10
66.2969713131
 20
38.2341687124
 30
0.0
 10
66.1594135339
 20
37.9799738118
 30
0.0
 10
65.98468336
 20
37.7563052288
 30
0.0
 10
65.7869900833
 20
37.5812171918
 30
0.0
 10
65.6080480842
 20
37.4834093404
 30
0.0
 10
65.4680851926
 20
37.4461162946
 30
0.0
 10
65.3717500864
 20
37.439077672
 30
0.0
 10
65.2820336587
 20
37.4521632561
 30
0.0
 10
65.227707664
 20
37.4748034228
 30
0.0
 10
65.2030532874
 20
37.4890360474
 30
0.0
  0
SPLINE
  5
34D
100
AcDbEntity
  8
0
100
AcDbSpline
 62
7
  6
CONTINUOUS
 70
0
 71
3
 72
11
 73
7
 74
0
 42
0.0000001
 43
0.0000001
 44
0.0000000001
 40
0.0
 40
0.0
 40
0.0
 40
0.0
 40
0.289702809
 40
0.549088757
 40
0.7822160314
 40
1.0
 40
1.0
 40
1.0
 40
1.0
 10
27.3364137277
 20
19.4293695131
 30
0.0
 10
27.2486573251
 20
19.3787036328
 30
0.0
 10
27.0740815663
 20
19.2956528746
 30
0.0
 10
26.8057548617
 20
19.2308544047
 30
0.0
 10
26.553985629
 20
19.2372270041
 30
0.0
 10
26.4024067958
 20
19.2922348019
 30
0.0
 10
26.3364356846
 20
19.3303223867
 30
0.0
  0
SPLINE
  5
34E
100
AcDbEntity
  8
0
100
AcDbSpline
 62
7
  6
CONTINUOUS
 70
0
 71
3
 72
12
 73
8
 74
0
 42
0.0000001
 43
0.0000001
 44
0.0000000001
 40
0.0
 40
0.0
 40
0.0
 40
0.0
 40
0.2895196667
 40
0.5486062848
 40
0.7815454514
 40
0.8917706022
 40
1.0
 40
1.0
 40
1.0
 40
1.0
 10
62.9744471233
 20
27.5123878862
 30
0.0
 10
62.8164643306
 20
27.4211770227
 30
0.0
 10
62.5022052064
 20
27.271686759
 30
0.0
 10
62.0195701949
 20
27.1549471512
 30
0.0
 10
61.6341473671
 20
27.1651796147
 30
0.0
 10
61.3589173045
 20
27.2412825337
 30
0.0
 10
61.2335626914
 20
27.3000377575
 30
0.0
 10
61.1745061558
 20
27.3341366846
 30
0.0
  0
SPLINE
  5
34F
100
AcDbEntity
  8
0
100
AcDbSpline
 62
7
  6
CONTINUOUS
 70
0
 71
3
 72
9
 73
5
 74
0
 42
0.0000001
 43
0.0000001
 44
0.0000000001
 40
0.0
 40
0.0
 40
0.0
 40
0.0
 40
0.2390207306
 40
1.0
 40
1.0
 40
1.0
 40
1.0
 10
34.5488419557
 20
19.0617795467
 30
0.0
 10
34.5488419557
 20
19.1276845445
 30
0.0
 10
34.5407257536
 20
19.4033939717
 30
0.0
 10
34.5024339874
 20
19.677878625
 30
0.0
 10
34.4599016132
 20
19.8833468666
 30
0.0
  0
SPLINE
  5
350
100
AcDbEntity
  8
0
100
AcDbSpline
 62
7
  6
CONTINUOUS
 70
0
 71
3
 72
9
 73
5
 74
0
 42
0.0000001
 43
0.0000001
 44
0.0000000001
 40
0.0
 40
0.0
 40
0.0
 40
0.0
 40
0.4887190855
 40
1.0
 40
1.0
 40
1.0
 40
1.0
 10
34.4599016132
 20
19.8833468666
 30
0.0
 10
34.3999029126
 20
20.1731926075
 30
0.0
 10
34.2223127478
 20
20.7555604523
 30
0.0
 10
33.9577826102
 20
21.3031387129
 30
0.0
 10
33.8029106275
 20
21.571282131
 30
0.0
  0
SPLINE
  5
351
100
AcDbEntity
  8
0
100
AcDbSpline
 62
7
  6
CONTINUOUS
 70
0
 71
3
 72
9
 73
5
 74
0
 42
0.0000001
 43
0.0000001
 44
0.0000000001
 40
0.0
 40
0.0
 40
0.0
 40
0.0
 40
0.2545184211
 40
1.0
 40
1.0
 40
1.0
 40
1.0
 10
33.8029106275
 20
21.571282131
 30
0.0
 10
33.7421892021
 20
21.6764144492
 30
0.0
 10
33.4916540694
 20
22.0823803704
 30
0.0
 10
33.1940751502
 20
22.4598908924
 30
0.0
 10
32.9474330393
 20
22.7160565887
 30
0.0
  0
SPLINE
  5
352
100
AcDbEntity
  8
0
100
AcDbSpline
 62
7
  6
CONTINUOUS
 70
0
 71
3
 72
12
 73
8
 74
0
 42
0.0000001
 43
0.0000001
 44
0.0000000001
 40
0.0
 40
0.0
 40
0.0
 40
0.0
 40
0.1111209415
 40
0.2293949602
 40
0.4814011513
 40
0.7432706321
 40
1.0
 40
1.0
 40
1.0
 40
1.0
 10
35.1499257413
 20
18.1840607512
 30
0.0
 10
35.1499257413
 20
18.3753662239
 30
0.0
 10
35.1238677222
 20
18.7705743081
 30
0.0
 10
34.9782370506
 20
19.5877173236
 30
0.0
 10
34.6264758139
 20
20.624993882
 30
0.0
 10
33.9913218608
 20
21.7958710592
 30
0.0
 10
33.4371623367
 20
22.5030715739
 30
0.0
 10
33.1325589013
 20
22.8233324674
 30
0.0
  0
SPLINE
  5
353
100
AcDbEntity
  8
0
100
AcDbSpline
 62
7
  6
CONTINUOUS
 70
0
 71
3
 72
11
 73
7
 74
0
 42
0.0000001
 43
0.0000001
 44
0.0000000001
 40
0.0
 40
0.0
 40
0.0
 40
0.0
 40
0.2129816906
 40
0.4442423504
 40
0.7058707585
 40
1.0
 40
1.0
 40
1.0
 40
1.0
 10
23.2954524462
 20
24.8603364241
 30
0.0
 10
23.2752592807
 20
24.8719820486
 30
0.0
 10
23.2376594665
 20
24.9048712274
 30
0.0
 10
23.2002331216
 20
24.9738667473
 30
0.0
 10
23.1812436355
 20
25.0587224223
 30
0.0
 10
23.1806642237
 20
25.1199605157
 30
0.0
 10
23.1829949538
 20
25.1520681502
 30
0.0
  0
SPLINE
  5
354
100
AcDbEntity
  8
0
100
AcDbSpline
 62
7
  6
CONTINUOUS
 70
0
 71
3
 72
17
 73
13
 74
0
 42
0.0000001
 43
0.0000001
 44
0.0000000001
 40
0.0
 40
0.0
 40
0.0
 40
0.0
 40
0.1286849204
 40
0.270303802
 40
0.4174438806
 40
0.5617821443
 40
0.6954492858
 40
0.8127130378
 40
0.8646795618
 40
0.9125091497
 40
0.9571393989
 40
1.0
 40
1.0
 40
1.0
 40
1.0
 10
64.9959191828
 20
37.946784319
 30
0.0
 10
64.9959191828
 20
38.032255695
 30
0.0
 10
65.0198486292
 20
38.2119907639
 30
0.0
 10
65.1090747269
 20
38.4758882334
 30
0.0
 10
65.2466325061
 20
38.730083134
 30
0.0
 10
65.42136268
 20
38.953751717
 30
0.0
 10
65.6190559566
 20
39.128839754
 30
0.0
 10
65.7979979558
 20
39.2266476054
 30
0.0
 10
65.9379608474
 20
39.2639406512
 30
0.0
 10
66.0342959536
 20
39.2709792738
 30
0.0
 10
66.1240123813
 20
39.2578936897
 30
0.0
 10
66.178338376
 20
39.235253523
 30
0.0
 10
66.2029927526
 20
39.2210208983
 30
0.0
  0
SPLINE
  5
355
100
AcDbEntity
  8
0
100
AcDbSpline
 62
7
  6
CONTINUOUS
 70
0
 71
3
 72
17
 73
13
 74
0
 42
0.0000001
 43
0.0000001
 44
0.0000000001
 40
0.0
 40
0.0
 40
0.0
 40
0.0
 40
0.0428567682
 40
0.0874846361
 40
0.1353115866
 40
0.1872772446
 40
0.3045367808
 40
0.4381985211
 40
0.5825369695
 40
0.729684371
 40
0.8713138527
 40
1.0
 40
1.0
 40
1.0
 40
1.0
 10
42.3382380195
 20
25.8918549091
 30
0.0
 10
42.3135866579
 20
25.9060876613
 30
0.0
 10
42.259263848
 20
25.9287257151
 30
0.0
 10
42.1695537752
 20
25.9418095482
 30
0.0
 10
42.0732219987
 20
25.9347786934
 30
0.0
 10
41.9332642658
 20
25.8974848591
 30
0.0
 10
41.7543251545
 20
25.799688588
 30
0.0
 10
41.5566324634
 20
25.6246082616
 30
0.0
 10
41.3818975341
 20
25.4009420811
 30
0.0
 10
41.2443266939
 20
25.1467403059
 30
0.0
 10
41.1550949164
 20
24.8828310044
 30
0.0
 10
41.1311632048
 20
24.7030882643
 30
0.0
 10
41.1311632048
 20
24.6176160781
 30
0.0
  0
SPLINE
  5
356
100
AcDbEntity
  8
0
100
AcDbSpline
 62
7
  6
CONTINUOUS
 70
0
 71
3
 72
12
 73
8
 74
0
 42
0.0000001
 43
0.0000001
 44
0.0000000001
 40
0.0
 40
0.0
 40
0.0
 40
0.0
 40
0.1109023943
 40
0.2279734037
 40
0.4765810742
 40
0.7373642833
 40
1.0
 40
1.0
 40
1.0
 40
1.0
 10
23.5887633905
 20
28.6967093374
 30
0.0
 10
23.5887633905
 20
28.9500469329
 30
0.0
 10
23.6174788446
 20
29.471103709
 30
0.0
 10
23.7802205672
 20
30.54877902
 30
0.0
 10
24.1787886922
 20
31.9304313998
 30
0.0
 10
24.9145506229
 20
33.5390835214
 30
0.0
 10
25.562305557
 20
34.54992331
 30
0.0
 10
25.9222060533
 20
35.0299310292
 30
0.0
  0
SPLINE
  5
357
100
AcDbEntity
  8
0
100
AcDbSpline
 62
7
  6
CONTINUOUS
 70
0
 71
3
 72
15
 73
11
 74
0
 42
0.0000001
 43
0.0000001
 44
0.0000000001
 40
0.0
 40
0.0
 40
0.0
 40
0.0
 40
0.1141242661
 40
0.2373486253
 40
0.3669740476
 40
0.5000015346
 40
0.6330288076
 40
0.7626536034
 40
0.8858770013
 40
1.0
 40
1.0
 40
1.0
 40
1.0
 10
25.9222060533
 20
53.7224851419
 30
0.0
 10
25.9222060533
 20
53.8342461193
 30
0.0
 10
25.9427267539
 20
54.0668910787
 30
0.0
 10
26.0242902298
 20
54.4178504074
 30
0.0
 10
26.1551080496
 20
54.7733466824
 30
0.0
 10
26.3300758571
 20
55.1199988985
 30
0.0
 10
26.542799613
 20
55.4448521299
 30
0.0
 10
26.7852571479
 20
55.7358915137
 30
0.0
 10
27.0484124593
 20
55.9820059843
 30
0.0
 10
27.2396268127
 20
56.116098666
 30
0.0
 10
27.3364137277
 20
56.1719782839
 30
0.0
  0
SPLINE
  5
358
100
AcDbEntity
  8
0
100
AcDbSpline
 62
7
  6
CONTINUOUS
 70
0
 71
3
 72
11
 73
7
 74
0
 42
0.0000001
 43
0.0000001
 44
0.0000000001
 40
0.0
 40
0.0
 40
0.0
 40
0.0
 40
0.2177231375
 40
0.4508717887
 40
0.7104673698
 40
1.0
 40
1.0
 40
1.0
 40
1.0
 10
28.4336537523
 20
30.7124328293
 30
0.0
 10
28.4006758966
 20
30.7314704813
 30
0.0
 10
28.3389209576
 20
30.7832933237
 30
0.0
 10
28.2732043362
 20
30.8907674511
 30
0.0
 10
28.2342526355
 20
31.0231853651
 30
0.0
 10
28.2265196477
 20
31.1195435592
 30
0.0
 10
28.2265196477
 20
31.1701811009
 30
0.0
  0
SPLINE
  5
359
100
AcDbEntity
  8
0
100
AcDbSpline
 62
7
  6
CONTINUOUS
 70
0
 71
3
 72
11
 73
7
 74
0
 42
0.0000001
 43
0.0000001
 44
0.0000000001
 40
0.0
 40
0.0
 40
0.0
 40
0.0
 40
0.2643275413
 40
0.5246458185
 40
0.7722778775
 40
1.0
 40
1.0
 40
1.0
 40
1.0
 10
60.9595113444
 20
86.9335504669
 30
0.0
 10
61.0782933557
 20
87.1797850513
 30
0.0
 10
61.3468081336
 20
87.6534201399
 30
0.0
 10
61.8294752276
 20
88.2927881316
 30
0.0
 10
62.3695169695
 20
88.8323610377
 30
0.0
 10
62.7704742172
 20
89.1222075119
 30
0.0
 10
62.9744471233
 20
89.2399706212
 30
0.0
  0
SPLINE
  5
35A
100
AcDbEntity
  8
0
100
AcDbSpline
 62
7
  6
CONTINUOUS
 70
0
 71
3
 72
11
 73
7
 74
0
 42
0.0000001
 43
0.0000001
 44
0.0000000001
 40
0.0
 40
0.0
 40
0.0
 40
0.0
 40
0.2177231375
 40
0.4508717887
 40
0.7104673698
 40
1.0
 40
1.0
 40
1.0
 40
1.0
 10
65.2030532874
 20
37.4890360474
 30
0.0
 10
65.1700754317
 20
37.5080736994
 30
0.0
 10
65.1083204927
 20
37.5598965418
 30
0.0
 10
65.0426038713
 20
37.6673706692
 30
0.0
 10
65.0036521706
 20
37.7997885832
 30
0.0
 10
64.9959191828
 20
37.8961467774
 30
0.0
 10
64.9959191828
 20
37.946784319
 30
0.0
  0
SPLINE
  5
35B
100
AcDbEntity
  8
0
100
AcDbSpline
 62
7
  6
CONTINUOUS
 70
0
 71
3
 72
11
 73
7
 74
0
 42
0.0000001
 43
0.0000001
 44
0.0000000001
 40
0.0
 40
0.0
 40
0.0
 40
0.0
 40
0.2895463391
 40
0.5491378616
 40
0.7822784713
 40
1.0
 40
1.0
 40
1.0
 40
1.0
 10
64.8191417515
 20
38.0488445076
 30
0.0
 10
64.8191417515
 20
37.9982044526
 30
0.0
 10
64.826874141
 20
37.9018440953
 30
0.0
 10
64.8658283599
 20
37.7694264717
 30
0.0
 10
64.9315435883
 20
37.6619536996
 30
0.0
 10
64.993298006
 20
37.6101334136
 30
0.0
 10
65.0262746113
 20
37.5910939844
 30
0.0
  0
SPLINE
  5
35C
100
AcDbEntity
  8
0
100
AcDbSpline
 62
7
  6
CONTINUOUS
 70
0
 71
3
 72
11
 73
7
 74
0
 42
0.0000001
 43
0.0000001
 44
0.0000000001
 40
0.0
 40
0.0
 40
0.0
 40
0.0
 40
0.2895463391
 40
0.5491378616
 40
0.7822784713
 40
1.0
 40
1.0
 40
1.0
 40
1.0
 10
41.1311632048
 20
24.6176160781
 30
0.0
 10
41.1311632048
 20
24.5669760231
 30
0.0
 10
41.1388955943
 20
24.4706156658
 30
0.0
 10
41.1778498132
 20
24.3381980421
 30
0.0
 10
41.2435650417
 20
24.23072527
 30
0.0
 10
41.3053194593
 20
24.178904984
 30
0.0
 10
41.3382960646
 20
24.1598655549
 30
0.0
  0
SPLINE
  5
35D
100
AcDbEntity
  8
0
100
AcDbSpline
 62
7
  6
CONTINUOUS
 70
0
 71
3
 72
11
 73
7
 74
0
 42
0.0000001
 43
0.0000001
 44
0.0000000001
 40
0.0
 40
0.0
 40
0.0
 40
0.0
 40
0.2895463391
 40
0.5491378616
 40
0.7822784713
 40
1.0
 40
1.0
 40
1.0
 40
1.0
 10
28.0497422164
 20
31.2722412895
 30
0.0
 10
28.0497422164
 20
31.2216012345
 30
0.0
 10
28.0574746059
 20
31.1252408772
 30
0.0
 10
28.0964288248
 20
30.9928232535
 30
0.0
 10
28.1621440532
 20
30.8853504815
 30
0.0
 10
28.2238984708
 20
30.8335301954
 30
0.0
 10
28.2568750762
 20
30.8144907663
 30
0.0
  0
SPLINE
  5
35E
100
AcDbEntity
  8
0
100
AcDbSpline
 62
7
  6
CONTINUOUS
 70
0
 71
3
 72
11
 73
7
 74
0
 42
0.0000001
 43
0.0000001
 44
0.0000000001
 40
0.0
 40
0.0
 40
0.0
 40
0.0
 40
0.2895463391
 40
0.5491378616
 40
0.7822784713
 40
1.0
 40
1.0
 40
1.0
 40
1.0
 10
48.9800157979
 20
53.072647008
 30
0.0
 10
48.9800157979
 20
53.0220069529
 30
0.0
 10
48.9877481874
 20
52.9256465956
 30
0.0
 10
49.0267024063
 20
52.793228972
 30
0.0
 10
49.0924176347
 20
52.6857561999
 30
0.0
 10
49.1541720524
 20
52.6339359139
 30
0.0
 10
49.1871486577
 20
52.6148964847
 30
0.0
  0
SPLINE
  5
35F
100
AcDbEntity
  8
0
100
AcDbSpline
 62
7
  6
CONTINUOUS
 70
0
 71
3
 72
11
 73
7
 74
0
 42
0.0000001
 43
0.0000001
 44
0.0000000001
 40
0.0
 40
0.0
 40
0.0
 40
0.0
 40
0.2895463391
 40
0.5491378616
 40
0.7822784713
 40
1.0
 40
1.0
 40
1.0
 40
1.0
 10
41.1311632048
 20
66.9940915271
 30
0.0
 10
41.1311632048
 20
66.9434514721
 30
0.0
 10
41.1388955943
 20
66.8470911148
 30
0.0
 10
41.1778498132
 20
66.7146734911
 30
0.0
 10
41.2435650417
 20
66.6072007191
 30
0.0
 10
41.3053194593
 20
66.555380433
 30
0.0
 10
41.3382960646
 20
66.5363410039
 30
0.0
  0
SPLINE
  5
360
100
AcDbEntity
  8
0
100
AcDbSpline
 62
7
  6
CONTINUOUS
 70
0
 71
3
 72
11
 73
7
 74
0
 42
0.0000001
 43
0.0000001
 44
0.0000000001
 40
0.0
 40
0.0
 40
0.0
 40
0.0
 40
0.2895463391
 40
0.5491378616
 40
0.7822784713
 40
1.0
 40
1.0
 40
1.0
 40
1.0
 10
62.2735679375
 20
85.8959115483
 30
0.0
 10
62.2735679375
 20
85.8452714933
 30
0.0
 10
62.281300327
 20
85.748911136
 30
0.0
 10
62.3202545459
 20
85.6164935124
 30
0.0
 10
62.3859697743
 20
85.5090207403
 30
0.0
 10
62.447724192
 20
85.4572004542
 30
0.0
 10
62.4807007973
 20
85.4381610251
 30
0.0
  0
SPLINE
  5
361
100
AcDbEntity
  8
0
100
AcDbSpline
 62
7
  6
CONTINUOUS
 70
0
 71
3
 72
12
 73
8
 74
0
 42
0.0000001
 43
0.0000001
 44
0.0000000001
 40
0.0
 40
0.0
 40
0.0
 40
0.0
 40
0.108163127
 40
0.2183737745
 40
0.4513417026
 40
0.7104804291
 40
1.0
 40
1.0
 40
1.0
 40
1.0
 10
30.2032657164
 20
78.0281848055
 30
0.0
 10
30.1442361617
 20
77.9941181487
 30
0.0
 10
30.0307579215
 20
77.9148954283
 30
0.0
 10
29.8272343069
 20
77.7146419082
 30
0.0
 10
29.6255310999
 20
77.3859745117
 30
0.0
 10
29.4853570896
 20
76.9095401764
 30
0.0
 10
29.4576519346
 20
76.5626024822
 30
0.0
 10
29.4576519346
 20
76.38017396
 30
0.0
  0
SPLINE
  5
362
100
AcDbEntity
  8
0
100
AcDbSpline
 62
7
  6
CONTINUOUS
 70
0
 71
3
 72
17
 73
13
 74
0
 42
0.0000001
 43
0.0000001
 44
0.0000000001
 40
0.0
 40
0.0
 40
0.0
 40
0.0
 40
0.0428567682
 40
0.0874846361
 40
0.1353115866
 40
0.1872772446
 40
0.3045367808
 40
0.4381985211
 40
0.5825369695
 40
0.729684371
 40
0.8713138527
 40
1.0
 40
1.0
 40
1.0
 40
1.0
 10
66.0262165661
 20
39.3230833386
 30
0.0
 10
66.0015652045
 20
39.3373160908
 30
0.0
 10
65.9472423947
 20
39.3599541447
 30
0.0
 10
65.8575323219
 20
39.3730379778
 30
0.0
 10
65.7612005454
 20
39.3660071229
 30
0.0
 10
65.6212428124
 20
39.3287132886
 30
0.0
 10
65.4423037011
 20
39.2309170176
 30
0.0
 10
65.24461101
 20
39.0558366912
 30
0.0
 10
65.0698760807
 20
38.8321705106
 30
0.0
 10
64.9323052406
 20
38.5779687355
 30
0.0
 10
64.8430734631
 20
38.3140594339
 30
0.0
 10
64.8191417515
 20
38.1343166939
 30
0.0
 10
64.8191417515
 20
38.0488445076
 30
0.0
  0
SPLINE
  5
363
100
AcDbEntity
  8
0
100
AcDbSpline
 62
7
  6
CONTINUOUS
 70
0
 71
3
 72
17
 73
13
 74
0
 42
0.0000001
 43
0.0000001
 44
0.0000000001
 40
0.0
 40
0.0
 40
0.0
 40
0.0
 40
0.0428567682
 40
0.0874846361
 40
0.1353115866
 40
0.1872772446
 40
0.3045367808
 40
0.4381985211
 40
0.5825369695
 40
0.729684371
 40
0.8713138527
 40
1.0
 40
1.0
 40
1.0
 40
1.0
 10
42.3382380195
 20
68.2683303581
 30
0.0
 10
42.3135866579
 20
68.2825631103
 30
0.0
 10
42.259263848
 20
68.3052011642
 30
0.0
 10
42.1695537752
 20
68.3182849973
 30
0.0
 10
42.0732219987
 20
68.3112541424
 30
0.0
 10
41.9332642658
 20
68.2739603081
 30
0.0
 10
41.7543251545
 20
68.176164037
 30
0.0
 10
41.5566324634
 20
68.0010837107
 30
0.0
 10
41.3818975341
 20
67.7774175301
 30
0.0
 10
41.2443266939
 20
67.523215755
 30
0.0
 10
41.1550949164
 20
67.2593064534
 30
0.0
 10
41.1311632048
 20
67.0795637134
 30
0.0
 10
41.1311632048
 20
66.9940915271
 30
0.0
  0
SPLINE
  5
364
100
AcDbEntity
  8
0
100
AcDbSpline
 62
7
  6
CONTINUOUS
 70
0
 71
3
 72
11
 73
7
 74
0
 42
0.0000001
 43
0.0000001
 44
0.0000000001
 40
0.0
 40
0.0
 40
0.0
 40
0.0
 40
0.2277221225
 40
0.4753541815
 40
0.7356724587
 40
1.0
 40
1.0
 40
1.0
 40
1.0
 10
62.3026928844
 20
89.6277993379
 30
0.0
 10
62.0987199784
 20
89.5100362287
 30
0.0
 10
61.6977627306
 20
89.2201897545
 30
0.0
 10
61.1577209887
 20
88.6806168484
 30
0.0
 10
60.6750538947
 20
88.0412488567
 30
0.0
 10
60.4065391168
 20
87.5676137681
 30
0.0
 10
60.2877571055
 20
87.3213791837
 30
0.0
  0
SPLINE
  5
365
100
AcDbEntity
  8
0
100
AcDbSpline
 62
7
  6
CONTINUOUS
 70
0
 71
3
 72
10
 73
6
 74
0
 42
0.0000001
 43
0.0000001
 44
0.0000000001
 40
0.0
 40
0.0
 40
0.0
 40
0.0
 40
0.4703859241
 40
0.727898966
 40
1.0
 40
1.0
 40
1.0
 40
1.0
 10
14.2288210958
 20
32.2101521778
 30
0.0
 10
14.0781521904
 20
32.5203418944
 30
0.0
 10
13.9161333363
 20
33.036543012
 30
0.0
 10
13.8122674018
 20
33.762637943
 30
0.0
 10
13.7952936972
 20
34.1513629899
 30
0.0
 10
13.7952936972
 20
34.3508437875
 30
0.0
  0
SPLINE
  5
366
100
AcDbEntity
  8
0
100
AcDbSpline
 62
7
  6
CONTINUOUS
 70
0
 71
3
 72
11
 73
7
 74
0
 42
0.0000001
 43
0.0000001
 44
0.0000000001
 40
0.0
 40
0.0
 40
0.0
 40
0.0
 40
0.2177825102
 40
0.4509091639
 40
0.7102957096
 40
1.0
 40
1.0
 40
1.0
 40
1.0
 10
26.3364356846
 20
19.3303223867
 30
0.0
 10
26.2704624019
 20
19.3684112252
 30
0.0
 10
26.1470289309
 20
19.4721805318
 30
0.0
 10
26.0156195463
 20
19.6870404222
 30
0.0
 10
25.9375701443
 20
19.9518284609
 30
0.0
 10
25.9222060533
 20
20.1445492934
 30
0.0
 10
25.9222060533
 20
20.2458860396
 30
0.0
  0
SPLINE
  5
367
100
AcDbEntity
  8
0
100
AcDbSpline
 62
7
  6
CONTINUOUS
 70
0
 71
3
 72
9
 73
5
 74
0
 42
0.0000001
 43
0.0000001
 44
0.0000000001
 40
0.0
 40
0.0
 40
0.0
 40
0.0
 40
0.2355294313
 40
1.0
 40
1.0
 40
1.0
 40
1.0
 10
68.7157808997
 20
47.3675091975
 30
0.0
 10
68.7331128667
 20
47.412554285
 30
0.0
 10
68.7979147089
 20
47.607177046
 30
0.0
 10
68.82912313
 20
47.8120794984
 30
0.0
 10
68.8385802915
 20
47.9684482974
 30
0.0
  0
SPLINE
  5
368
100
AcDbEntity
  8
0
100
AcDbSpline
 62
7
  6
CONTINUOUS
 70
0
 71
3
 72
15
 73
11
 74
0
 42
0.0000001
 43
0.0000001
 44
0.0000000001
 40
0.0
 40
0.0
 40
0.0
 40
0.0
 40
0.1216123271
 40
0.2489991681
 40
0.3797662225
 40
0.5115265742
 40
0.6417277488
 40
0.7679125519
 40
0.8879679532
 40
1.0
 40
1.0
 40
1.0
 40
1.0
 10
32.7103463664
 20
73.0562032273
 30
0.0
 10
32.5650768979
 20
73.1758032069
 30
0.0
 10
32.2827998922
 20
73.4395050393
 30
0.0
 10
31.8986613045
 20
73.8854654529
 30
0.0
 10
31.5525355814
 20
74.3808352668
 30
0.0
 10
31.2542028996
 20
74.9113244058
 30
0.0
 10
31.0121896856
 20
75.4620575824
 30
0.0
 10
30.8331758864
 20
76.0175076366
 30
0.0
 10
30.7224504077
 20
76.5618693882
 30
0.0
 10
30.6950836497
 20
76.921256146
 30
0.0
 10
30.6950836497
 20
77.0946012293
 30
0.0
  0
SPLINE
  5
369
100
AcDbEntity
  8
0
100
AcDbSpline
 62
7
  6
CONTINUOUS
 70
0
 71
3
 72
9
 73
5
 74
0
 42
0.0000001
 43
0.0000001
 44
0.0000000001
 40
0.0
 40
0.0
 40
0.0
 40
0.0
 40
0.2723521771
 40
1.0
 40
1.0
 40
1.0
 40
1.0
 10
30.6950836497
 20
77.0946012293
 30
0.0
 10
30.6950836497
 20
77.1916978187
 30
0.0
 10
30.7103032122
 20
77.5474403521
 30
0.0
 10
30.7918399025
 20
77.9047873625
 30
0.0
 10
30.9034338273
 20
78.1389725735
 30
0.0
  0
SPLINE
  5
36A
100
AcDbEntity
  8
0
100
AcDbSpline
 62
7
  6
CONTINUOUS
 70
0
 71
3
 72
13
 73
9
 74
0
 42
0.0000001
 43
0.0000001
 44
0.0000000001
 40
0.0
 40
0.0
 40
0.0
 40
0.0
 40
0.1080933872
 40
0.2182315081
 40
0.3322546464
 40
0.4516825566
 40
0.7106203807
 40
1.0
 40
1.0
 40
1.0
 40
1.0
 10
54.7525591774
 20
91.3016101983
 30
0.0
 10
54.7525591763
 20
91.3849061975
 30
0.0
 10
54.7381368802
 20
91.5534188412
 30
0.0
 10
54.6734915515
 20
91.8022835582
 30
0.0
 10
54.566960249
 20
92.045815735
 30
0.0
 10
54.3653340414
 20
92.3686125911
 30
0.0
 10
54.0071792522
 20
92.7453825055
 30
0.0
 10
53.6569678673
 20
92.986389424
 30
0.0
 10
53.4638484046
 20
93.0978844754
 30
0.0
  0
SPLINE
  5
36B
100
AcDbEntity
  8
0
100
AcDbSpline
 62
7
  6
CONTINUOUS
 70
0
 71
3
 72
20
 73
16
 74
0
 42
0.0000001
 43
0.0000001
 44
0.0000000001
 40
0.0
 40
0.0
 40
0.0
 40
0.0
 40
0.0623919251
 40
0.1288100282
 40
0.2703035516
 40
0.4173650045
 40
0.5616165148
 40
0.6302527513
 40
0.695379345
 40
0.7563616457
 40
0.8128308958
 40
0.8647637039
 40
0.9125656531
 40
0.9571671101
 40
1.0
 40
1.0
 40
1.0
 40
1.0
 10
29.4576519346
 20
76.38017396
 30
0.0
 10
29.4576519346
 20
76.2308912919
 30
0.0
 10
29.4779554325
 20
75.9224757709
 30
0.0
 10
29.5912747824
 20
75.2847556867
 30
0.0
 10
29.86520168
 20
74.4750945659
 30
0.0
 10
30.3600806022
 20
73.5605477428
 30
0.0
 10
30.8931875033
 20
72.8777655739
 30
0.0
 10
31.3729621933
 20
72.4156728492
 30
0.0
 10
31.7405747789
 20
72.1278390263
 30
0.0
 10
32.1141655801
 20
71.8993041418
 30
0.0
 10
32.4861342329
 20
71.7349268965
 30
0.0
 10
32.8490707337
 20
71.6384434265
 30
0.0
 10
33.1958726112
 20
71.6129883813
 30
0.0
 10
33.5188356464
 20
71.6602489073
 30
0.0
 10
33.7144647924
 20
71.7416032808
 30
0.0
 10
33.8032281739
 20
71.7928296821
 30
0.0
  0
SPLINE
  5
36C
100
AcDbEntity
  8
0
100
AcDbSpline
 62
7
  6
CONTINUOUS
 70
0
 71
3
 72
14
 73
10
 74
0
 42
0.0000001
 43
0.0000001
 44
0.0000000001
 40
0.0
 40
0.0
 40
0.0
 40
0.0
 40
0.1080578171
 40
0.2181294197
 40
0.3321081678
 40
0.4514991969
 40
0.5774437442
 40
0.7107282604
 40
1.0
 40
1.0
 40
1.0
 40
1.0
 10
25.1006836831
 20
25.3548710636
 30
0.0
 10
24.9809768673
 20
25.4239654911
 30
0.0
 10
24.7508795881
 20
25.584560811
 30
0.0
 10
24.4468067267
 20
25.8837869977
 30
0.0
 10
24.1854010379
 20
26.2389899754
 30
0.0
 10
23.9687969637
 20
26.6459872878
 30
0.0
 10
23.7989461395
 20
27.1008992854
 30
0.0
 10
23.631967102
 20
27.7835545163
 30
0.0
 10
23.5887633905
 20
28.3267029145
 30
0.0
 10
23.5887633905
 20
28.6967093374
 30
0.0
  0
SPLINE
  5
36D
100
AcDbEntity
  8
0
100
AcDbSpline
 62
7
  6
CONTINUOUS
 70
0
 71
3
 72
17
 73
13
 74
0
 42
0.0000001
 43
0.0000001
 44
0.0000000001
 40
0.0
 40
0.0
 40
0.0
 40
0.0
 40
0.0428567682
 40
0.0874846361
 40
0.1353115866
 40
0.1872772446
 40
0.3045367808
 40
0.4381985211
 40
0.5825369695
 40
0.729684371
 40
0.8713138527
 40
1.0
 40
1.0
 40
1.0
 40
1.0
 10
29.256817031
 20
32.5464801205
 30
0.0
 10
29.2321656694
 20
32.5607128727
 30
0.0
 10
29.1778428596
 20
32.5833509266
 30
0.0
 10
29.0881327868
 20
32.5964347597
 30
0.0
 10
28.9918010103
 20
32.5894039048
 30
0.0
 10
28.8518432773
 20
32.5521100705
 30
0.0
 10
28.672904166
 20
32.4543137994
 30
0.0
 10
28.4752114749
 20
32.2792334731
 30
0.0
 10
28.3004765456
 20
32.0555672925
 30
0.0
 10
28.1629057055
 20
31.8013655174
 30
0.0
 10
28.073673928
 20
31.5374562158
 30
0.0
 10
28.0497422164
 20
31.3577134758
 30
0.0
 10
28.0497422164
 20
31.2722412895
 30
0.0
  0
SPLINE
  5
36E
100
AcDbEntity
  8
0
100
AcDbSpline
 62
7
  6
CONTINUOUS
 70
0
 71
3
 72
9
 73
5
 74
0
 42
0.0000001
 43
0.0000001
 44
0.0000000001
 40
0.0
 40
0.0
 40
0.0
 40
0.0
 40
0.2749202354
 40
1.0
 40
1.0
 40
1.0
 40
1.0
 10
27.9726883524
 20
76.7475875632
 30
0.0
 10
27.9726883524
 20
76.8833675268
 30
0.0
 10
27.9955609556
 20
77.3758356893
 30
0.0
 10
28.120502985
 20
77.8719464868
 30
0.0
 10
28.2920964158
 20
78.1862671398
 30
0.0
  0
SPLINE
  5
36F
100
AcDbEntity
  8
0
100
AcDbSpline
 62
7
  6
CONTINUOUS
 70
0
 71
3
 72
9
 73
5
 74
0
 42
0.0000001
 43
0.0000001
 44
0.0000000001
 40
0.0
 40
0.0
 40
0.0
 40
0.0
 40
0.2563221079
 40
1.0
 40
1.0
 40
1.0
 40
1.0
 10
28.2920964158
 20
78.1862671398
 30
0.0
 10
28.3086064984
 20
78.2165099055
 30
0.0
 10
28.3759379584
 20
78.3328640618
 30
0.0
 10
28.4553324358
 20
78.4423591834
 30
0.0
 10
28.5208929281
 20
78.5178275612
 30
0.0
  0
SPLINE
  5
370
100
AcDbEntity
  8
0
100
AcDbSpline
 62
7
  6
CONTINUOUS
 70
0
 71
3
 72
15
 73
11
 74
0
 42
0.0000001
 43
0.0000001
 44
0.0000000001
 40
0.0
 40
0.0
 40
0.0
 40
0.0
 40
0.1141533803
 40
0.2373474988
 40
0.3669893762
 40
0.5000116962
 40
0.63303216
 40
0.7626692471
 40
0.8858550183
 40
1.0
 40
1.0
 40
1.0
 40
1.0
 10
31.2248014625
 20
71.1140067837
 30
0.0
 10
31.0021581566
 20
71.2425652873
 30
0.0
 10
30.5624119042
 20
71.5509793733
 30
0.0
 10
29.9573058525
 20
72.1171580413
 30
0.0
 10
29.39974662
 20
72.7864770154
 30
0.0
 10
28.9106060548
 20
73.5336434379
 30
0.0
 10
28.5082112433
 20
74.3308735477
 30
0.0
 10
28.2074561285
 20
75.1483981674
 30
0.0
 10
28.0198024435
 20
75.9555058759
 30
0.0
 10
27.9726883524
 20
76.4905124675
 30
0.0
 10
27.9726883524
 20
76.7475875632
 30
0.0
  0
SPLINE
  5
371
100
AcDbEntity
  8
0
100
AcDbSpline
 62
7
  6
CONTINUOUS
 70
0
 71
3
 72
15
 73
11
 74
0
 42
0.0000001
 43
0.0000001
 44
0.0000000001
 40
0.0
 40
0.0
 40
0.0
 40
0.0
 40
0.1141449817
 40
0.2373307529
 40
0.36696784
 40
0.4999883038
 40
0.6330106238
 40
0.7626525012
 40
0.8858466197
 40
1.0
 40
1.0
 40
1.0
 40
1.0
 10
27.0888085559
 20
76.2372823708
 30
0.0
 10
27.0888085559
 20
75.9802072751
 30
0.0
 10
27.135922647
 20
75.4452006836
 30
0.0
 10
27.323576332
 20
74.638092975
 30
0.0
 10
27.6243314468
 20
73.8205683554
 30
0.0
 10
28.0267262583
 20
73.0233382456
 30
0.0
 10
28.5158668235
 20
72.2761718231
 30
0.0
 10
29.073426056
 20
71.606852849
 30
0.0
 10
29.6785321077
 20
71.0406741809
 30
0.0
 10
30.1182783601
 20
70.7322600949
 30
0.0
 10
30.340921666
 20
70.6037015914
 30
0.0
  0
SPLINE
  5
372
100
AcDbEntity
  8
0
100
AcDbSpline
 62
7
  6
CONTINUOUS
 70
0
 71
3
 72
13
 73
9
 74
0
 42
0.0000001
 43
0.0000001
 44
0.0000000001
 40
0.0
 40
0.0
 40
0.0
 40
0.0
 40
0.2893919532
 40
0.5483370463
 40
0.6677638613
 40
0.7817828843
 40
0.8919144285
 40
1.0
 40
1.0
 40
1.0
 40
1.0
 10
31.8961829986
 20
69.7058731641
 30
0.0
 10
32.0981720667
 20
69.5892144764
 30
0.0
 10
32.4996013862
 20
69.3979041064
 30
0.0
 10
33.0281959653
 20
69.2703854754
 30
0.0
 10
33.4260479724
 20
69.2564918536
 30
0.0
 10
33.7023608844
 20
69.2873129608
 30
0.0
 10
33.9615961015
 20
69.3588784167
 30
0.0
 10
34.121777915
 20
69.4339341922
 30
0.0
 10
34.1972258349
 20
69.4774938037
 30
0.0
  0
SPLINE
  5
373
100
AcDbEntity
  8
0
100
AcDbSpline
 62
7
  6
CONTINUOUS
 70
0
 71
3
 72
9
 73
5
 74
0
 42
0.0000001
 43
0.0000001
 44
0.0000000001
 40
0.0
 40
0.0
 40
0.0
 40
0.0
 40
0.238454255
 40
1.0
 40
1.0
 40
1.0
 40
1.0
 10
34.3267061007
 20
72.3394538437
 30
0.0
 10
34.2816990601
 20
72.3409297417
 30
0.0
 10
34.093225619
 20
72.3549656599
 30
0.0
 10
33.907525933
 20
72.3986041727
 30
0.0
 10
33.7710109541
 20
72.4438420955
 30
0.0
  0
SPLINE
  5
374
100
AcDbEntity
  8
0
100
AcDbSpline
 62
7
  6
CONTINUOUS
 70
0
 71
3
 72
11
 73
7
 74
0
 42
0.0000001
 43
0.0000001
 44
0.0000000001
 40
0.0
 40
0.0
 40
0.0
 40
0.0
 40
0.2177231375
 40
0.4508717887
 40
0.7104673698
 40
1.0
 40
1.0
 40
1.0
 40
1.0
 10
49.3639273338
 20
52.5128385477
 30
0.0
 10
49.3309494781
 20
52.5318761997
 30
0.0
 10
49.2691945391
 20
52.5836990421
 30
0.0
 10
49.2034779177
 20
52.6911731695
 30
0.0
 10
49.164526217
 20
52.8235910835
 30
0.0
 10
49.1567932292
 20
52.9199492777
 30
0.0
 10
49.1567932292
 20
52.9705868193
 30
0.0
  0
SPLINE
  5
375
100
AcDbEntity
  8
0
100
AcDbSpline
 62
7
  6
CONTINUOUS
 70
0
 71
3
 72
11
 73
7
 74
0
 42
0.0000001
 43
0.0000001
 44
0.0000000001
 40
0.0
 40
0.0
 40
0.0
 40
0.0
 40
0.2974911722
 40
0.5606157222
 40
0.7905690735
 40
1.0
 40
1.0
 40
1.0
 40
1.0
 10
21.7364400088
 20
23.2335787524
 30
0.0
 10
21.764948088
 20
23.2552305874
 30
0.0
 10
21.8222651877
 20
23.2917018262
 30
0.0
 10
21.9124373772
 20
23.3248277309
 30
0.0
 10
21.9982733842
 20
23.3305885178
 30
0.0
 10
22.0501776321
 20
23.3138367115
 30
0.0
 10
22.0720088991
 20
23.3012463754
 30
0.0
  0
SPLINE
  5
376
100
AcDbEntity
  8
0
100
AcDbSpline
 62
7
  6
CONTINUOUS
 70
0
 71
3
 72
11
 73
7
 74
0
 42
0.0000001
 43
0.0000001
 44
0.0000000001
 40
0.0
 40
0.0
 40
0.0
 40
0.0
 40
0.2209528987
 40
0.4592231067
 40
0.7186423835
 40
1.0
 40
1.0
 40
1.0
 40
1.0
 10
34.58787563
 20
69.8052366083
 30
0.0
 10
34.4511905241
 20
69.7787363731
 30
0.0
 10
34.1596367898
 20
69.7584698437
 30
0.0
 10
33.7086281953
 20
69.821838141
 30
0.0
 10
33.2399148621
 20
69.9746616728
 30
0.0
 10
32.9339042827
 20
70.1273273636
 30
0.0
 10
32.7803768674
 20
70.2159970474
 30
0.0
  0
SPLINE
  5
377
100
AcDbEntity
  8
0
100
AcDbSpline
 62
7
  6
CONTINUOUS
 70
0
 71
3
 72
17
 73
13
 74
0
 42
0.0000001
 43
0.0000001
 44
0.0000000001
 40
0.0
 40
0.0
 40
0.0
 40
0.0
 40
0.1286849204
 40
0.270303802
 40
0.4174438806
 40
0.5617821443
 40
0.6954492858
 40
0.8127130378
 40
0.8646795618
 40
0.9125091497
 40
0.9571393989
 40
1.0
 40
1.0
 40
1.0
 40
1.0
 10
62.4503453688
 20
85.7938513597
 30
0.0
 10
62.4503453688
 20
85.8793227357
 30
0.0
 10
62.4742748152
 20
86.0590578045
 30
0.0
 10
62.563500913
 20
86.3229552741
 30
0.0
 10
62.7010586921
 20
86.5771501747
 30
0.0
 10
62.875788866
 20
86.8008187577
 30
0.0
 10
63.0734821427
 20
86.9759067947
 30
0.0
 10
63.2524241418
 20
87.073714646
 30
0.0
 10
63.3923870334
 20
87.1110076919
 30
0.0
 10
63.4887221396
 20
87.1180463145
 30
0.0
 10
63.5784385673
 20
87.1049607304
 30
0.0
 10
63.632764562
 20
87.0823205637
 30
0.0
 10
63.6574189386
 20
87.068087939
 30
0.0
  0
SPLINE
  5
378
100
AcDbEntity
  8
0
100
AcDbSpline
 62
7
  6
CONTINUOUS
 70
0
 71
3
 72
11
 73
7
 74
0
 42
0.0000001
 43
0.0000001
 44
0.0000000001
 40
0.0
 40
0.0
 40
0.0
 40
0.0
 40
0.2398349702
 40
0.4929064004
 40
0.7496548898
 40
1.0
 40
1.0
 40
1.0
 40
1.0
 10
32.7103463664
 20
18.6771422465
 30
0.0
 10
32.5001851645
 20
18.8501674231
 30
0.0
 10
32.0998006649
 20
19.2450589257
 30
0.0
 10
31.5875437006
 20
19.9278483396
 30
0.0
 10
31.1689846854
 20
20.6853698714
 30
0.0
 10
30.9630512413
 20
21.2254953555
 30
0.0
 10
30.8831424578
 20
21.4981806964
 30
0.0
  0
SPLINE
  5
379
100
AcDbEntity
  8
0
100
AcDbSpline
 62
7
  6
CONTINUOUS
 70
0
 71
3
 72
17
 73
13
 74
0
 42
0.0000001
 43
0.0000001
 44
0.0000000001
 40
0.0
 40
0.0
 40
0.0
 40
0.0
 40
0.1286849204
 40
0.270303802
 40
0.4174438806
 40
0.5617821443
 40
0.6954492858
 40
0.8127130378
 40
0.8646795618
 40
0.9125091497
 40
0.9571393989
 40
1.0
 40
1.0
 40
1.0
 40
1.0
 10
41.3079406361
 20
66.8920313385
 30
0.0
 10
41.3079406361
 20
66.9775027145
 30
0.0
 10
41.3318700825
 20
67.1572377833
 30
0.0
 10
41.4210961803
 20
67.4211352529
 30
0.0
 10
41.5586539594
 20
67.6753301535
 30
0.0
 10
41.7333841334
 20
67.8989987364
 30
0.0
 10
41.93107741
 20
68.0740867735
 30
0.0
 10
42.1100194092
 20
68.1718946248
 30
0.0
 10
42.2499823007
 20
68.2091876707
 30
0.0
 10
42.3463174069
 20
68.2162262932
 30
0.0
 10
42.4360338346
 20
68.2031407092
 30
0.0
 10
42.4903598293
 20
68.1805005425
 30
0.0
 10
42.5150142059
 20
68.1662679178
 30
0.0
  0
SPLINE
  5
37A
100
AcDbEntity
  8
0
100
AcDbSpline
 62
7
  6
CONTINUOUS
 70
0
 71
3
 72
9
 73
5
 74
0
 42
0.0000001
 43
0.0000001
 44
0.0000000001
 40
0.0
 40
0.0
 40
0.0
 40
0.0
 40
0.2383202122
 40
1.0
 40
1.0
 40
1.0
 40
1.0
 10
22.9437929013
 20
23.1370880889
 30
0.0
 10
22.9425412458
 20
23.1455276736
 30
0.0
 10
22.938413402
 20
23.1811051878
 30
0.0
 10
22.9385483046
 20
23.2171175628
 30
0.0
 10
22.9405225425
 20
23.2443142373
 30
0.0
  0
SPLINE
  5
37B
100
AcDbEntity
  8
0
100
AcDbSpline
 62
7
  6
CONTINUOUS
 70
0
 71
3
 72
13
 73
9
 74
0
 42
0.0000001
 43
0.0000001
 44
0.0000000001
 40
0.0
 40
0.0
 40
0.0
 40
0.0
 40
0.1261323095
 40
0.2622302842
 40
0.5418790344
 40
0.6755804597
 40
0.7984863837
 40
1.0
 40
1.0
 40
1.0
 40
1.0
 10
22.9405225425
 20
23.2443142373
 30
0.0
 10
22.9434141446
 20
23.2841483222
 30
0.0
 10
22.9578533786
 20
23.3664577046
 30
0.0
 10
23.0136971039
 20
23.5291457224
 30
0.0
 10
23.1048766367
 20
23.6805291482
 30
0.0
 10
23.2222126598
 20
23.8043670428
 30
0.0
 10
23.3373548564
 20
23.8921996178
 30
0.0
 10
23.4397764603
 20
23.9305580999
 30
0.0
 10
23.5035810583
 20
23.9299134586
 30
0.0
  0
SPLINE
  5
37C
100
AcDbEntity
  8
0
100
AcDbSpline
 62
7
  6
CONTINUOUS
 70
0
 71
3
 72
17
 73
13
 74
0
 42
0.0000001
 43
0.0000001
 44
0.0000000001
 40
0.0
 40
0.0
 40
0.0
 40
0.0
 40
0.1449415706
 40
0.2936270338
 40
0.44008494
 40
0.5786415998
 40
0.7046759231
 40
0.8155861111
 40
0.8655622433
 40
0.9123710135
 40
0.9568184957
 40
1.0
 40
1.0
 40
1.0
 40
1.0
 10
29.6431584179
 20
20.7924826294
 30
0.0
 10
29.723549713
 20
20.5164119612
 30
0.0
 10
29.9316755612
 20
19.9695953438
 30
0.0
 10
30.3559441278
 20
19.2035035394
 30
0.0
 10
30.8760018137
 20
18.5143125301
 30
0.0
 10
31.4619680945
 20
17.9420345934
 30
0.0
 10
32.0804520441
 20
17.5194163488
 30
0.0
 10
32.6154257276
 20
17.3051698291
 30
0.0
 10
33.024118262
 20
17.2412120068
 30
0.0
 10
33.3058260365
 20
17.2452534018
 30
0.0
 10
33.5685732909
 20
17.3001204239
 30
0.0
 10
33.7290331717
 20
17.3709498846
 30
0.0
 10
33.8032281739
 20
17.4137687012
 30
0.0
  0
SPLINE
  5
37D
100
AcDbEntity
  8
0
100
AcDbSpline
 62
7
  6
CONTINUOUS
 70
0
 71
3
 72
17
 73
13
 74
0
 42
0.0000001
 43
0.0000001
 44
0.0000000001
 40
0.0
 40
0.0
 40
0.0
 40
0.0
 40
0.1286849204
 40
0.270303802
 40
0.4174438806
 40
0.5617821443
 40
0.6954492858
 40
0.8127130378
 40
0.8646795618
 40
0.9125091497
 40
0.9571393989
 40
1.0
 40
1.0
 40
1.0
 40
1.0
 10
49.1567932292
 20
52.9705868193
 30
0.0
 10
49.1567932292
 20
53.0560581953
 30
0.0
 10
49.1807226756
 20
53.2357932642
 30
0.0
 10
49.2699487733
 20
53.4996907337
 30
0.0
 10
49.4075065525
 20
53.7538856343
 30
0.0
 10
49.5822367264
 20
53.9775542173
 30
0.0
 10
49.7799300031
 20
54.1526422543
 30
0.0
 10
49.9588720022
 20
54.2504501057
 30
0.0
 10
50.0988348938
 20
54.2877431515
 30
0.0
 10
50.19517
 20
54.2947817741
 30
0.0
 10
50.2848864277
 20
54.28169619
 30
0.0
 10
50.3392124224
 20
54.2590560233
 30
0.0
 10
50.363866799
 20
54.2448233987
 30
0.0
  0
SPLINE
  5
37E
100
AcDbEntity
  8
0
100
AcDbSpline
 62
7
  6
CONTINUOUS
 70
0
 71
3
 72
9
 73
5
 74
0
 42
0.0000001
 43
0.0000001
 44
0.0000000001
 40
0.0
 40
0.0
 40
0.0
 40
0.0
 40
0.2375709498
 40
1.0
 40
1.0
 40
1.0
 40
1.0
 10
23.1829949538
 20
25.1520681502
 30
0.0
 10
23.1840993772
 20
25.1672824468
 30
0.0
 10
23.1912341795
 20
25.2311405139
 30
0.0
 10
23.2077205306
 20
25.2937694771
 30
0.0
 10
23.2239437379
 20
25.3399584756
 30
0.0
  0
SPLINE
  5
37F
100
AcDbEntity
  8
0
100
AcDbSpline
 62
7
  6
CONTINUOUS
 70
0
 71
3
 72
11
 73
7
 74
0
 42
0.0000001
 43
0.0000001
 44
0.0000000001
 40
0.0
 40
0.0
 40
0.0
 40
0.0
 40
0.2177231375
 40
0.4508717887
 40
0.7104673698
 40
1.0
 40
1.0
 40
1.0
 40
1.0
 10
41.5150747407
 20
24.0578076179
 30
0.0
 10
41.482096885
 20
24.0768452699
 30
0.0
 10
41.420341946
 20
24.1286681122
 30
0.0
 10
41.3546253247
 20
24.2361422396
 30
0.0
 10
41.315673624
 20
24.3685601537
 30
0.0
 10
41.3079406361
 20
24.4649183478
 30
0.0
 10
41.3079406361
 20
24.5155558895
 30
0.0
  0
SPLINE
  5
380
100
AcDbEntity
  8
0
100
AcDbSpline
 62
7
  6
CONTINUOUS
 70
0
 71
3
 72
17
 73
13
 74
0
 42
0.0000001
 43
0.0000001
 44
0.0000000001
 40
0.0
 40
0.0
 40
0.0
 40
0.0
 40
0.0428567682
 40
0.0874846361
 40
0.1353115866
 40
0.1872772446
 40
0.3045367808
 40
0.4381985211
 40
0.5825369695
 40
0.729684371
 40
0.8713138527
 40
1.0
 40
1.0
 40
1.0
 40
1.0
 10
63.4806427522
 20
87.1701503793
 30
0.0
 10
63.4559913906
 20
87.1843831315
 30
0.0
 10
63.4016685807
 20
87.2070211854
 30
0.0
 10
63.3119585079
 20
87.2201050185
 30
0.0
 10
63.2156267314
 20
87.2130741636
 30
0.0
 10
63.0756689985
 20
87.1757803293
 30
0.0
 10
62.8967298872
 20
87.0779840582
 30
0.0
 10
62.6990371961
 20
86.9029037319
 30
0.0
 10
62.5243022668
 20
86.6792375513
 30
0.0
 10
62.3867314266
 20
86.4250357762
 30
0.0
 10
62.2974996491
 20
86.1611264746
 30
0.0
 10
62.2735679375
 20
85.9813837346
 30
0.0
 10
62.2735679375
 20
85.8959115483
 30
0.0
  0
SPLINE
  5
381
100
AcDbEntity
  8
0
100
AcDbSpline
 62
7
  6
CONTINUOUS
 70
0
 71
3
 72
9
 73
5
 74
0
 42
0.0000001
 43
0.0000001
 44
0.0000000001
 40
0.0
 40
0.0
 40
0.0
 40
0.0
 40
0.238454255
 40
1.0
 40
1.0
 40
1.0
 40
1.0
 10
34.3267061007
 20
17.9603928629
 30
0.0
 10
34.2816990601
 20
17.9618687609
 30
0.0
 10
34.093225619
 20
17.9759046791
 30
0.0
 10
33.907525933
 20
18.0195431919
 30
0.0
 10
33.7710109541
 20
18.0647811147
 30
0.0
  0
SPLINE
  5
382
100
AcDbEntity
  8
0
100
AcDbSpline
 62
7
  6
CONTINUOUS
 70
0
 71
3
 72
11
 73
7
 74
0
 42
0.0000001
 43
0.0000001
 44
0.0000000001
 40
0.0
 40
0.0
 40
0.0
 40
0.0
 40
0.2177231375
 40
0.4508717887
 40
0.7104673698
 40
1.0
 40
1.0
 40
1.0
 40
1.0
 10
62.6574794734
 20
85.3361030881
 30
0.0
 10
62.6245016177
 20
85.3551407401
 30
0.0
 10
62.5627466787
 20
85.4069635825
 30
0.0
 10
62.4970300573
 20
85.5144377099
 30
0.0
 10
62.4580783567
 20
85.6468556239
 30
0.0
 10
62.4503453688
 20
85.7432138181
 30
0.0
 10
62.4503453688
 20
85.7938513597
 30
0.0
  0
SPLINE
  5
383
100
AcDbEntity
  8
0
100
AcDbSpline
 62
7
  6
CONTINUOUS
 70
0
 71
3
 72
17
 73
13
 74
0
 42
0.0000001
 43
0.0000001
 44
0.0000000001
 40
0.0
 40
0.0
 40
0.0
 40
0.0
 40
0.0428567682
 40
0.0874846361
 40
0.1353115866
 40
0.1872772446
 40
0.3045367808
 40
0.4381985211
 40
0.5825369695
 40
0.729684371
 40
0.8713138527
 40
1.0
 40
1.0
 40
1.0
 40
1.0
 10
50.1870906125
 20
54.3468858389
 30
0.0
 10
50.1624392509
 20
54.3611185911
 30
0.0
 10
50.1081164411
 20
54.383756645
 30
0.0
 10
50.0184063683
 20
54.3968404781
 30
0.0
 10
49.9220745918
 20
54.3898096233
 30
0.0
 10
49.7821168588
 20
54.3525157889
 30
0.0
 10
49.6031777475
 20
54.2547195179
 30
0.0
 10
49.4054850564
 20
54.0796391915
 30
0.0
 10
49.2307501271
 20
53.855973011
 30
0.0
 10
49.093179287
 20
53.6017712358
 30
0.0
 10
49.0039475095
 20
53.3378619343
 30
0.0
 10
48.9800157979
 20
53.1581191942
 30
0.0
 10
48.9800157979
 20
53.072647008
 30
0.0
  0
SPLINE
  5
384
100
AcDbEntity
  8
0
100
AcDbSpline
 62
7
  6
CONTINUOUS
 70
0
 71
3
 72
15
 73
11
 74
0
 42
0.0000001
 43
0.0000001
 44
0.0000000001
 40
0.0
 40
0.0
 40
0.0
 40
0.0
 40
0.1141469224
 40
0.2373360366
 40
0.366976904
 40
0.5000005214
 40
0.6330240662
 40
0.7626647219
 40
0.8858535023
 40
1.0
 40
1.0
 40
1.0
 40
1.0
 10
53.4638484046
 20
93.0978844754
 30
0.0
 10
53.2508714357
 20
93.220844004
 30
0.0
 10
52.7850985267
 20
93.43770245
 30
0.0
 10
52.0266733103
 20
93.6682625687
 30
0.0
 10
51.2055200628
 20
93.8100940076
 30
0.0
 10
50.3525733204
 20
93.8580034004
 30
0.0
 10
49.49962726
 20
93.8100899593
 30
0.0
 10
48.6784760268
 20
93.6682546215
 30
0.0
 10
47.9200540756
 20
93.4376908975
 30
0.0
 10
47.4542840201
 20
93.2208301252
 30
0.0
 10
47.2413087302
 20
93.0978695182
 30
0.0
  0
SPLINE
  5
385
100
AcDbEntity
  8
0
100
AcDbSpline
 62
7
  6
CONTINUOUS
 70
0
 71
3
 72
11
 73
7
 74
0
 42
0.0000001
 43
0.0000001
 44
0.0000000001
 40
0.0
 40
0.0
 40
0.0
 40
0.0
 40
0.2177231375
 40
0.4508717887
 40
0.7104673698
 40
1.0
 40
1.0
 40
1.0
 40
1.0
 10
41.5150747407
 20
66.4342830669
 30
0.0
 10
41.482096885
 20
66.4533207189
 30
0.0
 10
41.420341946
 20
66.5051435613
 30
0.0
 10
41.3546253247
 20
66.6126176887
 30
0.0
 10
41.315673624
 20
66.7450356027
 30
0.0
 10
41.3079406361
 20
66.8413937968
 30
0.0
 10
41.3079406361
 20
66.8920313385
 30
0.0
  0
SPLINE
  5
386
100
AcDbEntity
  8
0
100
AcDbSpline
 62
7
  6
CONTINUOUS
 70
0
 71
3
 72
17
 73
13
 74
0
 42
0.0000001
 43
0.0000001
 44
0.0000000001
 40
0.0
 40
0.0
 40
0.0
 40
0.0
 40
0.1286849204
 40
0.270303802
 40
0.4174438806
 40
0.5617821443
 40
0.6954492858
 40
0.8127130378
 40
0.8646795618
 40
0.9125091497
 40
0.9571393989
 40
1.0
 40
1.0
 40
1.0
 40
1.0
 10
28.2265196477
 20
31.1701811009
 30
0.0
 10
28.2265196477
 20
31.2556524769
 30
0.0
 10
28.250449094
 20
31.4353875457
 30
0.0
 10
28.3396751918
 20
31.6992850153
 30
0.0
 10
28.477232971
 20
31.9534799159
 30
0.0
 10
28.6519631449
 20
32.1771484988
 30
0.0
 10
28.8496564215
 20
32.3522365359
 30
0.0
 10
29.0285984207
 20
32.4500443872
 30
0.0
 10
29.1685613123
 20
32.4873374331
 30
0.0
 10
29.2648964184
 20
32.4943760556
 30
0.0
 10
29.3546128462
 20
32.4812904716
 30
0.0
 10
29.4089388408
 20
32.4586503049
 30
0.0
 10
29.4335932175
 20
32.4444176802
 30
0.0
  0
SPLINE
  5
387
100
AcDbEntity
  8
0
100
AcDbSpline
 62
7
  6
CONTINUOUS
 70
0
 71
3
 72
12
 73
8
 74
0
 42
0.0000001
 43
0.0000001
 44
0.0000000001
 40
0.0
 40
0.0
 40
0.0
 40
0.0
 40
0.1081717458
 40
0.2183611242
 40
0.4513645924
 40
0.7104213731
 40
1.0
 40
1.0
 40
1.0
 40
1.0
 10
28.0415547838
 20
78.3431678627
 30
0.0
 10
27.9661227315
 20
78.29962585
 30
0.0
 10
27.8211239395
 20
78.198404638
 30
0.0
 10
27.5609939932
 20
77.9425418671
 30
0.0
 10
27.3033911769
 20
77.5225327473
 30
0.0
 10
27.1241409436
 20
76.913771833
 30
0.0
 10
27.0888085559
 20
76.4704435601
 30
0.0
 10
27.0888085559
 20
76.2372823708
 30
0.0
  0
SPLINE
  5
388
100
AcDbEntity
  8
0
100
AcDbSpline
 62
7
  6
CONTINUOUS
 70
0
 71
3
 72
17
 73
13
 74
0
 42
0.0000001
 43
0.0000001
 44
0.0000000001
 40
0.0
 40
0.0
 40
0.0
 40
0.0
 40
0.1286849204
 40
0.270303802
 40
0.4174438806
 40
0.5617821443
 40
0.6954492858
 40
0.8127130378
 40
0.8646795618
 40
0.9125091497
 40
0.9571393989
 40
1.0
 40
1.0
 40
1.0
 40
1.0
 10
41.3079406361
 20
24.5155558895
 30
0.0
 10
41.3079406361
 20
24.6010272654
 30
0.0
 10
41.3318700825
 20
24.7807623343
 30
0.0
 10
41.4210961803
 20
25.0446598039
 30
0.0
 10
41.5586539594
 20
25.2988547044
 30
0.0
 10
41.7333841334
 20
25.5225232874
 30
0.0
 10
41.93107741
 20
25.6976113244
 30
0.0
 10
42.1100194092
 20
25.7954191758
 30
0.0
 10
42.2499823007
 20
25.8327122217
 30
0.0
 10
42.3463174069
 20
25.8397508442
 30
0.0
 10
42.4360338346
 20
25.8266652601
 30
0.0
 10
42.4903598293
 20
25.8040250935
 30
0.0
 10
42.5150142059
 20
25.7897924688
 30
0.0
  0
ENDSEC
  0
SECTION
  2
OBJECTS
  0
DICTIONARY
  5
C
100
AcDbDictionary
280
0
281
1
  3
ACAD_GROUP
350
D
  3
ACAD_MLINESTYLE
350
17
  3
ACAD_LAYOUT
350
1A
  3
ACAD_PLOTSETTINGS
350
19
  3
ACAD_PLOTSTYLENAME
350
E
  0
DICTIONARY
  5
D
102
{ACAD_REACTORS
330
C
102
}
100
AcDbDictionary
280
0
281
1
  0
ACDBDICTIONARYWDFLT
  5
E
102
{ACAD_REACTORS
330
C
102
}
100
AcDbDictionary
281
1
  3
Normal
350
F
100
AcDbDictionaryWithDefault
340
F
  0
DICTIONARY
  5
17
102
{ACAD_REACTORS
330
C
102
}
100
AcDbDictionary
280
0
281
1
  3
Standard
350
18
  0
DICTIONARY
  5
19
102
{ACAD_REACTORS
330
C
102
}
100
AcDbDictionary
281
1
  0
DICTIONARY
  5
1A
102
{ACAD_REACTORS
330
C
102
}
100
AcDbDictionary
281
1
  3
Model
350
389
  3
Layout1
350
38A
  0
ACDBPLACEHOLDER
  5
F
102
{ACAD_REACTORS
330
E
102
}
  0
MLINESTYLE
  5
18
102
{ACAD_REACTORS
330
17
102
}
100
AcDbMlineStyle
  2
STANDARD
 70
0
  3

 62
256
 51
90.0
 52
90.0
 71
2
 49
0.5
 62
256
  6
BYLAYER
 49
-0.5
 62
256
  6
BYLAYER
  0
LAYOUT
  5
389
102
{ACAD_REACTORS
330
1A
102
}
100
AcDbPlotSettings
  1

  2
none_device
  4

  6

 40
0.0
 41
0.0
 42
0.0
 43
0.0
 44
210.0
 45
297.0
 46
0.0
 47
0.0
 48
0.0
 49
0.0
140
0.0
141
0.0
142
1.0
143
1.0
 70
1024
 72
1
 73
0
 74
0
  7

 75
0
147
1.0
148
0.0
149
0.0
100
AcDbLayout
  1
Model
 70
0
 71
0
 10
0.0
 20
0.0
 11
210.0
 21
297.0
 12
0.0
 22
0.0
 32
0.0
 14
0.0
 24
0.0
 34
0.0
 15
0.0
 25
0.0
 35
0.0
146
0.0
 13
0.0
 23
0.0
 33
0.0
 16
1.0
 26
0.0
 36
0.0
 17
0.0
 27
1.0
 37
0.0
 76
0
330
210
345
0
346
0
  0
LAYOUT
  5
38A
102
{ACAD_REACTORS
330
1A
102
}
100
AcDbPlotSettings
  1

  2
none_device
  4

  6

 40
0.0
 41
0.0
 42
0.0
 43
0.0
 44
210.0
 45
297.0
 46
0.0
 47
0.0
 48
0.0
 49
0.0
140
0.0
141
0.0
142
1.0
143
1.0
 70
0
 72
1
 73
0
 74
0
  7

 75
0
147
1.0
148
0.0
149
0.0
100
AcDbLayout
  1
Layout1
 70
0
 71
1
 10
0.0
 20
0.0
 11
210.0
 21
297.0
 12
0.0
 22
0.0
 32
0.0
 14
0.0
 24
0.0
 34
0.0
 15
0.0
 25
0.0
 35
0.0
146
0.0
 13
0.0
 23
0.0
 33
0.0
 16
1.0
 26
0.0
 36
0.0
 17
0.0
 27
1.0
 37
0.0
 76
0
330
211
345
0
346
0
  0
ENDSEC
  0
EOF
